999
DXF file: C:\Users\sesa63760\Dev\_Creo\CAD\MCADID0000880_3D-CAD\drw0001_3.dxf
999
Pro/ENGINEER 2019471 by Parametric Technology Corporation
  0
SECTION
  2
HEADER
  9
$ACADVER
  1
AC1024
  9
$DWGCODEPAGE
  3
ANSI_1252
  9
$EXTMAX
 10
227.9737786173
 20
322.4200583302
 30
0.0
  9
$EXTMIN
 10
0.0
 20
0.0
 30
0.0
  9
$LIMMIN
 10
0.0
 20
0.0
  9
$LIMMAX
 10
227.9737786173
 20
322.4200583302
  9
$VIEWCTR
 10
113.9868893087
 20
161.2100291651
  9
$VIEWSIZE
 40
322.4200583302
  9
$CLAYER
  8
0
  9
$LTSCALE
 40
21.0170112097
  9
$CELTYPE
  6
BYLAYER
  9
$DIMSCALE
 40
1.0
  9
$DIMASZ
 40
2.713973555
  9
$DIMEXO
 40
1.0
  9
$DIMDLI
 40
14.5208441085
  9
$DIMEXE
 40
1.0
  9
$DIMCEN
 40
3.4391472889
  9
$DIMLFAC
 40
1.0
  9
$DIMBLK
  1
_FILLED
  9
$DIMALT
 70
0
  9
$DIMALTF
 40
0.0393700787
  9
$DIMTXT
 40
3.799562977
  9
$DIMTOL
 70
1
  9
$DIMLIM
 70
0
  9
$DIMTFAC
 40
1.0
  9
$DIMTP
 40
0.01
  9
$DIMTM
 40
0.01
  9
$DIMGAP
 40
0.625
  9
$DIMDSEP
 70
46
  9
$AUNITS
 70
0
  9
$PDMODE
 70
3
  9
$PDSIZE
 40
0.3125
  9
$HANDSEED
  5
525
  9
$TILEMODE
 70
1
  9
$MEASUREMENT
 70
1
  9
$INSUNITS
 70
4
  0
ENDSEC
  0
SECTION
  2
CLASSES
  0
CLASS
  1
ACDBDICTIONARYWDFLT
  2
AcDbDictionaryWithDefault
  3
AutoCAD 2000
 90
0
 91
1
280
0
281
0
  0
CLASS
  1
ACDBPLACEHOLDER
  2
AcDbPlaceHolder
  3
AutoCAD 2000
 90
0
 91
1
280
0
281
0
  0
CLASS
  1
LAYOUT
  2
AcDbLayout
  3
AutoCAD 2000
 90
0
 91
0
280
0
281
0
  0
ENDSEC
  0
SECTION
  2
TABLES
  0
TABLE
  2
VPORT
  5
8
100
AcDbSymbolTable
 70
2
  0
VPORT
  5
1F4
100
AcDbSymbolTableRecord
100
AcDbViewportTableRecord
  2
*ACTIVE
 70
0
 10
0.0
 20
0.0
 11
1.0
 21
1.0
 12
113.9868893087
 22
161.2100291651
 13
0.0
 23
0.0
 14
1.0
 24
1.0
 15
0.0
 25
0.0
 16
0.0
 26
0.0
 36
1.0
 17
0.0
 27
0.0
 37
0.0
 40
322.4200583302
 41
0.7070707071
 42
50.0
 43
0.0
 44
0.0
 50
0.0
 51
0.0
 71
0
 72
100
 73
1
 74
1
 75
0
 76
0
 77
0
 78
0
  0
ENDTAB
  0
TABLE
  2
LTYPE
  5
5
100
AcDbSymbolTable
 70
6
  0
LTYPE
  5
14
100
AcDbSymbolTableRecord
100
AcDbLinetypeTableRecord
  2
BYBLOCK
 70
0
  3

 72
65
 73
0
 40
0.0
  0
LTYPE
  5
15
100
AcDbSymbolTableRecord
100
AcDbLinetypeTableRecord
  2
BYLAYER
 70
0
  3

 72
65
 73
0
 40
0.0
  0
LTYPE
  5
16
100
AcDbSymbolTableRecord
100
AcDbLinetypeTableRecord
  2
CONTINUOUS
 70
64
  3
Solid line
 72
65
 73
0
 40
0.0
  0
LTYPE
  5
1F5
100
AcDbSymbolTableRecord
100
AcDbLinetypeTableRecord
  2
CENTER
 70
64
  3
____ _ ____ _ ____ _ ____ _ ____ _ ____ _ ____
 72
65
 73
4
 40
0.6
 49
0.375
 74
0
 49
-0.075
 74
0
 49
0.075
 74
0
 49
-0.075
 74
0
  0
LTYPE
  5
1F6
100
AcDbSymbolTableRecord
100
AcDbLinetypeTableRecord
  2
HIDDEN
 70
64
  3
- - - - - - - - - - - - - - - - - - - -
 72
65
 73
2
 40
0.2
 49
0.1
 74
0
 49
-0.1
 74
0
  0
LTYPE
  5
1F7
100
AcDbSymbolTableRecord
100
AcDbLinetypeTableRecord
  2
PHANTOM
 70
64
  3
_____ _ _ _____ _ _ _____ _ _ _____
 72
65
 73
6
 40
0.8
 49
0.45
 74
0
 49
-0.05
 74
0
 49
0.1
 74
0
 49
-0.05
 74
0
 49
0.1
 74
0
 49
-0.05
 74
0
  0
LTYPE
  5
1F8
100
AcDbSymbolTableRecord
100
AcDbLinetypeTableRecord
  2
DOT
 70
64
  3
. . . . . . . . . . . . . . . . . . . .
 72
65
 73
2
 40
0.2
 49
0.1
 74
0
 49
-0.1
 74
0
  0
LTYPE
  5
1F9
100
AcDbSymbolTableRecord
100
AcDbLinetypeTableRecord
  2
DASHED
 70
64
  3
- - - - - - - - - - - - - - - - - - - -
 72
65
 73
2
 40
0.2
 49
0.1
 74
0
 49
-0.1
 74
0
  0
ENDTAB
  0
TABLE
  2
LAYER
  5
2
100
AcDbSymbolTable
 70
36
  0
LAYER
  5
10
100
AcDbSymbolTableRecord
100
AcDbLayerTableRecord
  2
0
 70
0
 62
7
  6
CONTINUOUS
370
-3
390
F
  0
LAYER
  5
1FA
100
AcDbSymbolTableRecord
100
AcDbLayerTableRecord
  2
DEFAULT_1
 70
0
 62
7
  6
CENTER
370
-3
390
F
  0
LAYER
  5
1FB
100
AcDbSymbolTableRecord
100
AcDbLayerTableRecord
  2
DEFAULT_2
 70
0
 62
8
  6
HIDDEN
370
-3
390
F
  0
LAYER
  5
1FC
100
AcDbSymbolTableRecord
100
AcDbLayerTableRecord
  2
DEFAULT_3
 70
0
 62
7
  6
PHANTOM
370
-3
390
F
  0
LAYER
  5
1FD
100
AcDbSymbolTableRecord
100
AcDbLayerTableRecord
  2
00_COMPONENTS
 70
0
 62
7
  6
CONTINUOUS
370
-3
390
F
  0
LAYER
  5
1FE
100
AcDbSymbolTableRecord
100
AcDbLayerTableRecord
  2
01_1_DEFAULT_DATUMS
 70
0
 62
7
  6
CONTINUOUS
370
-3
390
F
  0
LAYER
  5
1FF
100
AcDbSymbolTableRecord
100
AcDbLayerTableRecord
  2
01_PLANES
 70
0
 62
7
  6
CONTINUOUS
370
-3
390
F
  0
LAYER
  5
200
100
AcDbSymbolTableRecord
100
AcDbLayerTableRecord
  2
02_COORD_SYS
 70
0
 62
7
  6
CONTINUOUS
370
-3
390
F
  0
LAYER
  5
201
100
AcDbSymbolTableRecord
100
AcDbLayerTableRecord
  2
03_AXES
 70
0
 62
7
  6
CONTINUOUS
370
-3
390
F
  0
LAYER
  5
202
100
AcDbSymbolTableRecord
100
AcDbLayerTableRecord
  2
04_POINTS
 70
0
 62
7
  6
CONTINUOUS
370
-3
390
F
  0
LAYER
  5
203
100
AcDbSymbolTableRecord
100
AcDbLayerTableRecord
  2
05_CURVES
 70
0
 62
7
  6
CONTINUOUS
370
-3
390
F
  0
LAYER
  5
204
100
AcDbSymbolTableRecord
100
AcDbLayerTableRecord
  2
06_SURFS
 70
0
 62
7
  6
CONTINUOUS
370
-3
390
F
  0
LAYER
  5
205
100
AcDbSymbolTableRecord
100
AcDbLayerTableRecord
  2
07_COSMETICS
 70
0
 62
7
  6
CONTINUOUS
370
-3
390
F
  0
LAYER
  5
206
100
AcDbSymbolTableRecord
100
AcDbLayerTableRecord
  2
10_NOTES
 70
0
 62
7
  6
CONTINUOUS
370
-3
390
F
  0
LAYER
  5
207
100
AcDbSymbolTableRecord
100
AcDbLayerTableRecord
  2
11_NOTES_PUB
 70
0
 62
7
  6
CONTINUOUS
370
-3
390
F
  0
LAYER
  5
208
100
AcDbSymbolTableRecord
100
AcDbLayerTableRecord
  2
13_REF_GTOL
 70
0
 62
7
  6
CONTINUOUS
370
-3
390
F
  0
LAYER
  5
209
100
AcDbSymbolTableRecord
100
AcDbLayerTableRecord
  2
16_MISC
 70
0
 62
7
  6
CONTINUOUS
370
-3
390
F
  0
LAYER
  5
20A
100
AcDbSymbolTableRecord
100
AcDbLayerTableRecord
  2
17_NO_PRINT
 70
0
 62
7
  6
CONTINUOUS
370
-3
390
F
  0
LAYER
  5
20B
100
AcDbSymbolTableRecord
100
AcDbLayerTableRecord
  2
18_DATUM_CAMS_JOINTS
 70
0
 62
7
  6
CONTINUOUS
370
-3
390
F
  0
LAYER
  5
20C
100
AcDbSymbolTableRecord
100
AcDbLayerTableRecord
  2
19_DATUM_FUNCTIONAL
 70
0
 62
7
  6
CONTINUOUS
370
-3
390
F
  0
LAYER
  5
20D
100
AcDbSymbolTableRecord
100
AcDbLayerTableRecord
  2
20_DATUM_KINEMATIC_SCHEME
 70
0
 62
7
  6
CONTINUOUS
370
-3
390
F
  0
ENDTAB
  0
TABLE
  2
STYLE
  5
3
100
AcDbSymbolTable
 70
1
  0
STYLE
  5
11
100
AcDbSymbolTableRecord
100
AcDbTextStyleTableRecord
  2
STANDARD
 70
0
 40
0.0
 41
0.8
 50
0.0
 71
0
 42
0.2
  3
txt
  4

  0
STYLE
  5
20E
100
AcDbSymbolTableRecord
100
AcDbTextStyleTableRecord
  2
TEXTSTYLE_1
 70
0
 40
0.0
 41
0.8
 50
0.0
 71
0
 42
0.2
  3
gdt
  4

  0
ENDTAB
  0
TABLE
  2
VIEW
  5
6
100
AcDbSymbolTable
 70
0
  0
ENDTAB
  0
TABLE
  2
UCS
  5
7
100
AcDbSymbolTable
 70
0
  0
ENDTAB
  0
TABLE
  2
APPID
  5
9
100
AcDbSymbolTable
 70
1
  0
APPID
  5
20F
100
AcDbSymbolTableRecord
100
AcDbRegAppTableRecord
  2
ACAD
 70
0
  0
ENDTAB
  0
TABLE
  2
BLOCK_RECORD
  5
1
100
AcDbSymbolTable
 70
0
  0
BLOCK_RECORD
  5
210
100
AcDbSymbolTableRecord
100
AcDbBlockTableRecord
  2
*Model_Space
  0
BLOCK_RECORD
  5
211
100
AcDbSymbolTableRecord
100
AcDbBlockTableRecord
  2
*Paper_Space
  0
BLOCK_RECORD
  5
212
100
AcDbSymbolTableRecord
100
AcDbBlockTableRecord
  2
_FILLED
  0
ENDTAB
  0
TABLE
  2
DIMSTYLE
  5
A
100
AcDbSymbolTable
 70
1
100
AcDbDimStyleTable
 71
0
  0
DIMSTYLE
105
213
100
AcDbSymbolTableRecord
100
AcDbDimStyleTableRecord
  2
STANDARD
 70
0
  3

  4

 40
1.0
 41
2.713973555
 42
1.0
 43
0.38
 44
1.0
 45
0.0
 46
0.0
 47
0.01
 48
0.01
140
3.799562977
141
0.09
142
0.0
143
25.4
144
1.0
145
0.0
146
1.0
147
0.625
 71
1
 72
0
 73
0
 74
0
 75
0
 76
0
 77
1
 78
8
 79
2
170
0
171
1
172
0
173
0
174
0
175
0
176
0
177
0
178
0
270
2
179
2
271
2
272
2
273
2
274
2
275
0
280
0
281
0
282
0
283
1
284
8
285
0
286
0
287
3
288
0
340
11
278
46
341
212
342
212
343
212
344
212
  0
ENDTAB
  0
ENDSEC
  0
SECTION
  2
BLOCKS
  0
BLOCK
  5
20
100
AcDbEntity
  8
0
100
AcDbBlockBegin
  2
*Model_Space
 70
0
 10
0.0
 20
0.0
 30
0.0
  3
*Model_Space
  1

  0
ENDBLK
  5
21
100
AcDbEntity
  8
0
100
AcDbBlockEnd
  0
BLOCK
  5
1C
100
AcDbEntity
  8
0
100
AcDbBlockBegin
  2
*Paper_Space
 70
0
 10
0.0
 20
0.0
 30
0.0
  3
*Paper_Space
  1

  0
ENDBLK
  5
1D
100
AcDbEntity
  8
0
100
AcDbBlockEnd
  0
BLOCK
  5
214
100
AcDbEntity
  8
0
100
AcDbBlockBegin
  2
_FILLED
 70
64
 10
0.0
 20
0.0
  3
_FILLED
  1

  0
SOLID
  5
215
100
AcDbEntity
  8
0
  6
BYBLOCK
 62
0
100
AcDbTrace
 10
0.0
 20
0.0
 11
-1.0
 21
0.25
 12
-1.0
 22
-0.25
 13
-1.0
 23
-0.25
  0
ENDBLK
  5
216
100
AcDbEntity
  8
0
  6
BYBLOCK
 62
0
100
AcDbBlockEnd
  0
ENDSEC
  0
SECTION
  2
ENTITIES
  0
LINE
  5
217
100
AcDbEntity
  8
0
100
AcDbLine
 62
7
  6
CONTINUOUS
 10
29.5039215868
 20
73.2143958785
 11
29.4690114569
 21
73.2493060083
  0
LINE
  5
218
100
AcDbEntity
  8
0
100
AcDbLine
 62
7
  6
CONTINUOUS
 10
46.4690114569
 20
45.7493060083
 11
187.4690114569
 21
45.7493060083
  0
LINE
  5
219
100
AcDbEntity
  8
0
100
AcDbLine
 62
7
  6
CONTINUOUS
 10
199.5128014241
 20
46.205668346
 11
196.4252214897
 21
46.205668346
  0
LINE
  5
21A
100
AcDbEntity
  8
0
100
AcDbLine
 62
7
  6
CONTINUOUS
 10
37.5128014241
 20
46.205668346
 11
34.4252214897
 21
46.205668346
  0
LINE
  5
21B
100
AcDbEntity
  8
0
100
AcDbLine
 62
7
  6
CONTINUOUS
 10
28.4690114569
 20
46.2493060083
 11
205.4690114569
 21
46.2493060083
  0
LINE
  5
21C
100
AcDbEntity
  8
0
100
AcDbLine
 62
7
  6
CONTINUOUS
 10
26.9690114569
 20
48.7056716694
 11
28.3152484791
 21
48.7056716694
  0
LINE
  5
21D
100
AcDbEntity
  8
0
100
AcDbLine
 62
7
  6
CONTINUOUS
 10
205.622809392
 20
48.7056716694
 11
206.9690114569
 21
48.7056716694
  0
LINE
  5
21E
100
AcDbEntity
  8
0
100
AcDbLine
 62
7
  6
CONTINUOUS
 10
206.9690114569
 20
48.7493060083
 11
205.9690114567
 21
48.7493060083
  0
LINE
  5
21F
100
AcDbEntity
  8
0
100
AcDbLine
 62
7
  6
CONTINUOUS
 10
27.9690114571
 20
48.7493060083
 11
26.9690114569
 21
48.7493060083
  0
LINE
  5
220
100
AcDbEntity
  8
0
100
AcDbLine
 62
7
  6
CONTINUOUS
 10
50.0126491192
 20
48.7493060083
 11
75.0690114569
 21
48.7493060083
  0
LINE
  5
221
100
AcDbEntity
  8
0
100
AcDbLine
 62
7
  6
CONTINUOUS
 10
158.8690114569
 20
48.7493060083
 11
183.9253737946
 21
48.7493060083
  0
LINE
  5
222
100
AcDbEntity
  8
0
100
AcDbLine
 62
7
  6
CONTINUOUS
 10
198.207401123
 20
49.2493060083
 11
195.7319577165
 21
49.2493060083
  0
LINE
  5
223
100
AcDbEntity
  8
0
100
AcDbLine
 62
7
  6
CONTINUOUS
 10
183.4690114569
 20
49.2493060083
 11
162.1761182381
 21
49.2493060083
  0
LINE
  5
224
100
AcDbEntity
  8
0
100
AcDbLine
 62
7
  6
CONTINUOUS
 10
71.7619046757
 20
49.2493060083
 11
50.4690114569
 21
49.2493060083
  0
LINE
  5
225
100
AcDbEntity
  8
0
100
AcDbLine
 62
7
  6
CONTINUOUS
 10
38.207401123
 20
49.2493060083
 11
35.7319577165
 21
49.2493060083
  0
LINE
  5
226
100
AcDbEntity
  8
0
100
AcDbLine
 62
7
  6
CONTINUOUS
 10
206.9690114569
 20
50.7493060083
 11
206.5665883835
 21
50.7493060083
  0
LINE
  5
227
100
AcDbEntity
  8
0
100
AcDbLine
 62
7
  6
CONTINUOUS
 10
199.2866905707
 20
50.7493060083
 11
194.6528561283
 21
50.7493060083
  0
LINE
  5
228
100
AcDbEntity
  8
0
100
AcDbLine
 62
7
  6
CONTINUOUS
 10
39.2866905707
 20
50.7493060083
 11
34.6528561283
 21
50.7493060083
  0
LINE
  5
229
100
AcDbEntity
  8
0
100
AcDbLine
 62
7
  6
CONTINUOUS
 10
27.3714091966
 20
50.7493060083
 11
26.9690114569
 21
50.7493060083
  0
LINE
  5
22A
100
AcDbEntity
  8
0
100
AcDbLine
 62
7
  6
CONTINUOUS
 10
159.9690114569
 20
54.7493060083
 11
73.9690114569
 21
54.7493060083
  0
LINE
  5
22B
100
AcDbEntity
  8
0
100
AcDbLine
 62
7
  6
CONTINUOUS
 10
159.4690114569
 20
55.2493060083
 11
74.4690114569
 21
55.2493060083
  0
LINE
  5
22C
100
AcDbEntity
  8
0
100
AcDbLine
 62
7
  6
CONTINUOUS
 10
26.9690114569
 20
264.7493060083
 11
26.9690114569
 21
261.7493060083
  0
LINE
  5
22D
100
AcDbEntity
  8
0
100
AcDbLine
 62
7
  6
CONTINUOUS
 10
26.9690114569
 20
261.2493060083
 11
26.9690114569
 21
239.2842161382
  0
LINE
  5
22E
100
AcDbEntity
  8
0
100
AcDbLine
 62
7
  6
CONTINUOUS
 10
26.9690114569
 20
239.2493060083
 11
26.9690114569
 21
73.2493060083
  0
LINE
  5
22F
100
AcDbEntity
  8
0
100
AcDbLine
 62
7
  6
CONTINUOUS
 10
26.9690114569
 20
47.7493060083
 11
26.9690114569
 21
73.2143958785
  0
LINE
  5
230
100
AcDbEntity
  8
0
100
AcDbLine
 62
7
  6
CONTINUOUS
 10
29.4690114569
 20
73.2493060083
 11
29.4690114569
 21
239.2493060083
  0
LINE
  5
231
100
AcDbEntity
  8
0
100
AcDbLine
 62
7
  6
CONTINUOUS
 10
29.5039215868
 20
72.2493060083
 11
29.5039215868
 21
73.2143958785
  0
LINE
  5
232
100
AcDbEntity
  8
0
100
AcDbLine
 62
7
  6
CONTINUOUS
 10
29.5039215868
 20
239.2842161382
 11
29.5039215868
 21
240.2493060083
  0
LINE
  5
233
100
AcDbEntity
  8
0
100
AcDbLine
 62
7
  6
CONTINUOUS
 10
29.6425167656
 20
240.2493060083
 11
29.6425167656
 21
223.9493060083
  0
LINE
  5
234
100
AcDbEntity
  8
0
100
AcDbLine
 62
7
  6
CONTINUOUS
 10
29.6425167656
 20
215.5493060083
 11
29.6425167656
 21
193.9493060083
  0
LINE
  5
235
100
AcDbEntity
  8
0
100
AcDbLine
 62
7
  6
CONTINUOUS
 10
29.67948376
 20
193.9493060083
 11
29.67948376
 21
215.5493060083
  0
LINE
  5
236
100
AcDbEntity
  8
0
100
AcDbLine
 62
7
  6
CONTINUOUS
 10
29.67948376
 20
223.9493060083
 11
29.67948376
 21
240.2493060083
  0
LINE
  5
237
100
AcDbEntity
  8
0
100
AcDbLine
 62
7
  6
CONTINUOUS
 10
29.7298720011
 20
240.2493060083
 11
29.7298720011
 21
223.9493060083
  0
LINE
  5
238
100
AcDbEntity
  8
0
100
AcDbLine
 62
7
  6
CONTINUOUS
 10
29.7298720011
 20
215.5493060083
 11
29.7298720011
 21
193.9493060083
  0
LINE
  5
239
100
AcDbEntity
  8
0
100
AcDbLine
 62
7
  6
CONTINUOUS
 10
29.7666793197
 20
193.9493060083
 11
29.7666793197
 21
215.5493060083
  0
LINE
  5
23A
100
AcDbEntity
  8
0
100
AcDbLine
 62
7
  6
CONTINUOUS
 10
29.7666793197
 20
223.9493060083
 11
29.7666793197
 21
240.2493060083
  0
LINE
  5
23B
100
AcDbEntity
  8
0
100
AcDbLine
 62
7
  6
CONTINUOUS
 10
29.8172272367
 20
240.2493060083
 11
29.8172272367
 21
223.9493060083
  0
LINE
  5
23C
100
AcDbEntity
  8
0
100
AcDbLine
 62
7
  6
CONTINUOUS
 10
29.8172272367
 20
215.5493060083
 11
29.8172272367
 21
193.9493060083
  0
LINE
  5
23D
100
AcDbEntity
  8
0
100
AcDbLine
 62
7
  6
CONTINUOUS
 10
29.8538748795
 20
193.9493060083
 11
29.8538748795
 21
215.5493060083
  0
LINE
  5
23E
100
AcDbEntity
  8
0
100
AcDbLine
 62
7
  6
CONTINUOUS
 10
29.8538748795
 20
223.9493060083
 11
29.8538748795
 21
240.2493060083
  0
LINE
  5
23F
100
AcDbEntity
  8
0
100
AcDbLine
 62
7
  6
CONTINUOUS
 10
29.9045824723
 20
240.2493060083
 11
29.9045824723
 21
223.9493060083
  0
LINE
  5
240
100
AcDbEntity
  8
0
100
AcDbLine
 62
7
  6
CONTINUOUS
 10
29.9045824723
 20
215.5493060083
 11
29.9045824723
 21
193.9493060083
  0
LINE
  5
241
100
AcDbEntity
  8
0
100
AcDbLine
 62
7
  6
CONTINUOUS
 10
29.9410704393
 20
193.9493060083
 11
29.9410704393
 21
215.5493060083
  0
LINE
  5
242
100
AcDbEntity
  8
0
100
AcDbLine
 62
7
  6
CONTINUOUS
 10
29.9410704393
 20
223.9493060083
 11
29.9410704393
 21
240.2493060083
  0
LINE
  5
243
100
AcDbEntity
  8
0
100
AcDbLine
 62
7
  6
CONTINUOUS
 10
29.9919377078
 20
240.2493060083
 11
29.9919377078
 21
223.9493060083
  0
LINE
  5
244
100
AcDbEntity
  8
0
100
AcDbLine
 62
7
  6
CONTINUOUS
 10
29.9919377078
 20
215.5493060083
 11
29.9919377078
 21
193.9493060083
  0
LINE
  5
245
100
AcDbEntity
  8
0
100
AcDbLine
 62
7
  6
CONTINUOUS
 10
30.0282659991
 20
193.9493060083
 11
30.0282659991
 21
215.5493060083
  0
LINE
  5
246
100
AcDbEntity
  8
0
100
AcDbLine
 62
7
  6
CONTINUOUS
 10
30.0282659991
 20
223.9493060083
 11
30.0282659991
 21
240.2493060083
  0
LINE
  5
247
100
AcDbEntity
  8
0
100
AcDbLine
 62
7
  6
CONTINUOUS
 10
30.0792929434
 20
240.2036225376
 11
30.0792929434
 21
223.9493060083
  0
LINE
  5
248
100
AcDbEntity
  8
0
100
AcDbLine
 62
7
  6
CONTINUOUS
 10
30.0792929434
 20
215.5493060083
 11
30.0792929434
 21
193.9493060083
  0
LINE
  5
249
100
AcDbEntity
  8
0
100
AcDbLine
 62
7
  6
CONTINUOUS
 10
30.1154615589
 20
193.9493060083
 11
30.1154615589
 21
215.5493060083
  0
LINE
  5
24A
100
AcDbEntity
  8
0
100
AcDbLine
 62
7
  6
CONTINUOUS
 10
30.1154615589
 20
223.9493060083
 11
30.1154615589
 21
240.2493060083
  0
LINE
  5
24B
100
AcDbEntity
  8
0
100
AcDbLine
 62
7
  6
CONTINUOUS
 10
30.166648179
 20
240.2493060083
 11
30.166648179
 21
223.9493060083
  0
LINE
  5
24C
100
AcDbEntity
  8
0
100
AcDbLine
 62
7
  6
CONTINUOUS
 10
30.166648179
 20
215.5493060083
 11
30.166648179
 21
193.9493060083
  0
LINE
  5
24D
100
AcDbEntity
  8
0
100
AcDbLine
 62
7
  6
CONTINUOUS
 10
30.1252671251
 20
265.7493060083
 11
30.1690114569
 21
266.2493060083
  0
LINE
  5
24E
100
AcDbEntity
  8
0
100
AcDbLine
 62
7
  6
CONTINUOUS
 10
31.165206155
 20
266.2493060083
 11
31.1214618232
 21
265.7493060083
  0
LINE
  5
24F
100
AcDbEntity
  8
0
100
AcDbLine
 62
7
  6
CONTINUOUS
 10
205.4690114569
 20
72.2493060083
 11
203.9690114569
 21
72.2493060083
  0
LINE
  5
250
100
AcDbEntity
  8
0
100
AcDbLine
 62
7
  6
CONTINUOUS
 10
29.9690114569
 20
72.2493060083
 11
28.4690114569
 21
72.2493060083
  0
LINE
  5
251
100
AcDbEntity
  8
0
100
AcDbLine
 62
7
  6
CONTINUOUS
 10
206.9690114569
 20
73.2143958785
 11
204.434101327
 21
73.2143958785
  0
LINE
  5
252
100
AcDbEntity
  8
0
100
AcDbLine
 62
7
  6
CONTINUOUS
 10
29.5039215868
 20
73.2143958785
 11
26.9690114569
 21
73.2143958785
  0
LINE
  5
253
100
AcDbEntity
  8
0
100
AcDbLine
 62
7
  6
CONTINUOUS
 10
29.4690114569
 20
73.2493060083
 11
26.9690114569
 21
73.2493060083
  0
LINE
  5
254
100
AcDbEntity
  8
0
100
AcDbLine
 62
7
  6
CONTINUOUS
 10
204.4690114569
 20
73.2493060083
 11
206.9690114569
 21
73.2493060083
  0
LINE
  5
255
100
AcDbEntity
  8
0
100
AcDbLine
 62
7
  6
CONTINUOUS
 10
30.7502132226
 20
124.3366079321
 11
30.3882648671
 21
125.0607252667
  0
LINE
  5
256
100
AcDbEntity
  8
0
100
AcDbLine
 62
7
  6
CONTINUOUS
 10
30.8836497288
 20
135.3622565471
 11
30.8122944386
 21
135.5158722968
  0
LINE
  5
257
100
AcDbEntity
  8
0
100
AcDbLine
 62
7
  6
CONTINUOUS
 10
48.0940114569
 20
46.4167742536
 11
48.1388807367
 21
46.2493198217
  0
LINE
  5
258
100
AcDbEntity
  8
0
100
AcDbLine
 62
7
  6
CONTINUOUS
 10
29.4690114569
 20
145.2163011448
 11
30.8478565678
 21
139.6988196039
  0
LINE
  5
259
100
AcDbEntity
  8
0
100
AcDbLine
 62
7
  6
CONTINUOUS
 10
30.8478565678
 20
128.4346353546
 11
30.8085856628
 21
128.7493060083
  0
LINE
  5
25A
100
AcDbEntity
  8
0
100
AcDbLine
 62
7
  6
CONTINUOUS
 10
29.4166462621
 20
266.2493060083
 11
29.4544773305
 21
264.0819655542
  0
LINE
  5
25B
100
AcDbEntity
  8
0
100
AcDbLine
 62
7
  6
CONTINUOUS
 10
30.2039215868
 20
264.2493060083
 11
30.1777389894
 21
265.7493060083
  0
LINE
  5
25C
100
AcDbEntity
  8
0
100
AcDbLine
 62
7
  6
CONTINUOUS
 10
31.1775866845
 20
265.7493060083
 11
31.2037692819
 21
264.2493060083
  0
LINE
  5
25D
100
AcDbEntity
  8
0
100
AcDbLine
 62
7
  6
CONTINUOUS
 10
30.2026571186
 20
193.9493060083
 11
30.2026571186
 21
215.5493060083
  0
LINE
  5
25E
100
AcDbEntity
  8
0
100
AcDbLine
 62
7
  6
CONTINUOUS
 10
30.2026571186
 20
223.9493060083
 11
30.2026571186
 21
240.2493060083
  0
LINE
  5
25F
100
AcDbEntity
  8
0
100
AcDbLine
 62
7
  6
CONTINUOUS
 10
30.2540034145
 20
240.2493060083
 11
30.2540034145
 21
223.9493060083
  0
LINE
  5
260
100
AcDbEntity
  8
0
100
AcDbLine
 62
7
  6
CONTINUOUS
 10
30.2540034145
 20
215.5493060083
 11
30.2540034145
 21
193.9493060083
  0
LINE
  5
261
100
AcDbEntity
  8
0
100
AcDbLine
 62
7
  6
CONTINUOUS
 10
30.2898526784
 20
193.9493060083
 11
30.2898526784
 21
215.5493060083
  0
LINE
  5
262
100
AcDbEntity
  8
0
100
AcDbLine
 62
7
  6
CONTINUOUS
 10
30.2898526784
 20
223.9493060083
 11
30.2898526784
 21
240.2493060083
  0
LINE
  5
263
100
AcDbEntity
  8
0
100
AcDbLine
 62
7
  6
CONTINUOUS
 10
30.3413586501
 20
240.0950633277
 11
30.3413586501
 21
223.9493060083
  0
LINE
  5
264
100
AcDbEntity
  8
0
100
AcDbLine
 62
7
  6
CONTINUOUS
 10
30.3413586501
 20
215.5493060083
 11
30.3413586501
 21
193.9493060083
  0
LINE
  5
265
100
AcDbEntity
  8
0
100
AcDbLine
 62
7
  6
CONTINUOUS
 10
30.3770482382
 20
193.9493060083
 11
30.3770482382
 21
215.5493060083
  0
LINE
  5
266
100
AcDbEntity
  8
0
100
AcDbLine
 62
7
  6
CONTINUOUS
 10
30.3770482382
 20
223.9493060083
 11
30.3770482382
 21
240.0802791214
  0
LINE
  5
267
100
AcDbEntity
  8
0
100
AcDbLine
 62
7
  6
CONTINUOUS
 10
30.4287138857
 20
240.0588769244
 11
30.4287138857
 21
223.9493060083
  0
LINE
  5
268
100
AcDbEntity
  8
0
100
AcDbLine
 62
7
  6
CONTINUOUS
 10
30.4287138857
 20
215.5493060083
 11
30.4287138857
 21
193.9493060083
  0
LINE
  5
269
100
AcDbEntity
  8
0
100
AcDbLine
 62
7
  6
CONTINUOUS
 10
30.464243798
 20
193.9493060083
 11
30.464243798
 21
215.5493060083
  0
LINE
  5
26A
100
AcDbEntity
  8
0
100
AcDbLine
 62
7
  6
CONTINUOUS
 10
30.464243798
 20
223.9493060083
 11
30.464243798
 21
240.0441588629
  0
LINE
  5
26B
100
AcDbEntity
  8
0
100
AcDbLine
 62
7
  6
CONTINUOUS
 10
30.5160691212
 20
240.0226905211
 11
30.5160691212
 21
223.9493060083
  0
LINE
  5
26C
100
AcDbEntity
  8
0
100
AcDbLine
 62
7
  6
CONTINUOUS
 10
30.5160691212
 20
215.5493060083
 11
30.5160691212
 21
193.9493060083
  0
LINE
  5
26D
100
AcDbEntity
  8
0
100
AcDbLine
 62
7
  6
CONTINUOUS
 10
30.5514393578
 20
193.9493060083
 11
30.5514393578
 21
215.5493060083
  0
LINE
  5
26E
100
AcDbEntity
  8
0
100
AcDbLine
 62
7
  6
CONTINUOUS
 10
30.5514393578
 20
223.9493060083
 11
30.5514393578
 21
240.0080386043
  0
LINE
  5
26F
100
AcDbEntity
  8
0
100
AcDbLine
 62
7
  6
CONTINUOUS
 10
30.6034243568
 20
239.9865041178
 11
30.6034243568
 21
223.9493060083
  0
LINE
  5
270
100
AcDbEntity
  8
0
100
AcDbLine
 62
7
  6
CONTINUOUS
 10
30.6034243568
 20
215.5493060083
 11
30.6034243568
 21
193.9493060083
  0
LINE
  5
271
100
AcDbEntity
  8
0
100
AcDbLine
 62
7
  6
CONTINUOUS
 10
30.6386349176
 20
193.9493060083
 11
30.6386349176
 21
215.5493060083
  0
LINE
  5
272
100
AcDbEntity
  8
0
100
AcDbLine
 62
7
  6
CONTINUOUS
 10
30.6386349176
 20
223.9493060083
 11
30.6386349176
 21
239.9719183458
  0
LINE
  5
273
100
AcDbEntity
  8
0
100
AcDbLine
 62
7
  6
CONTINUOUS
 10
30.8085856628
 20
137.8493060083
 11
30.8085856628
 21
135.5238566576
  0
LINE
  5
274
100
AcDbEntity
  8
0
100
AcDbLine
 62
7
  6
CONTINUOUS
 10
30.8085856628
 20
131.0747553591
 11
30.8085856628
 21
128.7493060083
  0
LINE
  5
275
100
AcDbEntity
  8
0
100
AcDbLine
 62
7
  6
CONTINUOUS
 10
30.8478565678
 20
139.6988196039
 11
30.8478565678
 21
138.1639766621
  0
LINE
  5
276
100
AcDbEntity
  8
0
100
AcDbLine
 62
7
  6
CONTINUOUS
 10
30.8478565678
 20
128.4346353546
 11
30.8478565678
 21
126.8997924128
  0
LINE
  5
277
100
AcDbEntity
  8
0
100
AcDbLine
 62
7
  6
CONTINUOUS
 10
30.8480666366
 20
131.2471949087
 11
30.8480666366
 21
135.351417108
  0
LINE
  5
278
100
AcDbEntity
  8
0
100
AcDbLine
 62
7
  6
CONTINUOUS
 10
30.8741441836
 20
84.7213779045
 11
30.8741441836
 21
72.6242520282
  0
LINE
  5
279
100
AcDbEntity
  8
0
100
AcDbLine
 62
7
  6
CONTINUOUS
 10
30.9020722875
 20
170.6838412044
 11
30.9020722875
 21
142.3493060083
  0
LINE
  5
27A
100
AcDbEntity
  8
0
100
AcDbLine
 62
7
  6
CONTINUOUS
 10
30.9020722875
 20
124.2493060083
 11
30.9020722875
 21
85.2493060083
  0
LINE
  5
27B
100
AcDbEntity
  8
0
100
AcDbLine
 62
7
  6
CONTINUOUS
 10
30.9690114569
 20
135.3737430992
 11
30.9690114569
 21
131.2248689174
  0
LINE
  5
27C
100
AcDbEntity
  8
0
100
AcDbLine
 62
7
  6
CONTINUOUS
 10
31.3401944172
 20
192.709724922
 11
31.3401944172
 21
182.2493060083
  0
LINE
  5
27D
100
AcDbEntity
  8
0
100
AcDbLine
 62
7
  6
CONTINUOUS
 10
31.4690114569
 20
192.2493060083
 11
31.4690114569
 21
86.7493060083
  0
LINE
  5
27E
100
AcDbEntity
  8
0
100
AcDbLine
 62
7
  6
CONTINUOUS
 10
31.4690114569
 20
73.7493060083
 11
31.4690114569
 21
84.2493060083
  0
LINE
  5
27F
100
AcDbEntity
  8
0
100
AcDbLine
 62
7
  6
CONTINUOUS
 10
31.4690114569
 20
194.7493060083
 11
31.4690114569
 21
238.7493060083
  0
LINE
  5
280
100
AcDbEntity
  8
0
100
AcDbLine
 62
7
  6
CONTINUOUS
 10
33.9690114569
 20
192.2493060083
 11
33.9690114569
 21
193.3015267495
  0
LINE
  5
281
100
AcDbEntity
  8
0
100
AcDbLine
 62
7
  6
CONTINUOUS
 10
34.0690114569
 20
86.7493060083
 11
34.0690114569
 21
192.2493060083
  0
LINE
  5
282
100
AcDbEntity
  8
0
100
AcDbLine
 62
7
  6
CONTINUOUS
 10
34.4690114569
 20
262.7493060083
 11
34.4690114569
 21
261.2493060083
  0
LINE
  5
283
100
AcDbEntity
  8
0
100
AcDbLine
 62
7
  6
CONTINUOUS
 10
34.4690114569
 20
52.924750688
 11
34.4690114569
 21
51.2493060083
  0
LINE
  5
284
100
AcDbEntity
  8
0
100
AcDbLine
 62
7
  6
CONTINUOUS
 10
34.9690114569
 20
85.2493060083
 11
34.9690114569
 21
86.2493060083
  0
LINE
  5
285
100
AcDbEntity
  8
0
100
AcDbLine
 62
7
  6
CONTINUOUS
 10
34.9690114569
 20
192.7493060083
 11
34.9690114569
 21
193.7493060083
  0
LINE
  5
286
100
AcDbEntity
  8
0
100
AcDbLine
 62
7
  6
CONTINUOUS
 10
39.4690114569
 20
51.2493060083
 11
39.4690114569
 21
52.924750688
  0
LINE
  5
287
100
AcDbEntity
  8
0
100
AcDbLine
 62
7
  6
CONTINUOUS
 10
39.4690114569
 20
261.2493060083
 11
39.4690114569
 21
264.7493060083
  0
LINE
  5
288
100
AcDbEntity
  8
0
100
AcDbLine
 62
7
  6
CONTINUOUS
 10
30.8741441836
 20
84.7213779045
 11
30.8830267621
 21
85.2302604829
  0
LINE
  5
289
100
AcDbEntity
  8
0
100
AcDbLine
 62
7
  6
CONTINUOUS
 10
42.9690114569
 20
266.2493060083
 11
43.678035272
 21
276.3888189558
  0
LINE
  5
28A
100
AcDbEntity
  8
0
100
AcDbLine
 62
7
  6
CONTINUOUS
 10
44.6755957799
 20
276.3364642312
 11
43.9702329638
 21
266.2493060083
  0
LINE
  5
28B
100
AcDbEntity
  8
0
100
AcDbLine
 62
7
  6
CONTINUOUS
 10
30.8085856628
 20
137.8493060084
 11
30.8478565678
 21
138.1639766621
  0
LINE
  5
28C
100
AcDbEntity
  8
0
100
AcDbLine
 62
7
  6
CONTINUOUS
 10
100.6472283396
 20
262.7493060083
 11
100.8530228853
 21
262.9551005541
  0
LINE
  5
28D
100
AcDbEntity
  8
0
100
AcDbLine
 62
7
  6
CONTINUOUS
 10
31.4690114569
 20
77.8559800989
 11
202.4690114569
 21
77.8559800989
  0
LINE
  5
28E
100
AcDbEntity
  8
0
100
AcDbLine
 62
7
  6
CONTINUOUS
 10
202.4690114569
 20
80.0178265891
 11
31.4690114569
 21
80.0178265891
  0
LINE
  5
28F
100
AcDbEntity
  8
0
100
AcDbLine
 62
7
  6
CONTINUOUS
 10
202.4690114569
 20
80.8493060083
 11
31.4690114569
 21
80.8493060083
  0
LINE
  5
290
100
AcDbEntity
  8
0
100
AcDbLine
 62
7
  6
CONTINUOUS
 10
31.8652086102
 20
84.7213779045
 11
30.8741441836
 21
84.7213779045
  0
LINE
  5
291
100
AcDbEntity
  8
0
100
AcDbLine
 62
7
  6
CONTINUOUS
 10
202.0727727861
 20
84.7213779045
 11
203.0638787302
 21
84.7213779045
  0
LINE
  5
292
100
AcDbEntity
  8
0
100
AcDbLine
 62
7
  6
CONTINUOUS
 10
34.4690114569
 20
84.7493060083
 11
31.9690114569
 21
84.7493060083
  0
LINE
  5
293
100
AcDbEntity
  8
0
100
AcDbLine
 62
7
  6
CONTINUOUS
 10
199.4690114569
 20
84.7493060083
 11
201.9690114569
 21
84.7493060083
  0
LINE
  5
294
100
AcDbEntity
  8
0
100
AcDbLine
 62
7
  6
CONTINUOUS
 10
29.4690114618
 20
145.2162772624
 11
30.9020722875
 21
142.3493060083
  0
LINE
  5
295
100
AcDbEntity
  8
0
100
AcDbLine
 62
7
  6
CONTINUOUS
 10
45.6731633725
 20
277.2667584148
 11
45.6731633725
 21
278.2493060083
  0
LINE
  5
296
100
AcDbEntity
  8
0
100
AcDbLine
 62
7
  6
CONTINUOUS
 10
46.4690114569
 20
45.7493060083
 11
46.4690114569
 21
46.2493060083
  0
LINE
  5
297
100
AcDbEntity
  8
0
100
AcDbLine
 62
7
  6
CONTINUOUS
 10
46.4690114569
 20
264.2493060083
 11
46.4690114569
 21
264.7493060083
  0
LINE
  5
298
100
AcDbEntity
  8
0
100
AcDbLine
 62
7
  6
CONTINUOUS
 10
47.434101327
 20
266.2493060083
 11
47.434101327
 21
263.7143958785
  0
LINE
  5
299
100
AcDbEntity
  8
0
100
AcDbLine
 62
7
  6
CONTINUOUS
 10
47.4690114569
 20
263.7493060083
 11
47.4690114569
 21
266.2493060083
  0
LINE
  5
29A
100
AcDbEntity
  8
0
100
AcDbLine
 62
7
  6
CONTINUOUS
 10
53.6666064365
 20
262.7493060083
 11
53.6956412482
 21
263.0811754245
  0
LINE
  5
29B
100
AcDbEntity
  8
0
100
AcDbLine
 62
7
  6
CONTINUOUS
 10
53.7025856851
 20
263.1605507017
 11
53.746113295
 21
263.65807356
  0
LINE
  5
29C
100
AcDbEntity
  8
0
100
AcDbLine
 62
7
  6
CONTINUOUS
 10
54.6628011346
 20
262.7493060083
 11
54.6903123103
 21
263.0637601862
  0
LINE
  5
29D
100
AcDbEntity
  8
0
100
AcDbLine
 62
7
  6
CONTINUOUS
 10
54.7002993726
 20
263.1779128308
 11
54.7407843572
 21
263.6406583217
  0
LINE
  5
29E
100
AcDbEntity
  8
0
100
AcDbLine
 62
7
  6
CONTINUOUS
 10
29.4690114597
 20
121.3823154449
 11
30.8478565678
 21
126.8997924128
  0
LINE
  5
29F
100
AcDbEntity
  8
0
100
AcDbLine
 62
7
  6
CONTINUOUS
 10
30.3882648671
 20
141.53788675
 11
30.7502132226
 21
142.2620040846
  0
LINE
  5
2A0
100
AcDbEntity
  8
0
100
AcDbLine
 62
7
  6
CONTINUOUS
 10
31.4690114569
 20
171.5343579275
 11
30.9020722875
 21
170.6838412044
  0
LINE
  5
2A1
100
AcDbEntity
  8
0
100
AcDbLine
 62
7
  6
CONTINUOUS
 10
111.167214054
 20
263.6533031512
 11
110.4690114569
 21
262.9551005541
  0
LINE
  5
2A2
100
AcDbEntity
  8
0
100
AcDbLine
 62
7
  6
CONTINUOUS
 10
122.167214054
 20
263.6533031512
 11
121.4690114569
 21
262.9551005541
  0
LINE
  5
2A3
100
AcDbEntity
  8
0
100
AcDbLine
 62
7
  6
CONTINUOUS
 10
34.9690114569
 20
85.2302604829
 11
30.8830267621
 21
85.2302604829
  0
LINE
  5
2A4
100
AcDbEntity
  8
0
100
AcDbLine
 62
7
  6
CONTINUOUS
 10
198.9690114569
 20
85.2302604829
 11
203.0549961517
 21
85.2302604829
  0
LINE
  5
2A5
100
AcDbEntity
  8
0
100
AcDbLine
 62
7
  6
CONTINUOUS
 10
34.4690114569
 20
86.7493060083
 11
31.4690114569
 21
86.7493060083
  0
LINE
  5
2A6
100
AcDbEntity
  8
0
100
AcDbLine
 62
7
  6
CONTINUOUS
 10
199.4690114569
 20
86.7493060083
 11
202.4690114569
 21
86.7493060083
  0
LINE
  5
2A7
100
AcDbEntity
  8
0
100
AcDbLine
 62
7
  6
CONTINUOUS
 10
47.1972385566
 20
263.6406583217
 11
47.2377235412
 21
263.1779128308
  0
LINE
  5
2A8
100
AcDbEntity
  8
0
100
AcDbLine
 62
7
  6
CONTINUOUS
 10
47.2477106035
 20
263.0637601862
 11
47.2491321472
 21
263.0475118669
  0
LINE
  5
2A9
100
AcDbEntity
  8
0
100
AcDbLine
 62
7
  6
CONTINUOUS
 10
48.1919096188
 20
263.65807356
 11
48.2354372287
 21
263.1605507017
  0
LINE
  5
2AA
100
AcDbEntity
  8
0
100
AcDbLine
 62
7
  6
CONTINUOUS
 10
48.2423816656
 20
263.0811754245
 11
48.2691193715
 21
262.7755620487
  0
LINE
  5
2AB
100
AcDbEntity
  8
0
100
AcDbLine
 62
7
  6
CONTINUOUS
 10
49.9690114569
 20
46.2493060083
 11
50.0126491192
 21
48.7493060083
  0
LINE
  5
2AC
100
AcDbEntity
  8
0
100
AcDbLine
 62
7
  6
CONTINUOUS
 10
50.5125729668
 20
48.7493060083
 11
50.4689353045
 21
46.2493060083
  0
LINE
  5
2AD
100
AcDbEntity
  8
0
100
AcDbLine
 62
7
  6
CONTINUOUS
 10
64.6666064365
 20
262.7493060083
 11
64.6956412482
 21
263.0811754245
  0
LINE
  5
2AE
100
AcDbEntity
  8
0
100
AcDbLine
 62
7
  6
CONTINUOUS
 10
64.7025856851
 20
263.1605507017
 11
64.746113295
 21
263.65807356
  0
LINE
  5
2AF
100
AcDbEntity
  8
0
100
AcDbLine
 62
7
  6
CONTINUOUS
 10
65.6628011346
 20
262.7493060083
 11
65.6903123103
 21
263.0637601862
  0
LINE
  5
2B0
100
AcDbEntity
  8
0
100
AcDbLine
 62
7
  6
CONTINUOUS
 10
65.7002993726
 20
263.1779128308
 11
65.7407843572
 21
263.6406583217
  0
LINE
  5
2B1
100
AcDbEntity
  8
0
100
AcDbLine
 62
7
  6
CONTINUOUS
 10
30.8122944386
 20
131.0827397199
 11
30.8836497288
 21
131.2363554696
  0
LINE
  5
2B2
100
AcDbEntity
  8
0
100
AcDbLine
 62
7
  6
CONTINUOUS
 10
29.4690114597
 20
121.3823108499
 11
30.9020722875
 21
124.2493060083
  0
LINE
  5
2B3
100
AcDbEntity
  8
0
100
AcDbLine
 62
7
  6
CONTINUOUS
 10
58.1972385566
 20
263.6406583217
 11
58.2377235412
 21
263.1779128308
  0
LINE
  5
2B4
100
AcDbEntity
  8
0
100
AcDbLine
 62
7
  6
CONTINUOUS
 10
58.2477106035
 20
263.0637601862
 11
58.2752217792
 21
262.7493060083
  0
LINE
  5
2B5
100
AcDbEntity
  8
0
100
AcDbLine
 62
7
  6
CONTINUOUS
 10
59.1919096188
 20
263.65807356
 11
59.2354372287
 21
263.1605507017
  0
LINE
  5
2B6
100
AcDbEntity
  8
0
100
AcDbLine
 62
7
  6
CONTINUOUS
 10
59.2423816656
 20
263.0811754245
 11
59.2714164773
 21
262.7493060083
  0
LINE
  5
2B7
100
AcDbEntity
  8
0
100
AcDbLine
 62
7
  6
CONTINUOUS
 10
75.6666064365
 20
262.7493060083
 11
75.6956412482
 21
263.0811754245
  0
LINE
  5
2B8
100
AcDbEntity
  8
0
100
AcDbLine
 62
7
  6
CONTINUOUS
 10
75.7025856851
 20
263.1605507017
 11
75.746113295
 21
263.65807356
  0
LINE
  5
2B9
100
AcDbEntity
  8
0
100
AcDbLine
 62
7
  6
CONTINUOUS
 10
76.6628011346
 20
262.7493060083
 11
76.6903123103
 21
263.0637601862
  0
LINE
  5
2BA
100
AcDbEntity
  8
0
100
AcDbLine
 62
7
  6
CONTINUOUS
 10
76.7002993726
 20
263.1779128308
 11
76.7407843572
 21
263.6406583217
  0
LINE
  5
2BB
100
AcDbEntity
  8
0
100
AcDbLine
 62
7
  6
CONTINUOUS
 10
207.2190114569
 20
107.7493060083
 11
206.9690114569
 21
107.7493060083
  0
LINE
  5
2BC
100
AcDbEntity
  8
0
100
AcDbLine
 62
7
  6
CONTINUOUS
 10
160.1154580664
 20
51.1028593989
 11
161.8225648474
 21
49.3957526178
  0
LINE
  5
2BD
100
AcDbEntity
  8
0
100
AcDbLine
 62
7
  6
CONTINUOUS
 10
30.6472283396
 20
193.7493060083
 11
31.3401944172
 21
192.709724922
  0
LINE
  5
2BE
100
AcDbEntity
  8
0
100
AcDbLine
 62
7
  6
CONTINUOUS
 10
69.1972385566
 20
263.6406583217
 11
69.2377235412
 21
263.1779128308
  0
LINE
  5
2BF
100
AcDbEntity
  8
0
100
AcDbLine
 62
7
  6
CONTINUOUS
 10
69.2477106035
 20
263.0637601862
 11
69.2752217792
 21
262.7493060083
  0
LINE
  5
2C0
100
AcDbEntity
  8
0
100
AcDbLine
 62
7
  6
CONTINUOUS
 10
73.9690114569
 20
54.7493060083
 11
73.9690114569
 21
51.4564127895
  0
LINE
  5
2C1
100
AcDbEntity
  8
0
100
AcDbLine
 62
7
  6
CONTINUOUS
 10
76.9690114569
 20
55.2493060083
 11
76.9690114569
 21
54.7493060083
  0
LINE
  5
2C2
100
AcDbEntity
  8
0
100
AcDbLine
 62
7
  6
CONTINUOUS
 10
75.2261269863
 20
54.7493060083
 11
75.0690114569
 21
48.7493060083
  0
LINE
  5
2C3
100
AcDbEntity
  8
0
100
AcDbLine
 62
7
  6
CONTINUOUS
 10
86.6666064365
 20
262.7493060083
 11
86.6956412482
 21
263.0811754245
  0
LINE
  5
2C4
100
AcDbEntity
  8
0
100
AcDbLine
 62
7
  6
CONTINUOUS
 10
86.7025856851
 20
263.1605507017
 11
86.746113295
 21
263.65807356
  0
LINE
  5
2C5
100
AcDbEntity
  8
0
100
AcDbLine
 62
7
  6
CONTINUOUS
 10
87.6628011346
 20
262.7493060083
 11
87.6903123103
 21
263.0637601862
  0
LINE
  5
2C6
100
AcDbEntity
  8
0
100
AcDbLine
 62
7
  6
CONTINUOUS
 10
87.7002993726
 20
263.1779128308
 11
87.7407843572
 21
263.6406583217
  0
LINE
  5
2C7
100
AcDbEntity
  8
0
100
AcDbLine
 62
7
  6
CONTINUOUS
 10
31.1085758239
 20
141.8889465278
 11
30.9689353045
 21
141.7493060083
  0
LINE
  5
2C8
100
AcDbEntity
  8
0
100
AcDbLine
 62
7
  6
CONTINUOUS
 10
30.8836497288
 20
131.2363554696
 11
30.9690114569
 21
131.2248689174
  0
LINE
  5
2C9
100
AcDbEntity
  8
0
100
AcDbLine
 62
7
  6
CONTINUOUS
 10
31.3401944172
 20
182.2493060083
 11
31.4690114569
 21
182.1204889687
  0
LINE
  5
2CA
100
AcDbEntity
  8
0
100
AcDbLine
 62
7
  6
CONTINUOUS
 10
70.1919096188
 20
263.65807356
 11
70.2354372287
 21
263.1605507017
  0
LINE
  5
2CB
100
AcDbEntity
  8
0
100
AcDbLine
 62
7
  6
CONTINUOUS
 10
70.2423816656
 20
263.0811754245
 11
70.2714164773
 21
262.7493060083
  0
LINE
  5
2CC
100
AcDbEntity
  8
0
100
AcDbLine
 62
7
  6
CONTINUOUS
 10
79.9690114569
 20
54.7493060083
 11
79.9690114569
 21
55.2493060083
  0
LINE
  5
2CD
100
AcDbEntity
  8
0
100
AcDbLine
 62
7
  6
CONTINUOUS
 10
97.6666064365
 20
262.7493060083
 11
97.6956412482
 21
263.0811754245
  0
LINE
  5
2CE
100
AcDbEntity
  8
0
100
AcDbLine
 62
7
  6
CONTINUOUS
 10
97.7025856851
 20
263.1605507017
 11
97.746113295
 21
263.65807356
  0
LINE
  5
2CF
100
AcDbEntity
  8
0
100
AcDbLine
 62
7
  6
CONTINUOUS
 10
30.8480666366
 20
131.2471949087
 11
30.8834497452
 21
131.2478125231
  0
LINE
  5
2D0
100
AcDbEntity
  8
0
100
AcDbLine
 62
7
  6
CONTINUOUS
 10
30.8478454261
 20
127.8133140761
 11
31.4690053981
 21
127.8135002679
  0
LINE
  5
2D1
100
AcDbEntity
  8
0
100
AcDbLine
 62
7
  6
CONTINUOUS
 10
31.4690114569
 20
124.2493060083
 11
30.9020722875
 21
124.2493060083
  0
LINE
  5
2D2
100
AcDbEntity
  8
0
100
AcDbLine
 62
7
  6
CONTINUOUS
 10
31.4690114569
 20
124.3366079321
 11
30.7502132226
 21
124.3366079321
  0
LINE
  5
2D3
100
AcDbEntity
  8
0
100
AcDbLine
 62
7
  6
CONTINUOUS
 10
30.8478565678
 20
128.3824515534
 11
31.4690114569
 21
128.3824515534
  0
LINE
  5
2D4
100
AcDbEntity
  8
0
100
AcDbLine
 62
7
  6
CONTINUOUS
 10
30.8478565678
 20
128.4346353546
 11
31.4690114569
 21
128.4346353546
  0
LINE
  5
2D5
100
AcDbEntity
  8
0
100
AcDbLine
 62
7
  6
CONTINUOUS
 10
30.8085856628
 20
128.7493060083
 11
31.4690114569
 21
128.7493060083
  0
LINE
  5
2D6
100
AcDbEntity
  8
0
100
AcDbLine
 62
7
  6
CONTINUOUS
 10
31.4690114569
 20
131.0747553591
 11
30.8085856628
 21
131.0747553591
  0
LINE
  5
2D7
100
AcDbEntity
  8
0
100
AcDbLine
 62
7
  6
CONTINUOUS
 10
30.9690114569
 20
131.2248689174
 11
31.5075279376
 21
131.2248689174
  0
LINE
  5
2D8
100
AcDbEntity
  8
0
100
AcDbLine
 62
7
  6
CONTINUOUS
 10
80.1972385566
 20
263.6406583217
 11
80.2377235412
 21
263.1779128308
  0
LINE
  5
2D9
100
AcDbEntity
  8
0
100
AcDbLine
 62
7
  6
CONTINUOUS
 10
80.2477106035
 20
263.0637601862
 11
80.2752217792
 21
262.7493060083
  0
LINE
  5
2DA
100
AcDbEntity
  8
0
100
AcDbLine
 62
7
  6
CONTINUOUS
 10
81.1919096188
 20
263.65807356
 11
81.2354372287
 21
263.1605507017
  0
LINE
  5
2DB
100
AcDbEntity
  8
0
100
AcDbLine
 62
7
  6
CONTINUOUS
 10
81.2423816656
 20
263.0811754245
 11
81.2714164773
 21
262.7493060083
  0
LINE
  5
2DC
100
AcDbEntity
  8
0
100
AcDbLine
 62
7
  6
CONTINUOUS
 10
98.6628011346
 20
262.7493060083
 11
98.6903123103
 21
263.0637601862
  0
LINE
  5
2DD
100
AcDbEntity
  8
0
100
AcDbLine
 62
7
  6
CONTINUOUS
 10
98.7002993726
 20
263.1779128308
 11
98.7407843572
 21
263.6406583217
  0
LINE
  5
2DE
100
AcDbEntity
  8
0
100
AcDbLine
 62
7
  6
CONTINUOUS
 10
111.167214054
 20
263.6533031512
 11
111.0055404846
 21
262.7493060083
  0
LINE
  5
2DF
100
AcDbEntity
  8
0
100
AcDbLine
 62
7
  6
CONTINUOUS
 10
74.2935012528
 20
54.7493060083
 11
74.391271829
 21
55.2283818315
  0
LINE
  5
2E0
100
AcDbEntity
  8
0
100
AcDbLine
 62
7
  6
CONTINUOUS
 10
30.8836497288
 20
135.3737136006
 11
31.5075279376
 21
135.3737430992
  0
LINE
  5
2E1
100
AcDbEntity
  8
0
100
AcDbLine
 62
7
  6
CONTINUOUS
 10
31.4690114569
 20
135.5238566576
 11
30.8085856628
 21
135.5238566576
  0
LINE
  5
2E2
100
AcDbEntity
  8
0
100
AcDbLine
 62
7
  6
CONTINUOUS
 10
31.4690114569
 20
137.8493060083
 11
30.8085856628
 21
137.8493060083
  0
LINE
  5
2E3
100
AcDbEntity
  8
0
100
AcDbLine
 62
7
  6
CONTINUOUS
 10
30.8478565678
 20
138.1639766621
 11
31.4690114569
 21
138.1639766621
  0
LINE
  5
2E4
100
AcDbEntity
  8
0
100
AcDbLine
 62
7
  6
CONTINUOUS
 10
31.4690114569
 20
138.2161604633
 11
30.8478565678
 21
138.2161604633
  0
LINE
  5
2E5
100
AcDbEntity
  8
0
100
AcDbLine
 62
7
  6
CONTINUOUS
 10
31.4690114569
 20
141.7493060083
 11
30.9689353045
 21
141.7493060083
  0
LINE
  5
2E6
100
AcDbEntity
  8
0
100
AcDbLine
 62
7
  6
CONTINUOUS
 10
31.1085758239
 20
141.8889465278
 11
31.4690114569
 21
141.8889465278
  0
LINE
  5
2E7
100
AcDbEntity
  8
0
100
AcDbLine
 62
7
  6
CONTINUOUS
 10
31.4690114569
 20
142.2620040846
 11
30.7502132226
 21
142.2620040846
  0
LINE
  5
2E8
100
AcDbEntity
  8
0
100
AcDbLine
 62
7
  6
CONTINUOUS
 10
31.4690114569
 20
142.3493060084
 11
30.9020722875
 21
142.3493060084
  0
LINE
  5
2E9
100
AcDbEntity
  8
0
100
AcDbLine
 62
7
  6
CONTINUOUS
 10
207.3190114569
 20
142.749306366
 11
207.2190114569
 21
142.749306366
  0
LINE
  5
2EA
100
AcDbEntity
  8
0
100
AcDbLine
 62
7
  6
CONTINUOUS
 10
91.1972385566
 20
263.6406583217
 11
91.2377235412
 21
263.1779128308
  0
LINE
  5
2EB
100
AcDbEntity
  8
0
100
AcDbLine
 62
7
  6
CONTINUOUS
 10
91.2477106035
 20
263.0637601862
 11
91.2752217792
 21
262.7493060083
  0
LINE
  5
2EC
100
AcDbEntity
  8
0
100
AcDbLine
 62
7
  6
CONTINUOUS
 10
92.1919096188
 20
263.65807356
 11
92.2354372287
 21
263.1605507017
  0
LINE
  5
2ED
100
AcDbEntity
  8
0
100
AcDbLine
 62
7
  6
CONTINUOUS
 10
92.2423816656
 20
263.0811754245
 11
92.2714164773
 21
262.7493060083
  0
LINE
  5
2EE
100
AcDbEntity
  8
0
100
AcDbLine
 62
7
  6
CONTINUOUS
 10
100.8530228853
 20
262.7493060083
 11
100.8530228853
 21
262.9551005541
  0
LINE
  5
2EF
100
AcDbEntity
  8
0
100
AcDbLine
 62
7
  6
CONTINUOUS
 10
108.6858129757
 20
262.9688377562
 11
108.6956412482
 21
263.0811754245
  0
LINE
  5
2F0
100
AcDbEntity
  8
0
100
AcDbLine
 62
7
  6
CONTINUOUS
 10
108.7025856851
 20
263.1605507017
 11
108.746113295
 21
263.65807356
  0
LINE
  5
2F1
100
AcDbEntity
  8
0
100
AcDbLine
 62
7
  6
CONTINUOUS
 10
109.6835266633
 20
262.9861998853
 11
109.6903123103
 21
263.0637601862
  0
LINE
  5
2F2
100
AcDbEntity
  8
0
100
AcDbLine
 62
7
  6
CONTINUOUS
 10
109.7002993726
 20
263.1779128308
 11
109.7407843572
 21
263.6406583217
  0
LINE
  5
2F3
100
AcDbEntity
  8
0
100
AcDbLine
 62
7
  6
CONTINUOUS
 10
122.167214054
 20
263.6533031512
 11
122.0055404846
 21
262.7493060083
  0
LINE
  5
2F4
100
AcDbEntity
  8
0
100
AcDbLine
 62
7
  6
CONTINUOUS
 10
207.3190114569
 20
144.999306366
 11
207.2190114569
 21
144.999306366
  0
LINE
  5
2F5
100
AcDbEntity
  8
0
100
AcDbLine
 62
7
  6
CONTINUOUS
 10
207.3190114569
 20
146.4993060083
 11
207.2190114569
 21
146.4993060083
  0
LINE
  5
2F6
100
AcDbEntity
  8
0
100
AcDbLine
 62
7
  6
CONTINUOUS
 10
102.1972385566
 20
263.6406583217
 11
102.2377235412
 21
263.1779128308
  0
LINE
  5
2F7
100
AcDbEntity
  8
0
100
AcDbLine
 62
7
  6
CONTINUOUS
 10
102.2477106035
 20
263.0637601862
 11
102.2544962505
 21
262.9861998853
  0
LINE
  5
2F8
100
AcDbEntity
  8
0
100
AcDbLine
 62
7
  6
CONTINUOUS
 10
103.1919096188
 20
263.65807356
 11
103.2354372287
 21
263.1605507017
  0
LINE
  5
2F9
100
AcDbEntity
  8
0
100
AcDbLine
 62
7
  6
CONTINUOUS
 10
103.2423816656
 20
263.0811754245
 11
103.2522099381
 21
262.9688377562
  0
LINE
  5
2FA
100
AcDbEntity
  8
0
100
AcDbLine
 62
7
  6
CONTINUOUS
 10
110.4690114569
 20
262.7493060083
 11
110.4690114569
 21
262.9551005541
  0
LINE
  5
2FB
100
AcDbEntity
  8
0
100
AcDbLine
 62
7
  6
CONTINUOUS
 10
112.4690114569
 20
262.7493060083
 11
112.4690114569
 21
262.9551005541
  0
LINE
  5
2FC
100
AcDbEntity
  8
0
100
AcDbLine
 62
7
  6
CONTINUOUS
 10
119.6858129757
 20
262.9688377562
 11
119.6956412482
 21
263.0811754245
  0
LINE
  5
2FD
100
AcDbEntity
  8
0
100
AcDbLine
 62
7
  6
CONTINUOUS
 10
119.7025856851
 20
263.1605507017
 11
119.746113295
 21
263.65807356
  0
LINE
  5
2FE
100
AcDbEntity
  8
0
100
AcDbLine
 62
7
  6
CONTINUOUS
 10
120.6835266633
 20
262.9861998853
 11
120.6903123103
 21
263.0637601862
  0
LINE
  5
2FF
100
AcDbEntity
  8
0
100
AcDbLine
 62
7
  6
CONTINUOUS
 10
120.7002993726
 20
263.1779128308
 11
120.7407843572
 21
263.6406583217
  0
LINE
  5
300
100
AcDbEntity
  8
0
100
AcDbLine
 62
7
  6
CONTINUOUS
 10
30.8480666366
 20
135.351417108
 11
30.8836497288
 21
135.3622565471
  0
LINE
  5
301
100
AcDbEntity
  8
0
100
AcDbLine
 62
7
  6
CONTINUOUS
 10
207.3190114569
 20
153.9993060978
 11
207.2190114569
 21
153.9993060978
  0
LINE
  5
302
100
AcDbEntity
  8
0
100
AcDbLine
 62
7
  6
CONTINUOUS
 10
207.3190114569
 20
155.4993060083
 11
207.2190114569
 21
155.4993060083
  0
LINE
  5
303
100
AcDbEntity
  8
0
100
AcDbLine
 62
7
  6
CONTINUOUS
 10
207.3190114569
 20
157.7493060083
 11
207.2190114569
 21
157.7493060083
  0
LINE
  5
304
100
AcDbEntity
  8
0
100
AcDbLine
 62
7
  6
CONTINUOUS
 10
113.1972385566
 20
263.6406583217
 11
113.2377235412
 21
263.1779128308
  0
LINE
  5
305
100
AcDbEntity
  8
0
100
AcDbLine
 62
7
  6
CONTINUOUS
 10
113.2477106035
 20
263.0637601862
 11
113.2544962505
 21
262.9861998853
  0
LINE
  5
306
100
AcDbEntity
  8
0
100
AcDbLine
 62
7
  6
CONTINUOUS
 10
114.1919096188
 20
263.65807356
 11
114.2354372287
 21
263.1605507017
  0
LINE
  5
307
100
AcDbEntity
  8
0
100
AcDbLine
 62
7
  6
CONTINUOUS
 10
114.2423816656
 20
263.0811754245
 11
114.2522099381
 21
262.9688377562
  0
LINE
  5
308
100
AcDbEntity
  8
0
100
AcDbLine
 62
7
  6
CONTINUOUS
 10
121.4690114569
 20
262.7493060083
 11
121.4690114569
 21
262.9551005541
  0
LINE
  5
309
100
AcDbEntity
  8
0
100
AcDbLine
 62
7
  6
CONTINUOUS
 10
123.4690114569
 20
262.7493060083
 11
123.4690114569
 21
262.9551005541
  0
LINE
  5
30A
100
AcDbEntity
  8
0
100
AcDbLine
 62
7
  6
CONTINUOUS
 10
130.6858129757
 20
262.9688377562
 11
130.6956412482
 21
263.0811754245
  0
LINE
  5
30B
100
AcDbEntity
  8
0
100
AcDbLine
 62
7
  6
CONTINUOUS
 10
130.7025856851
 20
263.1605507017
 11
130.746113295
 21
263.65807356
  0
LINE
  5
30C
100
AcDbEntity
  8
0
100
AcDbLine
 62
7
  6
CONTINUOUS
 10
131.6835266633
 20
262.9861998853
 11
131.6903123103
 21
263.0637601862
  0
LINE
  5
30D
100
AcDbEntity
  8
0
100
AcDbLine
 62
7
  6
CONTINUOUS
 10
131.7002993726
 20
263.1779128308
 11
131.7407843572
 21
263.6406583217
  0
LINE
  5
30E
100
AcDbEntity
  8
0
100
AcDbLine
 62
7
  6
CONTINUOUS
 10
31.4690114569
 20
170.6838412044
 11
30.9020722875
 21
170.6838412044
  0
LINE
  5
30F
100
AcDbEntity
  8
0
100
AcDbLine
 62
7
  6
CONTINUOUS
 10
202.4690114569
 20
170.6838412044
 11
203.0359506263
 21
170.6838412044
  0
LINE
  5
310
100
AcDbEntity
  8
0
100
AcDbLine
 62
7
  6
CONTINUOUS
 10
31.4690114569
 20
170.7493060083
 11
30.9457099498
 21
170.7493060083
  0
LINE
  5
311
100
AcDbEntity
  8
0
100
AcDbLine
 62
7
  6
CONTINUOUS
 10
202.4690114569
 20
170.7493060083
 11
202.992312964
 21
170.7493060083
  0
LINE
  5
312
100
AcDbEntity
  8
0
100
AcDbLine
 62
7
  6
CONTINUOUS
 10
203.0549961517
 20
85.2302604829
 11
203.0359506263
 21
85.2493060083
  0
LINE
  5
313
100
AcDbEntity
  8
0
100
AcDbLine
 62
7
  6
CONTINUOUS
 10
124.1972385566
 20
263.6406583217
 11
124.2377235412
 21
263.1779128308
  0
LINE
  5
314
100
AcDbEntity
  8
0
100
AcDbLine
 62
7
  6
CONTINUOUS
 10
124.2477106035
 20
263.0637601862
 11
124.2544962505
 21
262.9861998853
  0
LINE
  5
315
100
AcDbEntity
  8
0
100
AcDbLine
 62
7
  6
CONTINUOUS
 10
125.1919096188
 20
263.65807356
 11
125.2354372287
 21
263.1605507017
  0
LINE
  5
316
100
AcDbEntity
  8
0
100
AcDbLine
 62
7
  6
CONTINUOUS
 10
125.2423816656
 20
263.0811754245
 11
125.2522099381
 21
262.9688377562
  0
LINE
  5
317
100
AcDbEntity
  8
0
100
AcDbLine
 62
7
  6
CONTINUOUS
 10
133.0850000285
 20
262.7493060083
 11
133.0850000285
 21
262.9551005541
  0
LINE
  5
318
100
AcDbEntity
  8
0
100
AcDbLine
 62
7
  6
CONTINUOUS
 10
141.6666064365
 20
262.7493060083
 11
141.6956412481
 21
263.0811754245
  0
LINE
  5
319
100
AcDbEntity
  8
0
100
AcDbLine
 62
7
  6
CONTINUOUS
 10
141.7025856851
 20
263.1605507017
 11
141.746113295
 21
263.65807356
  0
LINE
  5
31A
100
AcDbEntity
  8
0
100
AcDbLine
 62
7
  6
CONTINUOUS
 10
142.6628011346
 20
262.7493060083
 11
142.6903123103
 21
263.0637601862
  0
LINE
  5
31B
100
AcDbEntity
  8
0
100
AcDbLine
 62
7
  6
CONTINUOUS
 10
142.7002993726
 20
263.1779128308
 11
142.7407843572
 21
263.6406583217
  0
LINE
  5
31C
100
AcDbEntity
  8
0
100
AcDbLine
 62
7
  6
CONTINUOUS
 10
202.5978284966
 20
182.2493060083
 11
202.4690114569
 21
182.2493060083
  0
LINE
  5
31D
100
AcDbEntity
  8
0
100
AcDbLine
 62
7
  6
CONTINUOUS
 10
31.4690114569
 20
182.2493060083
 11
31.3401944172
 21
182.2493060083
  0
LINE
  5
31E
100
AcDbEntity
  8
0
100
AcDbLine
 62
7
  6
CONTINUOUS
 10
159.5467492777
 20
55.2283906866
 11
159.644521661
 21
54.7493060083
  0
LINE
  5
31F
100
AcDbEntity
  8
0
100
AcDbLine
 62
7
  6
CONTINUOUS
 10
111.7708088598
 20
263.6533031512
 11
111.9324824292
 21
262.7493060083
  0
LINE
  5
320
100
AcDbEntity
  8
0
100
AcDbLine
 62
7
  6
CONTINUOUS
 10
135.1972385566
 20
263.6406583217
 11
135.2377235412
 21
263.1779128308
  0
LINE
  5
321
100
AcDbEntity
  8
0
100
AcDbLine
 62
7
  6
CONTINUOUS
 10
135.2477106035
 20
263.0637601862
 11
135.2752217792
 21
262.7493060083
  0
LINE
  5
322
100
AcDbEntity
  8
0
100
AcDbLine
 62
7
  6
CONTINUOUS
 10
136.1919096188
 20
263.65807356
 11
136.2354372287
 21
263.1605507017
  0
LINE
  5
323
100
AcDbEntity
  8
0
100
AcDbLine
 62
7
  6
CONTINUOUS
 10
136.2423816656
 20
263.0811754245
 11
136.2714164773
 21
262.7493060083
  0
LINE
  5
324
100
AcDbEntity
  8
0
100
AcDbLine
 62
7
  6
CONTINUOUS
 10
152.6666064365
 20
262.7493060083
 11
152.6956412481
 21
263.0811754245
  0
LINE
  5
325
100
AcDbEntity
  8
0
100
AcDbLine
 62
7
  6
CONTINUOUS
 10
152.7025856851
 20
263.1605507017
 11
152.746113295
 21
263.65807356
  0
LINE
  5
326
100
AcDbEntity
  8
0
100
AcDbLine
 62
7
  6
CONTINUOUS
 10
153.6628011346
 20
262.7493060083
 11
153.6903123103
 21
263.0637601862
  0
LINE
  5
327
100
AcDbEntity
  8
0
100
AcDbLine
 62
7
  6
CONTINUOUS
 10
153.7002993726
 20
263.1779128308
 11
153.7407843572
 21
263.6406583217
  0
LINE
  5
328
100
AcDbEntity
  8
0
100
AcDbLine
 62
7
  6
CONTINUOUS
 10
207.2690114569
 20
190.7545425278
 11
207.2190114569
 21
190.7536697746
  0
LINE
  5
329
100
AcDbEntity
  8
0
100
AcDbLine
 62
7
  6
CONTINUOUS
 10
31.3401944172
 20
192.2493060083
 11
34.4690114569
 21
192.2493060083
  0
LINE
  5
32A
100
AcDbEntity
  8
0
100
AcDbLine
 62
7
  6
CONTINUOUS
 10
199.4690114569
 20
192.2493060083
 11
202.5978284966
 21
192.2493060083
  0
LINE
  5
32B
100
AcDbEntity
  8
0
100
AcDbLine
 62
7
  6
CONTINUOUS
 10
122.7708088598
 20
263.6533031512
 11
122.9324824292
 21
262.7493060083
  0
LINE
  5
32C
100
AcDbEntity
  8
0
100
AcDbLine
 62
7
  6
CONTINUOUS
 10
146.1972385566
 20
263.6406583217
 11
146.2377235412
 21
263.1779128308
  0
LINE
  5
32D
100
AcDbEntity
  8
0
100
AcDbLine
 62
7
  6
CONTINUOUS
 10
146.2477106035
 20
263.0637601862
 11
146.2752217792
 21
262.7493060083
  0
LINE
  5
32E
100
AcDbEntity
  8
0
100
AcDbLine
 62
7
  6
CONTINUOUS
 10
147.1919096188
 20
263.65807356
 11
147.2354372287
 21
263.1605507017
  0
LINE
  5
32F
100
AcDbEntity
  8
0
100
AcDbLine
 62
7
  6
CONTINUOUS
 10
147.2423816657
 20
263.0811754245
 11
147.2714164773
 21
262.7493060083
  0
LINE
  5
330
100
AcDbEntity
  8
0
100
AcDbLine
 62
7
  6
CONTINUOUS
 10
158.7118959275
 20
54.7493060083
 11
158.8690114569
 21
48.7493060083
  0
LINE
  5
331
100
AcDbEntity
  8
0
100
AcDbLine
 62
7
  6
CONTINUOUS
 10
153.9690114569
 20
55.2493060083
 11
153.9690114569
 21
54.7493060083
  0
LINE
  5
332
100
AcDbEntity
  8
0
100
AcDbLine
 62
7
  6
CONTINUOUS
 10
156.9690114569
 20
54.7493060083
 11
156.9690114569
 21
55.2493060083
  0
LINE
  5
333
100
AcDbEntity
  8
0
100
AcDbLine
 62
7
  6
CONTINUOUS
 10
163.6666064365
 20
262.7493060083
 11
163.6956412481
 21
263.0811754245
  0
LINE
  5
334
100
AcDbEntity
  8
0
100
AcDbLine
 62
7
  6
CONTINUOUS
 10
163.7025856851
 20
263.1605507017
 11
163.746113295
 21
263.65807356
  0
LINE
  5
335
100
AcDbEntity
  8
0
100
AcDbLine
 62
7
  6
CONTINUOUS
 10
164.6628011346
 20
262.7493060083
 11
164.6903123103
 21
263.0637601862
  0
LINE
  5
336
100
AcDbEntity
  8
0
100
AcDbLine
 62
7
  6
CONTINUOUS
 10
164.7002993726
 20
263.1779128308
 11
164.7407843572
 21
263.6406583217
  0
LINE
  5
337
100
AcDbEntity
  8
0
100
AcDbLine
 62
7
  6
CONTINUOUS
 10
207.2190114569
 20
192.7493060083
 11
206.9690114569
 21
192.7493060083
  0
LINE
  5
338
100
AcDbEntity
  8
0
100
AcDbLine
 62
7
  6
CONTINUOUS
 10
34.9690114569
 20
193.3015267495
 11
30.9457099498
 21
193.3015267495
  0
LINE
  5
339
100
AcDbEntity
  8
0
100
AcDbLine
 62
7
  6
CONTINUOUS
 10
198.9690114569
 20
193.3015267495
 11
202.9923129639
 21
193.3015267495
  0
LINE
  5
33A
100
AcDbEntity
  8
0
100
AcDbLine
 62
7
  6
CONTINUOUS
 10
34.9690114569
 20
193.7493060083
 11
30.6472283396
 21
193.7493060083
  0
LINE
  5
33B
100
AcDbEntity
  8
0
100
AcDbLine
 62
7
  6
CONTINUOUS
 10
198.9690114569
 20
193.7493060083
 11
203.2907945742
 21
193.7493060083
  0
LINE
  5
33C
100
AcDbEntity
  8
0
100
AcDbLine
 62
7
  6
CONTINUOUS
 10
34.4690114569
 20
194.2493060083
 11
31.9690114569
 21
194.2493060083
  0
LINE
  5
33D
100
AcDbEntity
  8
0
100
AcDbLine
 62
7
  6
CONTINUOUS
 10
199.4690114569
 20
194.2493060083
 11
201.9690114569
 21
194.2493060083
  0
LINE
  5
33E
100
AcDbEntity
  8
0
100
AcDbLine
 62
7
  6
CONTINUOUS
 10
207.2690114569
 20
191.2440694889
 11
207.2190114569
 21
191.2449422421
  0
LINE
  5
33F
100
AcDbEntity
  8
0
100
AcDbLine
 62
7
  6
CONTINUOUS
 10
157.1972385566
 20
263.6406583217
 11
157.2377235412
 21
263.1779128308
  0
LINE
  5
340
100
AcDbEntity
  8
0
100
AcDbLine
 62
7
  6
CONTINUOUS
 10
157.2477106035
 20
263.0637601862
 11
157.2752217792
 21
262.7493060083
  0
LINE
  5
341
100
AcDbEntity
  8
0
100
AcDbLine
 62
7
  6
CONTINUOUS
 10
158.1919096188
 20
263.65807356
 11
158.2354372287
 21
263.1605507017
  0
LINE
  5
342
100
AcDbEntity
  8
0
100
AcDbLine
 62
7
  6
CONTINUOUS
 10
158.2423816657
 20
263.0811754245
 11
158.2714164773
 21
262.7493060083
  0
LINE
  5
343
100
AcDbEntity
  8
0
100
AcDbLine
 62
7
  6
CONTINUOUS
 10
159.9690114569
 20
51.4564127895
 11
159.9690114569
 21
54.7493060083
  0
LINE
  5
344
100
AcDbEntity
  8
0
100
AcDbLine
 62
7
  6
CONTINUOUS
 10
174.6666064365
 20
262.7493060083
 11
174.6956412481
 21
263.0811754245
  0
LINE
  5
345
100
AcDbEntity
  8
0
100
AcDbLine
 62
7
  6
CONTINUOUS
 10
174.7025856851
 20
263.1605507017
 11
174.746113295
 21
263.65807356
  0
LINE
  5
346
100
AcDbEntity
  8
0
100
AcDbLine
 62
7
  6
CONTINUOUS
 10
175.6628011346
 20
262.7493060083
 11
175.6903123103
 21
263.0637601862
  0
LINE
  5
347
100
AcDbEntity
  8
0
100
AcDbLine
 62
7
  6
CONTINUOUS
 10
175.7002993726
 20
263.1779128308
 11
175.7407843572
 21
263.6406583217
  0
LINE
  5
348
100
AcDbEntity
  8
0
100
AcDbLine
 62
7
  6
CONTINUOUS
 10
202.4690114569
 20
182.1204889686
 11
202.5978284966
 21
182.2493060083
  0
LINE
  5
349
100
AcDbEntity
  8
0
100
AcDbLine
 62
7
  6
CONTINUOUS
 10
72.1154580663
 20
49.3957526177
 11
73.8225648475
 21
51.1028593989
  0
LINE
  5
34A
100
AcDbEntity
  8
0
100
AcDbLine
 62
7
  6
CONTINUOUS
 10
207.2190114569
 20
212.2493060083
 11
206.9690114569
 21
212.2493060083
  0
LINE
  5
34B
100
AcDbEntity
  8
0
100
AcDbLine
 62
7
  6
CONTINUOUS
 10
168.1972385566
 20
263.6406583217
 11
168.2377235412
 21
263.1779128308
  0
LINE
  5
34C
100
AcDbEntity
  8
0
100
AcDbLine
 62
7
  6
CONTINUOUS
 10
168.2477106035
 20
263.0637601862
 11
168.2752217792
 21
262.7493060083
  0
LINE
  5
34D
100
AcDbEntity
  8
0
100
AcDbLine
 62
7
  6
CONTINUOUS
 10
185.6689035423
 20
262.7755620487
 11
185.6956412481
 21
263.0811754245
  0
LINE
  5
34E
100
AcDbEntity
  8
0
100
AcDbLine
 62
7
  6
CONTINUOUS
 10
185.7025856851
 20
263.1605507017
 11
185.746113295
 21
263.65807356
  0
LINE
  5
34F
100
AcDbEntity
  8
0
100
AcDbLine
 62
7
  6
CONTINUOUS
 10
202.5978284966
 20
192.7097249221
 11
203.2907945742
 21
193.7493060084
  0
LINE
  5
350
100
AcDbEntity
  8
0
100
AcDbLine
 62
7
  6
CONTINUOUS
 10
169.1919096188
 20
263.65807356
 11
169.2354372287
 21
263.1605507017
  0
LINE
  5
351
100
AcDbEntity
  8
0
100
AcDbLine
 62
7
  6
CONTINUOUS
 10
169.2423816657
 20
263.0811754245
 11
169.2714164773
 21
262.7493060083
  0
LINE
  5
352
100
AcDbEntity
  8
0
100
AcDbLine
 62
7
  6
CONTINUOUS
 10
183.4690876093
 20
46.2493060083
 11
183.425449947
 21
48.7493060083
  0
LINE
  5
353
100
AcDbEntity
  8
0
100
AcDbLine
 62
7
  6
CONTINUOUS
 10
183.9253737946
 20
48.7493060083
 11
183.9690114569
 21
46.2493060083
  0
LINE
  5
354
100
AcDbEntity
  8
0
100
AcDbLine
 62
7
  6
CONTINUOUS
 10
186.4690114569
 20
263.7493060083
 11
186.4690114569
 21
266.2493060083
  0
LINE
  5
355
100
AcDbEntity
  8
0
100
AcDbLine
 62
7
  6
CONTINUOUS
 10
186.5039215868
 20
263.7143958785
 11
186.5039215868
 21
266.2493060083
  0
LINE
  5
356
100
AcDbEntity
  8
0
100
AcDbLine
 62
7
  6
CONTINUOUS
 10
186.6888907666
 20
263.0475118669
 11
186.6903123103
 21
263.0637601862
  0
LINE
  5
357
100
AcDbEntity
  8
0
100
AcDbLine
 62
7
  6
CONTINUOUS
 10
186.7002993726
 20
263.1779128308
 11
186.7407843572
 21
263.6406583217
  0
LINE
  5
358
100
AcDbEntity
  8
0
100
AcDbLine
 62
7
  6
CONTINUOUS
 10
207.3190114569
 20
225.0993060083
 11
207.2190114569
 21
225.0993060083
  0
LINE
  5
359
100
AcDbEntity
  8
0
100
AcDbLine
 62
7
  6
CONTINUOUS
 10
207.3190114569
 20
228.432639441
 11
207.2190114569
 21
228.432639441
  0
LINE
  5
35A
100
AcDbEntity
  8
0
100
AcDbLine
 62
7
  6
CONTINUOUS
 10
207.3190114569
 20
230.0993060083
 11
207.2190114569
 21
230.0993060083
  0
LINE
  5
35B
100
AcDbEntity
  8
0
100
AcDbLine
 62
7
  6
CONTINUOUS
 10
31.4690114569
 20
231.6493060083
 11
202.4690114569
 21
231.6493060083
  0
LINE
  5
35C
100
AcDbEntity
  8
0
100
AcDbLine
 62
7
  6
CONTINUOUS
 10
207.2690114569
 20
221.2440694889
 11
207.2190114569
 21
221.2449422421
  0
LINE
  5
35D
100
AcDbEntity
  8
0
100
AcDbLine
 62
7
  6
CONTINUOUS
 10
111.7708088598
 20
263.6533031512
 11
112.4690114569
 21
262.9551005541
  0
LINE
  5
35E
100
AcDbEntity
  8
0
100
AcDbLine
 62
7
  6
CONTINUOUS
 10
179.1972385566
 20
263.6406583217
 11
179.2377235412
 21
263.1779128308
  0
LINE
  5
35F
100
AcDbEntity
  8
0
100
AcDbLine
 62
7
  6
CONTINUOUS
 10
179.2477106035
 20
263.0637601862
 11
179.2752217792
 21
262.7493060083
  0
LINE
  5
360
100
AcDbEntity
  8
0
100
AcDbLine
 62
7
  6
CONTINUOUS
 10
180.1919096188
 20
263.65807356
 11
180.2354372287
 21
263.1605507017
  0
LINE
  5
361
100
AcDbEntity
  8
0
100
AcDbLine
 62
7
  6
CONTINUOUS
 10
180.2423816657
 20
263.0811754245
 11
180.2714164773
 21
262.7493060083
  0
LINE
  5
362
100
AcDbEntity
  8
0
100
AcDbLine
 62
7
  6
CONTINUOUS
 10
187.4690114569
 20
45.7493060083
 11
187.4690114569
 21
46.2493060083
  0
LINE
  5
363
100
AcDbEntity
  8
0
100
AcDbLine
 62
7
  6
CONTINUOUS
 10
187.4690114569
 20
264.2493060083
 11
187.4690114569
 21
264.7493060083
  0
LINE
  5
364
100
AcDbEntity
  8
0
100
AcDbLine
 62
7
  6
CONTINUOUS
 10
188.2648595423
 20
278.2493060083
 11
188.2648595423
 21
277.2667584148
  0
LINE
  5
365
100
AcDbEntity
  8
0
100
AcDbLine
 62
7
  6
CONTINUOUS
 10
194.4690114569
 20
52.924750688
 11
194.4690114569
 21
51.2493060083
  0
LINE
  5
366
100
AcDbEntity
  8
0
100
AcDbLine
 62
7
  6
CONTINUOUS
 10
194.4690114569
 20
261.2493060083
 11
194.4690114569
 21
264.7493060083
  0
LINE
  5
367
100
AcDbEntity
  8
0
100
AcDbLine
 62
7
  6
CONTINUOUS
 10
202.4690114569
 20
232.4807854276
 11
31.4690114569
 21
232.4807854276
  0
LINE
  5
368
100
AcDbEntity
  8
0
100
AcDbLine
 62
7
  6
CONTINUOUS
 10
207.3190114569
 20
233.432639143
 11
207.2190114569
 21
233.432639143
  0
LINE
  5
369
100
AcDbEntity
  8
0
100
AcDbLine
 62
7
  6
CONTINUOUS
 10
202.4690114569
 20
234.6426319178
 11
31.4690114569
 21
234.6426319178
  0
LINE
  5
36A
100
AcDbEntity
  8
0
100
AcDbLine
 62
7
  6
CONTINUOUS
 10
29.4690114569
 20
239.2493060083
 11
26.9690114569
 21
239.2493060083
  0
LINE
  5
36B
100
AcDbEntity
  8
0
100
AcDbLine
 62
7
  6
CONTINUOUS
 10
204.4690114569
 20
239.2493060083
 11
206.9690114569
 21
239.2493060083
  0
LINE
  5
36C
100
AcDbEntity
  8
0
100
AcDbLine
 62
7
  6
CONTINUOUS
 10
29.5039215868
 20
239.2842161382
 11
26.9690114569
 21
239.2842161382
  0
LINE
  5
36D
100
AcDbEntity
  8
0
100
AcDbLine
 62
7
  6
CONTINUOUS
 10
204.434101327
 20
239.2842161382
 11
206.9690114569
 21
239.2842161382
  0
LINE
  5
36E
100
AcDbEntity
  8
0
100
AcDbLine
 62
7
  6
CONTINUOUS
 10
28.4690114569
 20
240.2493060083
 11
29.9690114569
 21
240.2493060083
  0
LINE
  5
36F
100
AcDbEntity
  8
0
100
AcDbLine
 62
7
  6
CONTINUOUS
 10
203.9690114569
 20
240.2493060083
 11
205.4690114569
 21
240.2493060083
  0
LINE
  5
370
100
AcDbEntity
  8
0
100
AcDbLine
 62
7
  6
CONTINUOUS
 10
122.7708088598
 20
263.6533031512
 11
123.4690114569
 21
262.9551005541
  0
LINE
  5
371
100
AcDbEntity
  8
0
100
AcDbLine
 62
7
  6
CONTINUOUS
 10
203.0359506263
 20
170.6838412044
 11
202.4690114569
 21
171.5343579275
  0
LINE
  5
372
100
AcDbEntity
  8
0
100
AcDbLine
 62
7
  6
CONTINUOUS
 10
189.96778995
 20
266.2493060083
 11
189.2624255808
 21
276.3364864417
  0
LINE
  5
373
100
AcDbEntity
  8
0
100
AcDbLine
 62
7
  6
CONTINUOUS
 10
190.2599876418
 20
276.3888189558
 11
190.9690114569
 21
266.2493060083
  0
LINE
  5
374
100
AcDbEntity
  8
0
100
AcDbLine
 62
7
  6
CONTINUOUS
 10
203.0549961517
 20
85.2302604829
 11
203.0638787302
 21
84.7213779045
  0
LINE
  5
375
100
AcDbEntity
  8
0
100
AcDbLine
 62
7
  6
CONTINUOUS
 10
198.9690114569
 20
193.7493060083
 11
198.9690114569
 21
192.7493060083
  0
LINE
  5
376
100
AcDbEntity
  8
0
100
AcDbLine
 62
7
  6
CONTINUOUS
 10
198.9690114569
 20
86.2493060083
 11
198.9690114569
 21
85.2493060083
  0
LINE
  5
377
100
AcDbEntity
  8
0
100
AcDbLine
 62
7
  6
CONTINUOUS
 10
199.4690114569
 20
51.2493060083
 11
199.4690114569
 21
52.924750688
  0
LINE
  5
378
100
AcDbEntity
  8
0
100
AcDbLine
 62
7
  6
CONTINUOUS
 10
199.4690114569
 20
261.2493060083
 11
199.4690114569
 21
262.7493060083
  0
LINE
  5
379
100
AcDbEntity
  8
0
100
AcDbLine
 62
7
  6
CONTINUOUS
 10
199.6690114569
 20
193.3015267495
 11
199.6690114569
 21
192.2493060083
  0
LINE
  5
37A
100
AcDbEntity
  8
0
100
AcDbLine
 62
7
  6
CONTINUOUS
 10
199.8690114569
 20
192.2493060083
 11
199.8690114569
 21
86.7493060083
  0
LINE
  5
37B
100
AcDbEntity
  8
0
100
AcDbLine
 62
7
  6
CONTINUOUS
 10
202.4690114569
 20
73.7493060083
 11
202.4690114569
 21
84.2493060083
  0
LINE
  5
37C
100
AcDbEntity
  8
0
100
AcDbLine
 62
7
  6
CONTINUOUS
 10
202.4690114569
 20
86.7493060083
 11
202.4690114569
 21
192.2493060083
  0
LINE
  5
37D
100
AcDbEntity
  8
0
100
AcDbLine
 62
7
  6
CONTINUOUS
 10
202.4690114569
 20
194.7493060083
 11
202.4690114569
 21
238.7493060083
  0
LINE
  5
37E
100
AcDbEntity
  8
0
100
AcDbLine
 62
7
  6
CONTINUOUS
 10
202.5978284966
 20
182.2493060083
 11
202.5978284966
 21
192.709724922
  0
LINE
  5
37F
100
AcDbEntity
  8
0
100
AcDbLine
 62
7
  6
CONTINUOUS
 10
203.0359506263
 20
85.2493060083
 11
203.0359506263
 21
170.6838412044
  0
LINE
  5
380
100
AcDbEntity
  8
0
100
AcDbLine
 62
7
  6
CONTINUOUS
 10
203.0638787302
 20
84.7213779045
 11
203.0638787302
 21
72.6242520282
  0
LINE
  5
381
100
AcDbEntity
  8
0
100
AcDbLine
 62
7
  6
CONTINUOUS
 10
203.2993879962
 20
239.9719183458
 11
203.2993879962
 21
223.9493060083
  0
LINE
  5
382
100
AcDbEntity
  8
0
100
AcDbLine
 62
7
  6
CONTINUOUS
 10
203.2993879962
 20
215.5493060083
 11
203.2993879962
 21
193.9493060083
  0
LINE
  5
383
100
AcDbEntity
  8
0
100
AcDbLine
 62
7
  6
CONTINUOUS
 10
203.334598557
 20
193.9493060083
 11
203.334598557
 21
215.5493060083
  0
LINE
  5
384
100
AcDbEntity
  8
0
100
AcDbLine
 62
7
  6
CONTINUOUS
 10
203.334598557
 20
223.9493060083
 11
203.334598557
 21
239.9865041178
  0
LINE
  5
385
100
AcDbEntity
  8
0
100
AcDbLine
 62
7
  6
CONTINUOUS
 10
203.386583556
 20
240.0080386043
 11
203.386583556
 21
223.9493060083
  0
LINE
  5
386
100
AcDbEntity
  8
0
100
AcDbLine
 62
7
  6
CONTINUOUS
 10
203.386583556
 20
215.5493060083
 11
203.386583556
 21
193.9493060083
  0
LINE
  5
387
100
AcDbEntity
  8
0
100
AcDbLine
 62
7
  6
CONTINUOUS
 10
203.4219537926
 20
193.9493060083
 11
203.4219537926
 21
215.5493060083
  0
LINE
  5
388
100
AcDbEntity
  8
0
100
AcDbLine
 62
7
  6
CONTINUOUS
 10
203.4219537926
 20
223.9493060083
 11
203.4219537926
 21
240.0226905212
  0
LINE
  5
389
100
AcDbEntity
  8
0
100
AcDbLine
 62
7
  6
CONTINUOUS
 10
203.4737791158
 20
240.0441588629
 11
203.4737791158
 21
223.9493060083
  0
LINE
  5
38A
100
AcDbEntity
  8
0
100
AcDbLine
 62
7
  6
CONTINUOUS
 10
203.4737791158
 20
215.5493060083
 11
203.4737791158
 21
193.9493060083
  0
LINE
  5
38B
100
AcDbEntity
  8
0
100
AcDbLine
 62
7
  6
CONTINUOUS
 10
203.5093090281
 20
193.9493060083
 11
203.5093090281
 21
215.5493060083
  0
LINE
  5
38C
100
AcDbEntity
  8
0
100
AcDbLine
 62
7
  6
CONTINUOUS
 10
203.5093090281
 20
223.9493060083
 11
203.5093090281
 21
240.0588769244
  0
LINE
  5
38D
100
AcDbEntity
  8
0
100
AcDbLine
 62
7
  6
CONTINUOUS
 10
203.5609746756
 20
240.0802791214
 11
203.5609746756
 21
223.9493060083
  0
LINE
  5
38E
100
AcDbEntity
  8
0
100
AcDbLine
 62
7
  6
CONTINUOUS
 10
203.5609746756
 20
215.5493060083
 11
203.5609746756
 21
193.9493060083
  0
LINE
  5
38F
100
AcDbEntity
  8
0
100
AcDbLine
 62
7
  6
CONTINUOUS
 10
203.5966642637
 20
193.9493060083
 11
203.5966642637
 21
215.5493060083
  0
LINE
  5
390
100
AcDbEntity
  8
0
100
AcDbLine
 62
7
  6
CONTINUOUS
 10
203.5966642637
 20
223.9493060083
 11
203.5966642637
 21
240.0950633277
  0
LINE
  5
391
100
AcDbEntity
  8
0
100
AcDbLine
 62
7
  6
CONTINUOUS
 10
203.6481702354
 20
240.2493060083
 11
203.6481702354
 21
223.9493060083
  0
LINE
  5
392
100
AcDbEntity
  8
0
100
AcDbLine
 62
7
  6
CONTINUOUS
 10
203.6481702354
 20
215.5493060083
 11
203.6481702354
 21
193.9493060083
  0
LINE
  5
393
100
AcDbEntity
  8
0
100
AcDbLine
 62
7
  6
CONTINUOUS
 10
203.6840194993
 20
193.9493060083
 11
203.6840194993
 21
215.5493060083
  0
LINE
  5
394
100
AcDbEntity
  8
0
100
AcDbLine
 62
7
  6
CONTINUOUS
 10
203.6840194993
 20
223.9493060083
 11
203.6840194993
 21
240.2493060083
  0
LINE
  5
395
100
AcDbEntity
  8
0
100
AcDbLine
 62
7
  6
CONTINUOUS
 10
203.7353657952
 20
240.2493060083
 11
203.7353657952
 21
223.9493060083
  0
LINE
  5
396
100
AcDbEntity
  8
0
100
AcDbLine
 62
7
  6
CONTINUOUS
 10
203.7353657952
 20
215.5493060083
 11
203.7353657952
 21
193.9493060083
  0
LINE
  5
397
100
AcDbEntity
  8
0
100
AcDbLine
 62
7
  6
CONTINUOUS
 10
203.7713747348
 20
193.9493060083
 11
203.7713747348
 21
215.5493060083
  0
LINE
  5
398
100
AcDbEntity
  8
0
100
AcDbLine
 62
7
  6
CONTINUOUS
 10
203.7713747348
 20
223.9493060083
 11
203.7713747348
 21
240.2493060083
  0
LINE
  5
399
100
AcDbEntity
  8
0
100
AcDbLine
 62
7
  6
CONTINUOUS
 10
203.8225613549
 20
240.2493060083
 11
203.8225613549
 21
223.9493060083
  0
LINE
  5
39A
100
AcDbEntity
  8
0
100
AcDbLine
 62
7
  6
CONTINUOUS
 10
203.8225613549
 20
215.5493060083
 11
203.8225613549
 21
193.9493060083
  0
LINE
  5
39B
100
AcDbEntity
  8
0
100
AcDbLine
 62
7
  6
CONTINUOUS
 10
203.8587299704
 20
193.9493060083
 11
203.8587299704
 21
215.5493060083
  0
LINE
  5
39C
100
AcDbEntity
  8
0
100
AcDbLine
 62
7
  6
CONTINUOUS
 10
203.8587299704
 20
223.9493060083
 11
203.8587299704
 21
240.2036225376
  0
LINE
  5
39D
100
AcDbEntity
  8
0
100
AcDbLine
 62
7
  6
CONTINUOUS
 10
203.9097569147
 20
240.2493060083
 11
203.9097569147
 21
223.9493060083
  0
LINE
  5
39E
100
AcDbEntity
  8
0
100
AcDbLine
 62
7
  6
CONTINUOUS
 10
203.9097569147
 20
215.5493060083
 11
203.9097569147
 21
193.9493060083
  0
LINE
  5
39F
100
AcDbEntity
  8
0
100
AcDbLine
 62
7
  6
CONTINUOUS
 10
203.946085206
 20
193.9493060083
 11
203.946085206
 21
215.5493060083
  0
LINE
  5
3A0
100
AcDbEntity
  8
0
100
AcDbLine
 62
7
  6
CONTINUOUS
 10
203.946085206
 20
223.9493060083
 11
203.946085206
 21
240.2493060083
  0
LINE
  5
3A1
100
AcDbEntity
  8
0
100
AcDbLine
 62
7
  6
CONTINUOUS
 10
203.9969524745
 20
240.2493060083
 11
203.9969524745
 21
223.9493060083
  0
LINE
  5
3A2
100
AcDbEntity
  8
0
100
AcDbLine
 62
7
  6
CONTINUOUS
 10
203.9969524745
 20
215.5493060083
 11
203.9969524745
 21
193.9493060083
  0
LINE
  5
3A3
100
AcDbEntity
  8
0
100
AcDbLine
 62
7
  6
CONTINUOUS
 10
204.0334404415
 20
193.9493060083
 11
204.0334404415
 21
215.5493060083
  0
LINE
  5
3A4
100
AcDbEntity
  8
0
100
AcDbLine
 62
7
  6
CONTINUOUS
 10
204.0334404415
 20
223.9493060083
 11
204.0334404415
 21
240.2493060083
  0
LINE
  5
3A5
100
AcDbEntity
  8
0
100
AcDbLine
 62
7
  6
CONTINUOUS
 10
204.0841480343
 20
240.2493060083
 11
204.0841480343
 21
223.9493060083
  0
LINE
  5
3A6
100
AcDbEntity
  8
0
100
AcDbLine
 62
7
  6
CONTINUOUS
 10
204.0841480343
 20
215.5493060083
 11
204.0841480343
 21
193.9493060083
  0
LINE
  5
3A7
100
AcDbEntity
  8
0
100
AcDbLine
 62
7
  6
CONTINUOUS
 10
204.1207956771
 20
193.9493060083
 11
204.1207956771
 21
215.5493060083
  0
LINE
  5
3A8
100
AcDbEntity
  8
0
100
AcDbLine
 62
7
  6
CONTINUOUS
 10
204.1207956771
 20
223.9493060083
 11
204.1207956771
 21
240.2493060083
  0
LINE
  5
3A9
100
AcDbEntity
  8
0
100
AcDbLine
 62
7
  6
CONTINUOUS
 10
204.1713435941
 20
240.2493060083
 11
204.1713435941
 21
223.9493060083
  0
LINE
  5
3AA
100
AcDbEntity
  8
0
100
AcDbLine
 62
7
  6
CONTINUOUS
 10
204.1713435941
 20
215.5493060083
 11
204.1713435941
 21
193.9493060083
  0
LINE
  5
3AB
100
AcDbEntity
  8
0
100
AcDbLine
 62
7
  6
CONTINUOUS
 10
204.2081509127
 20
193.9493060083
 11
204.2081509127
 21
215.5493060083
  0
LINE
  5
3AC
100
AcDbEntity
  8
0
100
AcDbLine
 62
7
  6
CONTINUOUS
 10
204.2081509127
 20
223.9493060083
 11
204.2081509127
 21
240.2493060083
  0
LINE
  5
3AD
100
AcDbEntity
  8
0
100
AcDbLine
 62
7
  6
CONTINUOUS
 10
204.2585391539
 20
240.2493060083
 11
204.2585391539
 21
223.9493060083
  0
LINE
  5
3AE
100
AcDbEntity
  8
0
100
AcDbLine
 62
7
  6
CONTINUOUS
 10
204.2585391539
 20
215.5493060083
 11
204.2585391539
 21
193.9493060083
  0
LINE
  5
3AF
100
AcDbEntity
  8
0
100
AcDbLine
 62
7
  6
CONTINUOUS
 10
204.2955061482
 20
193.9493060083
 11
204.2955061482
 21
215.5493060083
  0
LINE
  5
3B0
100
AcDbEntity
  8
0
100
AcDbLine
 62
7
  6
CONTINUOUS
 10
204.2955061482
 20
223.9493060083
 11
204.2955061482
 21
240.2493060083
  0
LINE
  5
3B1
100
AcDbEntity
  8
0
100
AcDbLine
 62
7
  6
CONTINUOUS
 10
204.434101327
 20
73.2143958785
 11
204.434101327
 21
72.2493060083
  0
LINE
  5
3B2
100
AcDbEntity
  8
0
100
AcDbLine
 62
7
  6
CONTINUOUS
 10
204.434101327
 20
239.2842161382
 11
204.434101327
 21
240.2493060083
  0
LINE
  5
3B3
100
AcDbEntity
  8
0
100
AcDbLine
 62
7
  6
CONTINUOUS
 10
204.4690114569
 20
73.2493060083
 11
204.4690114569
 21
239.2493060083
  0
LINE
  5
3B4
100
AcDbEntity
  8
0
100
AcDbLine
 62
7
  6
CONTINUOUS
 10
203.1342536319
 20
264.2493060083
 11
203.1604362293
 21
265.7493060083
  0
LINE
  5
3B5
100
AcDbEntity
  8
0
100
AcDbLine
 62
7
  6
CONTINUOUS
 10
204.1602839244
 20
265.7493060083
 11
204.1340510429
 21
264.2464252317
  0
LINE
  5
3B6
100
AcDbEntity
  8
0
100
AcDbLine
 62
7
  6
CONTINUOUS
 10
204.5213766517
 20
266.2493060083
 11
204.4835458712
 21
264.081982044
  0
LINE
  5
3B7
100
AcDbEntity
  8
0
100
AcDbLine
 62
7
  6
CONTINUOUS
 10
207.2190114569
 20
246.2493060083
 11
206.9690114569
 21
246.2493060083
  0
LINE
  5
3B8
100
AcDbEntity
  8
0
100
AcDbLine
 62
7
  6
CONTINUOUS
 10
133.0850000285
 20
262.9551005541
 11
133.2907945742
 21
262.7493060083
  0
LINE
  5
3B9
100
AcDbEntity
  8
0
100
AcDbLine
 62
7
  6
CONTINUOUS
 10
203.2165610906
 20
265.7493060083
 11
203.1728167588
 21
266.2493060083
  0
LINE
  5
3BA
100
AcDbEntity
  8
0
100
AcDbLine
 62
7
  6
CONTINUOUS
 10
204.1690114569
 20
266.2493060083
 11
204.2127557887
 21
265.7493060083
  0
LINE
  5
3BB
100
AcDbEntity
  8
0
100
AcDbLine
 62
7
  6
CONTINUOUS
 10
206.9690114569
 20
47.7493060083
 11
206.9690114569
 21
73.2143958785
  0
LINE
  5
3BC
100
AcDbEntity
  8
0
100
AcDbLine
 62
7
  6
CONTINUOUS
 10
206.9690114569
 20
73.2493060083
 11
206.9690114569
 21
239.2493060083
  0
LINE
  5
3BD
100
AcDbEntity
  8
0
100
AcDbLine
 62
7
  6
CONTINUOUS
 10
206.9690114569
 20
239.2842161382
 11
206.9690114569
 21
261.2493060083
  0
LINE
  5
3BE
100
AcDbEntity
  8
0
100
AcDbLine
 62
7
  6
CONTINUOUS
 10
206.9690114569
 20
261.7493060083
 11
206.9690114569
 21
264.7493060083
  0
LINE
  5
3BF
100
AcDbEntity
  8
0
100
AcDbLine
 62
7
  6
CONTINUOUS
 10
207.1690114569
 20
192.7493060083
 11
207.1690114569
 21
212.2493060083
  0
LINE
  5
3C0
100
AcDbEntity
  8
0
100
AcDbLine
 62
7
  6
CONTINUOUS
 10
207.1690114569
 20
246.2493060083
 11
207.1690114569
 21
261.2493060083
  0
LINE
  5
3C1
100
AcDbEntity
  8
0
100
AcDbLine
 62
7
  6
CONTINUOUS
 10
207.2190114569
 20
107.7493060083
 11
207.2190114569
 21
192.7493060083
  0
LINE
  5
3C2
100
AcDbEntity
  8
0
100
AcDbLine
 62
7
  6
CONTINUOUS
 10
207.2190114569
 20
212.2493060083
 11
207.2190114569
 21
246.2493060083
  0
LINE
  5
3C3
100
AcDbEntity
  8
0
100
AcDbLine
 62
7
  6
CONTINUOUS
 10
207.2690114569
 20
190.7545425278
 11
207.2690114569
 21
221.2440694889
  0
LINE
  5
3C4
100
AcDbEntity
  8
0
100
AcDbLine
 62
7
  6
CONTINUOUS
 10
207.3190114569
 20
142.749306366
 11
207.3190114569
 21
157.7493060083
  0
LINE
  5
3C5
100
AcDbEntity
  8
0
100
AcDbLine
 62
7
  6
CONTINUOUS
 10
207.3190114569
 20
225.0993060083
 11
207.3190114569
 21
233.432639143
  0
LINE
  5
3C6
100
AcDbEntity
  8
0
100
AcDbLine
 62
7
  6
CONTINUOUS
 10
185.7991421771
 20
46.2493198216
 11
185.8440114569
 21
46.4167742536
  0
LINE
  5
3C7
100
AcDbEntity
  8
0
100
AcDbLine
 62
7
  6
CONTINUOUS
 10
207.1690114569
 20
261.2493060083
 11
206.9690114569
 21
261.2493060083
  0
LINE
  5
3C8
100
AcDbEntity
  8
0
100
AcDbLine
 62
7
  6
CONTINUOUS
 10
34.4690114569
 20
261.775484618
 11
39.4690114569
 21
261.775484618
  0
LINE
  5
3C9
100
AcDbEntity
  8
0
100
AcDbLine
 62
7
  6
CONTINUOUS
 10
194.4690114569
 20
261.775484618
 11
199.4690114569
 21
261.775484618
  0
LINE
  5
3CA
100
AcDbEntity
  8
0
100
AcDbLine
 62
7
  6
CONTINUOUS
 10
47.9690114569
 20
262.7493060083
 11
185.9690114569
 21
262.7493060083
  0
LINE
  5
3CB
100
AcDbEntity
  8
0
100
AcDbLine
 62
7
  6
CONTINUOUS
 10
100.8530228853
 20
262.9551005541
 11
102.2544962505
 21
262.9551005541
  0
LINE
  5
3CC
100
AcDbEntity
  8
0
100
AcDbLine
 62
7
  6
CONTINUOUS
 10
109.6835266633
 20
262.9551005541
 11
110.4690114569
 21
262.9551005541
  0
LINE
  5
3CD
100
AcDbEntity
  8
0
100
AcDbLine
 62
7
  6
CONTINUOUS
 10
112.4690114569
 20
262.9551005541
 11
113.2377235412
 21
262.9551005541
  0
LINE
  5
3CE
100
AcDbEntity
  8
0
100
AcDbLine
 62
7
  6
CONTINUOUS
 10
120.7002993726
 20
262.9551005541
 11
121.4690114569
 21
262.9551005541
  0
LINE
  5
3CF
100
AcDbEntity
  8
0
100
AcDbLine
 62
7
  6
CONTINUOUS
 10
123.4690114569
 20
262.9551005541
 11
124.2544962505
 21
262.9551005541
  0
LINE
  5
3D0
100
AcDbEntity
  8
0
100
AcDbLine
 62
7
  6
CONTINUOUS
 10
131.6835266633
 20
262.9551005541
 11
133.0850000285
 21
262.9551005541
  0
LINE
  5
3D1
100
AcDbEntity
  8
0
100
AcDbLine
 62
7
  6
CONTINUOUS
 10
130.6858129757
 20
262.9688377562
 11
125.2522099381
 21
262.9688377562
  0
LINE
  5
3D2
100
AcDbEntity
  8
0
100
AcDbLine
 62
7
  6
CONTINUOUS
 10
119.6858129757
 20
262.9688377562
 11
114.2522099381
 21
262.9688377562
  0
LINE
  5
3D3
100
AcDbEntity
  8
0
100
AcDbLine
 62
7
  6
CONTINUOUS
 10
108.6858129757
 20
262.9688377562
 11
103.2522099381
 21
262.9688377562
  0
LINE
  5
3D4
100
AcDbEntity
  8
0
100
AcDbLine
 62
7
  6
CONTINUOUS
 10
174.6956412481
 20
263.0811754245
 11
169.2423816657
 21
263.0811754245
  0
LINE
  5
3D5
100
AcDbEntity
  8
0
100
AcDbLine
 62
7
  6
CONTINUOUS
 10
152.6956412481
 20
263.0811754245
 11
147.2423816657
 21
263.0811754245
  0
LINE
  5
3D6
100
AcDbEntity
  8
0
100
AcDbLine
 62
7
  6
CONTINUOUS
 10
141.6956412481
 20
263.0811754245
 11
136.2423816656
 21
263.0811754245
  0
LINE
  5
3D7
100
AcDbEntity
  8
0
100
AcDbLine
 62
7
  6
CONTINUOUS
 10
130.6956412482
 20
263.0811754245
 11
125.2423816656
 21
263.0811754245
  0
LINE
  5
3D8
100
AcDbEntity
  8
0
100
AcDbLine
 62
7
  6
CONTINUOUS
 10
119.6956412482
 20
263.0811754245
 11
114.2423816656
 21
263.0811754245
  0
LINE
  5
3D9
100
AcDbEntity
  8
0
100
AcDbLine
 62
7
  6
CONTINUOUS
 10
108.6956412482
 20
263.0811754245
 11
103.2423816656
 21
263.0811754245
  0
LINE
  5
3DA
100
AcDbEntity
  8
0
100
AcDbLine
 62
7
  6
CONTINUOUS
 10
97.6956412482
 20
263.0811754245
 11
92.2423816656
 21
263.0811754245
  0
LINE
  5
3DB
100
AcDbEntity
  8
0
100
AcDbLine
 62
7
  6
CONTINUOUS
 10
86.6956412482
 20
263.0811754245
 11
81.2423816656
 21
263.0811754245
  0
LINE
  5
3DC
100
AcDbEntity
  8
0
100
AcDbLine
 62
7
  6
CONTINUOUS
 10
75.6956412482
 20
263.0811754245
 11
70.2423816656
 21
263.0811754245
  0
LINE
  5
3DD
100
AcDbEntity
  8
0
100
AcDbLine
 62
7
  6
CONTINUOUS
 10
64.6956412482
 20
263.0811754245
 11
59.2423816656
 21
263.0811754245
  0
LINE
  5
3DE
100
AcDbEntity
  8
0
100
AcDbLine
 62
7
  6
CONTINUOUS
 10
53.6956412482
 20
263.0811754245
 11
48.2423816656
 21
263.0811754245
  0
LINE
  5
3DF
100
AcDbEntity
  8
0
100
AcDbLine
 62
7
  6
CONTINUOUS
 10
158.2423816656
 20
263.0811754245
 11
163.6956412482
 21
263.0811754245
  0
LINE
  5
3E0
100
AcDbEntity
  8
0
100
AcDbLine
 62
7
  6
CONTINUOUS
 10
180.2423816656
 20
263.0811754245
 11
185.6956412482
 21
263.0811754245
  0
LINE
  5
3E1
100
AcDbEntity
  8
0
100
AcDbLine
 62
7
  6
CONTINUOUS
 10
48.2354372287
 20
263.1605507017
 11
53.7025856851
 21
263.1605507017
  0
LINE
  5
3E2
100
AcDbEntity
  8
0
100
AcDbLine
 62
7
  6
CONTINUOUS
 10
59.2354372287
 20
263.1605507017
 11
64.7025856851
 21
263.1605507017
  0
LINE
  5
3E3
100
AcDbEntity
  8
0
100
AcDbLine
 62
7
  6
CONTINUOUS
 10
70.2354372287
 20
263.1605507017
 11
75.7025856851
 21
263.1605507017
  0
LINE
  5
3E4
100
AcDbEntity
  8
0
100
AcDbLine
 62
7
  6
CONTINUOUS
 10
81.2354372287
 20
263.1605507017
 11
86.7025856851
 21
263.1605507017
  0
LINE
  5
3E5
100
AcDbEntity
  8
0
100
AcDbLine
 62
7
  6
CONTINUOUS
 10
92.2354372287
 20
263.1605507017
 11
97.7025856851
 21
263.1605507017
  0
LINE
  5
3E6
100
AcDbEntity
  8
0
100
AcDbLine
 62
7
  6
CONTINUOUS
 10
103.2354372287
 20
263.1605507017
 11
108.7025856851
 21
263.1605507017
  0
LINE
  5
3E7
100
AcDbEntity
  8
0
100
AcDbLine
 62
7
  6
CONTINUOUS
 10
114.2354372287
 20
263.1605507017
 11
119.7025856851
 21
263.1605507017
  0
LINE
  5
3E8
100
AcDbEntity
  8
0
100
AcDbLine
 62
7
  6
CONTINUOUS
 10
125.2354372287
 20
263.1605507017
 11
130.7025856851
 21
263.1605507017
  0
LINE
  5
3E9
100
AcDbEntity
  8
0
100
AcDbLine
 62
7
  6
CONTINUOUS
 10
136.2354372287
 20
263.1605507017
 11
141.7025856851
 21
263.1605507017
  0
LINE
  5
3EA
100
AcDbEntity
  8
0
100
AcDbLine
 62
7
  6
CONTINUOUS
 10
147.2354372287
 20
263.1605507017
 11
152.7025856851
 21
263.1605507017
  0
LINE
  5
3EB
100
AcDbEntity
  8
0
100
AcDbLine
 62
7
  6
CONTINUOUS
 10
158.2354372287
 20
263.1605507017
 11
163.7025856851
 21
263.1605507017
  0
LINE
  5
3EC
100
AcDbEntity
  8
0
100
AcDbLine
 62
7
  6
CONTINUOUS
 10
169.2354372287
 20
263.1605507017
 11
174.7025856851
 21
263.1605507017
  0
LINE
  5
3ED
100
AcDbEntity
  8
0
100
AcDbLine
 62
7
  6
CONTINUOUS
 10
180.2354372287
 20
263.1605507017
 11
185.7025856851
 21
263.1605507017
  0
LINE
  5
3EE
100
AcDbEntity
  8
0
100
AcDbLine
 62
7
  6
CONTINUOUS
 10
199.6761335776
 20
263.2493060083
 11
194.4690114569
 21
263.2493060083
  0
LINE
  5
3EF
100
AcDbEntity
  8
0
100
AcDbLine
 62
7
  6
CONTINUOUS
 10
39.4690114569
 20
263.2493060083
 11
34.2618893362
 21
263.2493060083
  0
LINE
  5
3F0
100
AcDbEntity
  8
0
100
AcDbLine
 62
7
  6
CONTINUOUS
 10
122.7708088598
 20
263.6533031512
 11
122.167214054
 21
263.6533031512
  0
LINE
  5
3F1
100
AcDbEntity
  8
0
100
AcDbLine
 62
7
  6
CONTINUOUS
 10
111.7708088598
 20
263.6533031512
 11
111.167214054
 21
263.6533031512
  0
LINE
  5
3F2
100
AcDbEntity
  8
0
100
AcDbLine
 62
7
  6
CONTINUOUS
 10
174.746113295
 20
263.65807356
 11
169.1919096188
 21
263.65807356
  0
LINE
  5
3F3
100
AcDbEntity
  8
0
100
AcDbLine
 62
7
  6
CONTINUOUS
 10
152.746113295
 20
263.65807356
 11
147.1919096188
 21
263.65807356
  0
LINE
  5
3F4
100
AcDbEntity
  8
0
100
AcDbLine
 62
7
  6
CONTINUOUS
 10
141.746113295
 20
263.65807356
 11
136.1919096188
 21
263.65807356
  0
LINE
  5
3F5
100
AcDbEntity
  8
0
100
AcDbLine
 62
7
  6
CONTINUOUS
 10
130.746113295
 20
263.65807356
 11
125.1919096188
 21
263.65807356
  0
LINE
  5
3F6
100
AcDbEntity
  8
0
100
AcDbLine
 62
7
  6
CONTINUOUS
 10
119.746113295
 20
263.65807356
 11
114.1919096188
 21
263.65807356
  0
LINE
  5
3F7
100
AcDbEntity
  8
0
100
AcDbLine
 62
7
  6
CONTINUOUS
 10
108.746113295
 20
263.65807356
 11
103.1919096188
 21
263.65807356
  0
LINE
  5
3F8
100
AcDbEntity
  8
0
100
AcDbLine
 62
7
  6
CONTINUOUS
 10
97.746113295
 20
263.65807356
 11
92.1919096188
 21
263.65807356
  0
LINE
  5
3F9
100
AcDbEntity
  8
0
100
AcDbLine
 62
7
  6
CONTINUOUS
 10
86.746113295
 20
263.65807356
 11
81.1919096188
 21
263.65807356
  0
LINE
  5
3FA
100
AcDbEntity
  8
0
100
AcDbLine
 62
7
  6
CONTINUOUS
 10
75.746113295
 20
263.65807356
 11
70.1919096188
 21
263.65807356
  0
LINE
  5
3FB
100
AcDbEntity
  8
0
100
AcDbLine
 62
7
  6
CONTINUOUS
 10
64.746113295
 20
263.65807356
 11
59.1919096188
 21
263.65807356
  0
LINE
  5
3FC
100
AcDbEntity
  8
0
100
AcDbLine
 62
7
  6
CONTINUOUS
 10
53.746113295
 20
263.65807356
 11
48.1919096188
 21
263.65807356
  0
LINE
  5
3FD
100
AcDbEntity
  8
0
100
AcDbLine
 62
7
  6
CONTINUOUS
 10
158.1919096188
 20
263.65807356
 11
163.746113295
 21
263.65807356
  0
LINE
  5
3FE
100
AcDbEntity
  8
0
100
AcDbLine
 62
7
  6
CONTINUOUS
 10
180.1919096188
 20
263.65807356
 11
185.746113295
 21
263.65807356
  0
LINE
  5
3FF
100
AcDbEntity
  8
0
100
AcDbLine
 62
7
  6
CONTINUOUS
 10
47.434101327
 20
263.7143958785
 11
46.6905948979
 21
263.7143958785
  0
LINE
  5
400
100
AcDbEntity
  8
0
100
AcDbLine
 62
7
  6
CONTINUOUS
 10
186.5039215868
 20
263.7143958785
 11
187.2474280159
 21
263.7143958785
  0
LINE
  5
401
100
AcDbEntity
  8
0
100
AcDbLine
 62
7
  6
CONTINUOUS
 10
186.4690114569
 20
263.7493060083
 11
47.4690114569
 21
263.7493060083
  0
LINE
  5
402
100
AcDbEntity
  8
0
100
AcDbLine
 62
7
  6
CONTINUOUS
 10
34.0547672154
 20
263.7493060083
 11
39.4690114569
 21
263.7493060083
  0
LINE
  5
403
100
AcDbEntity
  8
0
100
AcDbLine
 62
7
  6
CONTINUOUS
 10
194.4690114569
 20
263.7493060083
 11
199.8832556984
 21
263.7493060083
  0
LINE
  5
404
100
AcDbEntity
  8
0
100
AcDbLine
 62
7
  6
CONTINUOUS
 10
32.9690114569
 20
264.2493060083
 11
29.9690114569
 21
264.2493060083
  0
LINE
  5
405
100
AcDbEntity
  8
0
100
AcDbLine
 62
7
  6
CONTINUOUS
 10
200.9690114569
 20
264.2493060083
 11
203.9690114569
 21
264.2493060083
  0
LINE
  5
406
100
AcDbEntity
  8
0
100
AcDbLine
 62
7
  6
CONTINUOUS
 10
30.1252671251
 20
265.7493060083
 11
39.8832556984
 21
265.7493060083
  0
LINE
  5
407
100
AcDbEntity
  8
0
100
AcDbLine
 62
7
  6
CONTINUOUS
 10
194.0547672154
 20
265.7493060083
 11
204.2127557887
 21
265.7493060083
  0
LINE
  5
408
100
AcDbEntity
  8
0
100
AcDbLine
 62
7
  6
CONTINUOUS
 10
192.9690114569
 20
266.2493060083
 11
186.5039215868
 21
266.2493060083
  0
LINE
  5
409
100
AcDbEntity
  8
0
100
AcDbLine
 62
7
  6
CONTINUOUS
 10
186.4690114569
 20
266.2493060083
 11
47.4690114569
 21
266.2493060083
  0
LINE
  5
40A
100
AcDbEntity
  8
0
100
AcDbLine
 62
7
  6
CONTINUOUS
 10
28.4690114569
 20
266.2493060083
 11
47.434101327
 21
266.2493060083
  0
LINE
  5
40B
100
AcDbEntity
  8
0
100
AcDbLine
 62
7
  6
CONTINUOUS
 10
193.165206155
 20
266.2493060083
 11
205.4690114569
 21
266.2493060083
  0
LINE
  5
40C
100
AcDbEntity
  8
0
100
AcDbLine
 62
7
  6
CONTINUOUS
 10
45.67312718
 20
277.2667584147
 11
188.2649096667
 21
277.2667584147
  0
LINE
  5
40D
100
AcDbEntity
  8
0
100
AcDbLine
 62
7
  6
CONTINUOUS
 10
188.2648595413
 20
278.2493060083
 11
45.6731633725
 21
278.2493060083
  0
ARC
  5
40E
100
AcDbEntity
  8
0
100
AcDbCircle
 62
7
  6
CONTINUOUS
 10
36.9690114569
 20
59.2493060083
 40
6.5
100
AcDbArc
 50
295.3769335218
 51
244.6230664788
  0
ARC
  5
40F
100
AcDbEntity
  8
0
100
AcDbCircle
 62
7
  6
CONTINUOUS
 10
32.9690114569
 20
52.2493060083
 40
6.0
100
AcDbArc
 50
180.0
 51
270.0
  0
ARC
  5
410
100
AcDbEntity
  8
0
100
AcDbCircle
 62
7
  6
CONTINUOUS
 10
36.9690114569
 20
51.2493060083
 40
2.5
100
AcDbArc
 50
180.0
 51
360.0
  0
ARC
  5
411
100
AcDbEntity
  8
0
100
AcDbCircle
 62
7
  6
CONTINUOUS
 10
28.4690114569
 20
47.7493060083
 40
1.5
100
AcDbArc
 50
180.0
 51
270.0
  0
ARC
  5
412
100
AcDbEntity
  8
0
100
AcDbCircle
 62
7
  6
CONTINUOUS
 10
50.4690114569
 20
47.7493060083
 40
1.5
100
AcDbArc
 50
90.0
 51
180.0
  0
ARC
  5
413
100
AcDbEntity
  8
0
100
AcDbCircle
 62
7
  6
CONTINUOUS
 10
47.4690114569
 20
47.7493060083
 40
1.5
100
AcDbArc
 50
270.0
 51
360.0
  0
ARC
  5
414
100
AcDbEntity
  8
0
100
AcDbCircle
 62
7
  6
CONTINUOUS
 10
28.4690114569
 20
70.7493060083
 40
1.5
100
AcDbArc
 50
90.0
 51
180.0
  0
ARC
  5
415
100
AcDbEntity
  8
0
100
AcDbCircle
 62
7
  6
CONTINUOUS
 10
29.9690114569
 20
73.7493060083
 40
1.5
100
AcDbArc
 50
270.0
 51
360.0
  0
ARC
  5
416
100
AcDbEntity
  8
0
100
AcDbCircle
 62
7
  6
CONTINUOUS
 10
28.4690114569
 20
50.7493060083
 40
1.5
100
AcDbArc
 50
180.0
 51
236.8177944062
  0
ARC
  5
417
100
AcDbEntity
  8
0
100
AcDbCircle
 62
7
  6
CONTINUOUS
 10
27.9689823887
 20
49.793882112
 40
0.9999762284
100
AcDbArc
 50
180.0076675675
 51
270.0016655294
  0
ARC
  5
418
100
AcDbEntity
  8
0
100
AcDbCircle
 62
7
  6
CONTINUOUS
 10
73.4690114569
 20
51.4564127895
 40
0.5
100
AcDbArc
 50
314.9999999979
 51
360.0
  0
ARC
  5
419
100
AcDbEntity
  8
0
100
AcDbCircle
 62
7
  6
CONTINUOUS
 10
71.7619046757
 20
49.7493060083
 40
0.5
100
AcDbArc
 50
270.0
 51
314.9999999961
  0
ARC
  5
41A
100
AcDbEntity
  8
0
100
AcDbCircle
 62
7
  6
CONTINUOUS
 10
74.4690114569
 20
54.7493060083
 40
0.5
100
AcDbArc
 50
90.0
 51
180.0
  0
ARC
  5
41B
100
AcDbEntity
  8
0
100
AcDbCircle
 62
7
  6
CONTINUOUS
 10
39.9690114569
 20
52.924750688
 40
0.5
100
AcDbArc
 50
115.3769335706
 51
180.0
  0
ARC
  5
41C
100
AcDbEntity
  8
0
100
AcDbCircle
 62
7
  6
CONTINUOUS
 10
33.9690114569
 20
52.924750688
 40
0.5
100
AcDbArc
 50
0.0
 51
64.6230664217
  0
ARC
  5
41D
100
AcDbEntity
  8
0
100
AcDbCircle
 62
7
  6
CONTINUOUS
 10
31.9690114569
 20
84.2493060083
 40
0.5
100
AcDbArc
 50
90.0
 51
180.0
  0
ARC
  5
41E
100
AcDbEntity
  8
0
100
AcDbCircle
 62
7
  6
CONTINUOUS
 10
34.4690114569
 20
85.2493060083
 40
0.5
100
AcDbArc
 50
270.0
 51
360.0
  0
ARC
  5
41F
100
AcDbEntity
  8
0
100
AcDbCircle
 62
7
  6
CONTINUOUS
 10
34.4690114569
 20
86.2493060083
 40
0.5
100
AcDbArc
 50
0.0
 51
90.0
  0
ARC
  5
420
100
AcDbEntity
  8
0
100
AcDbCircle
 62
7
  6
CONTINUOUS
 10
29.9690114569
 20
261.2493060083
 40
3.0
100
AcDbArc
 50
90.0
 51
180.0
  0
ARC
  5
421
100
AcDbEntity
  8
0
100
AcDbCircle
 62
7
  6
CONTINUOUS
 10
36.9690114569
 20
261.2493060083
 40
2.5
100
AcDbArc
 50
180.0
 51
360.0
  0
ARC
  5
422
100
AcDbEntity
  8
0
100
AcDbCircle
 62
7
  6
CONTINUOUS
 10
45.6731633725
 20
276.2493060083
 40
2.0
100
AcDbArc
 50
90.0
 51
175.9999999997
  0
ARC
  5
423
100
AcDbEntity
  8
0
100
AcDbCircle
 62
7
  6
CONTINUOUS
 10
28.4690114569
 20
241.7493060083
 40
1.5
100
AcDbArc
 50
180.0
 51
270.0
  0
ARC
  5
424
100
AcDbEntity
  8
0
100
AcDbCircle
 62
7
  6
CONTINUOUS
 10
29.9690114569
 20
238.7493060083
 40
1.5
100
AcDbArc
 50
0.0
 51
90.0
  0
ARC
  5
425
100
AcDbEntity
  8
0
100
AcDbCircle
 62
7
  6
CONTINUOUS
 10
47.9690114569
 20
264.2493060083
 40
1.5
100
AcDbArc
 50
180.0
 51
270.0
  0
ARC
  5
426
100
AcDbEntity
  8
0
100
AcDbCircle
 62
7
  6
CONTINUOUS
 10
44.9690114569
 20
264.7493060083
 40
1.5
100
AcDbArc
 50
0.0
 51
90.0
  0
ARC
  5
427
100
AcDbEntity
  8
0
100
AcDbCircle
 62
7
  6
CONTINUOUS
 10
40.9690114569
 20
264.7493060083
 40
1.5
100
AcDbArc
 50
90.0
 51
180.0
  0
ARC
  5
428
100
AcDbEntity
  8
0
100
AcDbCircle
 62
7
  6
CONTINUOUS
 10
32.9690114569
 20
262.7493060083
 40
1.5
100
AcDbArc
 50
0.0
 51
90.0
  0
ARC
  5
429
100
AcDbEntity
  8
0
100
AcDbCircle
 62
7
  6
CONTINUOUS
 10
28.4690114569
 20
261.7493060083
 40
1.5
100
AcDbArc
 50
131.6571295254
 51
180.0
  0
ARC
  5
42A
100
AcDbEntity
  8
0
100
AcDbCircle
 62
7
  6
CONTINUOUS
 10
28.4690114569
 20
264.7493060083
 40
1.5
100
AcDbArc
 50
90.0
 51
180.0
  0
ARC
  5
42B
100
AcDbEntity
  8
0
100
AcDbCircle
 62
7
  6
CONTINUOUS
 10
45.6732124379
 20
276.2666998855
 40
1.0000560427
100
AcDbArc
 50
90.0048846323
 51
175.9997603364
  0
ARC
  5
42C
100
AcDbEntity
  8
0
100
AcDbCircle
 62
7
  6
CONTINUOUS
 10
34.4690114569
 20
192.7493060083
 40
0.5
100
AcDbArc
 50
270.0
 51
360.0
  0
ARC
  5
42D
100
AcDbEntity
  8
0
100
AcDbCircle
 62
7
  6
CONTINUOUS
 10
34.4690114569
 20
193.7493060083
 40
0.5
100
AcDbArc
 50
0.0
 51
90.0
  0
ARC
  5
42E
100
AcDbEntity
  8
0
100
AcDbCircle
 62
7
  6
CONTINUOUS
 10
31.9690114569
 20
194.7493060083
 40
0.5
100
AcDbArc
 50
180.0
 51
270.0
  0
ARC
  5
42F
100
AcDbEntity
  8
0
100
AcDbCircle
 62
7
  6
CONTINUOUS
 10
196.9690114569
 20
59.2493060083
 40
6.5
100
AcDbArc
 50
295.376933522
 51
244.6230664791
  0
ARC
  5
430
100
AcDbEntity
  8
0
100
AcDbCircle
 62
7
  6
CONTINUOUS
 10
200.9690114569
 20
52.2493060083
 40
6.0
100
AcDbArc
 50
270.0
 51
360.0
  0
ARC
  5
431
100
AcDbEntity
  8
0
100
AcDbCircle
 62
7
  6
CONTINUOUS
 10
196.9690114569
 20
51.2493060083
 40
2.5
100
AcDbArc
 50
180.0
 51
360.0
  0
ARC
  5
432
100
AcDbEntity
  8
0
100
AcDbCircle
 62
7
  6
CONTINUOUS
 10
205.4690114569
 20
47.7493060083
 40
1.5
100
AcDbArc
 50
270.0
 51
360.0
  0
ARC
  5
433
100
AcDbEntity
  8
0
100
AcDbCircle
 62
7
  6
CONTINUOUS
 10
203.9690114569
 20
73.7493060083
 40
1.5
100
AcDbArc
 50
180.0
 51
270.0
  0
ARC
  5
434
100
AcDbEntity
  8
0
100
AcDbCircle
 62
7
  6
CONTINUOUS
 10
205.4690114569
 20
70.7493060083
 40
1.5
100
AcDbArc
 50
0.0
 51
90.0
  0
ARC
  5
435
100
AcDbEntity
  8
0
100
AcDbCircle
 62
7
  6
CONTINUOUS
 10
186.4690114569
 20
47.7493060083
 40
1.5
100
AcDbArc
 50
180.0
 51
270.0
  0
ARC
  5
436
100
AcDbEntity
  8
0
100
AcDbCircle
 62
7
  6
CONTINUOUS
 10
183.4690114569
 20
47.7493060083
 40
1.5
100
AcDbArc
 50
0.0
 51
90.0
  0
ARC
  5
437
100
AcDbEntity
  8
0
100
AcDbCircle
 62
7
  6
CONTINUOUS
 10
205.4690114569
 20
50.7493060083
 40
1.5
100
AcDbArc
 50
303.1800483645
 51
360.0
  0
ARC
  5
438
100
AcDbEntity
  8
0
100
AcDbCircle
 62
7
  6
CONTINUOUS
 10
205.9690405251
 20
49.793882112
 40
0.9999762284
100
AcDbArc
 50
269.9983344706
 51
359.9923324325
  0
ARC
  5
439
100
AcDbEntity
  8
0
100
AcDbCircle
 62
7
  6
CONTINUOUS
 10
162.1761182381
 20
49.7493060083
 40
0.5
100
AcDbArc
 50
224.9999999917
 51
270.0
  0
ARC
  5
43A
100
AcDbEntity
  8
0
100
AcDbCircle
 62
7
  6
CONTINUOUS
 10
160.4690114569
 20
51.4564127895
 40
0.5
100
AcDbArc
 50
180.0
 51
225.0000000083
  0
ARC
  5
43B
100
AcDbEntity
  8
0
100
AcDbCircle
 62
7
  6
CONTINUOUS
 10
159.4690114569
 20
54.7493060083
 40
0.5
100
AcDbArc
 50
0.0
 51
90.0
  0
ARC
  5
43C
100
AcDbEntity
  8
0
100
AcDbCircle
 62
7
  6
CONTINUOUS
 10
193.9690114569
 20
52.924750688
 40
0.5
100
AcDbArc
 50
0.0
 51
64.6230664182
  0
ARC
  5
43D
100
AcDbEntity
  8
0
100
AcDbCircle
 62
7
  6
CONTINUOUS
 10
199.9690114569
 20
52.924750688
 40
0.5
100
AcDbArc
 50
115.3769335685
 51
180.0
  0
ARC
  5
43E
100
AcDbEntity
  8
0
100
AcDbCircle
 62
7
  6
CONTINUOUS
 10
199.4690114569
 20
86.2493060083
 40
0.5
100
AcDbArc
 50
90.0
 51
180.0
  0
ARC
  5
43F
100
AcDbEntity
  8
0
100
AcDbCircle
 62
7
  6
CONTINUOUS
 10
199.4690114569
 20
85.2493060083
 40
0.5
100
AcDbArc
 50
180.0
 51
270.0
  0
ARC
  5
440
100
AcDbEntity
  8
0
100
AcDbCircle
 62
7
  6
CONTINUOUS
 10
201.9690114569
 20
84.2493060083
 40
0.5
100
AcDbArc
 50
0.0
 51
90.0
  0
ARC
  5
441
100
AcDbEntity
  8
0
100
AcDbCircle
 62
7
  6
CONTINUOUS
 10
203.9690114569
 20
261.2493060083
 40
3.0
100
AcDbArc
 50
0.0
 51
90.0
  0
ARC
  5
442
100
AcDbEntity
  8
0
100
AcDbCircle
 62
7
  6
CONTINUOUS
 10
196.9690114569
 20
261.2493060083
 40
2.5
100
AcDbArc
 50
180.0
 51
360.0
  0
ARC
  5
443
100
AcDbEntity
  8
0
100
AcDbCircle
 62
7
  6
CONTINUOUS
 10
188.2648595413
 20
276.2493060083
 40
2.0
100
AcDbArc
 50
4.0
 51
90.0
  0
ARC
  5
444
100
AcDbEntity
  8
0
100
AcDbCircle
 62
7
  6
CONTINUOUS
 10
203.9690114569
 20
238.7493060083
 40
1.5
100
AcDbArc
 50
90.0
 51
180.0
  0
ARC
  5
445
100
AcDbEntity
  8
0
100
AcDbCircle
 62
7
  6
CONTINUOUS
 10
205.4690114569
 20
241.7493060083
 40
1.5
100
AcDbArc
 50
270.0
 51
360.0
  0
ARC
  5
446
100
AcDbEntity
  8
0
100
AcDbCircle
 62
7
  6
CONTINUOUS
 10
200.9690114569
 20
262.7493060083
 40
1.5
100
AcDbArc
 50
90.0
 51
180.0
  0
ARC
  5
447
100
AcDbEntity
  8
0
100
AcDbCircle
 62
7
  6
CONTINUOUS
 10
192.9690114569
 20
264.7493060083
 40
1.5
100
AcDbArc
 50
0.0
 51
90.0
  0
ARC
  5
448
100
AcDbEntity
  8
0
100
AcDbCircle
 62
7
  6
CONTINUOUS
 10
188.9690114569
 20
264.7493060083
 40
1.5
100
AcDbArc
 50
90.0
 51
180.0
  0
ARC
  5
449
100
AcDbEntity
  8
0
100
AcDbCircle
 62
7
  6
CONTINUOUS
 10
185.9690114569
 20
264.2493060083
 40
1.5
100
AcDbArc
 50
270.0
 51
360.0
  0
ARC
  5
44A
100
AcDbEntity
  8
0
100
AcDbCircle
 62
7
  6
CONTINUOUS
 10
205.4690114569
 20
264.7493060083
 40
1.5
100
AcDbArc
 50
0.0
 51
90.0
  0
ARC
  5
44B
100
AcDbEntity
  8
0
100
AcDbCircle
 62
7
  6
CONTINUOUS
 10
205.4690114569
 20
261.7493060083
 40
1.5
100
AcDbArc
 50
0.0
 51
48.3453883417
  0
ARC
  5
44C
100
AcDbEntity
  8
0
100
AcDbCircle
 62
7
  6
CONTINUOUS
 10
188.2648016383
 20
276.2666963272
 40
1.0000620934
100
AcDbArc
 50
4.0016833033
 51
89.9938108123
  0
ARC
  5
44D
100
AcDbEntity
  8
0
100
AcDbCircle
 62
7
  6
CONTINUOUS
 10
201.9690114569
 20
194.7493060083
 40
0.5
100
AcDbArc
 50
270.0
 51
360.0
  0
ARC
  5
44E
100
AcDbEntity
  8
0
100
AcDbCircle
 62
7
  6
CONTINUOUS
 10
199.4690114569
 20
193.7493060083
 40
0.5
100
AcDbArc
 50
90.0
 51
180.0
  0
ARC
  5
44F
100
AcDbEntity
  8
0
100
AcDbCircle
 62
7
  6
CONTINUOUS
 10
199.4690114569
 20
192.7493060083
 40
0.5
100
AcDbArc
 50
180.0
 51
270.0
  0
SPLINE
  5
450
100
AcDbEntity
  8
0
100
AcDbSpline
 62
7
  6
CONTINUOUS
 70
0
 71
3
 72
18
 73
14
 74
0
 42
0.0000001
 43
0.0000001
 44
0.0000000001
 40
0.0
 40
0.0
 40
0.0
 40
0.0
 40
0.1946940146
 40
0.3826884206
 40
0.5556238358
 40
0.7070484224
 40
0.8312649247
 40
0.881719136
 40
0.9236863093
 40
0.9566897671
 40
0.9804947787
 40
0.9949410171
 40
1.0
 40
1.0
 40
1.0
 40
1.0
 10
29.6425167656
 20
223.9492882613
 30
0.0
 10
29.6425167656
 20
223.8805251775
 30
0.0
 10
29.6427488689
 20
223.7453641519
 30
0.0
 10
29.6437621363
 20
223.5491321729
 30
0.0
 10
29.645408369
 20
223.3681699643
 30
0.0
 10
29.6476272915
 20
223.2097936005
 30
0.0
 10
29.6499271685
 20
223.0945468511
 30
0.0
 10
29.6521716553
 20
223.0182182631
 30
0.0
 10
29.6536401029
 20
222.9736142721
 30
0.0
 10
29.6556130779
 20
222.9396417973
 30
0.0
 10
29.6564994069
 20
222.9125184206
 30
0.0
 10
29.6593792469
 20
222.9008768989
 30
0.0
 10
29.6592328611
 20
222.8902715819
 30
0.0
 10
29.6610171713
 20
222.8903650936
 30
0.0
  0
SPLINE
  5
451
100
AcDbEntity
  8
0
100
AcDbSpline
 62
7
  6
CONTINUOUS
 70
0
 71
3
 72
18
 73
14
 74
0
 42
0.0000001
 43
0.0000001
 44
0.0000000001
 40
0.0
 40
0.0
 40
0.0
 40
0.0
 40
0.005058969
 40
0.0195051778
 40
0.0433101654
 40
0.076313626
 40
0.1182808232
 40
0.168735064
 40
0.2929516674
 40
0.444376429
 40
0.6173118642
 40
0.8053060859
 40
1.0
 40
1.0
 40
1.0
 40
1.0
 10
30.6210457423
 20
216.5579328669
 30
0.0
 10
30.6193462157
 20
216.5580219353
 30
0.0
 10
30.6194856357
 20
216.5479205413
 30
0.0
 10
30.6167426365
 20
216.5368321641
 30
0.0
 10
30.6158984168
 20
216.5109975351
 30
0.0
 10
30.6140191875
 20
216.4786392127
 30
0.0
 10
30.6126205106
 20
216.4361544971
 30
0.0
 10
30.6104826655
 20
216.3634525006
 30
0.0
 10
30.6082920606
 20
216.2536814321
 30
0.0
 10
30.6061785688
 20
216.1028299942
 30
0.0
 10
30.6046105536
 20
215.9304659414
 30
0.0
 10
30.6036454303
 20
215.743557732
 30
0.0
 10
30.6034243568
 20
215.6148187843
 30
0.0
 10
30.6034243568
 20
215.5493229134
 30
0.0
  0
SPLINE
  5
452
100
AcDbEntity
  8
0
100
AcDbSpline
 62
7
  6
CONTINUOUS
 70
0
 71
3
 72
18
 73
14
 74
0
 42
0.0000001
 43
0.0000001
 44
0.0000000001
 40
0.0
 40
0.0
 40
0.0
 40
0.0
 40
0.1946940146
 40
0.3826884206
 40
0.5556238358
 40
0.7070484224
 40
0.8312649247
 40
0.881719136
 40
0.9236863094
 40
0.9566897671
 40
0.9804947787
 40
0.9949410171
 40
1.0
 40
1.0
 40
1.0
 40
1.0
 10
30.6034243568
 20
193.9492891045
 30
0.0
 10
30.6034243568
 20
193.8837931998
 30
0.0
 10
30.6036454321
 20
193.7550541562
 30
0.0
 10
30.6046105555
 20
193.5681458577
 30
0.0
 10
30.6061785699
 20
193.3957818085
 30
0.0
 10
30.6082920634
 20
193.2449304701
 30
0.0
 10
30.6104826651
 20
193.1351595044
 30
0.0
 10
30.6126205083
 20
193.0624575597
 30
0.0
 10
30.6140191847
 20
193.0199728632
 30
0.0
 10
30.6158984167
 20
192.9876145418
 30
0.0
 10
30.616742633
 20
192.9617798933
 30
0.0
 10
30.6194856415
 20
192.9506915017
 30
0.0
 10
30.6193462111
 20
192.9405900812
 30
0.0
 10
30.6210457423
 20
192.9406791498
 30
0.0
  0
SPLINE
  5
453
100
AcDbEntity
  8
0
100
AcDbSpline
 62
7
  6
CONTINUOUS
 70
0
 71
3
 72
18
 73
14
 74
0
 42
0.0000001
 43
0.0000001
 44
0.0000000001
 40
0.0
 40
0.0
 40
0.0
 40
0.0
 40
0.1946940146
 40
0.3826884206
 40
0.5556238358
 40
0.7070484224
 40
0.8312649247
 40
0.881719136
 40
0.9236863094
 40
0.9566897671
 40
0.9804947787
 40
0.9949410171
 40
1.0
 40
1.0
 40
1.0
 40
1.0
 10
30.6034243568
 20
223.9492891045
 30
0.0
 10
30.6034243568
 20
223.8837931998
 30
0.0
 10
30.6036454321
 20
223.7550541562
 30
0.0
 10
30.6046105555
 20
223.5681458577
 30
0.0
 10
30.6061785699
 20
223.3957818085
 30
0.0
 10
30.6082920634
 20
223.2449304701
 30
0.0
 10
30.6104826651
 20
223.1351595044
 30
0.0
 10
30.6126205083
 20
223.0624575597
 30
0.0
 10
30.6140191847
 20
223.0199728632
 30
0.0
 10
30.6158984167
 20
222.9876145417
 30
0.0
 10
30.616742633
 20
222.9617798933
 30
0.0
 10
30.6194856415
 20
222.9506915017
 30
0.0
 10
30.6193462111
 20
222.9405900811
 30
0.0
 10
30.6210457423
 20
222.9406791498
 30
0.0
  0
SPLINE
  5
454
100
AcDbEntity
  8
0
100
AcDbSpline
 62
7
  6
CONTINUOUS
 70
0
 71
3
 72
18
 73
14
 74
0
 42
0.0000001
 43
0.0000001
 44
0.0000000001
 40
0.0
 40
0.0
 40
0.0
 40
0.0
 40
0.005058969
 40
0.0195051778
 40
0.0433101654
 40
0.076313626
 40
0.1182808232
 40
0.168735064
 40
0.2929516674
 40
0.444376429
 40
0.6173118642
 40
0.8053060859
 40
1.0
 40
1.0
 40
1.0
 40
1.0
 10
30.5337704177
 20
216.562506872
 30
0.0
 10
30.5320631839
 20
216.5625963444
 30
0.0
 10
30.5322032362
 20
216.5524491417
 30
0.0
 10
30.5294477978
 20
216.5413104799
 30
0.0
 10
30.5285997496
 20
216.515358694
 30
0.0
 10
30.5267119982
 20
216.4828536304
 30
0.0
 10
30.5253069785
 20
216.4401762515
 30
0.0
 10
30.5231594386
 20
216.3671445599
 30
0.0
 10
30.5209588995
 20
216.2568756925
 30
0.0
 10
30.5188358233
 20
216.1053401609
 30
0.0
 10
30.5172606973
 20
215.9321944572
 30
0.0
 10
30.5162911973
 20
215.7444386409
 30
0.0
 10
30.5160691212
 20
215.6151158771
 30
0.0
 10
30.5160691212
 20
215.54932299
 30
0.0
  0
SPLINE
  5
455
100
AcDbEntity
  8
0
100
AcDbSpline
 62
7
  6
CONTINUOUS
 70
0
 71
3
 72
18
 73
14
 74
0
 42
0.0000001
 43
0.0000001
 44
0.0000000001
 40
0.0
 40
0.0
 40
0.0
 40
0.0
 40
0.1946940146
 40
0.3826884206
 40
0.5556238358
 40
0.7070484224
 40
0.8312649247
 40
0.881719136
 40
0.9236863094
 40
0.9566897671
 40
0.9804947787
 40
0.9949410171
 40
1.0
 40
1.0
 40
1.0
 40
1.0
 10
30.5160691212
 20
193.9492890279
 30
0.0
 10
30.5160691212
 20
193.8834961069
 30
0.0
 10
30.5162911991
 20
193.7541732467
 30
0.0
 10
30.5172606992
 20
193.5664173409
 30
0.0
 10
30.5188358243
 20
193.3932716408
 30
0.0
 10
30.5209589023
 20
193.2417362092
 30
0.0
 10
30.5231594382
 20
193.131467445
 30
0.0
 10
30.5253069762
 20
193.0584358054
 30
0.0
 10
30.5267119955
 20
193.0157584458
 30
0.0
 10
30.5285997495
 20
192.9832533832
 30
0.0
 10
30.5294477943
 20
192.9573015776
 30
0.0
 10
30.532203242
 20
192.9461629014
 30
0.0
 10
30.5320631792
 20
192.9360156721
 30
0.0
 10
30.5337704177
 20
192.9361051447
 30
0.0
  0
SPLINE
  5
456
100
AcDbEntity
  8
0
100
AcDbSpline
 62
7
  6
CONTINUOUS
 70
0
 71
3
 72
18
 73
14
 74
0
 42
0.0000001
 43
0.0000001
 44
0.0000000001
 40
0.0
 40
0.0
 40
0.0
 40
0.0
 40
0.1946940146
 40
0.3826884206
 40
0.5556238358
 40
0.7070484224
 40
0.8312649247
 40
0.881719136
 40
0.9236863094
 40
0.9566897671
 40
0.9804947787
 40
0.9949410171
 40
1.0
 40
1.0
 40
1.0
 40
1.0
 10
30.5160691212
 20
223.9492890279
 30
0.0
 10
30.5160691212
 20
223.8834961069
 30
0.0
 10
30.5162911991
 20
223.7541732467
 30
0.0
 10
30.5172606992
 20
223.5664173409
 30
0.0
 10
30.5188358243
 20
223.3932716408
 30
0.0
 10
30.5209589023
 20
223.2417362092
 30
0.0
 10
30.5231594382
 20
223.131467445
 30
0.0
 10
30.5253069762
 20
223.0584358054
 30
0.0
 10
30.5267119955
 20
223.0157584458
 30
0.0
 10
30.5285997495
 20
222.9832533832
 30
0.0
 10
30.5294477943
 20
222.9573015776
 30
0.0
 10
30.532203242
 20
222.9461629014
 30
0.0
 10
30.5320631792
 20
222.9360156721
 30
0.0
 10
30.5337704177
 20
222.9361051447
 30
0.0
  0
SPLINE
  5
457
100
AcDbEntity
  8
0
100
AcDbSpline
 62
7
  6
CONTINUOUS
 70
0
 71
3
 72
18
 73
14
 74
0
 42
0.0000001
 43
0.0000001
 44
0.0000000001
 40
0.0
 40
0.0
 40
0.0
 40
0.0
 40
0.005058969
 40
0.0195051778
 40
0.0433101654
 40
0.076313626
 40
0.1182808232
 40
0.168735064
 40
0.2929516674
 40
0.444376429
 40
0.6173118642
 40
0.8053060859
 40
1.0
 40
1.0
 40
1.0
 40
1.0
 10
30.4464950931
 20
216.5670808771
 30
0.0
 10
30.4447801521
 20
216.5671707534
 30
0.0
 10
30.4449208366
 20
216.5569777421
 30
0.0
 10
30.442152959
 20
216.5457887958
 30
0.0
 10
30.4413010825
 20
216.5197198528
 30
0.0
 10
30.439404809
 20
216.487068048
 30
0.0
 10
30.4379934464
 20
216.4441980059
 30
0.0
 10
30.4358362116
 20
216.3708366193
 30
0.0
 10
30.4336257384
 20
216.2600699528
 30
0.0
 10
30.4314930777
 20
216.1078503276
 30
0.0
 10
30.429910841
 20
215.933922973
 30
0.0
 10
30.4289369643
 20
215.7453195498
 30
0.0
 10
30.4287138857
 20
215.6154129698
 30
0.0
 10
30.4287138857
 20
215.5493230667
 30
0.0
  0
SPLINE
  5
458
100
AcDbEntity
  8
0
100
AcDbSpline
 62
7
  6
CONTINUOUS
 70
0
 71
3
 72
18
 73
14
 74
0
 42
0.0000001
 43
0.0000001
 44
0.0000000001
 40
0.0
 40
0.0
 40
0.0
 40
0.0
 40
0.1946940146
 40
0.3826884206
 40
0.5556238358
 40
0.7070484225
 40
0.8312649247
 40
0.881719136
 40
0.9236863094
 40
0.9566897671
 40
0.9804947787
 40
0.9949410171
 40
1.0
 40
1.0
 40
1.0
 40
1.0
 10
30.4287138857
 20
193.9492889512
 30
0.0
 10
30.4287138857
 20
193.8831990139
 30
0.0
 10
30.4289369661
 20
193.7532923373
 30
0.0
 10
30.4299108429
 20
193.5646888241
 30
0.0
 10
30.4314930788
 20
193.3907614732
 30
0.0
 10
30.4336257412
 20
193.2385419484
 30
0.0
 10
30.4358362112
 20
193.1277753856
 30
0.0
 10
30.4379934441
 20
193.0544140512
 30
0.0
 10
30.4394048062
 20
193.0115440284
 30
0.0
 10
30.4413010824
 20
192.9788922246
 30
0.0
 10
30.4421529556
 20
192.9528232619
 30
0.0
 10
30.4449208425
 20
192.9416343012
 30
0.0
 10
30.4447801474
 20
192.9314412631
 30
0.0
 10
30.4464950931
 20
192.9315311396
 30
0.0
  0
SPLINE
  5
459
100
AcDbEntity
  8
0
100
AcDbSpline
 62
7
  6
CONTINUOUS
 70
0
 71
3
 72
18
 73
14
 74
0
 42
0.0000001
 43
0.0000001
 44
0.0000000001
 40
0.0
 40
0.0
 40
0.0
 40
0.0
 40
0.1946940146
 40
0.3826884206
 40
0.5556238358
 40
0.7070484224
 40
0.8312649247
 40
0.881719136
 40
0.9236863094
 40
0.9566897671
 40
0.9804947787
 40
0.9949410171
 40
1.0
 40
1.0
 40
1.0
 40
1.0
 10
30.4287138857
 20
223.9492889512
 30
0.0
 10
30.4287138857
 20
223.8831990139
 30
0.0
 10
30.4289369661
 20
223.7532923373
 30
0.0
 10
30.4299108429
 20
223.5646888241
 30
0.0
 10
30.4314930788
 20
223.3907614732
 30
0.0
 10
30.4336257412
 20
223.2385419484
 30
0.0
 10
30.4358362112
 20
223.1277753856
 30
0.0
 10
30.4379934441
 20
223.0544140512
 30
0.0
 10
30.4394048062
 20
223.0115440284
 30
0.0
 10
30.4413010824
 20
222.9788922246
 30
0.0
 10
30.4421529556
 20
222.9528232619
 30
0.0
 10
30.4449208425
 20
222.9416343012
 30
0.0
 10
30.4447801474
 20
222.9314412631
 30
0.0
 10
30.4464950931
 20
222.9315311396
 30
0.0
  0
SPLINE
  5
45A
100
AcDbEntity
  8
0
100
AcDbSpline
 62
7
  6
CONTINUOUS
 70
0
 71
3
 72
18
 73
14
 74
0
 42
0.0000001
 43
0.0000001
 44
0.0000000001
 40
0.0
 40
0.0
 40
0.0
 40
0.0
 40
0.005058969
 40
0.0195051778
 40
0.0433101654
 40
0.076313626
 40
0.1182808233
 40
0.168735064
 40
0.2929516674
 40
0.444376429
 40
0.6173118642
 40
0.8053060859
 40
1.0
 40
1.0
 40
1.0
 40
1.0
 10
30.3592197684
 20
216.5716548823
 30
0.0
 10
30.3574971203
 20
216.5717451624
 30
0.0
 10
30.3576384371
 20
216.5615063425
 30
0.0
 10
30.3548581203
 20
216.5502671117
 30
0.0
 10
30.3540024153
 20
216.5240810117
 30
0.0
 10
30.3520976197
 20
216.4912824656
 30
0.0
 10
30.3506799144
 20
216.4482197603
 30
0.0
 10
30.3485129846
 20
216.3745286786
 30
0.0
 10
30.3462925773
 20
216.2632642132
 30
0.0
 10
30.3441503322
 20
216.1103604942
 30
0.0
 10
30.3425609847
 20
215.9356514888
 30
0.0
 10
30.3415827313
 20
215.7462004587
 30
0.0
 10
30.3413586501
 20
215.6157100626
 30
0.0
 10
30.3413586501
 20
215.5493231434
 30
0.0
  0
SPLINE
  5
45B
100
AcDbEntity
  8
0
100
AcDbSpline
 62
7
  6
CONTINUOUS
 70
0
 71
3
 72
18
 73
14
 74
0
 42
0.0000001
 43
0.0000001
 44
0.0000000001
 40
0.0
 40
0.0
 40
0.0
 40
0.0
 40
0.1946940146
 40
0.3826884206
 40
0.5556238358
 40
0.7070484224
 40
0.8312649247
 40
0.881719136
 40
0.9236863094
 40
0.9566897671
 40
0.9804947787
 40
0.9949410171
 40
1.0
 40
1.0
 40
1.0
 40
1.0
 10
30.3413586501
 20
193.9492888746
 30
0.0
 10
30.3413586501
 20
193.882901921
 30
0.0
 10
30.3415827331
 20
193.7524114278
 30
0.0
 10
30.3425609866
 20
193.5629603073
 30
0.0
 10
30.3441503333
 20
193.3882513055
 30
0.0
 10
30.3462925801
 20
193.2353476875
 30
0.0
 10
30.3485129842
 20
193.1240833263
 30
0.0
 10
30.350679912
 20
193.050392297
 30
0.0
 10
30.352097617
 20
193.007329611
 30
0.0
 10
30.3540024152
 20
192.974531066
 30
0.0
 10
30.3548581168
 20
192.9483449462
 30
0.0
 10
30.357638443
 20
192.9371057009
 30
0.0
 10
30.3574971156
 20
192.9268668541
 30
0.0
 10
30.3592197684
 20
192.9269571345
 30
0.0
  0
SPLINE
  5
45C
100
AcDbEntity
  8
0
100
AcDbSpline
 62
7
  6
CONTINUOUS
 70
0
 71
3
 72
18
 73
14
 74
0
 42
0.0000001
 43
0.0000001
 44
0.0000000001
 40
0.0
 40
0.0
 40
0.0
 40
0.0
 40
0.1946940146
 40
0.3826884206
 40
0.5556238358
 40
0.7070484224
 40
0.8312649247
 40
0.881719136
 40
0.9236863094
 40
0.9566897671
 40
0.9804947787
 40
0.9949410171
 40
1.0
 40
1.0
 40
1.0
 40
1.0
 10
30.3413586501
 20
223.9492888746
 30
0.0
 10
30.3413586501
 20
223.882901921
 30
0.0
 10
30.3415827331
 20
223.7524114278
 30
0.0
 10
30.3425609866
 20
223.5629603073
 30
0.0
 10
30.3441503333
 20
223.3882513055
 30
0.0
 10
30.3462925801
 20
223.2353476875
 30
0.0
 10
30.3485129842
 20
223.1240833263
 30
0.0
 10
30.350679912
 20
223.050392297
 30
0.0
 10
30.352097617
 20
223.007329611
 30
0.0
 10
30.3540024152
 20
222.974531066
 30
0.0
 10
30.3548581168
 20
222.9483449462
 30
0.0
 10
30.357638443
 20
222.9371057009
 30
0.0
 10
30.3574971156
 20
222.9268668541
 30
0.0
 10
30.3592197684
 20
222.9269571345
 30
0.0
  0
SPLINE
  5
45D
100
AcDbEntity
  8
0
100
AcDbSpline
 62
7
  6
CONTINUOUS
 70
0
 71
3
 72
18
 73
14
 74
0
 42
0.0000001
 43
0.0000001
 44
0.0000000001
 40
0.0
 40
0.0
 40
0.0
 40
0.0
 40
0.005058969
 40
0.0195051778
 40
0.0433101654
 40
0.076313626
 40
0.1182808232
 40
0.168735064
 40
0.2929516674
 40
0.444376429
 40
0.6173118642
 40
0.8053060859
 40
1.0
 40
1.0
 40
1.0
 40
1.0
 10
30.2719444438
 20
216.5762288873
 30
0.0
 10
30.2702140885
 20
216.5763195714
 30
0.0
 10
30.2703560375
 20
216.5660349429
 30
0.0
 10
30.2675632816
 20
216.5547454276
 30
0.0
 10
30.2667037481
 20
216.5284421705
 30
0.0
 10
30.2647904305
 20
216.4954968833
 30
0.0
 10
30.2633663823
 20
216.4522415148
 30
0.0
 10
30.2611897577
 20
216.3782207379
 30
0.0
 10
30.2589594162
 20
216.2664584735
 30
0.0
 10
30.2568075867
 20
216.1128706609
 30
0.0
 10
30.2552111284
 20
215.9373800047
 30
0.0
 10
30.2542284982
 20
215.7470813676
 30
0.0
 10
30.2540034145
 20
215.6160071554
 30
0.0
 10
30.2540034145
 20
215.54932322
 30
0.0
  0
SPLINE
  5
45E
100
AcDbEntity
  8
0
100
AcDbSpline
 62
7
  6
CONTINUOUS
 70
0
 71
3
 72
18
 73
14
 74
0
 42
0.0000001
 43
0.0000001
 44
0.0000000001
 40
0.0
 40
0.0
 40
0.0
 40
0.0
 40
0.1946940146
 40
0.3826884206
 40
0.5556238358
 40
0.7070484224
 40
0.8312649247
 40
0.881719136
 40
0.9236863093
 40
0.9566897671
 40
0.9804947787
 40
0.9949410171
 40
1.0
 40
1.0
 40
1.0
 40
1.0
 10
30.2540034145
 20
193.9492887979
 30
0.0
 10
30.2540034145
 20
193.8826048281
 30
0.0
 10
30.2542285001
 20
193.7515305183
 30
0.0
 10
30.2552111303
 20
193.5612317905
 30
0.0
 10
30.2568075878
 20
193.3857411378
 30
0.0
 10
30.2589594191
 20
193.2321534266
 30
0.0
 10
30.2611897573
 20
193.1203912669
 30
0.0
 10
30.2633663799
 20
193.0463705427
 30
0.0
 10
30.2647904277
 20
193.0031151937
 30
0.0
 10
30.266703748
 20
192.9701699074
 30
0.0
 10
30.2675632781
 20
192.9438666305
 30
0.0
 10
30.2703560435
 20
192.9325771007
 30
0.0
 10
30.2702140838
 20
192.922292445
 30
0.0
 10
30.2719444438
 20
192.9223831294
 30
0.0
  0
SPLINE
  5
45F
100
AcDbEntity
  8
0
100
AcDbSpline
 62
7
  6
CONTINUOUS
 70
0
 71
3
 72
18
 73
14
 74
0
 42
0.0000001
 43
0.0000001
 44
0.0000000001
 40
0.0
 40
0.0
 40
0.0
 40
0.0
 40
0.1946940146
 40
0.3826884206
 40
0.5556238357
 40
0.7070484224
 40
0.8312649246
 40
0.8817191359
 40
0.9236863093
 40
0.9566897671
 40
0.9804947787
 40
0.9949410171
 40
1.0
 40
1.0
 40
1.0
 40
1.0
 10
30.2540034145
 20
223.9492887979
 30
0.0
 10
30.2540034145
 20
223.8826048281
 30
0.0
 10
30.2542285001
 20
223.7515305183
 30
0.0
 10
30.2552111303
 20
223.5612317905
 30
0.0
 10
30.2568075878
 20
223.3857411378
 30
0.0
 10
30.2589594191
 20
223.2321534266
 30
0.0
 10
30.2611897573
 20
223.1203912669
 30
0.0
 10
30.2633663799
 20
223.0463705427
 30
0.0
 10
30.2647904277
 20
223.0031151937
 30
0.0
 10
30.266703748
 20
222.9701699074
 30
0.0
 10
30.2675632781
 20
222.9438666305
 30
0.0
 10
30.2703560435
 20
222.9325771006
 30
0.0
 10
30.2702140838
 20
222.922292445
 30
0.0
 10
30.2719444438
 20
222.9223831293
 30
0.0
  0
SPLINE
  5
460
100
AcDbEntity
  8
0
100
AcDbSpline
 62
7
  6
CONTINUOUS
 70
0
 71
3
 72
18
 73
14
 74
0
 42
0.0000001
 43
0.0000001
 44
0.0000000001
 40
0.0
 40
0.0
 40
0.0
 40
0.0
 40
0.005058969
 40
0.0195051778
 40
0.0433101654
 40
0.076313626
 40
0.1182808233
 40
0.1687350641
 40
0.2929516674
 40
0.444376429
 40
0.6173118642
 40
0.8053060859
 40
1.0
 40
1.0
 40
1.0
 40
1.0
 10
30.1846691191
 20
216.5808028925
 30
0.0
 10
30.1829310567
 20
216.5808939805
 30
0.0
 10
30.183073638
 20
216.5705635433
 30
0.0
 10
30.1802684429
 20
216.5592237435
 30
0.0
 10
30.179405081
 20
216.5328033294
 30
0.0
 10
30.1774832412
 20
216.4997113009
 30
0.0
 10
30.1760528502
 20
216.4562632692
 30
0.0
 10
30.1738665307
 20
216.3819127973
 30
0.0
 10
30.1716262551
 20
216.2696527339
 30
0.0
 10
30.1694648411
 20
216.1153808276
 30
0.0
 10
30.1678612721
 20
215.9391085205
 30
0.0
 10
30.1668742652
 20
215.7479622765
 30
0.0
 10
30.166648179
 20
215.6163042482
 30
0.0
 10
30.166648179
 20
215.5493232967
 30
0.0
  0
SPLINE
  5
461
100
AcDbEntity
  8
0
100
AcDbSpline
 62
7
  6
CONTINUOUS
 70
0
 71
3
 72
18
 73
14
 74
0
 42
0.0000001
 43
0.0000001
 44
0.0000000001
 40
0.0
 40
0.0
 40
0.0
 40
0.0
 40
0.1946940146
 40
0.3826884206
 40
0.5556238358
 40
0.7070484224
 40
0.8312649247
 40
0.881719136
 40
0.9236863094
 40
0.9566897671
 40
0.9804947787
 40
0.9949410171
 40
1.0
 40
1.0
 40
1.0
 40
1.0
 10
30.166648179
 20
193.9492887212
 30
0.0
 10
30.166648179
 20
193.8823077351
 30
0.0
 10
30.166874267
 20
193.7506496088
 30
0.0
 10
30.167861274
 20
193.5595032737
 30
0.0
 10
30.1694648422
 20
193.3832309702
 30
0.0
 10
30.171626258
 20
193.2289591657
 30
0.0
 10
30.1738665303
 20
193.1166992075
 30
0.0
 10
30.1760528478
 20
193.0423487885
 30
0.0
 10
30.1774832385
 20
192.9989007763
 30
0.0
 10
30.1794050809
 20
192.9658087488
 30
0.0
 10
30.1802684393
 20
192.9393883148
 30
0.0
 10
30.183073644
 20
192.9280485004
 30
0.0
 10
30.182931052
 20
192.917718036
 30
0.0
 10
30.1846691191
 20
192.9178091242
 30
0.0
  0
SPLINE
  5
462
100
AcDbEntity
  8
0
100
AcDbSpline
 62
7
  6
CONTINUOUS
 70
0
 71
3
 72
18
 73
14
 74
0
 42
0.0000001
 43
0.0000001
 44
0.0000000001
 40
0.0
 40
0.0
 40
0.0
 40
0.0
 40
0.1946940146
 40
0.3826884206
 40
0.5556238358
 40
0.7070484224
 40
0.8312649247
 40
0.881719136
 40
0.9236863094
 40
0.9566897671
 40
0.9804947787
 40
0.9949410171
 40
1.0
 40
1.0
 40
1.0
 40
1.0
 10
30.166648179
 20
223.9492887212
 30
0.0
 10
30.166648179
 20
223.8823077351
 30
0.0
 10
30.166874267
 20
223.7506496088
 30
0.0
 10
30.167861274
 20
223.5595032737
 30
0.0
 10
30.1694648422
 20
223.3832309702
 30
0.0
 10
30.171626258
 20
223.2289591657
 30
0.0
 10
30.1738665303
 20
223.1166992075
 30
0.0
 10
30.1760528478
 20
223.0423487885
 30
0.0
 10
30.1774832385
 20
222.9989007763
 30
0.0
 10
30.1794050809
 20
222.9658087488
 30
0.0
 10
30.1802684393
 20
222.9393883148
 30
0.0
 10
30.183073644
 20
222.9280485004
 30
0.0
 10
30.182931052
 20
222.917718036
 30
0.0
 10
30.1846691191
 20
222.9178091242
 30
0.0
  0
SPLINE
  5
463
100
AcDbEntity
  8
0
100
AcDbSpline
 62
7
  6
CONTINUOUS
 70
0
 71
3
 72
18
 73
14
 74
0
 42
0.0000001
 43
0.0000001
 44
0.0000000001
 40
0.0
 40
0.0
 40
0.0
 40
0.0
 40
0.005058969
 40
0.0195051778
 40
0.0433101654
 40
0.076313626
 40
0.1182808233
 40
0.1687350641
 40
0.2929516674
 40
0.444376429
 40
0.6173118642
 40
0.8053060859
 40
1.0
 40
1.0
 40
1.0
 40
1.0
 10
30.0973937945
 20
216.5853768976
 30
0.0
 10
30.0956480249
 20
216.5854683895
 30
0.0
 10
30.0957912385
 20
216.5750921437
 30
0.0
 10
30.0929736042
 20
216.5637020594
 30
0.0
 10
30.0921064138
 20
216.5371644882
 30
0.0
 10
30.090176052
 20
216.5039257186
 30
0.0
 10
30.0887393181
 20
216.4602850236
 30
0.0
 10
30.0865433038
 20
216.3856048566
 30
0.0
 10
30.084293094
 20
216.2728469942
 30
0.0
 10
30.0821220956
 20
216.1178909943
 30
0.0
 10
30.0805114158
 20
215.9408370363
 30
0.0
 10
30.0795200322
 20
215.7488431854
 30
0.0
 10
30.0792929434
 20
215.616601341
 30
0.0
 10
30.0792929434
 20
215.5493233733
 30
0.0
  0
SPLINE
  5
464
100
AcDbEntity
  8
0
100
AcDbSpline
 62
7
  6
CONTINUOUS
 70
0
 71
3
 72
18
 73
14
 74
0
 42
0.0000001
 43
0.0000001
 44
0.0000000001
 40
0.0
 40
0.0
 40
0.0
 40
0.0
 40
0.1946940146
 40
0.3826884206
 40
0.5556238358
 40
0.7070484224
 40
0.8312649247
 40
0.881719136
 40
0.9236863094
 40
0.9566897671
 40
0.9804947787
 40
0.9949410171
 40
1.0
 40
1.0
 40
1.0
 40
1.0
 10
30.0792929434
 20
193.9492886446
 30
0.0
 10
30.0792929434
 20
193.8820106422
 30
0.0
 10
30.079520034
 20
193.7497686993
 30
0.0
 10
30.0805114178
 20
193.5577747569
 30
0.0
 10
30.0821220967
 20
193.3807208025
 30
0.0
 10
30.0842930969
 20
193.2257649049
 30
0.0
 10
30.0865433034
 20
193.1130071481
 30
0.0
 10
30.0887393157
 20
193.0383270343
 30
0.0
 10
30.0901760492
 20
192.9946863589
 30
0.0
 10
30.0921064137
 20
192.9614475902
 30
0.0
 10
30.0929736006
 20
192.9349099991
 30
0.0
 10
30.0957912444
 20
192.9235199002
 30
0.0
 10
30.0956480202
 20
192.913143627
 30
0.0
 10
30.0973937945
 20
192.9132351191
 30
0.0
  0
SPLINE
  5
465
100
AcDbEntity
  8
0
100
AcDbSpline
 62
7
  6
CONTINUOUS
 70
0
 71
3
 72
18
 73
14
 74
0
 42
0.0000001
 43
0.0000001
 44
0.0000000001
 40
0.0
 40
0.0
 40
0.0
 40
0.0
 40
0.1946940146
 40
0.3826884206
 40
0.5556238357
 40
0.7070484224
 40
0.8312649246
 40
0.8817191359
 40
0.9236863093
 40
0.9566897671
 40
0.9804947787
 40
0.9949410171
 40
1.0
 40
1.0
 40
1.0
 40
1.0
 10
30.0792929434
 20
223.9492886446
 30
0.0
 10
30.0792929434
 20
223.8820106422
 30
0.0
 10
30.079520034
 20
223.7497686993
 30
0.0
 10
30.0805114178
 20
223.5577747569
 30
0.0
 10
30.0821220967
 20
223.3807208025
 30
0.0
 10
30.0842930969
 20
223.2257649049
 30
0.0
 10
30.0865433034
 20
223.1130071481
 30
0.0
 10
30.0887393157
 20
223.0383270343
 30
0.0
 10
30.0901760492
 20
222.9946863589
 30
0.0
 10
30.0921064137
 20
222.9614475902
 30
0.0
 10
30.0929736006
 20
222.9349099991
 30
0.0
 10
30.0957912444
 20
222.9235199001
 30
0.0
 10
30.0956480202
 20
222.9131436269
 30
0.0
 10
30.0973937945
 20
222.9132351191
 30
0.0
  0
SPLINE
  5
466
100
AcDbEntity
  8
0
100
AcDbSpline
 62
7
  6
CONTINUOUS
 70
0
 71
3
 72
18
 73
14
 74
0
 42
0.0000001
 43
0.0000001
 44
0.0000000001
 40
0.0
 40
0.0
 40
0.0
 40
0.0
 40
0.005058969
 40
0.0195051778
 40
0.0433101654
 40
0.076313626
 40
0.1182808232
 40
0.168735064
 40
0.2929516674
 40
0.444376429
 40
0.6173118642
 40
0.8053060859
 40
1.0
 40
1.0
 40
1.0
 40
1.0
 10
30.0101184699
 20
216.5899509027
 30
0.0
 10
30.0083649931
 20
216.5900427985
 30
0.0
 10
30.0085088389
 20
216.579620744
 30
0.0
 10
30.0056787654
 20
216.5681803752
 30
0.0
 10
30.0048077467
 20
216.5415256471
 30
0.0
 10
30.0028688627
 20
216.5081401362
 30
0.0
 10
30.001425786
 20
216.464306778
 30
0.0
 10
29.9992200768
 20
216.389296916
 30
0.0
 10
29.9969599329
 20
216.2760412546
 30
0.0
 10
29.99477935
 20
216.120401161
 30
0.0
 10
29.9931615595
 20
215.9425655521
 30
0.0
 10
29.9921657992
 20
215.7497240943
 30
0.0
 10
29.9919377078
 20
215.6168984338
 30
0.0
 10
29.9919377078
 20
215.54932345
 30
0.0
  0
SPLINE
  5
467
100
AcDbEntity
  8
0
100
AcDbSpline
 62
7
  6
CONTINUOUS
 70
0
 71
3
 72
18
 73
14
 74
0
 42
0.0000001
 43
0.0000001
 44
0.0000000001
 40
0.0
 40
0.0
 40
0.0
 40
0.0
 40
0.1946940146
 40
0.3826884206
 40
0.5556238358
 40
0.7070484224
 40
0.8312649247
 40
0.881719136
 40
0.9236863094
 40
0.9566897671
 40
0.9804947787
 40
0.9949410171
 40
1.0
 40
1.0
 40
1.0
 40
1.0
 10
29.9919377078
 20
193.9492885679
 30
0.0
 10
29.9919377078
 20
193.8817135492
 30
0.0
 10
29.992165801
 20
193.7488877898
 30
0.0
 10
29.9931615615
 20
193.5560462401
 30
0.0
 10
29.9947793512
 20
193.3782106349
 30
0.0
 10
29.9969599358
 20
193.222570644
 30
0.0
 10
29.9992200764
 20
193.1093150887
 30
0.0
 10
30.0014257837
 20
193.0343052801
 30
0.0
 10
30.0028688599
 20
192.9904719416
 30
0.0
 10
30.0048077466
 20
192.9570864317
 30
0.0
 10
30.0056787619
 20
192.9304316834
 30
0.0
 10
30.0085088449
 20
192.9189912999
 30
0.0
 10
30.0083649883
 20
192.908569218
 30
0.0
 10
30.0101184699
 20
192.908661114
 30
0.0
  0
SPLINE
  5
468
100
AcDbEntity
  8
0
100
AcDbSpline
 62
7
  6
CONTINUOUS
 70
0
 71
3
 72
18
 73
14
 74
0
 42
0.0000001
 43
0.0000001
 44
0.0000000001
 40
0.0
 40
0.0
 40
0.0
 40
0.0
 40
0.1946940146
 40
0.3826884206
 40
0.5556238358
 40
0.7070484225
 40
0.8312649247
 40
0.881719136
 40
0.9236863094
 40
0.9566897671
 40
0.9804947787
 40
0.9949410171
 40
1.0
 40
1.0
 40
1.0
 40
1.0
 10
29.9919377078
 20
223.9492885679
 30
0.0
 10
29.9919377078
 20
223.8817135492
 30
0.0
 10
29.992165801
 20
223.7488877898
 30
0.0
 10
29.9931615615
 20
223.5560462401
 30
0.0
 10
29.9947793512
 20
223.3782106349
 30
0.0
 10
29.9969599358
 20
223.222570644
 30
0.0
 10
29.9992200764
 20
223.1093150887
 30
0.0
 10
30.0014257837
 20
223.0343052801
 30
0.0
 10
30.0028688599
 20
222.9904719416
 30
0.0
 10
30.0048077466
 20
222.9570864317
 30
0.0
 10
30.0056787619
 20
222.9304316834
 30
0.0
 10
30.0085088449
 20
222.9189912999
 30
0.0
 10
30.0083649884
 20
222.908569218
 30
0.0
 10
30.0101184699
 20
222.9086611141
 30
0.0
  0
SPLINE
  5
469
100
AcDbEntity
  8
0
100
AcDbSpline
 62
7
  6
CONTINUOUS
 70
0
 71
3
 72
18
 73
14
 74
0
 42
0.0000001
 43
0.0000001
 44
0.0000000001
 40
0.0
 40
0.0
 40
0.0
 40
0.0
 40
0.005058969
 40
0.0195051778
 40
0.0433101654
 40
0.076313626
 40
0.1182808232
 40
0.168735064
 40
0.2929516674
 40
0.444376429
 40
0.6173118642
 40
0.8053060859
 40
1.0
 40
1.0
 40
1.0
 40
1.0
 10
29.9228431452
 20
216.5945249078
 30
0.0
 10
29.9210819614
 20
216.5946172075
 30
0.0
 10
29.9212264394
 20
216.5841493444
 30
0.0
 10
29.9183839267
 20
216.5726586911
 30
0.0
 10
29.9175090795
 20
216.5458868059
 30
0.0
 10
29.9155616735
 20
216.5123545538
 30
0.0
 10
29.9141122539
 20
216.4683285324
 30
0.0
 10
29.9118968498
 20
216.3929889753
 30
0.0
 10
29.9096267718
 20
216.2792355149
 30
0.0
 10
29.9074366045
 20
216.1229113277
 30
0.0
 10
29.9058117032
 20
215.9442940679
 30
0.0
 10
29.9048115661
 20
215.7506050032
 30
0.0
 10
29.9045824723
 20
215.6171955266
 30
0.0
 10
29.9045824723
 20
215.5493235267
 30
0.0
  0
SPLINE
  5
46A
100
AcDbEntity
  8
0
100
AcDbSpline
 62
7
  6
CONTINUOUS
 70
0
 71
3
 72
18
 73
14
 74
0
 42
0.0000001
 43
0.0000001
 44
0.0000000001
 40
0.0
 40
0.0
 40
0.0
 40
0.0
 40
0.1946940146
 40
0.3826884206
 40
0.5556238358
 40
0.7070484225
 40
0.8312649247
 40
0.881719136
 40
0.9236863094
 40
0.9566897671
 40
0.9804947787
 40
0.9949410171
 40
1.0
 40
1.0
 40
1.0
 40
1.0
 10
29.9045824723
 20
193.9492884913
 30
0.0
 10
29.9045824723
 20
193.8814164563
 30
0.0
 10
29.904811568
 20
193.7480068804
 30
0.0
 10
29.9058117052
 20
193.5543177233
 30
0.0
 10
29.9074366056
 20
193.3757004672
 30
0.0
 10
29.9096267747
 20
193.2193763831
 30
0.0
 10
29.9118968494
 20
193.1056230293
 30
0.0
 10
29.9141122516
 20
193.0302835258
 30
0.0
 10
29.9155616707
 20
192.9862575242
 30
0.0
 10
29.9175090794
 20
192.9527252731
 30
0.0
 10
29.9183839231
 20
192.9259533677
 30
0.0
 10
29.9212264454
 20
192.9144626997
 30
0.0
 10
29.9210819565
 20
192.903994809
 30
0.0
 10
29.9228431452
 20
192.904087109
 30
0.0
  0
SPLINE
  5
46B
100
AcDbEntity
  8
0
100
AcDbSpline
 62
7
  6
CONTINUOUS
 70
0
 71
3
 72
18
 73
14
 74
0
 42
0.0000001
 43
0.0000001
 44
0.0000000001
 40
0.0
 40
0.0
 40
0.0
 40
0.0
 40
0.1946940146
 40
0.3826884206
 40
0.5556238357
 40
0.7070484224
 40
0.8312649246
 40
0.8817191359
 40
0.9236863093
 40
0.9566897671
 40
0.9804947787
 40
0.9949410171
 40
1.0
 40
1.0
 40
1.0
 40
1.0
 10
29.9045824723
 20
223.9492884913
 30
0.0
 10
29.9045824723
 20
223.8814164563
 30
0.0
 10
29.904811568
 20
223.7480068804
 30
0.0
 10
29.9058117052
 20
223.5543177233
 30
0.0
 10
29.9074366056
 20
223.3757004672
 30
0.0
 10
29.9096267747
 20
223.2193763831
 30
0.0
 10
29.9118968494
 20
223.1056230293
 30
0.0
 10
29.9141122516
 20
223.0302835258
 30
0.0
 10
29.9155616707
 20
222.9862575242
 30
0.0
 10
29.9175090794
 20
222.9527252731
 30
0.0
 10
29.9183839231
 20
222.9259533677
 30
0.0
 10
29.9212264454
 20
222.9144626996
 30
0.0
 10
29.9210819565
 20
222.9039948089
 30
0.0
 10
29.9228431452
 20
222.9040871089
 30
0.0
  0
SPLINE
  5
46C
100
AcDbEntity
  8
0
100
AcDbSpline
 62
7
  6
CONTINUOUS
 70
0
 71
3
 72
18
 73
14
 74
0
 42
0.0000001
 43
0.0000001
 44
0.0000000001
 40
0.0
 40
0.0
 40
0.0
 40
0.0
 40
0.005058969
 40
0.0195051778
 40
0.0433101654
 40
0.0763136259
 40
0.1182808232
 40
0.168735064
 40
0.2929516673
 40
0.4443764289
 40
0.6173118642
 40
0.8053060859
 40
1.0
 40
1.0
 40
1.0
 40
1.0
 10
29.8355678206
 20
216.5990989128
 30
0.0
 10
29.8337989296
 20
216.5991916165
 30
0.0
 10
29.8339440398
 20
216.5886779447
 30
0.0
 10
29.831089088
 20
216.577137007
 30
0.0
 10
29.8302104123
 20
216.5502479648
 30
0.0
 10
29.8282544842
 20
216.5165689715
 30
0.0
 10
29.8267987219
 20
216.4723502868
 30
0.0
 10
29.8245736229
 20
216.3966810346
 30
0.0
 10
29.8222936107
 20
216.2824297753
 30
0.0
 10
29.820093859
 20
216.1254214943
 30
0.0
 10
29.8184618469
 20
215.9460225837
 30
0.0
 10
29.8174573331
 20
215.7514859121
 30
0.0
 10
29.8172272367
 20
215.6174926194
 30
0.0
 10
29.8172272367
 20
215.5493236033
 30
0.0
  0
SPLINE
  5
46D
100
AcDbEntity
  8
0
100
AcDbSpline
 62
7
  6
CONTINUOUS
 70
0
 71
3
 72
18
 73
14
 74
0
 42
0.0000001
 43
0.0000001
 44
0.0000000001
 40
0.0
 40
0.0
 40
0.0
 40
0.0
 40
0.1946940146
 40
0.3826884206
 40
0.5556238358
 40
0.7070484225
 40
0.8312649247
 40
0.881719136
 40
0.9236863094
 40
0.9566897671
 40
0.9804947787
 40
0.9949410171
 40
1.0
 40
1.0
 40
1.0
 40
1.0
 10
29.8172272367
 20
193.9492884146
 30
0.0
 10
29.8172272367
 20
193.8811193633
 30
0.0
 10
29.817457335
 20
193.7471259709
 30
0.0
 10
29.8184618489
 20
193.5525892065
 30
0.0
 10
29.8200938601
 20
193.3731902996
 30
0.0
 10
29.8222936136
 20
193.2161821223
 30
0.0
 10
29.8245736225
 20
193.1019309699
 30
0.0
 10
29.8267987195
 20
193.0262617716
 30
0.0
 10
29.8282544814
 20
192.9820431068
 30
0.0
 10
29.8302104122
 20
192.9483641145
 30
0.0
 10
29.8310890844
 20
192.921475052
 30
0.0
 10
29.8339440459
 20
192.9099340994
 30
0.0
 10
29.8337989247
 20
192.8994204
 30
0.0
 10
29.8355678206
 20
192.8995131039
 30
0.0
  0
SPLINE
  5
46E
100
AcDbEntity
  8
0
100
AcDbSpline
 62
7
  6
CONTINUOUS
 70
0
 71
3
 72
18
 73
14
 74
0
 42
0.0000001
 43
0.0000001
 44
0.0000000001
 40
0.0
 40
0.0
 40
0.0
 40
0.0
 40
0.1946940146
 40
0.3826884206
 40
0.5556238358
 40
0.7070484225
 40
0.8312649247
 40
0.881719136
 40
0.9236863094
 40
0.9566897671
 40
0.9804947787
 40
0.9949410171
 40
1.0
 40
1.0
 40
1.0
 40
1.0
 10
29.8172272367
 20
223.9492884146
 30
0.0
 10
29.8172272367
 20
223.8811193633
 30
0.0
 10
29.817457335
 20
223.7471259709
 30
0.0
 10
29.8184618489
 20
223.5525892065
 30
0.0
 10
29.8200938601
 20
223.3731902996
 30
0.0
 10
29.8222936136
 20
223.2161821223
 30
0.0
 10
29.8245736225
 20
223.1019309699
 30
0.0
 10
29.8267987195
 20
223.0262617716
 30
0.0
 10
29.8282544814
 20
222.9820431068
 30
0.0
 10
29.8302104122
 20
222.9483641145
 30
0.0
 10
29.8310890844
 20
222.9214750521
 30
0.0
 10
29.8339440459
 20
222.9099340994
 30
0.0
 10
29.8337989247
 20
222.8994204
 30
0.0
 10
29.8355678206
 20
222.8995131039
 30
0.0
  0
SPLINE
  5
46F
100
AcDbEntity
  8
0
100
AcDbSpline
 62
7
  6
CONTINUOUS
 70
0
 71
3
 72
18
 73
14
 74
0
 42
0.0000001
 43
0.0000001
 44
0.0000000001
 40
0.0
 40
0.0
 40
0.0
 40
0.0
 40
0.005058969
 40
0.0195051778
 40
0.0433101654
 40
0.076313626
 40
0.1182808232
 40
0.168735064
 40
0.2929516674
 40
0.444376429
 40
0.6173118642
 40
0.8053060859
 40
1.0
 40
1.0
 40
1.0
 40
1.0
 10
29.7482924959
 20
216.603672918
 30
0.0
 10
29.7465158978
 20
216.6037660255
 30
0.0
 10
29.7466616403
 20
216.5932065451
 30
0.0
 10
29.7437942493
 20
216.5816153229
 30
0.0
 10
29.7429117452
 20
216.5546091236
 30
0.0
 10
29.740947295
 20
216.5207833891
 30
0.0
 10
29.7394851898
 20
216.4763720412
 30
0.0
 10
29.7372503959
 20
216.400373094
 30
0.0
 10
29.7349604496
 20
216.2856240356
 30
0.0
 10
29.7327511134
 20
216.127931661
 30
0.0
 10
29.7311119906
 20
215.9477510996
 30
0.0
 10
29.7301031001
 20
215.752366821
 30
0.0
 10
29.7298720011
 20
215.6177897122
 30
0.0
 10
29.7298720011
 20
215.54932368
 30
0.0
  0
SPLINE
  5
470
100
AcDbEntity
  8
0
100
AcDbSpline
 62
7
  6
CONTINUOUS
 70
0
 71
3
 72
18
 73
14
 74
0
 42
0.0000001
 43
0.0000001
 44
0.0000000001
 40
0.0
 40
0.0
 40
0.0
 40
0.0
 40
0.1946940146
 40
0.3826884206
 40
0.5556238358
 40
0.7070484225
 40
0.8312649247
 40
0.881719136
 40
0.9236863094
 40
0.9566897671
 40
0.9804947787
 40
0.9949410171
 40
1.0
 40
1.0
 40
1.0
 40
1.0
 10
29.7298720011
 20
193.949288338
 30
0.0
 10
29.7298720011
 20
193.8808222704
 30
0.0
 10
29.730103102
 20
193.7462450614
 30
0.0
 10
29.7311119926
 20
193.5508606897
 30
0.0
 10
29.7327511146
 20
193.3706801319
 30
0.0
 10
29.7349604525
 20
193.2129878614
 30
0.0
 10
29.7372503955
 20
193.0982389105
 30
0.0
 10
29.7394851874
 20
193.0222400174
 30
0.0
 10
29.7409472922
 20
192.9778286895
 30
0.0
 10
29.7429117451
 20
192.9440029559
 30
0.0
 10
29.7437942456
 20
192.9169967364
 30
0.0
 10
29.7466616464
 20
192.9054054991
 30
0.0
 10
29.7465158929
 20
192.8948459909
 30
0.0
 10
29.7482924959
 20
192.8949390988
 30
0.0
  0
SPLINE
  5
471
100
AcDbEntity
  8
0
100
AcDbSpline
 62
7
  6
CONTINUOUS
 70
0
 71
3
 72
18
 73
14
 74
0
 42
0.0000001
 43
0.0000001
 44
0.0000000001
 40
0.0
 40
0.0
 40
0.0
 40
0.0
 40
0.1946940146
 40
0.3826884206
 40
0.5556238358
 40
0.7070484224
 40
0.8312649247
 40
0.881719136
 40
0.9236863094
 40
0.9566897671
 40
0.9804947787
 40
0.9949410171
 40
1.0
 40
1.0
 40
1.0
 40
1.0
 10
29.7298720011
 20
223.949288338
 30
0.0
 10
29.7298720011
 20
223.8808222704
 30
0.0
 10
29.730103102
 20
223.7462450614
 30
0.0
 10
29.7311119926
 20
223.5508606897
 30
0.0
 10
29.7327511146
 20
223.3706801319
 30
0.0
 10
29.7349604525
 20
223.2129878614
 30
0.0
 10
29.7372503955
 20
223.0982389105
 30
0.0
 10
29.7394851874
 20
223.0222400174
 30
0.0
 10
29.7409472922
 20
222.9778286895
 30
0.0
 10
29.7429117451
 20
222.9440029559
 30
0.0
 10
29.7437942456
 20
222.9169967363
 30
0.0
 10
29.7466616464
 20
222.9054054991
 30
0.0
 10
29.7465158929
 20
222.8948459909
 30
0.0
 10
29.7482924959
 20
222.8949390987
 30
0.0
  0
SPLINE
  5
472
100
AcDbEntity
  8
0
100
AcDbSpline
 62
7
  6
CONTINUOUS
 70
0
 71
3
 72
18
 73
14
 74
0
 42
0.0000001
 43
0.0000001
 44
0.0000000001
 40
0.0
 40
0.0
 40
0.0
 40
0.0
 40
0.005058969
 40
0.0195051778
 40
0.0433101654
 40
0.076313626
 40
0.1182808232
 40
0.168735064
 40
0.2929516674
 40
0.444376429
 40
0.6173118642
 40
0.8053060859
 40
1.0
 40
1.0
 40
1.0
 40
1.0
 10
29.6610171713
 20
216.6082469231
 30
0.0
 10
29.659232866
 20
216.6083404346
 30
0.0
 10
29.6593792407
 20
216.5977351455
 30
0.0
 10
29.6564994105
 20
216.5860936388
 30
0.0
 10
29.655613078
 20
216.5589702825
 30
0.0
 10
29.6536401058
 20
216.5249978068
 30
0.0
 10
29.6521716577
 20
216.4803937956
 30
0.0
 10
29.6499271689
 20
216.4040651533
 30
0.0
 10
29.6476272885
 20
216.288818296
 30
0.0
 10
29.6454083679
 20
216.1304418277
 30
0.0
 10
29.6437621343
 20
215.9494796154
 30
0.0
 10
29.6427488671
 20
215.7532477299
 30
0.0
 10
29.6425167656
 20
215.618086805
 30
0.0
 10
29.6425167656
 20
215.5493237567
 30
0.0
  0
SPLINE
  5
473
100
AcDbEntity
  8
0
100
AcDbSpline
 62
7
  6
CONTINUOUS
 70
0
 71
3
 72
18
 73
14
 74
0
 42
0.0000001
 43
0.0000001
 44
0.0000000001
 40
0.0
 40
0.0
 40
0.0
 40
0.0
 40
0.1946940146
 40
0.3826884206
 40
0.5556238358
 40
0.7070484224
 40
0.8312649247
 40
0.881719136
 40
0.9236863094
 40
0.9566897671
 40
0.9804947787
 40
0.9949410171
 40
1.0
 40
1.0
 40
1.0
 40
1.0
 10
29.6425167656
 20
193.9492882613
 30
0.0
 10
29.6425167656
 20
193.8805251775
 30
0.0
 10
29.6427488689
 20
193.7453641519
 30
0.0
 10
29.6437621363
 20
193.5491321729
 30
0.0
 10
29.645408369
 20
193.3681699643
 30
0.0
 10
29.6476272915
 20
193.2097936005
 30
0.0
 10
29.6499271685
 20
193.0945468511
 30
0.0
 10
29.6521716553
 20
193.0182182631
 30
0.0
 10
29.6536401029
 20
192.9736142721
 30
0.0
 10
29.6556130779
 20
192.9396417974
 30
0.0
 10
29.6564994069
 20
192.9125184206
 30
0.0
 10
29.6593792469
 20
192.9008768989
 30
0.0
 10
29.6592328611
 20
192.8902715819
 30
0.0
 10
29.6610171713
 20
192.8903650936
 30
0.0
  0
SPLINE
  5
474
100
AcDbEntity
  8
0
100
AcDbSpline
 62
7
  6
CONTINUOUS
 70
0
 71
3
 72
18
 73
14
 74
0
 42
0.0000001
 43
0.0000001
 44
0.0000000001
 40
0.0
 40
0.0
 40
0.0
 40
0.0
 40
0.1946940146
 40
0.3826884206
 40
0.5556238358
 40
0.7070484224
 40
0.8312649247
 40
0.881719136
 40
0.9236863094
 40
0.9566897671
 40
0.9804947787
 40
0.9949410171
 40
1.0
 40
1.0
 40
1.0
 40
1.0
 10
203.334598557
 20
215.5493229122
 30
0.0
 10
203.334598557
 20
215.6148188169
 30
0.0
 10
203.3343774817
 20
215.7435578605
 30
0.0
 10
203.3334123583
 20
215.930466159
 30
0.0
 10
203.3318443439
 20
216.1028302082
 30
0.0
 10
203.3297308504
 20
216.2536815466
 30
0.0
 10
203.3275402487
 20
216.3634525123
 30
0.0
 10
203.3254024055
 20
216.436154457
 30
0.0
 10
203.3240037291
 20
216.4786391535
 30
0.0
 10
203.3221244971
 20
216.510997475
 30
0.0
 10
203.3212802808
 20
216.5368321234
 30
0.0
 10
203.3185372723
 20
216.547920515
 30
0.0
 10
203.3186767027
 20
216.5580219356
 30
0.0
 10
203.3169771715
 20
216.5579328669
 30
0.0
  0
SPLINE
  5
475
100
AcDbEntity
  8
0
100
AcDbSpline
 62
7
  6
CONTINUOUS
 70
0
 71
3
 72
18
 73
14
 74
0
 42
0.0000001
 43
0.0000001
 44
0.0000000001
 40
0.0
 40
0.0
 40
0.0
 40
0.0
 40
0.005058969
 40
0.0195051778
 40
0.0433101654
 40
0.076313626
 40
0.1182808232
 40
0.168735064
 40
0.2929516674
 40
0.444376429
 40
0.6173118642
 40
0.8053060859
 40
1.0
 40
1.0
 40
1.0
 40
1.0
 10
203.3169771715
 20
192.9406791498
 30
0.0
 10
203.3186766981
 20
192.9405900814
 30
0.0
 10
203.3185372781
 20
192.9506914754
 30
0.0
 10
203.3212802773
 20
192.9617798526
 30
0.0
 10
203.322124497
 20
192.9876144816
 30
0.0
 10
203.3240037263
 20
193.019972804
 30
0.0
 10
203.3254024032
 20
193.0624575196
 30
0.0
 10
203.3275402483
 20
193.1351595161
 30
0.0
 10
203.3297308532
 20
193.2449305846
 30
0.0
 10
203.331844345
 20
193.3957820225
 30
0.0
 10
203.3334123602
 20
193.5681460753
 30
0.0
 10
203.3343774835
 20
193.7550542847
 30
0.0
 10
203.334598557
 20
193.8837932324
 30
0.0
 10
203.334598557
 20
193.9492891033
 30
0.0
  0
SPLINE
  5
476
100
AcDbEntity
  8
0
100
AcDbSpline
 62
7
  6
CONTINUOUS
 70
0
 71
3
 72
18
 73
14
 74
0
 42
0.0000001
 43
0.0000001
 44
0.0000000001
 40
0.0
 40
0.0
 40
0.0
 40
0.0
 40
0.005058969
 40
0.0195051778
 40
0.0433101654
 40
0.076313626
 40
0.1182808233
 40
0.1687350641
 40
0.2929516674
 40
0.444376429
 40
0.6173118642
 40
0.8053060859
 40
1.0
 40
1.0
 40
1.0
 40
1.0
 10
204.2770057425
 20
222.8903650936
 30
0.0
 10
204.2787900478
 20
222.8902715821
 30
0.0
 10
204.2786436731
 20
222.9008768711
 30
0.0
 10
204.2815235033
 20
222.9125183779
 30
0.0
 10
204.2824098358
 20
222.9396417342
 30
0.0
 10
204.284382808
 20
222.9736142099
 30
0.0
 10
204.2858512561
 20
223.0182182211
 30
0.0
 10
204.2880957449
 20
223.0945468634
 30
0.0
 10
204.2903956253
 20
223.2097937207
 30
0.0
 10
204.2926145459
 20
223.368170189
 30
0.0
 10
204.2942607795
 20
223.5491324013
 30
0.0
 10
204.2952740467
 20
223.7453642868
 30
0.0
 10
204.2955061482
 20
223.8805252117
 30
0.0
 10
204.2955061482
 20
223.94928826
 30
0.0
  0
SPLINE
  5
477
100
AcDbEntity
  8
0
100
AcDbSpline
 62
7
  6
CONTINUOUS
 70
0
 71
3
 72
18
 73
14
 74
0
 42
0.0000001
 43
0.0000001
 44
0.0000000001
 40
0.0
 40
0.0
 40
0.0
 40
0.0
 40
0.1946940146
 40
0.3826884206
 40
0.5556238357
 40
0.7070484224
 40
0.8312649246
 40
0.8817191359
 40
0.9236863093
 40
0.9566897671
 40
0.9804947787
 40
0.9949410171
 40
1.0
 40
1.0
 40
1.0
 40
1.0
 10
204.2955061482
 20
215.5493237554
 30
0.0
 10
204.2955061482
 20
215.6180868392
 30
0.0
 10
204.2952740449
 20
215.7532478648
 30
0.0
 10
204.2942607775
 20
215.9494798438
 30
0.0
 10
204.2926145448
 20
216.1304420524
 30
0.0
 10
204.2903956223
 20
216.2888184162
 30
0.0
 10
204.2880957453
 20
216.4040651656
 30
0.0
 10
204.2858512585
 20
216.4803937535
 30
0.0
 10
204.2843828109
 20
216.5249977446
 30
0.0
 10
204.2824098359
 20
216.5589702194
 30
0.0
 10
204.2815235069
 20
216.5860935961
 30
0.0
 10
204.2786436669
 20
216.5977351179
 30
0.0
 10
204.2787900527
 20
216.6083404349
 30
0.0
 10
204.2770057425
 20
216.6082469231
 30
0.0
  0
SPLINE
  5
478
100
AcDbEntity
  8
0
100
AcDbSpline
 62
7
  6
CONTINUOUS
 70
0
 71
3
 72
18
 73
14
 74
0
 42
0.0000001
 43
0.0000001
 44
0.0000000001
 40
0.0
 40
0.0
 40
0.0
 40
0.0
 40
0.005058969
 40
0.0195051778
 40
0.0433101654
 40
0.0763136259
 40
0.1182808232
 40
0.168735064
 40
0.2929516674
 40
0.4443764289
 40
0.6173118642
 40
0.8053060859
 40
1.0
 40
1.0
 40
1.0
 40
1.0
 10
204.2770057425
 20
192.8903650936
 30
0.0
 10
204.2787900478
 20
192.8902715822
 30
0.0
 10
204.2786436731
 20
192.9008768712
 30
0.0
 10
204.2815235033
 20
192.912518378
 30
0.0
 10
204.2824098358
 20
192.9396417342
 30
0.0
 10
204.284382808
 20
192.97361421
 30
0.0
 10
204.2858512561
 20
193.0182182211
 30
0.0
 10
204.2880957449
 20
193.0945468634
 30
0.0
 10
204.2903956253
 20
193.2097937207
 30
0.0
 10
204.2926145459
 20
193.368170189
 30
0.0
 10
204.2942607795
 20
193.5491324013
 30
0.0
 10
204.2952740467
 20
193.7453642868
 30
0.0
 10
204.2955061482
 20
193.8805252117
 30
0.0
 10
204.2955061482
 20
193.94928826
 30
0.0
  0
SPLINE
  5
479
100
AcDbEntity
  8
0
100
AcDbSpline
 62
7
  6
CONTINUOUS
 70
0
 71
3
 72
18
 73
14
 74
0
 42
0.0000001
 43
0.0000001
 44
0.0000000001
 40
0.0
 40
0.0
 40
0.0
 40
0.0
 40
0.005058969
 40
0.0195051778
 40
0.0433101655
 40
0.076313626
 40
0.1182808233
 40
0.1687350641
 40
0.2929516674
 40
0.444376429
 40
0.6173118642
 40
0.8053060859
 40
1.0
 40
1.0
 40
1.0
 40
1.0
 10
204.1897304179
 20
222.8949390986
 30
0.0
 10
204.191507016
 20
222.8948459911
 30
0.0
 10
204.1913612735
 20
222.9054054715
 30
0.0
 10
204.1942286645
 20
222.9169966938
 30
0.0
 10
204.1951111686
 20
222.944002893
 30
0.0
 10
204.1970756188
 20
222.9778286276
 30
0.0
 10
204.198537724
 20
223.0222399755
 30
0.0
 10
204.2007725179
 20
223.0982389227
 30
0.0
 10
204.2030624642
 20
223.2129879811
 30
0.0
 10
204.2052718004
 20
223.3706803557
 30
0.0
 10
204.2069109232
 20
223.5508609171
 30
0.0
 10
204.2079198137
 20
223.7462451957
 30
0.0
 10
204.2081509127
 20
223.8808223045
 30
0.0
 10
204.2081509127
 20
223.9492883367
 30
0.0
  0
SPLINE
  5
47A
100
AcDbEntity
  8
0
100
AcDbSpline
 62
7
  6
CONTINUOUS
 70
0
 71
3
 72
18
 73
14
 74
0
 42
0.0000001
 43
0.0000001
 44
0.0000000001
 40
0.0
 40
0.0
 40
0.0
 40
0.0
 40
0.1946940146
 40
0.3826884206
 40
0.5556238358
 40
0.7070484224
 40
0.8312649247
 40
0.881719136
 40
0.9236863094
 40
0.9566897671
 40
0.9804947787
 40
0.9949410171
 40
1.0
 40
1.0
 40
1.0
 40
1.0
 10
204.2081509127
 20
215.5493236787
 30
0.0
 10
204.2081509127
 20
215.6177897463
 30
0.0
 10
204.2079198118
 20
215.7523669553
 30
0.0
 10
204.2069109212
 20
215.947751327
 30
0.0
 10
204.2052717992
 20
216.1279318848
 30
0.0
 10
204.2030624613
 20
216.2856241553
 30
0.0
 10
204.2007725183
 20
216.4003731062
 30
0.0
 10
204.1985377264
 20
216.4763719993
 30
0.0
 10
204.1970756216
 20
216.5207833272
 30
0.0
 10
204.1951111687
 20
216.5546090608
 30
0.0
 10
204.1942286682
 20
216.5816152804
 30
0.0
 10
204.1913612674
 20
216.5932065176
 30
0.0
 10
204.1915070209
 20
216.6037660258
 30
0.0
 10
204.1897304179
 20
216.603672918
 30
0.0
  0
SPLINE
  5
47B
100
AcDbEntity
  8
0
100
AcDbSpline
 62
7
  6
CONTINUOUS
 70
0
 71
3
 72
18
 73
14
 74
0
 42
0.0000001
 43
0.0000001
 44
0.0000000001
 40
0.0
 40
0.0
 40
0.0
 40
0.0
 40
0.005058969
 40
0.0195051778
 40
0.0433101654
 40
0.0763136259
 40
0.1182808232
 40
0.168735064
 40
0.2929516673
 40
0.4443764289
 40
0.6173118642
 40
0.8053060859
 40
1.0
 40
1.0
 40
1.0
 40
1.0
 10
204.1897304179
 20
192.8949390988
 30
0.0
 10
204.191507016
 20
192.8948459912
 30
0.0
 10
204.1913612735
 20
192.9054054716
 30
0.0
 10
204.1942286645
 20
192.9169966938
 30
0.0
 10
204.1951111686
 20
192.9440028931
 30
0.0
 10
204.1970756188
 20
192.9778286276
 30
0.0
 10
204.198537724
 20
193.0222399755
 30
0.0
 10
204.2007725179
 20
193.0982389227
 30
0.0
 10
204.2030624642
 20
193.2129879811
 30
0.0
 10
204.2052718004
 20
193.3706803557
 30
0.0
 10
204.2069109232
 20
193.5508609171
 30
0.0
 10
204.2079198137
 20
193.7462451957
 30
0.0
 10
204.2081509127
 20
193.8808223045
 30
0.0
 10
204.2081509127
 20
193.9492883367
 30
0.0
  0
SPLINE
  5
47C
100
AcDbEntity
  8
0
100
AcDbSpline
 62
7
  6
CONTINUOUS
 70
0
 71
3
 72
18
 73
14
 74
0
 42
0.0000001
 43
0.0000001
 44
0.0000000001
 40
0.0
 40
0.0
 40
0.0
 40
0.0
 40
0.005058969
 40
0.0195051778
 40
0.0433101654
 40
0.076313626
 40
0.1182808232
 40
0.168735064
 40
0.2929516674
 40
0.444376429
 40
0.6173118642
 40
0.8053060859
 40
1.0
 40
1.0
 40
1.0
 40
1.0
 10
204.1024550932
 20
222.8995131038
 30
0.0
 10
204.1042239842
 20
222.8994204002
 30
0.0
 10
204.104078874
 20
222.9099340719
 30
0.0
 10
204.1069338258
 20
222.9214750097
 30
0.0
 10
204.1078125015
 20
222.9483640519
 30
0.0
 10
204.1097684296
 20
222.9820430452
 30
0.0
 10
204.1112241919
 20
223.0262617299
 30
0.0
 10
204.1134492909
 20
223.1019309821
 30
0.0
 10
204.1157293031
 20
223.2161822414
 30
0.0
 10
204.1179290548
 20
223.3731905223
 30
0.0
 10
204.1195610669
 20
223.5525894329
 30
0.0
 10
204.1205655807
 20
223.7471261046
 30
0.0
 10
204.1207956771
 20
223.8811193973
 30
0.0
 10
204.1207956771
 20
223.9492884134
 30
0.0
  0
SPLINE
  5
47D
100
AcDbEntity
  8
0
100
AcDbSpline
 62
7
  6
CONTINUOUS
 70
0
 71
3
 72
18
 73
14
 74
0
 42
0.0000001
 43
0.0000001
 44
0.0000000001
 40
0.0
 40
0.0
 40
0.0
 40
0.0
 40
0.1946940146
 40
0.3826884206
 40
0.5556238358
 40
0.7070484225
 40
0.8312649247
 40
0.881719136
 40
0.9236863094
 40
0.9566897671
 40
0.9804947787
 40
0.9949410171
 40
1.0
 40
1.0
 40
1.0
 40
1.0
 10
204.1207956771
 20
215.5493236021
 30
0.0
 10
204.1207956771
 20
215.6174926534
 30
0.0
 10
204.1205655788
 20
215.7514860458
 30
0.0
 10
204.1195610649
 20
215.9460228102
 30
0.0
 10
204.1179290537
 20
216.1254217171
 30
0.0
 10
204.1157293002
 20
216.2824298944
 30
0.0
 10
204.1134492913
 20
216.3966810468
 30
0.0
 10
204.1112241943
 20
216.4723502451
 30
0.0
 10
204.1097684324
 20
216.5165689099
 30
0.0
 10
204.1078125016
 20
216.5502479022
 30
0.0
 10
204.1069338294
 20
216.5771369646
 30
0.0
 10
204.1040788679
 20
216.5886779173
 30
0.0
 10
204.1042239891
 20
216.5991916167
 30
0.0
 10
204.1024550932
 20
216.5990989128
 30
0.0
  0
SPLINE
  5
47E
100
AcDbEntity
  8
0
100
AcDbSpline
 62
7
  6
CONTINUOUS
 70
0
 71
3
 72
18
 73
14
 74
0
 42
0.0000001
 43
0.0000001
 44
0.0000000001
 40
0.0
 40
0.0
 40
0.0
 40
0.0
 40
0.005058969
 40
0.0195051778
 40
0.0433101654
 40
0.076313626
 40
0.1182808232
 40
0.168735064
 40
0.2929516674
 40
0.444376429
 40
0.6173118642
 40
0.8053060859
 40
1.0
 40
1.0
 40
1.0
 40
1.0
 10
204.1024550932
 20
192.8995131038
 30
0.0
 10
204.1042239842
 20
192.8994204002
 30
0.0
 10
204.104078874
 20
192.9099340719
 30
0.0
 10
204.1069338258
 20
192.9214750097
 30
0.0
 10
204.1078125015
 20
192.9483640519
 30
0.0
 10
204.1097684296
 20
192.9820430452
 30
0.0
 10
204.1112241919
 20
193.0262617299
 30
0.0
 10
204.1134492909
 20
193.1019309821
 30
0.0
 10
204.1157293031
 20
193.2161822414
 30
0.0
 10
204.1179290548
 20
193.3731905223
 30
0.0
 10
204.1195610669
 20
193.5525894329
 30
0.0
 10
204.1205655807
 20
193.7471261046
 30
0.0
 10
204.1207956771
 20
193.8811193973
 30
0.0
 10
204.1207956771
 20
193.9492884134
 30
0.0
  0
SPLINE
  5
47F
100
AcDbEntity
  8
0
100
AcDbSpline
 62
7
  6
CONTINUOUS
 70
0
 71
3
 72
18
 73
14
 74
0
 42
0.0000001
 43
0.0000001
 44
0.0000000001
 40
0.0
 40
0.0
 40
0.0
 40
0.0
 40
0.005058969
 40
0.0195051778
 40
0.0433101654
 40
0.0763136259
 40
0.1182808232
 40
0.168735064
 40
0.2929516674
 40
0.4443764289
 40
0.6173118642
 40
0.8053060859
 40
1.0
 40
1.0
 40
1.0
 40
1.0
 10
204.0151797686
 20
222.904087109
 30
0.0
 10
204.0169409524
 20
222.9039948092
 30
0.0
 10
204.0167964744
 20
222.9144626724
 30
0.0
 10
204.0196389871
 20
222.9259533256
 30
0.0
 10
204.0205138343
 20
222.9527252108
 30
0.0
 10
204.0224612403
 20
222.9862574629
 30
0.0
 10
204.0239106599
 20
223.0302834843
 30
0.0
 10
204.026126064
 20
223.1056230414
 30
0.0
 10
204.028396142
 20
223.2193765018
 30
0.0
 10
204.0305863093
 20
223.375700689
 30
0.0
 10
204.0322112106
 20
223.5543179488
 30
0.0
 10
204.0332113477
 20
223.7480070135
 30
0.0
 10
204.0334404415
 20
223.8814164901
 30
0.0
 10
204.0334404415
 20
223.94928849
 30
0.0
  0
SPLINE
  5
480
100
AcDbEntity
  8
0
100
AcDbSpline
 62
7
  6
CONTINUOUS
 70
0
 71
3
 72
18
 73
14
 74
0
 42
0.0000001
 43
0.0000001
 44
0.0000000001
 40
0.0
 40
0.0
 40
0.0
 40
0.0
 40
0.1946940146
 40
0.3826884206
 40
0.5556238357
 40
0.7070484224
 40
0.8312649246
 40
0.8817191359
 40
0.9236863093
 40
0.9566897671
 40
0.9804947787
 40
0.9949410171
 40
1.0
 40
1.0
 40
1.0
 40
1.0
 10
204.0334404415
 20
215.5493235254
 30
0.0
 10
204.0334404415
 20
215.6171955604
 30
0.0
 10
204.0332113458
 20
215.7506051363
 30
0.0
 10
204.0322112086
 20
215.9442942934
 30
0.0
 10
204.0305863082
 20
216.1229115495
 30
0.0
 10
204.0283961391
 20
216.2792356336
 30
0.0
 10
204.0261260644
 20
216.3929889874
 30
0.0
 10
204.0239106622
 20
216.4683284909
 30
0.0
 10
204.0224612431
 20
216.5123544925
 30
0.0
 10
204.0205138344
 20
216.5458867436
 30
0.0
 10
204.0196389907
 20
216.572658649
 30
0.0
 10
204.0167964684
 20
216.5841493171
 30
0.0
 10
204.0169409573
 20
216.5946172078
 30
0.0
 10
204.0151797686
 20
216.5945249078
 30
0.0
  0
SPLINE
  5
481
100
AcDbEntity
  8
0
100
AcDbSpline
 62
7
  6
CONTINUOUS
 70
0
 71
3
 72
18
 73
14
 74
0
 42
0.0000001
 43
0.0000001
 44
0.0000000001
 40
0.0
 40
0.0
 40
0.0
 40
0.0
 40
0.005058969
 40
0.0195051778
 40
0.0433101654
 40
0.076313626
 40
0.1182808232
 40
0.168735064
 40
0.2929516674
 40
0.444376429
 40
0.6173118642
 40
0.8053060859
 40
1.0
 40
1.0
 40
1.0
 40
1.0
 10
204.0151797686
 20
192.9040871089
 30
0.0
 10
204.0169409524
 20
192.9039948092
 30
0.0
 10
204.0167964744
 20
192.9144626723
 30
0.0
 10
204.0196389871
 20
192.9259533256
 30
0.0
 10
204.0205138343
 20
192.9527252108
 30
0.0
 10
204.0224612403
 20
192.9862574629
 30
0.0
 10
204.0239106599
 20
193.0302834843
 30
0.0
 10
204.026126064
 20
193.1056230414
 30
0.0
 10
204.028396142
 20
193.2193765018
 30
0.0
 10
204.0305863093
 20
193.375700689
 30
0.0
 10
204.0322112106
 20
193.5543179488
 30
0.0
 10
204.0332113477
 20
193.7480070135
 30
0.0
 10
204.0334404415
 20
193.8814164901
 30
0.0
 10
204.0334404415
 20
193.94928849
 30
0.0
  0
SPLINE
  5
482
100
AcDbEntity
  8
0
100
AcDbSpline
 62
7
  6
CONTINUOUS
 70
0
 71
3
 72
18
 73
14
 74
0
 42
0.0000001
 43
0.0000001
 44
0.0000000001
 40
0.0
 40
0.0
 40
0.0
 40
0.0
 40
0.005058969
 40
0.0195051778
 40
0.0433101654
 40
0.076313626
 40
0.1182808232
 40
0.168735064
 40
0.2929516674
 40
0.444376429
 40
0.6173118642
 40
0.8053060859
 40
1.0
 40
1.0
 40
1.0
 40
1.0
 10
203.9279044439
 20
222.908661114
 30
0.0
 10
203.9296579207
 20
222.9085692182
 30
0.0
 10
203.9295140749
 20
222.9189912727
 30
0.0
 10
203.9323441484
 20
222.9304316415
 30
0.0
 10
203.9332151671
 20
222.9570863696
 30
0.0
 10
203.9351540511
 20
222.9904718805
 30
0.0
 10
203.9365971278
 20
223.0343052387
 30
0.0
 10
203.938802837
 20
223.1093151007
 30
0.0
 10
203.9410629809
 20
223.2225707621
 30
0.0
 10
203.9432435638
 20
223.3782108557
 30
0.0
 10
203.9448613543
 20
223.5560464646
 30
0.0
 10
203.9458571146
 20
223.7488879224
 30
0.0
 10
203.946085206
 20
223.8817135829
 30
0.0
 10
203.946085206
 20
223.9492885667
 30
0.0
  0
SPLINE
  5
483
100
AcDbEntity
  8
0
100
AcDbSpline
 62
7
  6
CONTINUOUS
 70
0
 71
3
 72
18
 73
14
 74
0
 42
0.0000001
 43
0.0000001
 44
0.0000000001
 40
0.0
 40
0.0
 40
0.0
 40
0.0
 40
0.1946940146
 40
0.3826884206
 40
0.5556238358
 40
0.7070484224
 40
0.8312649247
 40
0.881719136
 40
0.9236863094
 40
0.9566897671
 40
0.9804947787
 40
0.9949410171
 40
1.0
 40
1.0
 40
1.0
 40
1.0
 10
203.946085206
 20
215.5493234488
 30
0.0
 10
203.946085206
 20
215.6168984675
 30
0.0
 10
203.9458571128
 20
215.7497242269
 30
0.0
 10
203.9448613523
 20
215.9425657766
 30
0.0
 10
203.9432435626
 20
216.1204013818
 30
0.0
 10
203.941062978
 20
216.2760413727
 30
0.0
 10
203.9388028374
 20
216.389296928
 30
0.0
 10
203.9365971301
 20
216.4643067366
 30
0.0
 10
203.9351540539
 20
216.5081400751
 30
0.0
 10
203.9332151672
 20
216.541525585
 30
0.0
 10
203.9323441519
 20
216.5681803333
 30
0.0
 10
203.9295140689
 20
216.5796207168
 30
0.0
 10
203.9296579255
 20
216.5900427987
 30
0.0
 10
203.9279044439
 20
216.5899509027
 30
0.0
  0
SPLINE
  5
484
100
AcDbEntity
  8
0
100
AcDbSpline
 62
7
  6
CONTINUOUS
 70
0
 71
3
 72
18
 73
14
 74
0
 42
0.0000001
 43
0.0000001
 44
0.0000000001
 40
0.0
 40
0.0
 40
0.0
 40
0.0
 40
0.005058969
 40
0.0195051778
 40
0.0433101654
 40
0.0763136259
 40
0.1182808232
 40
0.168735064
 40
0.2929516674
 40
0.4443764289
 40
0.6173118642
 40
0.8053060859
 40
1.0
 40
1.0
 40
1.0
 40
1.0
 10
203.9279044439
 20
192.9086611141
 30
0.0
 10
203.9296579207
 20
192.9085692183
 30
0.0
 10
203.9295140749
 20
192.9189912727
 30
0.0
 10
203.9323441484
 20
192.9304316415
 30
0.0
 10
203.9332151671
 20
192.9570863696
 30
0.0
 10
203.9351540511
 20
192.9904718805
 30
0.0
 10
203.9365971278
 20
193.0343052387
 30
0.0
 10
203.938802837
 20
193.1093151007
 30
0.0
 10
203.9410629809
 20
193.2225707621
 30
0.0
 10
203.9432435638
 20
193.3782108557
 30
0.0
 10
203.9448613543
 20
193.5560464646
 30
0.0
 10
203.9458571146
 20
193.7488879224
 30
0.0
 10
203.946085206
 20
193.8817135829
 30
0.0
 10
203.946085206
 20
193.9492885667
 30
0.0
  0
SPLINE
  5
485
100
AcDbEntity
  8
0
100
AcDbSpline
 62
7
  6
CONTINUOUS
 70
0
 71
3
 72
18
 73
14
 74
0
 42
0.0000001
 43
0.0000001
 44
0.0000000001
 40
0.0
 40
0.0
 40
0.0
 40
0.0
 40
0.005058969
 40
0.0195051778
 40
0.0433101654
 40
0.0763136259
 40
0.1182808232
 40
0.168735064
 40
0.2929516673
 40
0.4443764289
 40
0.6173118642
 40
0.8053060859
 40
1.0
 40
1.0
 40
1.0
 40
1.0
 10
203.8406291193
 20
222.9132351192
 30
0.0
 10
203.8423748889
 20
222.9131436273
 30
0.0
 10
203.8422316754
 20
222.9235198731
 30
0.0
 10
203.8450493096
 20
222.9349099574
 30
0.0
 10
203.8459165
 20
222.9614475285
 30
0.0
 10
203.8478468618
 20
222.9946862981
 30
0.0
 10
203.8492835957
 20
223.0383269931
 30
0.0
 10
203.85147961
 20
223.1130071601
 30
0.0
 10
203.8537298198
 20
223.2257650225
 30
0.0
 10
203.8559008182
 20
223.3807210224
 30
0.0
 10
203.857511498
 20
223.5577749804
 30
0.0
 10
203.8585028816
 20
223.7497688313
 30
0.0
 10
203.8587299704
 20
223.8820106757
 30
0.0
 10
203.8587299704
 20
223.9492886433
 30
0.0
  0
SPLINE
  5
486
100
AcDbEntity
  8
0
100
AcDbSpline
 62
7
  6
CONTINUOUS
 70
0
 71
3
 72
18
 73
14
 74
0
 42
0.0000001
 43
0.0000001
 44
0.0000000001
 40
0.0
 40
0.0
 40
0.0
 40
0.0
 40
0.1946940146
 40
0.3826884206
 40
0.5556238357
 40
0.7070484224
 40
0.8312649246
 40
0.8817191359
 40
0.9236863093
 40
0.9566897671
 40
0.9804947787
 40
0.9949410171
 40
1.0
 40
1.0
 40
1.0
 40
1.0
 10
203.8587299704
 20
215.5493233721
 30
0.0
 10
203.8587299704
 20
215.6166013745
 30
0.0
 10
203.8585028798
 20
215.7488433174
 30
0.0
 10
203.857511496
 20
215.9408372598
 30
0.0
 10
203.8559008171
 20
216.1178912142
 30
0.0
 10
203.8537298169
 20
216.2728471118
 30
0.0
 10
203.8514796104
 20
216.3856048686
 30
0.0
 10
203.8492835981
 20
216.4602849824
 30
0.0
 10
203.8478468646
 20
216.5039256578
 30
0.0
 10
203.8459165001
 20
216.5371644265
 30
0.0
 10
203.8450493132
 20
216.5637020176
 30
0.0
 10
203.8422316694
 20
216.5750921166
 30
0.0
 10
203.8423748936
 20
216.5854683898
 30
0.0
 10
203.8406291193
 20
216.5853768976
 30
0.0
  0
SPLINE
  5
487
100
AcDbEntity
  8
0
100
AcDbSpline
 62
7
  6
CONTINUOUS
 70
0
 71
3
 72
18
 73
14
 74
0
 42
0.0000001
 43
0.0000001
 44
0.0000000001
 40
0.0
 40
0.0
 40
0.0
 40
0.0
 40
0.005058969
 40
0.0195051778
 40
0.0433101654
 40
0.0763136259
 40
0.1182808232
 40
0.168735064
 40
0.2929516673
 40
0.4443764289
 40
0.6173118642
 40
0.8053060859
 40
1.0
 40
1.0
 40
1.0
 40
1.0
 10
203.8406291193
 20
192.9132351192
 30
0.0
 10
203.8423748889
 20
192.9131436273
 30
0.0
 10
203.8422316754
 20
192.9235198731
 30
0.0
 10
203.8450493096
 20
192.9349099574
 30
0.0
 10
203.8459165
 20
192.9614475285
 30
0.0
 10
203.8478468618
 20
192.9946862981
 30
0.0
 10
203.8492835957
 20
193.0383269931
 30
0.0
 10
203.85147961
 20
193.1130071601
 30
0.0
 10
203.8537298198
 20
193.2257650225
 30
0.0
 10
203.8559008182
 20
193.3807210224
 30
0.0
 10
203.857511498
 20
193.5577749804
 30
0.0
 10
203.8585028816
 20
193.7497688313
 30
0.0
 10
203.8587299704
 20
193.8820106757
 30
0.0
 10
203.8587299704
 20
193.9492886433
 30
0.0
  0
SPLINE
  5
488
100
AcDbEntity
  8
0
100
AcDbSpline
 62
7
  6
CONTINUOUS
 70
0
 71
3
 72
18
 73
14
 74
0
 42
0.0000001
 43
0.0000001
 44
0.0000000001
 40
0.0
 40
0.0
 40
0.0
 40
0.0
 40
0.005058969
 40
0.0195051778
 40
0.0433101654
 40
0.076313626
 40
0.1182808232
 40
0.168735064
 40
0.2929516674
 40
0.444376429
 40
0.6173118642
 40
0.8053060859
 40
1.0
 40
1.0
 40
1.0
 40
1.0
 10
203.7533537947
 20
222.9178091242
 30
0.0
 10
203.7550918571
 20
222.9177180363
 30
0.0
 10
203.7549492758
 20
222.9280484735
 30
0.0
 10
203.7577544709
 20
222.9393882732
 30
0.0
 10
203.7586178328
 20
222.9658086873
 30
0.0
 10
203.7605396726
 20
222.9989007158
 30
0.0
 10
203.7619700636
 20
223.0423487475
 30
0.0
 10
203.7641563831
 20
223.1166992194
 30
0.0
 10
203.7663966587
 20
223.2289592828
 30
0.0
 10
203.7685580727
 20
223.3832311891
 30
0.0
 10
203.7701616417
 20
223.5595034962
 30
0.0
 10
203.7711486486
 20
223.7506497402
 30
0.0
 10
203.7713747348
 20
223.8823077685
 30
0.0
 10
203.7713747348
 20
223.94928872
 30
0.0
  0
SPLINE
  5
489
100
AcDbEntity
  8
0
100
AcDbSpline
 62
7
  6
CONTINUOUS
 70
0
 71
3
 72
18
 73
14
 74
0
 42
0.0000001
 43
0.0000001
 44
0.0000000001
 40
0.0
 40
0.0
 40
0.0
 40
0.0
 40
0.1946940146
 40
0.3826884206
 40
0.5556238358
 40
0.7070484224
 40
0.8312649247
 40
0.881719136
 40
0.9236863094
 40
0.9566897671
 40
0.9804947787
 40
0.9949410171
 40
1.0
 40
1.0
 40
1.0
 40
1.0
 10
203.7713747348
 20
215.5493232954
 30
0.0
 10
203.7713747348
 20
215.6163042816
 30
0.0
 10
203.7711486468
 20
215.7479624079
 30
0.0
 10
203.7701616398
 20
215.939108743
 30
0.0
 10
203.7685580716
 20
216.1153810465
 30
0.0
 10
203.7663966558
 20
216.269652851
 30
0.0
 10
203.7641563835
 20
216.3819128092
 30
0.0
 10
203.761970066
 20
216.4562632282
 30
0.0
 10
203.7605396753
 20
216.4997112404
 30
0.0
 10
203.7586178329
 20
216.5328032679
 30
0.0
 10
203.7577544745
 20
216.5592237019
 30
0.0
 10
203.7549492698
 20
216.5705635163
 30
0.0
 10
203.7550918618
 20
216.5808939807
 30
0.0
 10
203.7533537947
 20
216.5808028925
 30
0.0
  0
SPLINE
  5
48A
100
AcDbEntity
  8
0
100
AcDbSpline
 62
7
  6
CONTINUOUS
 70
0
 71
3
 72
18
 73
14
 74
0
 42
0.0000001
 43
0.0000001
 44
0.0000000001
 40
0.0
 40
0.0
 40
0.0
 40
0.0
 40
0.005058969
 40
0.0195051778
 40
0.0433101654
 40
0.076313626
 40
0.1182808232
 40
0.168735064
 40
0.2929516674
 40
0.444376429
 40
0.6173118642
 40
0.8053060859
 40
1.0
 40
1.0
 40
1.0
 40
1.0
 10
203.7533537947
 20
192.9178091242
 30
0.0
 10
203.7550918571
 20
192.9177180363
 30
0.0
 10
203.7549492758
 20
192.9280484735
 30
0.0
 10
203.7577544709
 20
192.9393882732
 30
0.0
 10
203.7586178328
 20
192.9658086873
 30
0.0
 10
203.7605396726
 20
192.9989007158
 30
0.0
 10
203.7619700636
 20
193.0423487475
 30
0.0
 10
203.7641563831
 20
193.1166992194
 30
0.0
 10
203.7663966587
 20
193.2289592828
 30
0.0
 10
203.7685580727
 20
193.3832311891
 30
0.0
 10
203.7701616417
 20
193.5595034962
 30
0.0
 10
203.7711486486
 20
193.7506497402
 30
0.0
 10
203.7713747348
 20
193.8823077685
 30
0.0
 10
203.7713747348
 20
193.94928872
 30
0.0
  0
SPLINE
  5
48B
100
AcDbEntity
  8
0
100
AcDbSpline
 62
7
  6
CONTINUOUS
 70
0
 71
3
 72
18
 73
14
 74
0
 42
0.0000001
 43
0.0000001
 44
0.0000000001
 40
0.0
 40
0.0
 40
0.0
 40
0.0
 40
0.005058969
 40
0.0195051778
 40
0.0433101654
 40
0.076313626
 40
0.1182808232
 40
0.168735064
 40
0.2929516674
 40
0.444376429
 40
0.6173118642
 40
0.8053060859
 40
1.0
 40
1.0
 40
1.0
 40
1.0
 10
203.66607847
 20
222.9223831294
 30
0.0
 10
203.6678088253
 20
222.9222924453
 30
0.0
 10
203.6676668763
 20
222.9325770738
 30
0.0
 10
203.6704596322
 20
222.9438665891
 30
0.0
 10
203.6713191657
 20
222.9701698462
 30
0.0
 10
203.6732324833
 20
223.0031151334
 30
0.0
 10
203.6746565315
 20
223.0463705019
 30
0.0
 10
203.6768331561
 20
223.1203912788
 30
0.0
 10
203.6790634976
 20
223.2321535432
 30
0.0
 10
203.6812153271
 20
223.3857413558
 30
0.0
 10
203.6828117854
 20
223.561232012
 30
0.0
 10
203.6837944156
 20
223.7515306491
 30
0.0
 10
203.6840194993
 20
223.8826048613
 30
0.0
 10
203.6840194993
 20
223.9492887967
 30
0.0
  0
SPLINE
  5
48C
100
AcDbEntity
  8
0
100
AcDbSpline
 62
7
  6
CONTINUOUS
 70
0
 71
3
 72
18
 73
14
 74
0
 42
0.0000001
 43
0.0000001
 44
0.0000000001
 40
0.0
 40
0.0
 40
0.0
 40
0.0
 40
0.1946940146
 40
0.3826884206
 40
0.5556238358
 40
0.7070484224
 40
0.8312649247
 40
0.881719136
 40
0.9236863094
 40
0.9566897671
 40
0.9804947787
 40
0.9949410171
 40
1.0
 40
1.0
 40
1.0
 40
1.0
 10
203.6840194993
 20
215.5493232188
 30
0.0
 10
203.6840194993
 20
215.6160071886
 30
0.0
 10
203.6837944137
 20
215.7470814984
 30
0.0
 10
203.6828117835
 20
215.9373802262
 30
0.0
 10
203.6812153261
 20
216.1128708789
 30
0.0
 10
203.6790634947
 20
216.2664585901
 30
0.0
 10
203.6768331565
 20
216.3782207498
 30
0.0
 10
203.6746565339
 20
216.4522414739
 30
0.0
 10
203.6732324861
 20
216.495496823
 30
0.0
 10
203.6713191658
 20
216.5284421093
 30
0.0
 10
203.6704596357
 20
216.5547453862
 30
0.0
 10
203.6676668703
 20
216.566034916
 30
0.0
 10
203.66780883
 20
216.5763195717
 30
0.0
 10
203.66607847
 20
216.5762288873
 30
0.0
  0
SPLINE
  5
48D
100
AcDbEntity
  8
0
100
AcDbSpline
 62
7
  6
CONTINUOUS
 70
0
 71
3
 72
18
 73
14
 74
0
 42
0.0000001
 43
0.0000001
 44
0.0000000001
 40
0.0
 40
0.0
 40
0.0
 40
0.0
 40
0.005058969
 40
0.0195051778
 40
0.0433101654
 40
0.0763136259
 40
0.1182808232
 40
0.168735064
 40
0.2929516673
 40
0.4443764289
 40
0.6173118642
 40
0.8053060859
 40
1.0
 40
1.0
 40
1.0
 40
1.0
 10
203.66607847
 20
192.9223831294
 30
0.0
 10
203.6678088253
 20
192.9222924453
 30
0.0
 10
203.6676668763
 20
192.9325770739
 30
0.0
 10
203.6704596322
 20
192.9438665891
 30
0.0
 10
203.6713191657
 20
192.9701698462
 30
0.0
 10
203.6732324833
 20
193.0031151334
 30
0.0
 10
203.6746565315
 20
193.0463705019
 30
0.0
 10
203.6768331561
 20
193.1203912788
 30
0.0
 10
203.6790634976
 20
193.2321535432
 30
0.0
 10
203.6812153271
 20
193.3857413558
 30
0.0
 10
203.6828117854
 20
193.561232012
 30
0.0
 10
203.6837944156
 20
193.7515306491
 30
0.0
 10
203.6840194993
 20
193.8826048613
 30
0.0
 10
203.6840194993
 20
193.9492887967
 30
0.0
  0
SPLINE
  5
48E
100
AcDbEntity
  8
0
100
AcDbSpline
 62
7
  6
CONTINUOUS
 70
0
 71
3
 72
18
 73
14
 74
0
 42
0.0000001
 43
0.0000001
 44
0.0000000001
 40
0.0
 40
0.0
 40
0.0
 40
0.0
 40
0.005058969
 40
0.0195051778
 40
0.0433101654
 40
0.076313626
 40
0.1182808232
 40
0.168735064
 40
0.2929516674
 40
0.444376429
 40
0.6173118642
 40
0.8053060859
 40
1.0
 40
1.0
 40
1.0
 40
1.0
 10
203.5788031454
 20
222.9269571345
 30
0.0
 10
203.5805257935
 20
222.9268668543
 30
0.0
 10
203.5803844767
 20
222.9371056742
 30
0.0
 10
203.5831647935
 20
222.948344905
 30
0.0
 10
203.5840204985
 20
222.974531005
 30
0.0
 10
203.5859252941
 20
223.007329551
 30
0.0
 10
203.5873429995
 20
223.0503922564
 30
0.0
 10
203.5895099292
 20
223.1240833381
 30
0.0
 10
203.5917303365
 20
223.2353478035
 30
0.0
 10
203.5938725816
 20
223.3882515225
 30
0.0
 10
203.5954619291
 20
223.5629605279
 30
0.0
 10
203.5964401825
 20
223.752411558
 30
0.0
 10
203.5966642637
 20
223.8829019541
 30
0.0
 10
203.5966642637
 20
223.9492888733
 30
0.0
  0
SPLINE
  5
48F
100
AcDbEntity
  8
0
100
AcDbSpline
 62
7
  6
CONTINUOUS
 70
0
 71
3
 72
18
 73
14
 74
0
 42
0.0000001
 43
0.0000001
 44
0.0000000001
 40
0.0
 40
0.0
 40
0.0
 40
0.0
 40
0.1946940146
 40
0.3826884206
 40
0.5556238357
 40
0.7070484224
 40
0.8312649246
 40
0.8817191359
 40
0.9236863093
 40
0.9566897671
 40
0.9804947787
 40
0.9949410171
 40
1.0
 40
1.0
 40
1.0
 40
1.0
 10
203.5966642637
 20
215.5493231421
 30
0.0
 10
203.5966642637
 20
215.6157100957
 30
0.0
 10
203.5964401807
 20
215.7462005889
 30
0.0
 10
203.5954619272
 20
215.9356517094
 30
0.0
 10
203.5938725805
 20
216.1103607112
 30
0.0
 10
203.5917303337
 20
216.2632643292
 30
0.0
 10
203.5895099296
 20
216.3745286904
 30
0.0
 10
203.5873430018
 20
216.4482197197
 30
0.0
 10
203.5859252968
 20
216.4912824057
 30
0.0
 10
203.5840204986
 20
216.5240809507
 30
0.0
 10
203.583164797
 20
216.5502670705
 30
0.0
 10
203.5803844708
 20
216.5615063158
 30
0.0
 10
203.5805257982
 20
216.5717451627
 30
0.0
 10
203.5788031454
 20
216.5716548823
 30
0.0
  0
SPLINE
  5
490
100
AcDbEntity
  8
0
100
AcDbSpline
 62
7
  6
CONTINUOUS
 70
0
 71
3
 72
18
 73
14
 74
0
 42
0.0000001
 43
0.0000001
 44
0.0000000001
 40
0.0
 40
0.0
 40
0.0
 40
0.0
 40
0.005058969
 40
0.0195051778
 40
0.0433101654
 40
0.076313626
 40
0.1182808232
 40
0.168735064
 40
0.2929516674
 40
0.444376429
 40
0.6173118642
 40
0.8053060859
 40
1.0
 40
1.0
 40
1.0
 40
1.0
 10
203.5788031454
 20
192.9269571345
 30
0.0
 10
203.5805257935
 20
192.9268668543
 30
0.0
 10
203.5803844767
 20
192.9371056742
 30
0.0
 10
203.5831647935
 20
192.948344905
 30
0.0
 10
203.5840204985
 20
192.974531005
 30
0.0
 10
203.5859252941
 20
193.007329551
 30
0.0
 10
203.5873429995
 20
193.0503922564
 30
0.0
 10
203.5895099292
 20
193.1240833381
 30
0.0
 10
203.5917303365
 20
193.2353478035
 30
0.0
 10
203.5938725816
 20
193.3882515225
 30
0.0
 10
203.5954619291
 20
193.5629605279
 30
0.0
 10
203.5964401825
 20
193.752411558
 30
0.0
 10
203.5966642637
 20
193.8829019541
 30
0.0
 10
203.5966642637
 20
193.9492888733
 30
0.0
  0
SPLINE
  5
491
100
AcDbEntity
  8
0
100
AcDbSpline
 62
7
  6
CONTINUOUS
 70
0
 71
3
 72
18
 73
14
 74
0
 42
0.0000001
 43
0.0000001
 44
0.0000000001
 40
0.0
 40
0.0
 40
0.0
 40
0.0
 40
0.005058969
 40
0.0195051778
 40
0.0433101655
 40
0.076313626
 40
0.1182808233
 40
0.1687350641
 40
0.2929516674
 40
0.444376429
 40
0.6173118642
 40
0.8053060859
 40
1.0
 40
1.0
 40
1.0
 40
1.0
 10
203.4915278207
 20
222.9315311395
 30
0.0
 10
203.4932427617
 20
222.9314412633
 30
0.0
 10
203.4931020772
 20
222.9416342745
 30
0.0
 10
203.4958699548
 20
222.9528232208
 30
0.0
 10
203.4967218313
 20
222.9788921639
 30
0.0
 10
203.4986181048
 20
223.0115439687
 30
0.0
 10
203.5000294674
 20
223.0544140108
 30
0.0
 10
203.5021867022
 20
223.1277753974
 30
0.0
 10
203.5043971754
 20
223.2385420639
 30
0.0
 10
203.5065298361
 20
223.3907616891
 30
0.0
 10
203.5081120728
 20
223.5646890437
 30
0.0
 10
203.5090859495
 20
223.7532924669
 30
0.0
 10
203.5093090281
 20
223.8831990469
 30
0.0
 10
203.5093090281
 20
223.94928895
 30
0.0
  0
SPLINE
  5
492
100
AcDbEntity
  8
0
100
AcDbSpline
 62
7
  6
CONTINUOUS
 70
0
 71
3
 72
18
 73
14
 74
0
 42
0.0000001
 43
0.0000001
 44
0.0000000001
 40
0.0
 40
0.0
 40
0.0
 40
0.0
 40
0.1946940146
 40
0.3826884206
 40
0.5556238358
 40
0.7070484224
 40
0.8312649247
 40
0.881719136
 40
0.9236863094
 40
0.9566897671
 40
0.9804947787
 40
0.9949410171
 40
1.0
 40
1.0
 40
1.0
 40
1.0
 10
203.5093090281
 20
215.5493230655
 30
0.0
 10
203.5093090281
 20
215.6154130028
 30
0.0
 10
203.5090859477
 20
215.7453196794
 30
0.0
 10
203.5081120709
 20
215.9339231926
 30
0.0
 10
203.506529835
 20
216.1078505435
 30
0.0
 10
203.5043971726
 20
216.2600700683
 30
0.0
 10
203.5021867026
 20
216.370836631
 30
0.0
 10
203.5000294697
 20
216.4441979655
 30
0.0
 10
203.4986181076
 20
216.4870679883
 30
0.0
 10
203.4967218314
 20
216.5197197921
 30
0.0
 10
203.4958699582
 20
216.5457887548
 30
0.0
 10
203.4931020713
 20
216.5569777155
 30
0.0
 10
203.4932427664
 20
216.5671707536
 30
0.0
 10
203.4915278207
 20
216.5670808771
 30
0.0
  0
SPLINE
  5
493
100
AcDbEntity
  8
0
100
AcDbSpline
 62
7
  6
CONTINUOUS
 70
0
 71
3
 72
18
 73
14
 74
0
 42
0.0000001
 43
0.0000001
 44
0.0000000001
 40
0.0
 40
0.0
 40
0.0
 40
0.0
 40
0.005058969
 40
0.0195051778
 40
0.0433101654
 40
0.076313626
 40
0.1182808233
 40
0.1687350641
 40
0.2929516674
 40
0.444376429
 40
0.6173118642
 40
0.8053060859
 40
1.0
 40
1.0
 40
1.0
 40
1.0
 10
203.4915278207
 20
192.9315311395
 30
0.0
 10
203.4932427617
 20
192.9314412633
 30
0.0
 10
203.4931020772
 20
192.9416342746
 30
0.0
 10
203.4958699548
 20
192.9528232208
 30
0.0
 10
203.4967218313
 20
192.9788921639
 30
0.0
 10
203.4986181048
 20
193.0115439687
 30
0.0
 10
203.5000294674
 20
193.0544140108
 30
0.0
 10
203.5021867022
 20
193.1277753974
 30
0.0
 10
203.5043971754
 20
193.2385420639
 30
0.0
 10
203.5065298361
 20
193.3907616891
 30
0.0
 10
203.5081120728
 20
193.5646890437
 30
0.0
 10
203.5090859495
 20
193.7532924669
 30
0.0
 10
203.5093090281
 20
193.8831990469
 30
0.0
 10
203.5093090281
 20
193.94928895
 30
0.0
  0
SPLINE
  5
494
100
AcDbEntity
  8
0
100
AcDbSpline
 62
7
  6
CONTINUOUS
 70
0
 71
3
 72
18
 73
14
 74
0
 42
0.0000001
 43
0.0000001
 44
0.0000000001
 40
0.0
 40
0.0
 40
0.0
 40
0.0
 40
0.005058969
 40
0.0195051778
 40
0.0433101655
 40
0.076313626
 40
0.1182808233
 40
0.1687350641
 40
0.2929516674
 40
0.444376429
 40
0.6173118642
 40
0.8053060859
 40
1.0
 40
1.0
 40
1.0
 40
1.0
 10
203.4042524961
 20
222.9361051446
 30
0.0
 10
203.4059597299
 20
222.9360156723
 30
0.0
 10
203.4058196776
 20
222.9461628749
 30
0.0
 10
203.408575116
 20
222.9573015367
 30
0.0
 10
203.4094231642
 20
222.9832533227
 30
0.0
 10
203.4113109156
 20
223.0157583863
 30
0.0
 10
203.4127159353
 20
223.0584357652
 30
0.0
 10
203.4148634752
 20
223.1314674568
 30
0.0
 10
203.4170640143
 20
223.2417363242
 30
0.0
 10
203.4191870905
 20
223.3932718558
 30
0.0
 10
203.4207622165
 20
223.5664175595
 30
0.0
 10
203.4217317165
 20
223.7541733758
 30
0.0
 10
203.4219537926
 20
223.8834961396
 30
0.0
 10
203.4219537926
 20
223.9492890267
 30
0.0
  0
SPLINE
  5
495
100
AcDbEntity
  8
0
100
AcDbSpline
 62
7
  6
CONTINUOUS
 70
0
 71
3
 72
18
 73
14
 74
0
 42
0.0000001
 43
0.0000001
 44
0.0000000001
 40
0.0
 40
0.0
 40
0.0
 40
0.0
 40
0.1946940146
 40
0.3826884206
 40
0.5556238358
 40
0.7070484224
 40
0.8312649247
 40
0.881719136
 40
0.9236863094
 40
0.9566897671
 40
0.9804947787
 40
0.9949410171
 40
1.0
 40
1.0
 40
1.0
 40
1.0
 10
203.4219537926
 20
215.5493229888
 30
0.0
 10
203.4219537926
 20
215.6151159098
 30
0.0
 10
203.4217317147
 20
215.74443877
 30
0.0
 10
203.4207622146
 20
215.9321946758
 30
0.0
 10
203.4191870895
 20
216.1053403759
 30
0.0
 10
203.4170640115
 20
216.2568758075
 30
0.0
 10
203.4148634756
 20
216.3671445717
 30
0.0
 10
203.4127159376
 20
216.4401762113
 30
0.0
 10
203.4113109183
 20
216.4828535709
 30
0.0
 10
203.4094231643
 20
216.5153586335
 30
0.0
 10
203.4085751195
 20
216.5413104391
 30
0.0
 10
203.4058196718
 20
216.5524491152
 30
0.0
 10
203.4059597346
 20
216.5625963446
 30
0.0
 10
203.4042524961
 20
216.562506872
 30
0.0
  0
SPLINE
  5
496
100
AcDbEntity
  8
0
100
AcDbSpline
 62
7
  6
CONTINUOUS
 70
0
 71
3
 72
18
 73
14
 74
0
 42
0.0000001
 43
0.0000001
 44
0.0000000001
 40
0.0
 40
0.0
 40
0.0
 40
0.0
 40
0.005058969
 40
0.0195051778
 40
0.0433101654
 40
0.076313626
 40
0.1182808232
 40
0.168735064
 40
0.2929516674
 40
0.444376429
 40
0.6173118642
 40
0.8053060859
 40
1.0
 40
1.0
 40
1.0
 40
1.0
 10
203.4042524961
 20
192.9361051447
 30
0.0
 10
203.4059597299
 20
192.9360156723
 30
0.0
 10
203.4058196776
 20
192.946162875
 30
0.0
 10
203.408575116
 20
192.9573015368
 30
0.0
 10
203.4094231642
 20
192.9832533227
 30
0.0
 10
203.4113109156
 20
193.0157583863
 30
0.0
 10
203.4127159353
 20
193.0584357652
 30
0.0
 10
203.4148634752
 20
193.1314674568
 30
0.0
 10
203.4170640143
 20
193.2417363242
 30
0.0
 10
203.4191870905
 20
193.3932718558
 30
0.0
 10
203.4207622165
 20
193.5664175595
 30
0.0
 10
203.4217317165
 20
193.7541733758
 30
0.0
 10
203.4219537926
 20
193.8834961396
 30
0.0
 10
203.4219537926
 20
193.9492890267
 30
0.0
  0
SPLINE
  5
497
100
AcDbEntity
  8
0
100
AcDbSpline
 62
7
  6
CONTINUOUS
 70
0
 71
3
 72
18
 73
14
 74
0
 42
0.0000001
 43
0.0000001
 44
0.0000000001
 40
0.0
 40
0.0
 40
0.0
 40
0.0
 40
0.005058969
 40
0.0195051778
 40
0.0433101654
 40
0.076313626
 40
0.1182808233
 40
0.1687350641
 40
0.2929516674
 40
0.444376429
 40
0.6173118642
 40
0.8053060859
 40
1.0
 40
1.0
 40
1.0
 40
1.0
 10
203.3169771715
 20
222.9406791497
 30
0.0
 10
203.3186766981
 20
222.9405900813
 30
0.0
 10
203.3185372781
 20
222.9506914753
 30
0.0
 10
203.3212802773
 20
222.9617798526
 30
0.0
 10
203.322124497
 20
222.9876144816
 30
0.0
 10
203.3240037263
 20
223.019972804
 30
0.0
 10
203.3254024032
 20
223.0624575196
 30
0.0
 10
203.3275402483
 20
223.1351595161
 30
0.0
 10
203.3297308532
 20
223.2449305846
 30
0.0
 10
203.331844345
 20
223.3957820225
 30
0.0
 10
203.3334123602
 20
223.5681460753
 30
0.0
 10
203.3343774835
 20
223.7550542847
 30
0.0
 10
203.334598557
 20
223.8837932324
 30
0.0
 10
203.334598557
 20
223.9492891033
 30
0.0
  0
SPLINE
  5
498
100
AcDbEntity
  8
0
100
AcDbSpline
 62
7
  6
CONTINUOUS
 70
0
 71
3
 72
11
 73
7
 74
0
 42
0.0000001
 43
0.0000001
 44
0.0000000001
 40
0.0
 40
0.0
 40
0.0
 40
0.0
 40
0.4308759957
 40
0.7414878088
 40
0.9306319986
 40
1.0
 40
1.0
 40
1.0
 40
1.0
 10
206.9063826739
 20
261.7567828299
 30
0.0
 10
206.9154662725
 20
261.7562491886
 30
0.0
 10
206.9306586296
 20
261.7551293822
 30
0.0
 10
206.9515686279
 20
261.7537057207
 30
0.0
 10
206.9611435969
 20
261.7515254398
 30
0.0
 10
206.9690114569
 20
261.7507709252
 30
0.0
 10
206.9690114569
 20
261.7493060083
 30
0.0
  0
SPLINE
  5
499
100
AcDbEntity
  8
0
100
AcDbSpline
 62
7
  6
CONTINUOUS
 70
0
 71
3
 72
18
 73
14
 74
0
 42
0.0000001
 43
0.0000001
 44
0.0000000001
 40
0.0
 40
0.0
 40
0.0
 40
0.0
 40
0.1946248146
 40
0.3824906839
 40
0.5552917571
 40
0.7066373593
 40
0.830889712
 40
0.8813919631
 40
0.9234042951
 40
0.9564589771
 40
0.9803328961
 40
0.9948595932
 40
1.0
 40
1.0
 40
1.0
 40
1.0
 10
189.2624235915
 20
276.3365148885
 30
0.0
 10
189.3270998772
 20
276.3410361174
 30
0.0
 10
189.4542224959
 20
276.3497044545
 30
0.0
 10
189.6388136754
 20
276.361654475
 30
0.0
 10
189.8090747801
 20
276.3720078149
 30
0.0
 10
189.9581799278
 20
276.380341054
 30
0.0
 10
190.0667630969
 20
276.3857672227
 30
0.0
 10
190.1387790197
 20
276.3886849536
 30
0.0
 10
190.1808741385
 20
276.3902489267
 30
0.0
 10
190.2130683716
 20
276.3906230298
 30
0.0
 10
190.2386142382
 20
276.3916089053
 30
0.0
 10
190.2500005523
 20
276.3896173177
 30
0.0
 10
190.2598681915
 20
276.3905271754
 30
0.0
 10
190.2599876418
 20
276.3888189558
 30
0.0
  0
SPLINE
  5
49A
100
AcDbEntity
  8
0
100
AcDbSpline
 62
7
  6
CONTINUOUS
 70
0
 71
3
 72
18
 73
14
 74
0
 42
0.0000001
 43
0.0000001
 44
0.0000000001
 40
0.0
 40
0.0
 40
0.0
 40
0.0
 40
0.1944735352
 40
0.3822703841
 40
0.5550599338
 40
0.7064102986
 40
0.8306402846
 40
0.8811373161
 40
0.923172698
 40
0.956270414
 40
0.9801948557
 40
0.9947839676
 40
1.0
 40
1.0
 40
1.0
 40
1.0
 10
30.6386349176
 20
215.5493229346
 30
0.0
 10
30.6386349176
 20
215.6147438441
 30
0.0
 10
30.6384143718
 20
215.7433405343
 30
0.0
 10
30.6374512654
 20
215.9300572209
 30
0.0
 10
30.6358869179
 20
216.1022772258
 30
0.0
 10
30.6337766772
 20
216.2530614376
 30
0.0
 10
30.631592775
 20
216.36281478
 30
0.0
 10
30.6294552901
 20
216.4355740925
 30
0.0
 10
30.6280676219
 20
216.4780925662
 30
0.0
 10
30.6261672169
 20
216.5106356365
 30
0.0
 10
30.6253797261
 20
216.5363888981
 30
0.0
 10
30.6225261051
 20
216.5479569707
 30
0.0
 10
30.6227980112
 20
216.5578410344
 30
0.0
 10
30.6210457423
 20
216.5579328669
 30
0.0
  0
SPLINE
  5
49B
100
AcDbEntity
  8
0
100
AcDbSpline
 62
7
  6
CONTINUOUS
 70
0
 71
3
 72
18
 73
14
 74
0
 42
0.0000001
 43
0.0000001
 44
0.0000000001
 40
0.0
 40
0.0
 40
0.0
 40
0.0
 40
0.0052160383
 40
0.0198051616
 40
0.0437296095
 40
0.0768273163
 40
0.1188626703
 40
0.1693596616
 40
0.2935895427
 40
0.4449397682
 40
0.6177293296
 40
0.8055263685
 40
1.0
 40
1.0
 40
1.0
 40
1.0
 10
30.6210457423
 20
192.9406791498
 30
0.0
 10
30.6227980132
 20
192.9407709824
 30
0.0
 10
30.6225261027
 20
192.9506550564
 30
0.0
 10
30.6253797273
 20
192.962223134
 30
0.0
 10
30.6261672168
 20
192.987976399
 30
0.0
 10
30.6280676223
 20
193.0205194593
 30
0.0
 10
30.62945529
 20
193.0630379067
 30
0.0
 10
30.6315927737
 20
193.1357971613
 30
0.0
 10
30.6337766737
 20
193.245550408
 30
0.0
 10
30.6358869163
 20
193.3963345417
 30
0.0
 10
30.6374512635
 20
193.5685545677
 30
0.0
 10
30.6384143701
 20
193.7552713548
 30
0.0
 10
30.6386349176
 20
193.8838681413
 30
0.0
 10
30.6386349176
 20
193.9492890834
 30
0.0
  0
SPLINE
  5
49C
100
AcDbEntity
  8
0
100
AcDbSpline
 62
7
  6
CONTINUOUS
 70
0
 71
3
 72
18
 73
14
 74
0
 42
0.0000001
 43
0.0000001
 44
0.0000000001
 40
0.0
 40
0.0
 40
0.0
 40
0.0
 40
0.1944735352
 40
0.3822703841
 40
0.5550599338
 40
0.7064102986
 40
0.8306402846
 40
0.8811373161
 40
0.923172698
 40
0.956270414
 40
0.9801948557
 40
0.9947839676
 40
1.0
 40
1.0
 40
1.0
 40
1.0
 10
30.464243798
 20
215.549323088
 30
0.0
 10
30.464243798
 20
215.61533735
 30
0.0
 10
30.4640212519
 20
215.7451003821
 30
0.0
 10
30.4630494104
 20
215.9335105455
 30
0.0
 10
30.4614708746
 20
216.1072925457
 30
0.0
 10
30.4593414945
 20
216.2594443351
 30
0.0
 10
30.4571377849
 20
216.3701931147
 30
0.0
 10
30.4549809134
 20
216.4436123372
 30
0.0
 10
30.4535806595
 20
216.4865164435
 30
0.0
 10
30.4516630182
 20
216.5193546719
 30
0.0
 10
30.4508683851
 20
216.5453415096
 30
0.0
 10
30.4479888824
 20
216.5570145018
 30
0.0
 10
30.4482632546
 20
216.5669882117
 30
0.0
 10
30.4464950931
 20
216.5670808771
 30
0.0
  0
SPLINE
  5
49D
100
AcDbEntity
  8
0
100
AcDbSpline
 62
7
  6
CONTINUOUS
 70
0
 71
3
 72
18
 73
14
 74
0
 42
0.0000001
 43
0.0000001
 44
0.0000000001
 40
0.0
 40
0.0
 40
0.0
 40
0.0
 40
0.0052160383
 40
0.0198051616
 40
0.0437296095
 40
0.0768273163
 40
0.1188626703
 40
0.1693596616
 40
0.2935895427
 40
0.4449397682
 40
0.6177293296
 40
0.8055263685
 40
1.0
 40
1.0
 40
1.0
 40
1.0
 10
30.4464950931
 20
192.9315311396
 30
0.0
 10
30.4482632566
 20
192.9316238051
 30
0.0
 10
30.44798888
 20
192.9415975253
 30
0.0
 10
30.4508683863
 20
192.9532705227
 30
0.0
 10
30.4516630181
 20
192.9792573638
 30
0.0
 10
30.4535806599
 20
193.012095582
 30
0.0
 10
30.4549809134
 20
193.0549996619
 30
0.0
 10
30.4571377835
 20
193.1284188259
 30
0.0
 10
30.459341491
 20
193.2391675089
 30
0.0
 10
30.461470873
 20
193.3913192196
 30
0.0
 10
30.4630494085
 20
193.5651012411
 30
0.0
 10
30.4640212502
 20
193.7535115058
 30
0.0
 10
30.464243798
 20
193.8832746352
 30
0.0
 10
30.464243798
 20
193.9492889299
 30
0.0
  0
SPLINE
  5
49E
100
AcDbEntity
  8
0
100
AcDbSpline
 62
7
  6
CONTINUOUS
 70
0
 71
3
 72
18
 73
14
 74
0
 42
0.0000001
 43
0.0000001
 44
0.0000000001
 40
0.0
 40
0.0
 40
0.0
 40
0.0
 40
0.1944735352
 40
0.3822703841
 40
0.5550599337
 40
0.7064102986
 40
0.8306402846
 40
0.881137316
 40
0.9231726979
 40
0.956270414
 40
0.9801948557
 40
0.9947839676
 40
1.0
 40
1.0
 40
1.0
 40
1.0
 10
30.3770482382
 20
215.5493231648
 30
0.0
 10
30.3770482382
 20
215.615634103
 30
0.0
 10
30.376824692
 20
215.7459803061
 30
0.0
 10
30.3758484829
 20
215.9352372079
 30
0.0
 10
30.374262853
 20
216.1098002056
 30
0.0
 10
30.3721239032
 20
216.2626357839
 30
0.0
 10
30.3699102898
 20
216.3738822821
 30
0.0
 10
30.3677437251
 20
216.4476314595
 30
0.0
 10
30.3663371782
 20
216.4907283821
 30
0.0
 10
30.3644109189
 20
216.5237141896
 30
0.0
 10
30.3636127145
 20
216.5498178153
 30
0.0
 10
30.360720271
 20
216.5615432675
 30
0.0
 10
30.3609958763
 20
216.5715618004
 30
0.0
 10
30.3592197684
 20
216.5716548823
 30
0.0
  0
SPLINE
  5
49F
100
AcDbEntity
  8
0
100
AcDbSpline
 62
7
  6
CONTINUOUS
 70
0
 71
3
 72
18
 73
14
 74
0
 42
0.0000001
 43
0.0000001
 44
0.0000000001
 40
0.0
 40
0.0
 40
0.0
 40
0.0
 40
0.0052160383
 40
0.0198051616
 40
0.0437296096
 40
0.0768273163
 40
0.1188626703
 40
0.1693596617
 40
0.2935895427
 40
0.4449397682
 40
0.6177293296
 40
0.8055263685
 40
1.0
 40
1.0
 40
1.0
 40
1.0
 10
30.3592197684
 20
192.9269571345
 30
0.0
 10
30.3609958783
 20
192.9270502164
 30
0.0
 10
30.3607202686
 20
192.9370687598
 30
0.0
 10
30.3636127158
 20
192.948794217
 30
0.0
 10
30.3644109188
 20
192.9748978462
 30
0.0
 10
30.3663371786
 20
193.0078836434
 30
0.0
 10
30.3677437251
 20
193.0509805394
 30
0.0
 10
30.3699102884
 20
193.1247296582
 30
0.0
 10
30.3721238996
 20
193.2359760594
 30
0.0
 10
30.3742628513
 20
193.3888115585
 30
0.0
 10
30.375848481
 20
193.5633745777
 30
0.0
 10
30.3768246903
 20
193.7526315812
 30
0.0
 10
30.3770482382
 20
193.8829778821
 30
0.0
 10
30.3770482382
 20
193.9492888531
 30
0.0
  0
SPLINE
  5
4A0
100
AcDbEntity
  8
0
100
AcDbSpline
 62
7
  6
CONTINUOUS
 70
0
 71
3
 72
18
 73
14
 74
0
 42
0.0000001
 43
0.0000001
 44
0.0000000001
 40
0.0
 40
0.0
 40
0.0
 40
0.0
 40
0.1944735352
 40
0.3822703841
 40
0.5550599338
 40
0.7064102986
 40
0.8306402846
 40
0.8811373161
 40
0.923172698
 40
0.956270414
 40
0.9801948557
 40
0.9947839676
 40
1.0
 40
1.0
 40
1.0
 40
1.0
 10
30.2898526784
 20
215.5493232416
 30
0.0
 10
30.2898526784
 20
215.6159308559
 30
0.0
 10
30.2896281321
 20
215.74686023
 30
0.0
 10
30.2886475554
 20
215.9369638702
 30
0.0
 10
30.2870548313
 20
216.1123078656
 30
0.0
 10
30.2849063119
 20
216.2658272326
 30
0.0
 10
30.2826827947
 20
216.3775714494
 30
0.0
 10
30.2805065368
 20
216.4516505819
 30
0.0
 10
30.279093697
 20
216.4949403208
 30
0.0
 10
30.2771588195
 20
216.5280737073
 30
0.0
 10
30.276357044
 20
216.554294121
 30
0.0
 10
30.2734516597
 20
216.566072033
 30
0.0
 10
30.273728498
 20
216.576135389
 30
0.0
 10
30.2719444438
 20
216.5762288873
 30
0.0
  0
SPLINE
  5
4A1
100
AcDbEntity
  8
0
100
AcDbSpline
 62
7
  6
CONTINUOUS
 70
0
 71
3
 72
18
 73
14
 74
0
 42
0.0000001
 43
0.0000001
 44
0.0000000001
 40
0.0
 40
0.0
 40
0.0
 40
0.0
 40
0.0052160383
 40
0.0198051616
 40
0.0437296096
 40
0.0768273163
 40
0.1188626703
 40
0.1693596617
 40
0.2935895427
 40
0.4449397682
 40
0.6177293296
 40
0.8055263685
 40
1.0
 40
1.0
 40
1.0
 40
1.0
 10
30.2719444438
 20
192.9223831294
 30
0.0
 10
30.2737285
 20
192.9224766278
 30
0.0
 10
30.2734516572
 20
192.9325399942
 30
0.0
 10
30.2763570452
 20
192.9443179114
 30
0.0
 10
30.2771588194
 20
192.9705383286
 30
0.0
 10
30.2790936974
 20
193.0036717048
 30
0.0
 10
30.2805065367
 20
193.046961417
 30
0.0
 10
30.2826827933
 20
193.1210404905
 30
0.0
 10
30.2849063083
 20
193.2327846099
 30
0.0
 10
30.2870548297
 20
193.3863038974
 30
0.0
 10
30.2886475535
 20
193.5616479143
 30
0.0
 10
30.2896281303
 20
193.7517516567
 30
0.0
 10
30.2898526784
 20
193.882681129
 30
0.0
 10
30.2898526784
 20
193.9492887764
 30
0.0
  0
SPLINE
  5
4A2
100
AcDbEntity
  8
0
100
AcDbSpline
 62
7
  6
CONTINUOUS
 70
0
 71
3
 72
18
 73
14
 74
0
 42
0.0000001
 43
0.0000001
 44
0.0000000001
 40
0.0
 40
0.0
 40
0.0
 40
0.0
 40
0.1944735352
 40
0.3822703841
 40
0.5550599337
 40
0.7064102986
 40
0.8306402846
 40
0.881137316
 40
0.9231726979
 40
0.956270414
 40
0.9801948557
 40
0.9947839676
 40
1.0
 40
1.0
 40
1.0
 40
1.0
 10
30.2026571186
 20
215.5493233183
 30
0.0
 10
30.2026571186
 20
215.6162276089
 30
0.0
 10
30.2024315721
 20
215.7477401539
 30
0.0
 10
30.2014466279
 20
215.9386905325
 30
0.0
 10
30.1998468097
 20
216.1148155255
 30
0.0
 10
30.1976887205
 20
216.2690186814
 30
0.0
 10
30.1954552996
 20
216.3812606168
 30
0.0
 10
30.1932693485
 20
216.4556697042
 30
0.0
 10
30.1918502158
 20
216.4991522595
 30
0.0
 10
30.1899067202
 20
216.532433225
 30
0.0
 10
30.1891013735
 20
216.5587704268
 30
0.0
 10
30.1861830483
 20
216.5706007986
 30
0.0
 10
30.1864611197
 20
216.5807089777
 30
0.0
 10
30.1846691191
 20
216.5808028925
 30
0.0
  0
SPLINE
  5
4A3
100
AcDbEntity
  8
0
100
AcDbSpline
 62
7
  6
CONTINUOUS
 70
0
 71
3
 72
18
 73
14
 74
0
 42
0.0000001
 43
0.0000001
 44
0.0000000001
 40
0.0
 40
0.0
 40
0.0
 40
0.0
 40
0.0052160383
 40
0.0198051616
 40
0.0437296096
 40
0.0768273163
 40
0.1188626703
 40
0.1693596617
 40
0.2935895427
 40
0.4449397682
 40
0.6177293296
 40
0.8055263685
 40
1.0
 40
1.0
 40
1.0
 40
1.0
 10
30.1846691191
 20
192.9178091242
 30
0.0
 10
30.1864611217
 20
192.9179030391
 30
0.0
 10
30.1861830458
 20
192.9280112287
 30
0.0
 10
30.1891013747
 20
192.9398416057
 30
0.0
 10
30.1899067201
 20
192.966178811
 30
0.0
 10
30.1918502162
 20
192.9994597662
 30
0.0
 10
30.1932693484
 20
193.0429422946
 30
0.0
 10
30.1954552982
 20
193.1173513228
 30
0.0
 10
30.1976887169
 20
193.2295931603
 30
0.0
 10
30.199846808
 20
193.3837962363
 30
0.0
 10
30.201446626
 20
193.559921251
 30
0.0
 10
30.2024315704
 20
193.7508717322
 30
0.0
 10
30.2026571186
 20
193.8823843759
 30
0.0
 10
30.2026571186
 20
193.9492886996
 30
0.0
  0
SPLINE
  5
4A4
100
AcDbEntity
  8
0
100
AcDbSpline
 62
7
  6
CONTINUOUS
 70
0
 71
3
 72
18
 73
14
 74
0
 42
0.0000001
 43
0.0000001
 44
0.0000000001
 40
0.0
 40
0.0
 40
0.0
 40
0.0
 40
0.1944735352
 40
0.3822703841
 40
0.5550599337
 40
0.7064102986
 40
0.8306402846
 40
0.881137316
 40
0.9231726979
 40
0.956270414
 40
0.9801948557
 40
0.9947839676
 40
1.0
 40
1.0
 40
1.0
 40
1.0
 10
30.1154615589
 20
215.5493233951
 30
0.0
 10
30.1154615589
 20
215.6165243618
 30
0.0
 10
30.1152350122
 20
215.7486200779
 30
0.0
 10
30.1142457004
 20
215.9404171948
 30
0.0
 10
30.1126387881
 20
216.1173231855
 30
0.0
 10
30.1104711292
 20
216.2722101301
 30
0.0
 10
30.1082278045
 20
216.3849497841
 30
0.0
 10
30.1060321602
 20
216.4596888266
 30
0.0
 10
30.1046067345
 20
216.5033641981
 30
0.0
 10
30.1026546208
 20
216.5367927426
 30
0.0
 10
30.101845703
 20
216.5632467325
 30
0.0
 10
30.0989144369
 20
216.5751295642
 30
0.0
 10
30.0991937414
 20
216.5852825664
 30
0.0
 10
30.0973937945
 20
216.5853768976
 30
0.0
  0
SPLINE
  5
4A5
100
AcDbEntity
  8
0
100
AcDbSpline
 62
7
  6
CONTINUOUS
 70
0
 71
3
 72
18
 73
14
 74
0
 42
0.0000001
 43
0.0000001
 44
0.0000000001
 40
0.0
 40
0.0
 40
0.0
 40
0.0
 40
0.0052160383
 40
0.0198051616
 40
0.0437296096
 40
0.0768273163
 40
0.1188626703
 40
0.1693596617
 40
0.2935895427
 40
0.4449397682
 40
0.6177293296
 40
0.8055263685
 40
1.0
 40
1.0
 40
1.0
 40
1.0
 10
30.0973937945
 20
192.9132351191
 30
0.0
 10
30.0991937434
 20
192.9133294505
 30
0.0
 10
30.0989144345
 20
192.9234824631
 30
0.0
 10
30.1018457042
 20
192.9353653001
 30
0.0
 10
30.1026546207
 20
192.9618192934
 30
0.0
 10
30.1046067349
 20
192.9952478275
 30
0.0
 10
30.1060321601
 20
193.0389231722
 30
0.0
 10
30.1082278032
 20
193.1136621551
 30
0.0
 10
30.1104711256
 20
193.2264017108
 30
0.0
 10
30.1126387864
 20
193.3812885753
 30
0.0
 10
30.1142456984
 20
193.5581945876
 30
0.0
 10
30.1152350104
 20
193.7499918077
 30
0.0
 10
30.1154615589
 20
193.8820876228
 30
0.0
 10
30.1154615589
 20
193.9492886229
 30
0.0
  0
SPLINE
  5
4A6
100
AcDbEntity
  8
0
100
AcDbSpline
 62
7
  6
CONTINUOUS
 70
0
 71
3
 72
11
 73
7
 74
0
 42
0.0000001
 43
0.0000001
 44
0.0000000001
 40
0.0
 40
0.0
 40
0.0
 40
0.0
 40
0.0693690852
 40
0.2585131685
 40
0.5691245214
 40
1.0
 40
1.0
 40
1.0
 40
1.0
 10
26.9690114569
 20
261.7493060083
 30
0.0
 10
26.9690114569
 20
261.7507706438
 30
0.0
 10
26.9768775446
 20
261.7515253555
 30
0.0
 10
26.9864506522
 20
261.7537051584
 30
0.0
 10
27.0073561875
 20
261.7551288201
 30
0.0
 10
27.0225453884
 20
261.7562484676
 30
0.0
 10
27.031627086
 20
261.7567820571
 30
0.0
  0
SPLINE
  5
4A7
100
AcDbEntity
  8
0
100
AcDbSpline
 62
7
  6
CONTINUOUS
 70
0
 71
3
 72
18
 73
14
 74
0
 42
0.0000001
 43
0.0000001
 44
0.0000000001
 40
0.0
 40
0.0
 40
0.0
 40
0.0
 40
0.1944735352
 40
0.3822703841
 40
0.5550599338
 40
0.7064102986
 40
0.8306402846
 40
0.8811373161
 40
0.923172698
 40
0.956270414
 40
0.9801948557
 40
0.9947839676
 40
1.0
 40
1.0
 40
1.0
 40
1.0
 10
30.0282659991
 20
215.5493234719
 30
0.0
 10
30.0282659991
 20
215.6168211148
 30
0.0
 10
30.0280384523
 20
215.7495000018
 30
0.0
 10
30.0270447729
 20
215.9421438571
 30
0.0
 10
30.0254307664
 20
216.1198308454
 30
0.0
 10
30.0232535379
 20
216.2754015789
 30
0.0
 10
30.0210003095
 20
216.3886389515
 30
0.0
 10
30.0187949718
 20
216.4637079489
 30
0.0
 10
30.0173632533
 20
216.5075761368
 30
0.0
 10
30.0154025215
 20
216.5411522603
 30
0.0
 10
30.0145900324
 20
216.5677230382
 30
0.0
 10
30.0116458255
 20
216.5796583298
 30
0.0
 10
30.0119263631
 20
216.589856155
 30
0.0
 10
30.0101184699
 20
216.5899509027
 30
0.0
  0
SPLINE
  5
4A8
100
AcDbEntity
  8
0
100
AcDbSpline
 62
7
  6
CONTINUOUS
 70
0
 71
3
 72
18
 73
14
 74
0
 42
0.0000001
 43
0.0000001
 44
0.0000000001
 40
0.0
 40
0.0
 40
0.0
 40
0.0
 40
0.0052160383
 40
0.0198051616
 40
0.0437296096
 40
0.0768273163
 40
0.1188626703
 40
0.1693596617
 40
0.2935895427
 40
0.4449397682
 40
0.6177293296
 40
0.8055263685
 40
1.0
 40
1.0
 40
1.0
 40
1.0
 10
30.0101184699
 20
192.908661114
 30
0.0
 10
30.0119263651
 20
192.9087558618
 30
0.0
 10
30.0116458231
 20
192.9189536976
 30
0.0
 10
30.0145900337
 20
192.9308889944
 30
0.0
 10
30.0154025214
 20
192.9574597758
 30
0.0
 10
30.0173632537
 20
192.9910358889
 30
0.0
 10
30.0187949718
 20
193.0349040497
 30
0.0
 10
30.0210003081
 20
193.1099729874
 30
0.0
 10
30.0232535342
 20
193.2232102613
 30
0.0
 10
30.0254307647
 20
193.3787809142
 30
0.0
 10
30.0270447709
 20
193.5564679243
 30
0.0
 10
30.0280384505
 20
193.7491118832
 30
0.0
 10
30.0282659991
 20
193.8817908697
 30
0.0
 10
30.0282659991
 20
193.9492885461
 30
0.0
  0
SPLINE
  5
4A9
100
AcDbEntity
  8
0
100
AcDbSpline
 62
7
  6
CONTINUOUS
 70
0
 71
3
 72
18
 73
14
 74
0
 42
0.0000001
 43
0.0000001
 44
0.0000000001
 40
0.0
 40
0.0
 40
0.0
 40
0.0
 40
0.1944735352
 40
0.3822703841
 40
0.5550599338
 40
0.7064102986
 40
0.8306402846
 40
0.8811373161
 40
0.923172698
 40
0.956270414
 40
0.9801948557
 40
0.9947839676
 40
1.0
 40
1.0
 40
1.0
 40
1.0
 10
29.9410704393
 20
215.5493235486
 30
0.0
 10
29.9410704393
 20
215.6171178677
 30
0.0
 10
29.9408418923
 20
215.7503799257
 30
0.0
 10
29.9398438454
 20
215.9438705195
 30
0.0
 10
29.9382227448
 20
216.1223385054
 30
0.0
 10
29.9360359465
 20
216.2785930276
 30
0.0
 10
29.9337728144
 20
216.3923281188
 30
0.0
 10
29.9315577835
 20
216.4677270712
 30
0.0
 10
29.9301197721
 20
216.5117880754
 30
0.0
 10
29.9281504221
 20
216.545511778
 30
0.0
 10
29.9273343619
 20
216.5721993439
 30
0.0
 10
29.9243772142
 20
216.5841870953
 30
0.0
 10
29.9246589848
 20
216.5944297436
 30
0.0
 10
29.9228431452
 20
216.5945249078
 30
0.0
  0
SPLINE
  5
4AA
100
AcDbEntity
  8
0
100
AcDbSpline
 62
7
  6
CONTINUOUS
 70
0
 71
3
 72
18
 73
14
 74
0
 42
0.0000001
 43
0.0000001
 44
0.0000000001
 40
0.0
 40
0.0
 40
0.0
 40
0.0
 40
0.1944735352
 40
0.3822703841
 40
0.5550599338
 40
0.7064102987
 40
0.8306402846
 40
0.8811373161
 40
0.923172698
 40
0.956270414
 40
0.9801948557
 40
0.9947839676
 40
1.0
 40
1.0
 40
1.0
 40
1.0
 10
29.8538748795
 20
215.5493236254
 30
0.0
 10
29.8538748795
 20
215.6174146207
 30
0.0
 10
29.8536453324
 20
215.7512598497
 30
0.0
 10
29.8526429179
 20
215.9455971818
 30
0.0
 10
29.8510147231
 20
216.1248461653
 30
0.0
 10
29.8488183552
 20
216.2817844764
 30
0.0
 10
29.8465453193
 20
216.3960172862
 30
0.0
 10
29.8443205952
 20
216.4717461936
 30
0.0
 10
29.8428762908
 20
216.5160000141
 30
0.0
 10
29.8408983228
 20
216.5498712957
 30
0.0
 10
29.8400786914
 20
216.5766756496
 30
0.0
 10
29.8371086028
 20
216.5887158609
 30
0.0
 10
29.8373916065
 20
216.5990033323
 30
0.0
 10
29.8355678206
 20
216.5990989128
 30
0.0
  0
SPLINE
  5
4AB
100
AcDbEntity
  8
0
100
AcDbSpline
 62
7
  6
CONTINUOUS
 70
0
 71
3
 72
18
 73
14
 74
0
 42
0.0000001
 43
0.0000001
 44
0.0000000001
 40
0.0
 40
0.0
 40
0.0
 40
0.0
 40
0.0052160383
 40
0.0198051616
 40
0.0437296095
 40
0.0768273163
 40
0.1188626703
 40
0.1693596616
 40
0.2935895427
 40
0.4449397682
 40
0.6177293296
 40
0.8055263685
 40
1.0
 40
1.0
 40
1.0
 40
1.0
 10
29.8355678206
 20
192.8995131039
 30
0.0
 10
29.8373916085
 20
192.8996086845
 30
0.0
 10
29.8371086003
 20
192.9098961666
 30
0.0
 10
29.8400786926
 20
192.9219363831
 30
0.0
 10
29.8408983227
 20
192.9487407406
 30
0.0
 10
29.8428762912
 20
192.9826120117
 30
0.0
 10
29.8443205951
 20
193.0268658049
 30
0.0
 10
29.8465453179
 20
193.102594652
 30
0.0
 10
29.8488183515
 20
193.2168273622
 30
0.0
 10
29.8510147214
 20
193.373765592
 30
0.0
 10
29.8526429159
 20
193.5530145976
 30
0.0
 10
29.8536453306
 20
193.7473520342
 30
0.0
 10
29.8538748795
 20
193.8811973635
 30
0.0
 10
29.8538748795
 20
193.9492883926
 30
0.0
  0
SPLINE
  5
4AC
100
AcDbEntity
  8
0
100
AcDbSpline
 62
7
  6
CONTINUOUS
 70
0
 71
3
 72
18
 73
14
 74
0
 42
0.0000001
 43
0.0000001
 44
0.0000000001
 40
0.0
 40
0.0
 40
0.0
 40
0.0
 40
0.1944735352
 40
0.3822703841
 40
0.5550599338
 40
0.7064102986
 40
0.8306402846
 40
0.8811373161
 40
0.923172698
 40
0.956270414
 40
0.9801948557
 40
0.9947839676
 40
1.0
 40
1.0
 40
1.0
 40
1.0
 10
29.7666793197
 20
215.5493237021
 30
0.0
 10
29.7666793197
 20
215.6177113736
 30
0.0
 10
29.7664487725
 20
215.7521397736
 30
0.0
 10
29.7654419904
 20
215.9473238441
 30
0.0
 10
29.7638067015
 20
216.1273538253
 30
0.0
 10
29.7616007639
 20
216.2849759251
 30
0.0
 10
29.7593178242
 20
216.3997064535
 30
0.0
 10
29.7570834069
 20
216.4757653159
 30
0.0
 10
29.7556328096
 20
216.5202119528
 30
0.0
 10
29.7536462234
 20
216.5542308134
 30
0.0
 10
29.7528230208
 20
216.5811519554
 30
0.0
 10
29.7498399914
 20
216.5932446265
 30
0.0
 10
29.7501242282
 20
216.603576921
 30
0.0
 10
29.7482924959
 20
216.603672918
 30
0.0
  0
SPLINE
  5
4AD
100
AcDbEntity
  8
0
100
AcDbSpline
 62
7
  6
CONTINUOUS
 70
0
 71
3
 72
18
 73
14
 74
0
 42
0.0000001
 43
0.0000001
 44
0.0000000001
 40
0.0
 40
0.0
 40
0.0
 40
0.0
 40
0.0052160383
 40
0.0198051616
 40
0.0437296095
 40
0.0768273163
 40
0.1188626703
 40
0.1693596616
 40
0.2935895427
 40
0.4449397682
 40
0.6177293296
 40
0.8055263685
 40
1.0
 40
1.0
 40
1.0
 40
1.0
 10
29.7482924959
 20
192.8949390988
 30
0.0
 10
29.7501242303
 20
192.8950350959
 30
0.0
 10
29.7498399889
 20
192.905367401
 30
0.0
 10
29.7528230221
 20
192.9174600775
 30
0.0
 10
29.7536462233
 20
192.944381223
 30
0.0
 10
29.75563281
 20
192.9784000731
 30
0.0
 10
29.7570834068
 20
193.0228466825
 30
0.0
 10
29.7593178228
 20
193.0989054843
 30
0.0
 10
29.7616007601
 20
193.2136359127
 30
0.0
 10
29.7638066998
 20
193.371257931
 30
0.0
 10
29.7654419884
 20
193.5512879342
 30
0.0
 10
29.7664487707
 20
193.7464721097
 30
0.0
 10
29.7666793197
 20
193.8809006104
 30
0.0
 10
29.7666793197
 20
193.9492883158
 30
0.0
  0
SPLINE
  5
4AE
100
AcDbEntity
  8
0
100
AcDbSpline
 62
7
  6
CONTINUOUS
 70
0
 71
3
 72
18
 73
14
 74
0
 42
0.0000001
 43
0.0000001
 44
0.0000000001
 40
0.0
 40
0.0
 40
0.0
 40
0.0
 40
0.1944735352
 40
0.3822703841
 40
0.5550599338
 40
0.7064102986
 40
0.8306402846
 40
0.8811373161
 40
0.923172698
 40
0.956270414
 40
0.9801948557
 40
0.9947839676
 40
1.0
 40
1.0
 40
1.0
 40
1.0
 10
29.6794837599
 20
215.5493237789
 30
0.0
 10
29.6794837599
 20
215.6180081266
 30
0.0
 10
29.6792522126
 20
215.7530196975
 30
0.0
 10
29.6782410629
 20
215.9490505064
 30
0.0
 10
29.6765986798
 20
216.1298614852
 30
0.0
 10
29.6743831725
 20
216.2881673739
 30
0.0
 10
29.6720903292
 20
216.4033956209
 30
0.0
 10
29.6698462185
 20
216.4797844383
 30
0.0
 10
29.6683893283
 20
216.5244238914
 30
0.0
 10
29.6663941241
 20
216.5585903311
 30
0.0
 10
29.6655673503
 20
216.5856282611
 30
0.0
 10
29.6625713801
 20
216.5977733921
 30
0.0
 10
29.6628568499
 20
216.6081505096
 30
0.0
 10
29.6610171713
 20
216.6082469231
 30
0.0
  0
SPLINE
  5
4AF
100
AcDbEntity
  8
0
100
AcDbSpline
 62
7
  6
CONTINUOUS
 70
0
 71
3
 72
18
 73
14
 74
0
 42
0.0000001
 43
0.0000001
 44
0.0000000001
 40
0.0
 40
0.0
 40
0.0
 40
0.0
 40
0.0052160383
 40
0.0198051616
 40
0.0437296095
 40
0.0768273163
 40
0.1188626703
 40
0.1693596616
 40
0.2935895427
 40
0.4449397682
 40
0.6177293296
 40
0.8055263685
 40
1.0
 40
1.0
 40
1.0
 40
1.0
 10
29.6610171713
 20
192.8903650936
 30
0.0
 10
29.662856852
 20
192.8904615072
 30
0.0
 10
29.6625713776
 20
192.9008386355
 30
0.0
 10
29.6655673516
 20
192.9129837718
 30
0.0
 10
29.666394124
 20
192.9400217054
 30
0.0
 10
29.6683893288
 20
192.9741881344
 30
0.0
 10
29.6698462185
 20
193.01882756
 30
0.0
 10
29.6720903277
 20
193.0952163166
 30
0.0
 10
29.6743831688
 20
193.2104444632
 30
0.0
 10
29.6765986781
 20
193.3687502699
 30
0.0
 10
29.6782410609
 20
193.5495612708
 30
0.0
 10
29.6792522107
 20
193.7455921852
 30
0.0
 10
29.6794837599
 20
193.8806038573
 30
0.0
 10
29.6794837599
 20
193.9492882391
 30
0.0
  0
SPLINE
  5
4B0
100
AcDbEntity
  8
0
100
AcDbSpline
 62
7
  6
CONTINUOUS
 70
0
 71
3
 72
18
 73
14
 74
0
 42
0.0000001
 43
0.0000001
 44
0.0000000001
 40
0.0
 40
0.0
 40
0.0
 40
0.0
 40
0.0051318111
 40
0.0196362098
 40
0.0434814996
 40
0.0765083518
 40
0.1184747793
 40
0.1689057224
 40
0.2930598263
 40
0.4444177305
 40
0.6173266021
 40
0.8053284638
 40
1.0
 40
1.0
 40
1.0
 40
1.0
 10
43.678035272
 20
276.3888189566
 30
0.0
 10
43.6781545227
 20
276.3905243207
 30
0.0
 10
43.6880048688
 20
276.389622015
 30
0.0
 10
43.6993771413
 20
276.3916083283
 30
0.0
 10
43.7248942345
 20
276.3906264482
 30
0.0
 10
43.7570552732
 20
276.390251444
 30
0.0
 10
43.7991017337
 20
276.3886901504
 30
0.0
 10
43.871046286
 20
276.3857776464
 30
0.0
 10
43.9795771656
 20
276.3803549662
 30
0.0
 10
44.1286897467
 20
276.372022915
 30
0.0
 10
44.2990361718
 20
276.3616653993
 30
0.0
 10
44.4837240156
 20
276.3497090161
 30
0.0
 10
44.6109074753
 20
276.341037206
 30
0.0
 10
44.6755993223
 20
276.3365148893
 30
0.0
  0
SPLINE
  5
4B1
100
AcDbEntity
  8
0
100
AcDbSpline
 62
7
  6
CONTINUOUS
 70
0
 71
3
 72
18
 73
14
 74
0
 42
0.0000001
 43
0.0000001
 44
0.0000000001
 40
0.0
 40
0.0
 40
0.0
 40
0.0
 40
0.1944735352
 40
0.3822703841
 40
0.5550599338
 40
0.7064102986
 40
0.8306402846
 40
0.8811373161
 40
0.923172698
 40
0.956270414
 40
0.9801948557
 40
0.9947839676
 40
1.0
 40
1.0
 40
1.0
 40
1.0
 10
203.2993879962
 20
193.9492890821
 30
0.0
 10
203.2993879962
 20
193.8838681726
 30
0.0
 10
203.299608542
 20
193.7552714824
 30
0.0
 10
203.3005716484
 20
193.5685547958
 30
0.0
 10
203.3021359959
 20
193.3963347909
 30
0.0
 10
203.3042462366
 20
193.2455505791
 30
0.0
 10
203.3064301388
 20
193.1357972367
 30
0.0
 10
203.3085676237
 20
193.0630379242
 30
0.0
 10
203.3099552919
 20
193.0205194505
 30
0.0
 10
203.3118556969
 20
192.9879763802
 30
0.0
 10
203.3126431877
 20
192.9622231185
 30
0.0
 10
203.3154968087
 20
192.950655046
 30
0.0
 10
203.3152249026
 20
192.9407709823
 30
0.0
 10
203.3169771715
 20
192.9406791498
 30
0.0
  0
SPLINE
  5
4B2
100
AcDbEntity
  8
0
100
AcDbSpline
 62
7
  6
CONTINUOUS
 70
0
 71
3
 72
18
 73
14
 74
0
 42
0.0000001
 43
0.0000001
 44
0.0000000001
 40
0.0
 40
0.0
 40
0.0
 40
0.0
 40
0.1944735352
 40
0.3822703841
 40
0.5550599337
 40
0.7064102986
 40
0.8306402846
 40
0.881137316
 40
0.9231726979
 40
0.956270414
 40
0.9801948557
 40
0.9947839676
 40
1.0
 40
1.0
 40
1.0
 40
1.0
 10
204.2585391539
 20
223.9492882378
 30
0.0
 10
204.2585391539
 20
223.8806038901
 30
0.0
 10
204.2587707013
 20
223.7455923192
 30
0.0
 10
204.259781851
 20
223.5495615103
 30
0.0
 10
204.261424234
 20
223.3687505315
 30
0.0
 10
204.2636397413
 20
223.2104446428
 30
0.0
 10
204.2659325846
 20
223.0952163958
 30
0.0
 10
204.2681766953
 20
223.0188275784
 30
0.0
 10
204.2696335855
 20
222.9741881253
 30
0.0
 10
204.2716287897
 20
222.9400216856
 30
0.0
 10
204.2724555635
 20
222.9129837556
 30
0.0
 10
204.2754515337
 20
222.9008386246
 30
0.0
 10
204.2751660639
 20
222.890461507
 30
0.0
 10
204.2770057425
 20
222.8903650936
 30
0.0
  0
SPLINE
  5
4B3
100
AcDbEntity
  8
0
100
AcDbSpline
 62
7
  6
CONTINUOUS
 70
0
 71
3
 72
18
 73
14
 74
0
 42
0.0000001
 43
0.0000001
 44
0.0000000001
 40
0.0
 40
0.0
 40
0.0
 40
0.0
 40
0.1944735352
 40
0.3822703841
 40
0.5550599338
 40
0.7064102987
 40
0.8306402846
 40
0.8811373161
 40
0.923172698
 40
0.956270414
 40
0.9801948557
 40
0.9947839676
 40
1.0
 40
1.0
 40
1.0
 40
1.0
 10
204.2585391539
 20
193.9492882378
 30
0.0
 10
204.2585391539
 20
193.8806038901
 30
0.0
 10
204.2587707013
 20
193.7455923192
 30
0.0
 10
204.259781851
 20
193.5495615103
 30
0.0
 10
204.261424234
 20
193.3687505315
 30
0.0
 10
204.2636397413
 20
193.2104446428
 30
0.0
 10
204.2659325846
 20
193.0952163958
 30
0.0
 10
204.2681766953
 20
193.0188275784
 30
0.0
 10
204.2696335855
 20
192.9741881253
 30
0.0
 10
204.2716287897
 20
192.9400216856
 30
0.0
 10
204.2724555635
 20
192.9129837556
 30
0.0
 10
204.2754515337
 20
192.9008386246
 30
0.0
 10
204.2751660639
 20
192.8904615071
 30
0.0
 10
204.2770057425
 20
192.8903650936
 30
0.0
  0
SPLINE
  5
4B4
100
AcDbEntity
  8
0
100
AcDbSpline
 62
7
  6
CONTINUOUS
 70
0
 71
3
 72
18
 73
14
 74
0
 42
0.0000001
 43
0.0000001
 44
0.0000000001
 40
0.0
 40
0.0
 40
0.0
 40
0.0
 40
0.1944735352
 40
0.3822703841
 40
0.5550599337
 40
0.7064102986
 40
0.8306402845
 40
0.881137316
 40
0.9231726979
 40
0.956270414
 40
0.9801948557
 40
0.9947839676
 40
1.0
 40
1.0
 40
1.0
 40
1.0
 10
204.1713435941
 20
223.9492883146
 30
0.0
 10
204.1713435941
 20
223.8809006431
 30
0.0
 10
204.1715741413
 20
223.7464722431
 30
0.0
 10
204.1725809234
 20
223.5512881726
 30
0.0
 10
204.1742162123
 20
223.3712581914
 30
0.0
 10
204.1764221499
 20
223.2136360916
 30
0.0
 10
204.1787050896
 20
223.0989055632
 30
0.0
 10
204.1809395069
 20
223.0228467008
 30
0.0
 10
204.1823901042
 20
222.9784000639
 30
0.0
 10
204.1843766904
 20
222.9443812033
 30
0.0
 10
204.185199893
 20
222.9174600613
 30
0.0
 10
204.1881829224
 20
222.9053673901
 30
0.0
 10
204.1878986856
 20
222.8950350957
 30
0.0
 10
204.1897304179
 20
222.8949390986
 30
0.0
  0
SPLINE
  5
4B5
100
AcDbEntity
  8
0
100
AcDbSpline
 62
7
  6
CONTINUOUS
 70
0
 71
3
 72
18
 73
14
 74
0
 42
0.0000001
 43
0.0000001
 44
0.0000000001
 40
0.0
 40
0.0
 40
0.0
 40
0.0
 40
0.1944735352
 40
0.3822703841
 40
0.5550599338
 40
0.7064102987
 40
0.8306402846
 40
0.8811373161
 40
0.923172698
 40
0.956270414
 40
0.9801948557
 40
0.9947839676
 40
1.0
 40
1.0
 40
1.0
 40
1.0
 10
204.1713435941
 20
193.9492883146
 30
0.0
 10
204.1713435941
 20
193.8809006431
 30
0.0
 10
204.1715741413
 20
193.7464722431
 30
0.0
 10
204.1725809234
 20
193.5512881726
 30
0.0
 10
204.1742162123
 20
193.3712581914
 30
0.0
 10
204.1764221499
 20
193.2136360916
 30
0.0
 10
204.1787050896
 20
193.0989055632
 30
0.0
 10
204.1809395069
 20
193.0228467008
 30
0.0
 10
204.1823901042
 20
192.9784000639
 30
0.0
 10
204.1843766904
 20
192.9443812033
 30
0.0
 10
204.185199893
 20
192.9174600614
 30
0.0
 10
204.1881829224
 20
192.9053673902
 30
0.0
 10
204.1878986856
 20
192.8950350958
 30
0.0
 10
204.1897304179
 20
192.8949390988
 30
0.0
  0
SPLINE
  5
4B6
100
AcDbEntity
  8
0
100
AcDbSpline
 62
7
  6
CONTINUOUS
 70
0
 71
3
 72
18
 73
14
 74
0
 42
0.0000001
 43
0.0000001
 44
0.0000000001
 40
0.0
 40
0.0
 40
0.0
 40
0.0
 40
0.1944735352
 40
0.3822703841
 40
0.5550599338
 40
0.7064102986
 40
0.8306402846
 40
0.8811373161
 40
0.923172698
 40
0.956270414
 40
0.9801948557
 40
0.9947839676
 40
1.0
 40
1.0
 40
1.0
 40
1.0
 10
204.0841480343
 20
223.9492883913
 30
0.0
 10
204.0841480343
 20
223.881197396
 30
0.0
 10
204.0843775814
 20
223.747352167
 30
0.0
 10
204.0853799959
 20
223.5530148349
 30
0.0
 10
204.0870081907
 20
223.3737658514
 30
0.0
 10
204.0892045586
 20
223.2168275403
 30
0.0
 10
204.0914775945
 20
223.1025947305
 30
0.0
 10
204.0937023186
 20
223.0268658231
 30
0.0
 10
204.095146623
 20
222.9826120026
 30
0.0
 10
204.097124591
 20
222.948740721
 30
0.0
 10
204.0979442224
 20
222.921936367
 30
0.0
 10
204.100914311
 20
222.9098961558
 30
0.0
 10
204.1006313073
 20
222.8996086844
 30
0.0
 10
204.1024550932
 20
222.8995131038
 30
0.0
  0
SPLINE
  5
4B7
100
AcDbEntity
  8
0
100
AcDbSpline
 62
7
  6
CONTINUOUS
 70
0
 71
3
 72
18
 73
14
 74
0
 42
0.0000001
 43
0.0000001
 44
0.0000000001
 40
0.0
 40
0.0
 40
0.0
 40
0.0
 40
0.1944735352
 40
0.3822703841
 40
0.5550599338
 40
0.7064102986
 40
0.8306402846
 40
0.8811373161
 40
0.923172698
 40
0.956270414
 40
0.9801948557
 40
0.9947839676
 40
1.0
 40
1.0
 40
1.0
 40
1.0
 10
204.0841480343
 20
193.9492883913
 30
0.0
 10
204.0841480343
 20
193.881197396
 30
0.0
 10
204.0843775814
 20
193.747352167
 30
0.0
 10
204.0853799959
 20
193.5530148349
 30
0.0
 10
204.0870081907
 20
193.3737658514
 30
0.0
 10
204.0892045586
 20
193.2168275403
 30
0.0
 10
204.0914775945
 20
193.1025947305
 30
0.0
 10
204.0937023186
 20
193.0268658231
 30
0.0
 10
204.095146623
 20
192.9826120026
 30
0.0
 10
204.097124591
 20
192.948740721
 30
0.0
 10
204.0979442224
 20
192.921936367
 30
0.0
 10
204.100914311
 20
192.9098961558
 30
0.0
 10
204.1006313073
 20
192.8996086844
 30
0.0
 10
204.1024550932
 20
192.8995131038
 30
0.0
  0
SPLINE
  5
4B8
100
AcDbEntity
  8
0
100
AcDbSpline
 62
7
  6
CONTINUOUS
 70
0
 71
3
 72
18
 73
14
 74
0
 42
0.0000001
 43
0.0000001
 44
0.0000000001
 40
0.0
 40
0.0
 40
0.0
 40
0.0
 40
0.1944735352
 40
0.3822703841
 40
0.5550599338
 40
0.7064102987
 40
0.8306402846
 40
0.8811373161
 40
0.923172698
 40
0.956270414
 40
0.9801948557
 40
0.9947839676
 40
1.0
 40
1.0
 40
1.0
 40
1.0
 10
203.9969524745
 20
223.9492884681
 30
0.0
 10
203.9969524745
 20
223.881494149
 30
0.0
 10
203.9971810215
 20
223.748232091
 30
0.0
 10
203.9981790684
 20
223.5547414972
 30
0.0
 10
203.999800169
 20
223.3762735113
 30
0.0
 10
204.0019869673
 20
223.2200189891
 30
0.0
 10
204.0042500994
 20
223.1062838979
 30
0.0
 10
204.0064651303
 20
223.0308849454
 30
0.0
 10
204.0079031417
 20
222.9868239413
 30
0.0
 10
204.0098724917
 20
222.9531002387
 30
0.0
 10
204.0106885519
 20
222.9264126728
 30
0.0
 10
204.0136456996
 20
222.9144249214
 30
0.0
 10
204.013363929
 20
222.9041822731
 30
0.0
 10
204.0151797686
 20
222.904087109
 30
0.0
  0
SPLINE
  5
4B9
100
AcDbEntity
  8
0
100
AcDbSpline
 62
7
  6
CONTINUOUS
 70
0
 71
3
 72
18
 73
14
 74
0
 42
0.0000001
 43
0.0000001
 44
0.0000000001
 40
0.0
 40
0.0
 40
0.0
 40
0.0
 40
0.1944735352
 40
0.3822703841
 40
0.5550599338
 40
0.7064102986
 40
0.8306402846
 40
0.8811373161
 40
0.923172698
 40
0.956270414
 40
0.9801948557
 40
0.9947839676
 40
1.0
 40
1.0
 40
1.0
 40
1.0
 10
203.9969524745
 20
193.9492884681
 30
0.0
 10
203.9969524745
 20
193.881494149
 30
0.0
 10
203.9971810215
 20
193.748232091
 30
0.0
 10
203.9981790684
 20
193.5547414972
 30
0.0
 10
203.999800169
 20
193.3762735113
 30
0.0
 10
204.0019869673
 20
193.2200189891
 30
0.0
 10
204.0042500994
 20
193.1062838979
 30
0.0
 10
204.0064651303
 20
193.0308849454
 30
0.0
 10
204.0079031417
 20
192.9868239413
 30
0.0
 10
204.0098724917
 20
192.9531002387
 30
0.0
 10
204.0106885519
 20
192.9264126728
 30
0.0
 10
204.0136456996
 20
192.9144249214
 30
0.0
 10
204.013363929
 20
192.904182273
 30
0.0
 10
204.0151797686
 20
192.9040871089
 30
0.0
  0
SPLINE
  5
4BA
100
AcDbEntity
  8
0
100
AcDbSpline
 62
7
  6
CONTINUOUS
 70
0
 71
3
 72
18
 73
14
 74
0
 42
0.0000001
 43
0.0000001
 44
0.0000000001
 40
0.0
 40
0.0
 40
0.0
 40
0.0
 40
0.1944735352
 40
0.3822703841
 40
0.5550599338
 40
0.7064102986
 40
0.8306402846
 40
0.8811373161
 40
0.923172698
 40
0.956270414
 40
0.9801948557
 40
0.9947839676
 40
1.0
 40
1.0
 40
1.0
 40
1.0
 10
203.9097569147
 20
223.9492885448
 30
0.0
 10
203.9097569147
 20
223.8817909019
 30
0.0
 10
203.9099844615
 20
223.7491120149
 30
0.0
 10
203.9109781409
 20
223.5564681596
 30
0.0
 10
203.9125921474
 20
223.3787811713
 30
0.0
 10
203.9147693759
 20
223.2232104378
 30
0.0
 10
203.9170226043
 20
223.1099730652
 30
0.0
 10
203.919227942
 20
223.0349040678
 30
0.0
 10
203.9206596605
 20
222.9910358799
 30
0.0
 10
203.9226203923
 20
222.9574597564
 30
0.0
 10
203.9234328814
 20
222.9308889785
 30
0.0
 10
203.9263770883
 20
222.9189536869
 30
0.0
 10
203.9260965507
 20
222.9087558617
 30
0.0
 10
203.9279044439
 20
222.908661114
 30
0.0
  0
SPLINE
  5
4BB
100
AcDbEntity
  8
0
100
AcDbSpline
 62
7
  6
CONTINUOUS
 70
0
 71
3
 72
18
 73
14
 74
0
 42
0.0000001
 43
0.0000001
 44
0.0000000001
 40
0.0
 40
0.0
 40
0.0
 40
0.0
 40
0.1944735352
 40
0.3822703841
 40
0.5550599338
 40
0.7064102987
 40
0.8306402846
 40
0.8811373161
 40
0.923172698
 40
0.956270414
 40
0.9801948557
 40
0.9947839676
 40
1.0
 40
1.0
 40
1.0
 40
1.0
 10
203.9097569147
 20
193.9492885448
 30
0.0
 10
203.9097569147
 20
193.8817909019
 30
0.0
 10
203.9099844615
 20
193.7491120149
 30
0.0
 10
203.9109781409
 20
193.5564681596
 30
0.0
 10
203.9125921474
 20
193.3787811713
 30
0.0
 10
203.9147693759
 20
193.2232104378
 30
0.0
 10
203.9170226043
 20
193.1099730652
 30
0.0
 10
203.919227942
 20
193.0349040678
 30
0.0
 10
203.9206596605
 20
192.9910358799
 30
0.0
 10
203.9226203923
 20
192.9574597564
 30
0.0
 10
203.9234328814
 20
192.9308889785
 30
0.0
 10
203.9263770883
 20
192.918953687
 30
0.0
 10
203.9260965507
 20
192.9087558617
 30
0.0
 10
203.9279044439
 20
192.9086611141
 30
0.0
  0
SPLINE
  5
4BC
100
AcDbEntity
  8
0
100
AcDbSpline
 62
7
  6
CONTINUOUS
 70
0
 71
3
 72
18
 73
14
 74
0
 42
0.0000001
 43
0.0000001
 44
0.0000000001
 40
0.0
 40
0.0
 40
0.0
 40
0.0
 40
0.1944735352
 40
0.3822703841
 40
0.5550599338
 40
0.7064102987
 40
0.8306402846
 40
0.8811373161
 40
0.923172698
 40
0.956270414
 40
0.9801948557
 40
0.9947839676
 40
1.0
 40
1.0
 40
1.0
 40
1.0
 10
203.8225613549
 20
223.9492886216
 30
0.0
 10
203.8225613549
 20
223.8820876549
 30
0.0
 10
203.8227879016
 20
223.7499919388
 30
0.0
 10
203.8237772134
 20
223.5581948219
 30
0.0
 10
203.8253841257
 20
223.3812888312
 30
0.0
 10
203.8275517846
 20
223.2264018866
 30
0.0
 10
203.8297951093
 20
223.1136622326
 30
0.0
 10
203.8319907536
 20
223.0389231901
 30
0.0
 10
203.8334161793
 20
222.9952478186
 30
0.0
 10
203.835368293
 20
222.9618192741
 30
0.0
 10
203.8361772108
 20
222.9353652842
 30
0.0
 10
203.8391084769
 20
222.9234824526
 30
0.0
 10
203.8388291724
 20
222.9133294504
 30
0.0
 10
203.8406291193
 20
222.9132351192
 30
0.0
  0
SPLINE
  5
4BD
100
AcDbEntity
  8
0
100
AcDbSpline
 62
7
  6
CONTINUOUS
 70
0
 71
3
 72
18
 73
14
 74
0
 42
0.0000001
 43
0.0000001
 44
0.0000000001
 40
0.0
 40
0.0
 40
0.0
 40
0.0
 40
0.1944735352
 40
0.3822703841
 40
0.5550599338
 40
0.7064102987
 40
0.8306402846
 40
0.8811373161
 40
0.923172698
 40
0.956270414
 40
0.9801948557
 40
0.9947839676
 40
1.0
 40
1.0
 40
1.0
 40
1.0
 10
203.8225613549
 20
193.9492886216
 30
0.0
 10
203.8225613549
 20
193.8820876549
 30
0.0
 10
203.8227879016
 20
193.7499919388
 30
0.0
 10
203.8237772134
 20
193.5581948219
 30
0.0
 10
203.8253841257
 20
193.3812888312
 30
0.0
 10
203.8275517846
 20
193.2264018866
 30
0.0
 10
203.8297951093
 20
193.1136622326
 30
0.0
 10
203.8319907536
 20
193.0389231901
 30
0.0
 10
203.8334161793
 20
192.9952478186
 30
0.0
 10
203.835368293
 20
192.9618192741
 30
0.0
 10
203.8361772108
 20
192.9353652842
 30
0.0
 10
203.8391084769
 20
192.9234824526
 30
0.0
 10
203.8388291724
 20
192.9133294504
 30
0.0
 10
203.8406291193
 20
192.9132351192
 30
0.0
  0
SPLINE
  5
4BE
100
AcDbEntity
  8
0
100
AcDbSpline
 62
7
  6
CONTINUOUS
 70
0
 71
3
 72
18
 73
14
 74
0
 42
0.0000001
 43
0.0000001
 44
0.0000000001
 40
0.0
 40
0.0
 40
0.0
 40
0.0
 40
0.1944735352
 40
0.3822703841
 40
0.5550599338
 40
0.7064102986
 40
0.8306402846
 40
0.8811373161
 40
0.923172698
 40
0.956270414
 40
0.9801948557
 40
0.9947839676
 40
1.0
 40
1.0
 40
1.0
 40
1.0
 10
203.7353657952
 20
223.9492886984
 30
0.0
 10
203.7353657952
 20
223.8823844078
 30
0.0
 10
203.7355913417
 20
223.7508718628
 30
0.0
 10
203.7365762859
 20
223.5599214842
 30
0.0
 10
203.7381761041
 20
223.3837964912
 30
0.0
 10
203.7403341933
 20
223.2295933353
 30
0.0
 10
203.7425676142
 20
223.1173513999
 30
0.0
 10
203.7447535653
 20
223.0429423125
 30
0.0
 10
203.746172698
 20
222.9994597572
 30
0.0
 10
203.7481161936
 20
222.9661787918
 30
0.0
 10
203.7489215403
 20
222.9398415899
 30
0.0
 10
203.7518398655
 20
222.9280112181
 30
0.0
 10
203.7515617941
 20
222.917903039
 30
0.0
 10
203.7533537947
 20
222.9178091242
 30
0.0
  0
SPLINE
  5
4BF
100
AcDbEntity
  8
0
100
AcDbSpline
 62
7
  6
CONTINUOUS
 70
0
 71
3
 72
18
 73
14
 74
0
 42
0.0000001
 43
0.0000001
 44
0.0000000001
 40
0.0
 40
0.0
 40
0.0
 40
0.0
 40
0.1944735352
 40
0.3822703841
 40
0.5550599338
 40
0.7064102986
 40
0.8306402846
 40
0.8811373161
 40
0.923172698
 40
0.956270414
 40
0.9801948557
 40
0.9947839676
 40
1.0
 40
1.0
 40
1.0
 40
1.0
 10
203.7353657952
 20
193.9492886984
 30
0.0
 10
203.7353657952
 20
193.8823844078
 30
0.0
 10
203.7355913417
 20
193.7508718628
 30
0.0
 10
203.7365762859
 20
193.5599214842
 30
0.0
 10
203.7381761041
 20
193.3837964912
 30
0.0
 10
203.7403341933
 20
193.2295933353
 30
0.0
 10
203.7425676142
 20
193.1173513999
 30
0.0
 10
203.7447535653
 20
193.0429423125
 30
0.0
 10
203.746172698
 20
192.9994597572
 30
0.0
 10
203.7481161936
 20
192.9661787918
 30
0.0
 10
203.7489215403
 20
192.9398415899
 30
0.0
 10
203.7518398655
 20
192.9280112181
 30
0.0
 10
203.7515617941
 20
192.917903039
 30
0.0
 10
203.7533537947
 20
192.9178091242
 30
0.0
  0
SPLINE
  5
4C0
100
AcDbEntity
  8
0
100
AcDbSpline
 62
7
  6
CONTINUOUS
 70
0
 71
3
 72
18
 73
14
 74
0
 42
0.0000001
 43
0.0000001
 44
0.0000000001
 40
0.0
 40
0.0
 40
0.0
 40
0.0
 40
0.1944735352
 40
0.3822703841
 40
0.5550599338
 40
0.7064102986
 40
0.8306402846
 40
0.8811373161
 40
0.923172698
 40
0.956270414
 40
0.9801948557
 40
0.9947839676
 40
1.0
 40
1.0
 40
1.0
 40
1.0
 10
203.6481702354
 20
223.9492887751
 30
0.0
 10
203.6481702354
 20
223.8826811608
 30
0.0
 10
203.6483947817
 20
223.7517517867
 30
0.0
 10
203.6493753584
 20
223.5616481465
 30
0.0
 10
203.6509680825
 20
223.3863041511
 30
0.0
 10
203.6531166019
 20
223.2327847841
 30
0.0
 10
203.6553401191
 20
223.1210405673
 30
0.0
 10
203.657516377
 20
223.0469614348
 30
0.0
 10
203.6589292168
 20
223.0036716959
 30
0.0
 10
203.6608640943
 20
222.9705383094
 30
0.0
 10
203.6616658698
 20
222.9443178957
 30
0.0
 10
203.6645712542
 20
222.9325399837
 30
0.0
 10
203.6642944158
 20
222.9224766277
 30
0.0
 10
203.66607847
 20
222.9223831294
 30
0.0
  0
SPLINE
  5
4C1
100
AcDbEntity
  8
0
100
AcDbSpline
 62
7
  6
CONTINUOUS
 70
0
 71
3
 72
18
 73
14
 74
0
 42
0.0000001
 43
0.0000001
 44
0.0000000001
 40
0.0
 40
0.0
 40
0.0
 40
0.0
 40
0.1944735352
 40
0.3822703841
 40
0.5550599338
 40
0.7064102987
 40
0.8306402846
 40
0.8811373161
 40
0.923172698
 40
0.956270414
 40
0.9801948557
 40
0.9947839676
 40
1.0
 40
1.0
 40
1.0
 40
1.0
 10
203.6481702354
 20
193.9492887751
 30
0.0
 10
203.6481702354
 20
193.8826811608
 30
0.0
 10
203.6483947817
 20
193.7517517867
 30
0.0
 10
203.6493753584
 20
193.5616481465
 30
0.0
 10
203.6509680825
 20
193.3863041511
 30
0.0
 10
203.6531166019
 20
193.2327847841
 30
0.0
 10
203.6553401191
 20
193.1210405673
 30
0.0
 10
203.657516377
 20
193.0469614348
 30
0.0
 10
203.6589292168
 20
193.0036716959
 30
0.0
 10
203.6608640943
 20
192.9705383095
 30
0.0
 10
203.6616658698
 20
192.9443178957
 30
0.0
 10
203.6645712541
 20
192.9325399837
 30
0.0
 10
203.6642944158
 20
192.9224766277
 30
0.0
 10
203.66607847
 20
192.9223831294
 30
0.0
  0
SPLINE
  5
4C2
100
AcDbEntity
  8
0
100
AcDbSpline
 62
7
  6
CONTINUOUS
 70
0
 71
3
 72
18
 73
14
 74
0
 42
0.0000001
 43
0.0000001
 44
0.0000000001
 40
0.0
 40
0.0
 40
0.0
 40
0.0
 40
0.1944735352
 40
0.3822703841
 40
0.5550599338
 40
0.7064102986
 40
0.8306402846
 40
0.8811373161
 40
0.923172698
 40
0.956270414
 40
0.9801948557
 40
0.9947839676
 40
1.0
 40
1.0
 40
1.0
 40
1.0
 10
203.5609746756
 20
223.9492888519
 30
0.0
 10
203.5609746756
 20
223.8829779137
 30
0.0
 10
203.5611982218
 20
223.7526317106
 30
0.0
 10
203.5621744309
 20
223.5633748088
 30
0.0
 10
203.5637600608
 20
223.3888118111
 30
0.0
 10
203.5658990106
 20
223.2359762328
 30
0.0
 10
203.568112624
 20
223.1247297346
 30
0.0
 10
203.5702791887
 20
223.0509805572
 30
0.0
 10
203.5716857356
 20
223.0078836346
 30
0.0
 10
203.5736119949
 20
222.9748978271
 30
0.0
 10
203.5744101993
 20
222.9487942014
 30
0.0
 10
203.5773026428
 20
222.9370687493
 30
0.0
 10
203.5770270375
 20
222.9270502163
 30
0.0
 10
203.5788031454
 20
222.9269571345
 30
0.0
  0
SPLINE
  5
4C3
100
AcDbEntity
  8
0
100
AcDbSpline
 62
7
  6
CONTINUOUS
 70
0
 71
3
 72
18
 73
14
 74
0
 42
0.0000001
 43
0.0000001
 44
0.0000000001
 40
0.0
 40
0.0
 40
0.0
 40
0.0
 40
0.1944735352
 40
0.3822703841
 40
0.5550599338
 40
0.7064102986
 40
0.8306402846
 40
0.8811373161
 40
0.923172698
 40
0.956270414
 40
0.9801948557
 40
0.9947839676
 40
1.0
 40
1.0
 40
1.0
 40
1.0
 10
203.5609746756
 20
193.9492888519
 30
0.0
 10
203.5609746756
 20
193.8829779137
 30
0.0
 10
203.5611982218
 20
193.7526317106
 30
0.0
 10
203.5621744309
 20
193.5633748088
 30
0.0
 10
203.5637600608
 20
193.3888118111
 30
0.0
 10
203.5658990106
 20
193.2359762328
 30
0.0
 10
203.568112624
 20
193.1247297346
 30
0.0
 10
203.5702791887
 20
193.0509805572
 30
0.0
 10
203.5716857356
 20
193.0078836346
 30
0.0
 10
203.5736119949
 20
192.9748978271
 30
0.0
 10
203.5744101993
 20
192.9487942014
 30
0.0
 10
203.5773026428
 20
192.9370687493
 30
0.0
 10
203.5770270375
 20
192.9270502163
 30
0.0
 10
203.5788031454
 20
192.9269571345
 30
0.0
  0
SPLINE
  5
4C4
100
AcDbEntity
  8
0
100
AcDbSpline
 62
7
  6
CONTINUOUS
 70
0
 71
3
 72
18
 73
14
 74
0
 42
0.0000001
 43
0.0000001
 44
0.0000000001
 40
0.0
 40
0.0
 40
0.0
 40
0.0
 40
0.1944735352
 40
0.3822703841
 40
0.5550599337
 40
0.7064102986
 40
0.8306402845
 40
0.881137316
 40
0.9231726979
 40
0.956270414
 40
0.9801948557
 40
0.9947839676
 40
1.0
 40
1.0
 40
1.0
 40
1.0
 10
203.4737791158
 20
223.9492889287
 30
0.0
 10
203.4737791158
 20
223.8832746667
 30
0.0
 10
203.4740016619
 20
223.7535116346
 30
0.0
 10
203.4749735034
 20
223.5651014712
 30
0.0
 10
203.4765520392
 20
223.391319471
 30
0.0
 10
203.4786814193
 20
223.2391676816
 30
0.0
 10
203.4808851289
 20
223.128418902
 30
0.0
 10
203.4830420004
 20
223.0549996795
 30
0.0
 10
203.4844422543
 20
223.0120955732
 30
0.0
 10
203.4863598956
 20
222.9792573448
 30
0.0
 10
203.4871545287
 20
222.9532705071
 30
0.0
 10
203.4900340314
 20
222.9415975148
 30
0.0
 10
203.4897596592
 20
222.9316238049
 30
0.0
 10
203.4915278207
 20
222.9315311395
 30
0.0
  0
SPLINE
  5
4C5
100
AcDbEntity
  8
0
100
AcDbSpline
 62
7
  6
CONTINUOUS
 70
0
 71
3
 72
18
 73
14
 74
0
 42
0.0000001
 43
0.0000001
 44
0.0000000001
 40
0.0
 40
0.0
 40
0.0
 40
0.0
 40
0.1944735352
 40
0.3822703841
 40
0.5550599337
 40
0.7064102986
 40
0.8306402846
 40
0.881137316
 40
0.9231726979
 40
0.956270414
 40
0.9801948557
 40
0.9947839676
 40
1.0
 40
1.0
 40
1.0
 40
1.0
 10
203.4737791158
 20
193.9492889287
 30
0.0
 10
203.4737791158
 20
193.8832746667
 30
0.0
 10
203.4740016619
 20
193.7535116346
 30
0.0
 10
203.4749735034
 20
193.5651014712
 30
0.0
 10
203.4765520392
 20
193.391319471
 30
0.0
 10
203.4786814193
 20
193.2391676816
 30
0.0
 10
203.4808851289
 20
193.128418902
 30
0.0
 10
203.4830420004
 20
193.0549996795
 30
0.0
 10
203.4844422543
 20
193.0120955732
 30
0.0
 10
203.4863598956
 20
192.9792573448
 30
0.0
 10
203.4871545287
 20
192.9532705071
 30
0.0
 10
203.4900340314
 20
192.9415975148
 30
0.0
 10
203.4897596592
 20
192.9316238049
 30
0.0
 10
203.4915278207
 20
192.9315311395
 30
0.0
  0
SPLINE
  5
4C6
100
AcDbEntity
  8
0
100
AcDbSpline
 62
7
  6
CONTINUOUS
 70
0
 71
3
 72
18
 73
14
 74
0
 42
0.0000001
 43
0.0000001
 44
0.0000000001
 40
0.0
 40
0.0
 40
0.0
 40
0.0
 40
0.1944735352
 40
0.3822703841
 40
0.5550599337
 40
0.7064102986
 40
0.8306402845
 40
0.881137316
 40
0.9231726979
 40
0.956270414
 40
0.9801948557
 40
0.9947839676
 40
1.0
 40
1.0
 40
1.0
 40
1.0
 10
203.386583556
 20
223.9492890054
 30
0.0
 10
203.386583556
 20
223.8835714196
 30
0.0
 10
203.3868051019
 20
223.7543915585
 30
0.0
 10
203.3877725759
 20
223.5668281335
 30
0.0
 10
203.3893440175
 20
223.3938271309
 30
0.0
 10
203.3914638279
 20
223.2423591303
 30
0.0
 10
203.3936576339
 20
223.1321080693
 30
0.0
 10
203.395804812
 20
223.0590188019
 30
0.0
 10
203.3971987731
 20
223.0163075119
 30
0.0
 10
203.3991077962
 20
222.9836168625
 30
0.0
 10
203.3998988582
 20
222.9577468128
 30
0.0
 10
203.4027654201
 20
222.9461262804
 30
0.0
 10
203.4024922809
 20
222.9361973936
 30
0.0
 10
203.4042524961
 20
222.9361051446
 30
0.0
  0
SPLINE
  5
4C7
100
AcDbEntity
  8
0
100
AcDbSpline
 62
7
  6
CONTINUOUS
 70
0
 71
3
 72
18
 73
14
 74
0
 42
0.0000001
 43
0.0000001
 44
0.0000000001
 40
0.0
 40
0.0
 40
0.0
 40
0.0
 40
0.1944735352
 40
0.3822703841
 40
0.5550599338
 40
0.7064102986
 40
0.8306402846
 40
0.8811373161
 40
0.923172698
 40
0.956270414
 40
0.9801948557
 40
0.9947839676
 40
1.0
 40
1.0
 40
1.0
 40
1.0
 10
203.386583556
 20
193.9492890054
 30
0.0
 10
203.386583556
 20
193.8835714196
 30
0.0
 10
203.3868051019
 20
193.7543915585
 30
0.0
 10
203.3877725759
 20
193.5668281335
 30
0.0
 10
203.3893440175
 20
193.393827131
 30
0.0
 10
203.3914638279
 20
193.2423591303
 30
0.0
 10
203.3936576339
 20
193.1321080693
 30
0.0
 10
203.395804812
 20
193.0590188019
 30
0.0
 10
203.3971987731
 20
193.0163075119
 30
0.0
 10
203.3991077962
 20
192.9836168625
 30
0.0
 10
203.3998988582
 20
192.9577468128
 30
0.0
 10
203.40276542
 20
192.9461262804
 30
0.0
 10
203.4024922809
 20
192.9361973936
 30
0.0
 10
203.4042524961
 20
192.9361051447
 30
0.0
  0
SPLINE
  5
4C8
100
AcDbEntity
  8
0
100
AcDbSpline
 62
7
  6
CONTINUOUS
 70
0
 71
3
 72
18
 73
14
 74
0
 42
0.0000001
 43
0.0000001
 44
0.0000000001
 40
0.0
 40
0.0
 40
0.0
 40
0.0
 40
0.1944735352
 40
0.3822703841
 40
0.5550599337
 40
0.7064102986
 40
0.8306402846
 40
0.881137316
 40
0.9231726979
 40
0.956270414
 40
0.9801948557
 40
0.9947839676
 40
1.0
 40
1.0
 40
1.0
 40
1.0
 10
203.2993879962
 20
223.9492890821
 30
0.0
 10
203.2993879962
 20
223.8838681726
 30
0.0
 10
203.299608542
 20
223.7552714824
 30
0.0
 10
203.3005716484
 20
223.5685547958
 30
0.0
 10
203.3021359959
 20
223.3963347909
 30
0.0
 10
203.3042462366
 20
223.2455505791
 30
0.0
 10
203.3064301388
 20
223.1357972367
 30
0.0
 10
203.3085676237
 20
223.0630379242
 30
0.0
 10
203.3099552919
 20
223.0205194505
 30
0.0
 10
203.3118556969
 20
222.9879763802
 30
0.0
 10
203.3126431877
 20
222.9622231185
 30
0.0
 10
203.3154968087
 20
222.950655046
 30
0.0
 10
203.3152249026
 20
222.9407709823
 30
0.0
 10
203.3169771715
 20
222.9406791497
 30
0.0
  0
ELLIPSE
  5
4C9
100
AcDbEntity
  8
0
100
AcDbEllipse
 62
7
  6
CONTINUOUS
 10
30.9690876209
 20
142.2493821724
 30
0.0
 11
0.3536610946
 21
0.3536610946
 31
0.0
 40
0.9996954599
 41
3.1415987469
 42
3.9268385237
  0
ELLIPSE
  5
4CA
100
AcDbEntity
  8
0
100
AcDbEllipse
 62
7
  6
CONTINUOUS
 10
31.1087281403
 20
142.3890226918
 30
0.0
 11
0.3536610946
 21
0.3536610946
 31
0.0
 40
0.9996954599
 41
-3.4233904873
 42
-2.3563467834
  0
ELLIPSE
  5
4CB
100
AcDbEntity
  8
0
100
AcDbEllipse
 62
7
  6
CONTINUOUS
 10
48.2515421033
 20
263.0636268854
 30
0.0
 11
1.0038326739
 21
-0.0001601875
 31
0.0
 40
0.0174808098
 41
7.8631100129
 42
9.4263101432
  0
ELLIPSE
  5
4CC
100
AcDbEntity
  8
0
100
AcDbEllipse
 62
7
  6
CONTINUOUS
 10
53.6864808105
 20
263.0636268854
 30
0.0
 11
1.0038326739
 21
0.0001601875
 31
0.0
 40
0.0174808098
 41
6.2816531248
 42
7.844853255
  0
ELLIPSE
  5
4CD
100
AcDbEntity
  8
0
100
AcDbEllipse
 62
7
  6
CONTINUOUS
 10
53.7369528573
 20
263.6405250209
 30
0.0
 11
1.0038326739
 21
0.0001601875
 31
0.0
 40
0.0174808098
 41
-0.0015321824
 42
1.5616679479
  0
ELLIPSE
  5
4CE
100
AcDbEntity
  8
0
100
AcDbEllipse
 62
7
  6
CONTINUOUS
 10
48.2010700565
 20
263.6405250209
 30
0.0
 11
1.0038326739
 21
-0.0001601875
 31
0.0
 40
0.0174808098
 41
1.5799247057
 42
3.143124836
  0
ELLIPSE
  5
4CF
100
AcDbEntity
  8
0
100
AcDbEllipse
 62
7
  6
CONTINUOUS
 10
64.7369528573
 20
263.6405250209
 30
0.0
 11
1.0038326739
 21
0.0001601875
 31
0.0
 40
0.0174808098
 41
-0.0015321824
 42
1.5616679479
  0
ELLIPSE
  5
4D0
100
AcDbEntity
  8
0
100
AcDbEllipse
 62
7
  6
CONTINUOUS
 10
59.2010700565
 20
263.6405250209
 30
0.0
 11
1.0038326739
 21
-0.0001601875
 31
0.0
 40
0.0174808098
 41
1.5799247057
 42
3.143124836
  0
ELLIPSE
  5
4D1
100
AcDbEntity
  8
0
100
AcDbEllipse
 62
7
  6
CONTINUOUS
 10
64.6864808105
 20
263.0636268854
 30
0.0
 11
1.0038326739
 21
0.0001601875
 31
0.0
 40
0.0174808098
 41
6.2816531248
 42
7.844853255
  0
ELLIPSE
  5
4D2
100
AcDbEntity
  8
0
100
AcDbEllipse
 62
7
  6
CONTINUOUS
 10
59.2515421033
 20
263.0636268854
 30
0.0
 11
1.0038326739
 21
-0.0001601875
 31
0.0
 40
0.0174808098
 41
7.8631100129
 42
9.4263101432
  0
ELLIPSE
  5
4D3
100
AcDbEntity
  8
0
100
AcDbEllipse
 62
7
  6
CONTINUOUS
 10
75.6864808105
 20
263.0636268854
 30
0.0
 11
1.0038326739
 21
0.0001601875
 31
0.0
 40
0.0174808098
 41
6.2816531248
 42
7.844853255
  0
ELLIPSE
  5
4D4
100
AcDbEntity
  8
0
100
AcDbEllipse
 62
7
  6
CONTINUOUS
 10
70.2515421033
 20
263.0636268854
 30
0.0
 11
1.0038326739
 21
-0.0001601875
 31
0.0
 40
0.0174808098
 41
7.8631100129
 42
9.4263101432
  0
ELLIPSE
  5
4D5
100
AcDbEntity
  8
0
100
AcDbEllipse
 62
7
  6
CONTINUOUS
 10
75.7369528573
 20
263.6405250209
 30
0.0
 11
1.0038326739
 21
0.0001601875
 31
0.0
 40
0.0174808098
 41
-0.0015321824
 42
1.5616679479
  0
ELLIPSE
  5
4D6
100
AcDbEntity
  8
0
100
AcDbEllipse
 62
7
  6
CONTINUOUS
 10
70.2010700565
 20
263.6405250209
 30
0.0
 11
1.0038326739
 21
-0.0001601875
 31
0.0
 40
0.0174808098
 41
1.5799247057
 42
3.143124836
  0
ELLIPSE
  5
4D7
100
AcDbEntity
  8
0
100
AcDbEllipse
 62
7
  6
CONTINUOUS
 10
86.7369528573
 20
263.6405250209
 30
0.0
 11
1.0038326739
 21
0.0001601875
 31
0.0
 40
0.0174808098
 41
-0.0015321824
 42
1.5616679479
  0
ELLIPSE
  5
4D8
100
AcDbEntity
  8
0
100
AcDbEllipse
 62
7
  6
CONTINUOUS
 10
81.2010700565
 20
263.6405250209
 30
0.0
 11
1.0038326739
 21
-0.0001601875
 31
0.0
 40
0.0174808098
 41
1.5799247057
 42
3.143124836
  0
ELLIPSE
  5
4D9
100
AcDbEntity
  8
0
100
AcDbEllipse
 62
7
  6
CONTINUOUS
 10
86.6864808105
 20
263.0636268854
 30
0.0
 11
1.0038326739
 21
0.0001601875
 31
0.0
 40
0.0174808098
 41
6.2816531248
 42
7.844853255
  0
ELLIPSE
  5
4DA
100
AcDbEntity
  8
0
100
AcDbEllipse
 62
7
  6
CONTINUOUS
 10
81.2515421033
 20
263.0636268854
 30
0.0
 11
1.0038326739
 21
-0.0001601875
 31
0.0
 40
0.0174808098
 41
7.8631100129
 42
9.4263101432
  0
ELLIPSE
  5
4DB
100
AcDbEntity
  8
0
100
AcDbEllipse
 62
7
  6
CONTINUOUS
 10
97.6864808105
 20
263.0636268854
 30
0.0
 11
1.0038326739
 21
0.0001601875
 31
0.0
 40
0.0174808098
 41
6.2816531248
 42
7.844853255
  0
ELLIPSE
  5
4DC
100
AcDbEntity
  8
0
100
AcDbEllipse
 62
7
  6
CONTINUOUS
 10
92.2515421033
 20
263.0636268854
 30
0.0
 11
1.0038326739
 21
-0.0001601875
 31
0.0
 40
0.0174808098
 41
7.8631100129
 42
9.4263101432
  0
ELLIPSE
  5
4DD
100
AcDbEntity
  8
0
100
AcDbEllipse
 62
7
  6
CONTINUOUS
 10
97.7369528573
 20
263.6405250209
 30
0.0
 11
1.0038326739
 21
0.0001601875
 31
0.0
 40
0.0174808098
 41
-0.0015321824
 42
1.5616679479
  0
ELLIPSE
  5
4DE
100
AcDbEntity
  8
0
100
AcDbEllipse
 62
7
  6
CONTINUOUS
 10
92.2010700565
 20
263.6405250209
 30
0.0
 11
1.0038326739
 21
-0.0001601875
 31
0.0
 40
0.0174808098
 41
1.5799247057
 42
3.143124836
  0
ELLIPSE
  5
4DF
100
AcDbEntity
  8
0
100
AcDbEllipse
 62
7
  6
CONTINUOUS
 10
103.2515421033
 20
263.0636268854
 30
0.0
 11
1.0038326739
 21
-0.0001601875
 31
0.0
 40
0.0174808098
 41
7.8631100129
 42
9.4263101432
  0
ELLIPSE
  5
4E0
100
AcDbEntity
  8
0
100
AcDbEllipse
 62
7
  6
CONTINUOUS
 10
108.6864808105
 20
263.0636268854
 30
0.0
 11
1.0038326739
 21
0.0001601875
 31
0.0
 40
0.0174808098
 41
6.2816531248
 42
7.844853255
  0
ELLIPSE
  5
4E1
100
AcDbEntity
  8
0
100
AcDbEllipse
 62
7
  6
CONTINUOUS
 10
108.7369528573
 20
263.6405250209
 30
0.0
 11
1.0038326739
 21
0.0001601875
 31
0.0
 40
0.0174808098
 41
-0.0015321824
 42
1.5616679479
  0
ELLIPSE
  5
4E2
100
AcDbEntity
  8
0
100
AcDbEllipse
 62
7
  6
CONTINUOUS
 10
103.2010700565
 20
263.6405250209
 30
0.0
 11
1.0038326739
 21
-0.0001601875
 31
0.0
 40
0.0174808098
 41
1.5799247057
 42
3.143124836
  0
ELLIPSE
  5
4E3
100
AcDbEntity
  8
0
100
AcDbEllipse
 62
7
  6
CONTINUOUS
 10
119.7369528573
 20
263.6405250209
 30
0.0
 11
1.0038326739
 21
0.0001601875
 31
0.0
 40
0.0174808098
 41
-0.0015321824
 42
1.5616679479
  0
ELLIPSE
  5
4E4
100
AcDbEntity
  8
0
100
AcDbEllipse
 62
7
  6
CONTINUOUS
 10
114.2010700565
 20
263.6405250209
 30
0.0
 11
1.0038326739
 21
-0.0001601875
 31
0.0
 40
0.0174808098
 41
1.5799247057
 42
3.143124836
  0
ELLIPSE
  5
4E5
100
AcDbEntity
  8
0
100
AcDbEllipse
 62
7
  6
CONTINUOUS
 10
114.2515421033
 20
263.0636268854
 30
0.0
 11
1.0038326739
 21
-0.0001601875
 31
0.0
 40
0.0174808098
 41
7.8631100129
 42
9.4263101432
  0
ELLIPSE
  5
4E6
100
AcDbEntity
  8
0
100
AcDbEllipse
 62
7
  6
CONTINUOUS
 10
119.6864808105
 20
263.0636268854
 30
0.0
 11
1.0038326739
 21
0.0001601875
 31
0.0
 40
0.0174808098
 41
6.2816531248
 42
7.844853255
  0
ELLIPSE
  5
4E7
100
AcDbEntity
  8
0
100
AcDbEllipse
 62
7
  6
CONTINUOUS
 10
125.2515421033
 20
263.0636268854
 30
0.0
 11
1.0038326739
 21
-0.0001601875
 31
0.0
 40
0.0174808098
 41
7.8631100129
 42
9.4263101432
  0
ELLIPSE
  5
4E8
100
AcDbEntity
  8
0
100
AcDbEllipse
 62
7
  6
CONTINUOUS
 10
130.6864808105
 20
263.0636268854
 30
0.0
 11
1.0038326739
 21
0.0001601875
 31
0.0
 40
0.0174808098
 41
6.2816531248
 42
7.844853255
  0
ELLIPSE
  5
4E9
100
AcDbEntity
  8
0
100
AcDbEllipse
 62
7
  6
CONTINUOUS
 10
130.7369528573
 20
263.6405250209
 30
0.0
 11
1.0038326739
 21
0.0001601875
 31
0.0
 40
0.0174808098
 41
-0.0015321824
 42
1.5616679479
  0
ELLIPSE
  5
4EA
100
AcDbEntity
  8
0
100
AcDbEllipse
 62
7
  6
CONTINUOUS
 10
125.2010700565
 20
263.6405250209
 30
0.0
 11
1.0038326739
 21
-0.0001601875
 31
0.0
 40
0.0174808098
 41
1.5799247057
 42
3.143124836
  0
ELLIPSE
  5
4EB
100
AcDbEntity
  8
0
100
AcDbEllipse
 62
7
  6
CONTINUOUS
 10
141.6864808105
 20
263.0636268854
 30
0.0
 11
1.0038326739
 21
0.0001601875
 31
0.0
 40
0.0174808098
 41
6.2816531248
 42
7.844853255
  0
ELLIPSE
  5
4EC
100
AcDbEntity
  8
0
100
AcDbEllipse
 62
7
  6
CONTINUOUS
 10
136.2515421033
 20
263.0636268854
 30
0.0
 11
1.0038326739
 21
-0.0001601875
 31
0.0
 40
0.0174808098
 41
7.8631100129
 42
9.4263101432
  0
ELLIPSE
  5
4ED
100
AcDbEntity
  8
0
100
AcDbEllipse
 62
7
  6
CONTINUOUS
 10
141.7369528574
 20
263.6405250209
 30
0.0
 11
1.0038326739
 21
0.0001601875
 31
0.0
 40
0.0174808098
 41
-0.0015321824
 42
1.5616679479
  0
ELLIPSE
  5
4EE
100
AcDbEntity
  8
0
100
AcDbEllipse
 62
7
  6
CONTINUOUS
 10
136.2010700565
 20
263.6405250209
 30
0.0
 11
1.0038326739
 21
-0.0001601875
 31
0.0
 40
0.0174808098
 41
1.5799247057
 42
3.143124836
  0
ELLIPSE
  5
4EF
100
AcDbEntity
  8
0
100
AcDbEllipse
 62
7
  6
CONTINUOUS
 10
37.5128014241
 20
47.2055160412
 30
0.0
 11
1.0001522817
 21
-0.0
 31
0.0
 40
0.9996954599
 41
-1.5707963268
 42
-1.4610468898
  0
ELLIPSE
  5
4F0
100
AcDbEntity
  8
0
100
AcDbEllipse
 62
7
  6
CONTINUOUS
 10
34.4252214897
 20
47.2055160412
 30
0.0
 11
1.0001522817
 21
-0.0
 31
0.0
 40
0.9996954599
 41
-1.6805457631
 42
-1.5707963268
  0
ELLIPSE
  5
4F1
100
AcDbEntity
  8
0
100
AcDbEllipse
 62
7
  6
CONTINUOUS
 10
152.7369528574
 20
263.6405250209
 30
0.0
 11
1.0038326739
 21
0.0001601875
 31
0.0
 40
0.0174808098
 41
-0.0015321824
 42
1.5616679479
  0
ELLIPSE
  5
4F2
100
AcDbEntity
  8
0
100
AcDbEllipse
 62
7
  6
CONTINUOUS
 10
147.2010700564
 20
263.6405250209
 30
0.0
 11
1.0038326739
 21
-0.0001601875
 31
0.0
 40
0.0174808098
 41
1.5799247057
 42
3.1431248357
  0
ELLIPSE
  5
4F3
100
AcDbEntity
  8
0
100
AcDbEllipse
 62
7
  6
CONTINUOUS
 10
152.6864808105
 20
263.0636268854
 30
0.0
 11
1.0038326739
 21
0.0001601875
 31
0.0
 40
0.0174808098
 41
6.2816531248
 42
7.844853255
  0
ELLIPSE
  5
4F4
100
AcDbEntity
  8
0
100
AcDbEllipse
 62
7
  6
CONTINUOUS
 10
147.2515421033
 20
263.0636268854
 30
0.0
 11
1.0038326739
 21
-0.0001601875
 31
0.0
 40
0.0174808098
 41
7.8631100129
 42
9.4263101433
  0
ELLIPSE
  5
4F5
100
AcDbEntity
  8
0
100
AcDbEllipse
 62
7
  6
CONTINUOUS
 10
163.6864808105
 20
263.0636268854
 30
0.0
 11
1.0038326739
 21
0.0001601875
 31
0.0
 40
0.0174808098
 41
6.2816531248
 42
7.844853255
  0
ELLIPSE
  5
4F6
100
AcDbEntity
  8
0
100
AcDbEllipse
 62
7
  6
CONTINUOUS
 10
158.2515421033
 20
263.0636268854
 30
0.0
 11
1.0038326739
 21
-0.0001601875
 31
0.0
 40
0.0174808098
 41
7.8631100129
 42
9.4263101433
  0
ELLIPSE
  5
4F7
100
AcDbEntity
  8
0
100
AcDbEllipse
 62
7
  6
CONTINUOUS
 10
163.7369528574
 20
263.6405250209
 30
0.0
 11
1.0038326739
 21
0.0001601875
 31
0.0
 40
0.0174808098
 41
-0.0015321824
 42
1.5616679479
  0
ELLIPSE
  5
4F8
100
AcDbEntity
  8
0
100
AcDbEllipse
 62
7
  6
CONTINUOUS
 10
158.2010700564
 20
263.6405250209
 30
0.0
 11
1.0038326739
 21
-0.0001601875
 31
0.0
 40
0.0174808098
 41
1.5799247057
 42
3.1431248358
  0
ELLIPSE
  5
4F9
100
AcDbEntity
  8
0
100
AcDbEllipse
 62
7
  6
CONTINUOUS
 10
199.5128014241
 20
47.2055160412
 30
0.0
 11
1.0001522817
 21
-0.0
 31
0.0
 40
0.9996954599
 41
-1.5707963268
 42
-1.4610468898
  0
ELLIPSE
  5
4FA
100
AcDbEntity
  8
0
100
AcDbEllipse
 62
7
  6
CONTINUOUS
 10
196.4252214897
 20
47.2055160412
 30
0.0
 11
1.0001522817
 21
0.0
 31
0.0
 40
0.9996954599
 41
-1.6805457631
 42
-1.5707963268
  0
ELLIPSE
  5
4FB
100
AcDbEntity
  8
0
100
AcDbEllipse
 62
7
  6
CONTINUOUS
 10
174.7369528574
 20
263.6405250209
 30
0.0
 11
1.0038326739
 21
0.0001601875
 31
0.0
 40
0.0174808098
 41
-0.0015321824
 42
1.5616679479
  0
ELLIPSE
  5
4FC
100
AcDbEntity
  8
0
100
AcDbEllipse
 62
7
  6
CONTINUOUS
 10
169.2010700564
 20
263.6405250209
 30
0.0
 11
1.0038326739
 21
-0.0001601875
 31
0.0
 40
0.0174808098
 41
1.5799247057
 42
3.1431248357
  0
ELLIPSE
  5
4FD
100
AcDbEntity
  8
0
100
AcDbEllipse
 62
7
  6
CONTINUOUS
 10
174.6864808105
 20
263.0636268854
 30
0.0
 11
1.0038326739
 21
0.0001601875
 31
0.0
 40
0.0174808098
 41
6.2816531248
 42
7.844853255
  0
ELLIPSE
  5
4FE
100
AcDbEntity
  8
0
100
AcDbEllipse
 62
7
  6
CONTINUOUS
 10
169.2515421033
 20
263.0636268854
 30
0.0
 11
1.0038326739
 21
-0.0001601875
 31
0.0
 40
0.0174808098
 41
7.8631100129
 42
9.4263101433
  0
ELLIPSE
  5
4FF
100
AcDbEntity
  8
0
100
AcDbEllipse
 62
7
  6
CONTINUOUS
 10
185.6864808105
 20
263.0636268854
 30
0.0
 11
1.0038326739
 21
0.0001601875
 31
0.0
 40
0.0174808098
 41
6.2816531248
 42
7.844853255
  0
ELLIPSE
  5
500
100
AcDbEntity
  8
0
100
AcDbEllipse
 62
7
  6
CONTINUOUS
 10
180.2515421033
 20
263.0636268854
 30
0.0
 11
1.0038326739
 21
-0.0001601875
 31
0.0
 40
0.0174808098
 41
7.8631100129
 42
9.4263101433
  0
ELLIPSE
  5
501
100
AcDbEntity
  8
0
100
AcDbEllipse
 62
7
  6
CONTINUOUS
 10
180.2010700564
 20
263.6405250209
 30
0.0
 11
1.0038326739
 21
-0.0001601875
 31
0.0
 40
0.0174808098
 41
1.5799247057
 42
3.1431248357
  0
ELLIPSE
  5
502
100
AcDbEntity
  8
0
100
AcDbEllipse
 62
7
  6
CONTINUOUS
 10
185.7369528574
 20
263.6405250209
 30
0.0
 11
1.0038326739
 21
0.0001601875
 31
0.0
 40
0.0174808098
 41
-0.0015321824
 42
1.5616679479
  0
ELLIPSE
  5
503
100
AcDbEntity
  8
0
100
AcDbEllipse
 62
7
  6
CONTINUOUS
 10
158.2415317519
 20
263.1780457252
 30
0.0
 11
1.0038093777
 21
0.0001062515
 31
0.0
 40
0.0174283098
 41
-3.1400697341
 42
-1.5768696038
  0
ELLIPSE
  5
504
100
AcDbEntity
  8
0
100
AcDbEllipse
 62
7
  6
CONTINUOUS
 10
163.6964911619
 20
263.1780457252
 30
0.0
 11
1.0038093777
 21
-0.0001062515
 31
0.0
 40
0.0174283098
 41
-1.5647230497
 42
-0.0015229192
  0
ELLIPSE
  5
505
100
AcDbEntity
  8
0
100
AcDbEllipse
 62
7
  6
CONTINUOUS
 10
169.2415317519
 20
263.1780457252
 30
0.0
 11
1.0038093777
 21
0.0001062515
 31
0.0
 40
0.0174283098
 41
-3.1400697341
 42
-1.5768696038
  0
ELLIPSE
  5
506
100
AcDbEntity
  8
0
100
AcDbEllipse
 62
7
  6
CONTINUOUS
 10
174.6964911619
 20
263.1780457252
 30
0.0
 11
1.0038093777
 21
-0.0001062515
 31
0.0
 40
0.0174283098
 41
-1.5647230497
 42
-0.0015229192
  0
ELLIPSE
  5
507
100
AcDbEntity
  8
0
100
AcDbEllipse
 62
7
  6
CONTINUOUS
 10
48.241531752
 20
263.1780457252
 30
0.0
 11
1.0038093777
 21
0.0001062515
 31
0.0
 40
0.0174283098
 41
-3.1400697341
 42
-1.5768696038
  0
ELLIPSE
  5
508
100
AcDbEntity
  8
0
100
AcDbEllipse
 62
7
  6
CONTINUOUS
 10
53.6964911618
 20
263.1780457252
 30
0.0
 11
1.0038093777
 21
-0.0001062515
 31
0.0
 40
0.0174283098
 41
-1.5647230498
 42
-0.0015229194
  0
ELLIPSE
  5
509
100
AcDbEntity
  8
0
100
AcDbEllipse
 62
7
  6
CONTINUOUS
 10
180.2415317519
 20
263.1780457252
 30
0.0
 11
1.0038093777
 21
0.0001062515
 31
0.0
 40
0.0174283098
 41
-3.1400697341
 42
-1.5768696038
  0
ELLIPSE
  5
50A
100
AcDbEntity
  8
0
100
AcDbEllipse
 62
7
  6
CONTINUOUS
 10
185.6964911619
 20
263.1780457252
 30
0.0
 11
1.0038093777
 21
-0.0001062515
 31
0.0
 40
0.0174283098
 41
-1.5647230497
 42
-0.0015229192
  0
ELLIPSE
  5
50B
100
AcDbEntity
  8
0
100
AcDbEllipse
 62
7
  6
CONTINUOUS
 10
59.241531752
 20
263.1780457252
 30
0.0
 11
1.0038093777
 21
0.0001062515
 31
0.0
 40
0.0174283098
 41
-3.1400697341
 42
-1.5768696038
  0
ELLIPSE
  5
50C
100
AcDbEntity
  8
0
100
AcDbEllipse
 62
7
  6
CONTINUOUS
 10
64.6964911618
 20
263.1780457252
 30
0.0
 11
1.0038093777
 21
-0.0001062515
 31
0.0
 40
0.0174283098
 41
-1.5647230498
 42
-0.0015229194
  0
ELLIPSE
  5
50D
100
AcDbEntity
  8
0
100
AcDbEllipse
 62
7
  6
CONTINUOUS
 10
70.241531752
 20
263.1780457252
 30
0.0
 11
1.0038093777
 21
0.0001062515
 31
0.0
 40
0.0174283098
 41
-3.1400697341
 42
-1.5768696038
  0
ELLIPSE
  5
50E
100
AcDbEntity
  8
0
100
AcDbEllipse
 62
7
  6
CONTINUOUS
 10
75.6964911618
 20
263.1780457252
 30
0.0
 11
1.0038093777
 21
-0.0001062515
 31
0.0
 40
0.0174283098
 41
-1.5647230498
 42
-0.0015229194
  0
ELLIPSE
  5
50F
100
AcDbEntity
  8
0
100
AcDbEllipse
 62
7
  6
CONTINUOUS
 10
81.241531752
 20
263.1780457252
 30
0.0
 11
1.0038093777
 21
0.0001062515
 31
0.0
 40
0.0174283098
 41
-3.1400697341
 42
-1.5768696038
  0
ELLIPSE
  5
510
100
AcDbEntity
  8
0
100
AcDbEllipse
 62
7
  6
CONTINUOUS
 10
86.6964911618
 20
263.1780457252
 30
0.0
 11
1.0038093777
 21
-0.0001062515
 31
0.0
 40
0.0174283098
 41
-1.5647230498
 42
-0.0015229194
  0
ELLIPSE
  5
511
100
AcDbEntity
  8
0
100
AcDbEllipse
 62
7
  6
CONTINUOUS
 10
92.241531752
 20
263.1780457252
 30
0.0
 11
1.0038093777
 21
0.0001062515
 31
0.0
 40
0.0174283098
 41
-3.1400697341
 42
-1.5768696038
  0
ELLIPSE
  5
512
100
AcDbEntity
  8
0
100
AcDbEllipse
 62
7
  6
CONTINUOUS
 10
97.6964911618
 20
263.1780457252
 30
0.0
 11
1.0038093777
 21
-0.0001062515
 31
0.0
 40
0.0174283098
 41
-1.5647230498
 42
-0.0015229194
  0
ELLIPSE
  5
513
100
AcDbEntity
  8
0
100
AcDbEllipse
 62
7
  6
CONTINUOUS
 10
103.2583044613
 20
262.9863327797
 30
0.0
 11
1.0038093777
 21
0.0001062515
 31
0.0
 40
0.0174283098
 41
3.1431155731
 42
4.7063157033
  0
ELLIPSE
  5
514
100
AcDbEntity
  8
0
100
AcDbEllipse
 62
7
  6
CONTINUOUS
 10
108.6797184525
 20
262.9863327797
 30
0.0
 11
1.0038093777
 21
-0.0001062515
 31
0.0
 40
0.0174283098
 41
4.7184622574
 42
6.2816623877
  0
ELLIPSE
  5
515
100
AcDbEntity
  8
0
100
AcDbEllipse
 62
7
  6
CONTINUOUS
 10
103.241531752
 20
263.1780457252
 30
0.0
 11
1.0038093777
 21
0.0001062515
 31
0.0
 40
0.0174283098
 41
-3.1400697341
 42
-1.5768696038
  0
ELLIPSE
  5
516
100
AcDbEntity
  8
0
100
AcDbEllipse
 62
7
  6
CONTINUOUS
 10
108.6964911618
 20
263.1780457252
 30
0.0
 11
1.0038093777
 21
-0.0001062515
 31
0.0
 40
0.0174283098
 41
-1.5647230498
 42
-0.0015229194
  0
ELLIPSE
  5
517
100
AcDbEntity
  8
0
100
AcDbEllipse
 62
7
  6
CONTINUOUS
 10
114.241531752
 20
263.1780457252
 30
0.0
 11
1.0038093777
 21
0.0001062515
 31
0.0
 40
0.0174283098
 41
-3.1400697341
 42
-1.5768696038
  0
ELLIPSE
  5
518
100
AcDbEntity
  8
0
100
AcDbEllipse
 62
7
  6
CONTINUOUS
 10
119.6964911618
 20
263.1780457252
 30
0.0
 11
1.0038093777
 21
-0.0001062515
 31
0.0
 40
0.0174283098
 41
-1.5647230498
 42
-0.0015229194
  0
ELLIPSE
  5
519
100
AcDbEntity
  8
0
100
AcDbEllipse
 62
7
  6
CONTINUOUS
 10
114.2583044613
 20
262.9863327797
 30
0.0
 11
1.0038093777
 21
0.0001062515
 31
0.0
 40
0.0174283098
 41
3.1431155731
 42
4.7063157033
  0
ELLIPSE
  5
51A
100
AcDbEntity
  8
0
100
AcDbEllipse
 62
7
  6
CONTINUOUS
 10
119.6797184525
 20
262.9863327797
 30
0.0
 11
1.0038093777
 21
-0.0001062515
 31
0.0
 40
0.0174283098
 41
4.7184622574
 42
6.2816623877
  0
ELLIPSE
  5
51B
100
AcDbEntity
  8
0
100
AcDbEllipse
 62
7
  6
CONTINUOUS
 10
125.2583044613
 20
262.9863327797
 30
0.0
 11
1.0038093777
 21
0.0001062515
 31
0.0
 40
0.0174283098
 41
3.1431155731
 42
4.7063157033
  0
ELLIPSE
  5
51C
100
AcDbEntity
  8
0
100
AcDbEllipse
 62
7
  6
CONTINUOUS
 10
130.6797184525
 20
262.9863327797
 30
0.0
 11
1.0038093777
 21
-0.0001062515
 31
0.0
 40
0.0174283098
 41
4.7184622574
 42
6.2816623877
  0
ELLIPSE
  5
51D
100
AcDbEntity
  8
0
100
AcDbEllipse
 62
7
  6
CONTINUOUS
 10
125.241531752
 20
263.1780457252
 30
0.0
 11
1.0038093777
 21
0.0001062515
 31
0.0
 40
0.0174283098
 41
-3.1400697341
 42
-1.5768696038
  0
ELLIPSE
  5
51E
100
AcDbEntity
  8
0
100
AcDbEllipse
 62
7
  6
CONTINUOUS
 10
130.6964911618
 20
263.1780457252
 30
0.0
 11
1.0038093777
 21
-0.0001062515
 31
0.0
 40
0.0174283098
 41
-1.5647230498
 42
-0.0015229194
  0
ELLIPSE
  5
51F
100
AcDbEntity
  8
0
100
AcDbEllipse
 62
7
  6
CONTINUOUS
 10
136.241531752
 20
263.1780457252
 30
0.0
 11
1.0038093777
 21
0.0001062515
 31
0.0
 40
0.0174283098
 41
-3.1400697341
 42
-1.5768696038
  0
ELLIPSE
  5
520
100
AcDbEntity
  8
0
100
AcDbEllipse
 62
7
  6
CONTINUOUS
 10
141.6964911619
 20
263.1780457252
 30
0.0
 11
1.0038093777
 21
-0.0001062515
 31
0.0
 40
0.0174283098
 41
-1.5647230497
 42
-0.0015229192
  0
ELLIPSE
  5
521
100
AcDbEntity
  8
0
100
AcDbEllipse
 62
7
  6
CONTINUOUS
 10
152.6964911619
 20
263.1780457252
 30
0.0
 11
1.0038093777
 21
-0.0001062515
 31
0.0
 40
0.0174283098
 41
-1.5647230497
 42
-0.0015229192
  0
ELLIPSE
  5
522
100
AcDbEntity
  8
0
100
AcDbEllipse
 62
7
  6
CONTINUOUS
 10
147.2415317519
 20
263.1780457252
 30
0.0
 11
1.0038093777
 21
0.0001062515
 31
0.0
 40
0.0174283098
 41
-3.1400697341
 42
-1.5768696038
  0
ENDSEC
  0
SECTION
  2
OBJECTS
  0
DICTIONARY
  5
C
100
AcDbDictionary
280
0
281
1
  3
ACAD_GROUP
350
D
  3
ACAD_MLINESTYLE
350
17
  3
ACAD_LAYOUT
350
1A
  3
ACAD_PLOTSETTINGS
350
19
  3
ACAD_PLOTSTYLENAME
350
E
  0
DICTIONARY
  5
D
102
{ACAD_REACTORS
330
C
102
}
100
AcDbDictionary
280
0
281
1
  0
ACDBDICTIONARYWDFLT
  5
E
102
{ACAD_REACTORS
330
C
102
}
100
AcDbDictionary
281
1
  3
Normal
350
F
100
AcDbDictionaryWithDefault
340
F
  0
DICTIONARY
  5
17
102
{ACAD_REACTORS
330
C
102
}
100
AcDbDictionary
280
0
281
1
  3
Standard
350
18
  0
DICTIONARY
  5
19
102
{ACAD_REACTORS
330
C
102
}
100
AcDbDictionary
281
1
  0
DICTIONARY
  5
1A
102
{ACAD_REACTORS
330
C
102
}
100
AcDbDictionary
281
1
  3
Model
350
523
  3
Layout1
350
524
  0
ACDBPLACEHOLDER
  5
F
102
{ACAD_REACTORS
330
E
102
}
  0
MLINESTYLE
  5
18
102
{ACAD_REACTORS
330
17
102
}
100
AcDbMlineStyle
  2
STANDARD
 70
0
  3

 62
256
 51
90.0
 52
90.0
 71
2
 49
0.5
 62
256
  6
BYLAYER
 49
-0.5
 62
256
  6
BYLAYER
  0
LAYOUT
  5
523
102
{ACAD_REACTORS
330
1A
102
}
100
AcDbPlotSettings
  1

  2
none_device
  4

  6

 40
0.0
 41
0.0
 42
0.0
 43
0.0
 44
210.0
 45
297.0
 46
0.0
 47
0.0
 48
0.0
 49
0.0
140
0.0
141
0.0
142
1.0
143
1.0
 70
1024
 72
1
 73
0
 74
0
  7

 75
0
147
1.0
148
0.0
149
0.0
100
AcDbLayout
  1
Model
 70
0
 71
0
 10
0.0
 20
0.0
 11
210.0
 21
297.0
 12
0.0
 22
0.0
 32
0.0
 14
0.0
 24
0.0
 34
0.0
 15
0.0
 25
0.0
 35
0.0
146
0.0
 13
0.0
 23
0.0
 33
0.0
 16
1.0
 26
0.0
 36
0.0
 17
0.0
 27
1.0
 37
0.0
 76
0
330
210
345
0
346
0
  0
LAYOUT
  5
524
102
{ACAD_REACTORS
330
1A
102
}
100
AcDbPlotSettings
  1

  2
none_device
  4

  6

 40
0.0
 41
0.0
 42
0.0
 43
0.0
 44
210.0
 45
297.0
 46
0.0
 47
0.0
 48
0.0
 49
0.0
140
0.0
141
0.0
142
1.0
143
1.0
 70
0
 72
1
 73
0
 74
0
  7

 75
0
147
1.0
148
0.0
149
0.0
100
AcDbLayout
  1
Layout1
 70
0
 71
1
 10
0.0
 20
0.0
 11
210.0
 21
297.0
 12
0.0
 22
0.0
 32
0.0
 14
0.0
 24
0.0
 34
0.0
 15
0.0
 25
0.0
 35
0.0
146
0.0
 13
0.0
 23
0.0
 33
0.0
 16
1.0
 26
0.0
 36
0.0
 17
0.0
 27
1.0
 37
0.0
 76
0
330
211
345
0
346
0
  0
ENDSEC
  0
EOF
