999
DXF file: C:\Users\sesa63760\Dev\_Creo\CAD\MCADPD0003842_3D-CAD\drw0001_3.dxf
999
Pro/ENGINEER 2019471 by Parametric Technology Corporation
  0
SECTION
  2
HEADER
  9
$ACADVER
  1
AC1024
  9
$DWGCODEPAGE
  3
ANSI_1252
  9
$EXTMAX
 10
313.1175523349
 20
442.8376811594
 30
0.0
  9
$EXTMIN
 10
0.0
 20
0.0
 30
0.0
  9
$LIMMIN
 10
0.0
 20
0.0
  9
$LIMMAX
 10
313.1175523349
 20
442.8376811594
  9
$VIEWCTR
 10
156.5587761675
 20
221.4188405797
  9
$VIEWSIZE
 40
442.8376811594
  9
$CLAYER
  8
0
  9
$LTSCALE
 40
28.8664562534
  9
$CELTYPE
  6
BYLAYER
  9
$DIMSCALE
 40
1.0
  9
$DIMASZ
 40
3.7275899087
  9
$DIMEXO
 40
1.0
  9
$DIMDLI
 40
19.9440970478
  9
$DIMEXE
 40
1.0
  9
$DIMCEN
 40
4.7236019324
  9
$DIMLFAC
 40
1.0
  9
$DIMBLK
  1
_FILLED
  9
$DIMALT
 70
0
  9
$DIMALTF
 40
0.0393700787
  9
$DIMTXT
 40
5.2186258722
  9
$DIMTOL
 70
1
  9
$DIMLIM
 70
0
  9
$DIMTFAC
 40
1.0
  9
$DIMTP
 40
0.01
  9
$DIMTM
 40
0.01
  9
$DIMGAP
 40
0.625
  9
$DIMDSEP
 70
46
  9
$AUNITS
 70
0
  9
$PDMODE
 70
3
  9
$PDSIZE
 40
0.3125
  9
$HANDSEED
  5
2AA
  9
$TILEMODE
 70
1
  9
$MEASUREMENT
 70
1
  9
$INSUNITS
 70
4
  0
ENDSEC
  0
SECTION
  2
CLASSES
  0
CLASS
  1
ACDBDICTIONARYWDFLT
  2
AcDbDictionaryWithDefault
  3
AutoCAD 2000
 90
0
 91
1
280
0
281
0
  0
CLASS
  1
ACDBPLACEHOLDER
  2
AcDbPlaceHolder
  3
AutoCAD 2000
 90
0
 91
1
280
0
281
0
  0
CLASS
  1
LAYOUT
  2
AcDbLayout
  3
AutoCAD 2000
 90
0
 91
0
280
0
281
0
  0
ENDSEC
  0
SECTION
  2
TABLES
  0
TABLE
  2
VPORT
  5
8
100
AcDbSymbolTable
 70
2
  0
VPORT
  5
1F4
100
AcDbSymbolTableRecord
100
AcDbViewportTableRecord
  2
*ACTIVE
 70
0
 10
0.0
 20
0.0
 11
1.0
 21
1.0
 12
156.5587761675
 22
221.4188405797
 13
0.0
 23
0.0
 14
1.0
 24
1.0
 15
0.0
 25
0.0
 16
0.0
 26
0.0
 36
1.0
 17
0.0
 27
0.0
 37
0.0
 40
442.8376811594
 41
0.7070707071
 42
50.0
 43
0.0
 44
0.0
 50
0.0
 51
0.0
 71
0
 72
100
 73
1
 74
1
 75
0
 76
0
 77
0
 78
0
  0
ENDTAB
  0
TABLE
  2
LTYPE
  5
5
100
AcDbSymbolTable
 70
6
  0
LTYPE
  5
14
100
AcDbSymbolTableRecord
100
AcDbLinetypeTableRecord
  2
BYBLOCK
 70
0
  3

 72
65
 73
0
 40
0.0
  0
LTYPE
  5
15
100
AcDbSymbolTableRecord
100
AcDbLinetypeTableRecord
  2
BYLAYER
 70
0
  3

 72
65
 73
0
 40
0.0
  0
LTYPE
  5
16
100
AcDbSymbolTableRecord
100
AcDbLinetypeTableRecord
  2
CONTINUOUS
 70
64
  3
Solid line
 72
65
 73
0
 40
0.0
  0
LTYPE
  5
1F5
100
AcDbSymbolTableRecord
100
AcDbLinetypeTableRecord
  2
CENTER
 70
64
  3
____ _ ____ _ ____ _ ____ _ ____ _ ____ _ ____
 72
65
 73
4
 40
0.6
 49
0.375
 74
0
 49
-0.075
 74
0
 49
0.075
 74
0
 49
-0.075
 74
0
  0
LTYPE
  5
1F6
100
AcDbSymbolTableRecord
100
AcDbLinetypeTableRecord
  2
HIDDEN
 70
64
  3
- - - - - - - - - - - - - - - - - - - -
 72
65
 73
2
 40
0.2
 49
0.1
 74
0
 49
-0.1
 74
0
  0
LTYPE
  5
1F7
100
AcDbSymbolTableRecord
100
AcDbLinetypeTableRecord
  2
PHANTOM
 70
64
  3
_____ _ _ _____ _ _ _____ _ _ _____
 72
65
 73
6
 40
0.8
 49
0.45
 74
0
 49
-0.05
 74
0
 49
0.1
 74
0
 49
-0.05
 74
0
 49
0.1
 74
0
 49
-0.05
 74
0
  0
LTYPE
  5
1F8
100
AcDbSymbolTableRecord
100
AcDbLinetypeTableRecord
  2
DOT
 70
64
  3
. . . . . . . . . . . . . . . . . . . .
 72
65
 73
2
 40
0.2
 49
0.1
 74
0
 49
-0.1
 74
0
  0
LTYPE
  5
1F9
100
AcDbSymbolTableRecord
100
AcDbLinetypeTableRecord
  2
DASHED
 70
64
  3
- - - - - - - - - - - - - - - - - - - -
 72
65
 73
2
 40
0.2
 49
0.1
 74
0
 49
-0.1
 74
0
  0
ENDTAB
  0
TABLE
  2
LAYER
  5
2
100
AcDbSymbolTable
 70
36
  0
LAYER
  5
10
100
AcDbSymbolTableRecord
100
AcDbLayerTableRecord
  2
0
 70
0
 62
7
  6
CONTINUOUS
370
-3
390
F
  0
LAYER
  5
1FA
100
AcDbSymbolTableRecord
100
AcDbLayerTableRecord
  2
DEFAULT_1
 70
0
 62
7
  6
CENTER
370
-3
390
F
  0
LAYER
  5
1FB
100
AcDbSymbolTableRecord
100
AcDbLayerTableRecord
  2
DEFAULT_2
 70
0
 62
7
  6
HIDDEN
370
-3
390
F
  0
LAYER
  5
1FC
100
AcDbSymbolTableRecord
100
AcDbLayerTableRecord
  2
DEFAULT_3
 70
0
 62
7
  6
PHANTOM
370
-3
390
F
  0
LAYER
  5
1FD
100
AcDbSymbolTableRecord
100
AcDbLayerTableRecord
  2
00_COMPONENTS
 70
0
 62
7
  6
CONTINUOUS
370
-3
390
F
  0
LAYER
  5
1FE
100
AcDbSymbolTableRecord
100
AcDbLayerTableRecord
  2
01_1_DEFAULT_DATUMS
 70
0
 62
7
  6
CONTINUOUS
370
-3
390
F
  0
LAYER
  5
1FF
100
AcDbSymbolTableRecord
100
AcDbLayerTableRecord
  2
01_PLANES
 70
0
 62
7
  6
CONTINUOUS
370
-3
390
F
  0
LAYER
  5
200
100
AcDbSymbolTableRecord
100
AcDbLayerTableRecord
  2
02_COORD_SYS
 70
0
 62
7
  6
CONTINUOUS
370
-3
390
F
  0
LAYER
  5
201
100
AcDbSymbolTableRecord
100
AcDbLayerTableRecord
  2
03_AXES
 70
0
 62
7
  6
CONTINUOUS
370
-3
390
F
  0
LAYER
  5
202
100
AcDbSymbolTableRecord
100
AcDbLayerTableRecord
  2
04_POINTS
 70
0
 62
7
  6
CONTINUOUS
370
-3
390
F
  0
LAYER
  5
203
100
AcDbSymbolTableRecord
100
AcDbLayerTableRecord
  2
05_CURVES
 70
0
 62
7
  6
CONTINUOUS
370
-3
390
F
  0
LAYER
  5
204
100
AcDbSymbolTableRecord
100
AcDbLayerTableRecord
  2
06_SURFS
 70
0
 62
7
  6
CONTINUOUS
370
-3
390
F
  0
LAYER
  5
205
100
AcDbSymbolTableRecord
100
AcDbLayerTableRecord
  2
07_COSMETICS
 70
0
 62
7
  6
CONTINUOUS
370
-3
390
F
  0
LAYER
  5
206
100
AcDbSymbolTableRecord
100
AcDbLayerTableRecord
  2
10_NOTES
 70
0
 62
7
  6
CONTINUOUS
370
-3
390
F
  0
LAYER
  5
207
100
AcDbSymbolTableRecord
100
AcDbLayerTableRecord
  2
11_NOTES_PUB
 70
0
 62
7
  6
CONTINUOUS
370
-3
390
F
  0
LAYER
  5
208
100
AcDbSymbolTableRecord
100
AcDbLayerTableRecord
  2
13_REF_GTOL
 70
0
 62
7
  6
CONTINUOUS
370
-3
390
F
  0
LAYER
  5
209
100
AcDbSymbolTableRecord
100
AcDbLayerTableRecord
  2
16_MISC
 70
0
 62
7
  6
CONTINUOUS
370
-3
390
F
  0
LAYER
  5
20A
100
AcDbSymbolTableRecord
100
AcDbLayerTableRecord
  2
17_NO_PRINT
 70
0
 62
7
  6
CONTINUOUS
370
-3
390
F
  0
LAYER
  5
20B
100
AcDbSymbolTableRecord
100
AcDbLayerTableRecord
  2
18_DATUM_CAMS_JOINTS
 70
0
 62
7
  6
CONTINUOUS
370
-3
390
F
  0
LAYER
  5
20C
100
AcDbSymbolTableRecord
100
AcDbLayerTableRecord
  2
19_DATUM_FUNCTIONAL
 70
0
 62
7
  6
CONTINUOUS
370
-3
390
F
  0
LAYER
  5
20D
100
AcDbSymbolTableRecord
100
AcDbLayerTableRecord
  2
20_DATUM_KINEMATIC_SCHEME
 70
0
 62
7
  6
CONTINUOUS
370
-3
390
F
  0
ENDTAB
  0
TABLE
  2
STYLE
  5
3
100
AcDbSymbolTable
 70
1
  0
STYLE
  5
11
100
AcDbSymbolTableRecord
100
AcDbTextStyleTableRecord
  2
STANDARD
 70
0
 40
0.0
 41
1.0
 50
0.0
 71
0
 42
0.2
  3
ARIAL.TTF
  4

  0
STYLE
  5
20E
100
AcDbSymbolTableRecord
100
AcDbTextStyleTableRecord
  2
TEXTSTYLE_1
 70
0
 40
0.0
 41
0.8
 50
0.0
 71
0
 42
0.2
  3
gdt
  4

  0
ENDTAB
  0
TABLE
  2
VIEW
  5
6
100
AcDbSymbolTable
 70
0
  0
ENDTAB
  0
TABLE
  2
UCS
  5
7
100
AcDbSymbolTable
 70
0
  0
ENDTAB
  0
TABLE
  2
APPID
  5
9
100
AcDbSymbolTable
 70
1
  0
APPID
  5
20F
100
AcDbSymbolTableRecord
100
AcDbRegAppTableRecord
  2
ACAD
 70
0
  0
ENDTAB
  0
TABLE
  2
BLOCK_RECORD
  5
1
100
AcDbSymbolTable
 70
0
  0
BLOCK_RECORD
  5
210
100
AcDbSymbolTableRecord
100
AcDbBlockTableRecord
  2
*Model_Space
  0
BLOCK_RECORD
  5
211
100
AcDbSymbolTableRecord
100
AcDbBlockTableRecord
  2
*Paper_Space
  0
BLOCK_RECORD
  5
212
100
AcDbSymbolTableRecord
100
AcDbBlockTableRecord
  2
_FILLED
  0
ENDTAB
  0
TABLE
  2
DIMSTYLE
  5
A
100
AcDbSymbolTable
 70
1
100
AcDbDimStyleTable
 71
0
  0
DIMSTYLE
105
213
100
AcDbSymbolTableRecord
100
AcDbDimStyleTableRecord
  2
STANDARD
 70
0
  3

  4

 40
1.0
 41
3.7275899087
 42
1.0
 43
0.38
 44
1.0
 45
0.0
 46
0.0
 47
0.01
 48
0.01
140
5.2186258722
141
0.09
142
0.0
143
25.4
144
1.0
145
0.0
146
1.0
147
0.625
 71
1
 72
0
 73
0
 74
0
 75
0
 76
0
 77
1
 78
8
 79
2
170
0
171
1
172
0
173
0
174
0
175
0
176
0
177
0
178
0
270
2
179
2
271
2
272
2
273
2
274
2
275
0
280
0
281
0
282
0
283
1
284
8
285
0
286
0
287
3
288
0
340
11
278
46
341
212
342
212
343
212
344
212
  0
ENDTAB
  0
ENDSEC
  0
SECTION
  2
BLOCKS
  0
BLOCK
  5
20
100
AcDbEntity
  8
0
100
AcDbBlockBegin
  2
*Model_Space
 70
0
 10
0.0
 20
0.0
 30
0.0
  3
*Model_Space
  1

  0
ENDBLK
  5
21
100
AcDbEntity
  8
0
100
AcDbBlockEnd
  0
BLOCK
  5
1C
100
AcDbEntity
  8
0
100
AcDbBlockBegin
  2
*Paper_Space
 70
0
 10
0.0
 20
0.0
 30
0.0
  3
*Paper_Space
  1

  0
ENDBLK
  5
1D
100
AcDbEntity
  8
0
100
AcDbBlockEnd
  0
BLOCK
  5
214
100
AcDbEntity
  8
0
100
AcDbBlockBegin
  2
_FILLED
 70
64
 10
0.0
 20
0.0
  3
_FILLED
  1

  0
SOLID
  5
215
100
AcDbEntity
  8
0
  6
BYBLOCK
 62
0
100
AcDbTrace
 10
0.0
 20
0.0
 11
-1.0
 21
0.25
 12
-1.0
 22
-0.25
 13
-1.0
 23
-0.25
  0
ENDBLK
  5
216
100
AcDbEntity
  8
0
  6
BYBLOCK
 62
0
100
AcDbBlockEnd
  0
ENDSEC
  0
SECTION
  2
ENTITIES
  0
LINE
  5
217
100
AcDbEntity
  8
0
100
AcDbLine
 62
7
  6
BYLAYER
 10
168.9952775799
 20
35.5028985507
 11
174.9947385231
 21
35.5028985507
  0
LINE
  5
218
100
AcDbEntity
  8
0
100
AcDbLine
 62
7
  6
BYLAYER
 10
161.9950080515
 20
36.5028985507
 11
181.9950080515
 21
36.5028985507
  0
LINE
  5
219
100
AcDbEntity
  8
0
100
AcDbLine
 62
7
  6
BYLAYER
 10
161.9950080515
 20
37.0028985507
 11
166.9950080515
 21
37.0028985507
  0
LINE
  5
21A
100
AcDbEntity
  8
0
100
AcDbLine
 62
7
  6
BYLAYER
 10
176.9950080515
 20
37.0028985507
 11
181.9950080515
 21
37.0028985507
  0
LINE
  5
21B
100
AcDbEntity
  8
0
100
AcDbLine
 62
7
  6
BYLAYER
 10
181.9950080515
 20
42.9028985507
 11
176.9950080515
 21
42.9028985507
  0
LINE
  5
21C
100
AcDbEntity
  8
0
100
AcDbLine
 62
7
  6
BYLAYER
 10
166.9950080515
 20
42.9028985507
 11
161.9950080515
 21
42.9028985507
  0
LINE
  5
21D
100
AcDbEntity
  8
0
100
AcDbLine
 62
7
  6
BYLAYER
 10
181.9950080515
 20
44.5028985507
 11
176.9950080515
 21
44.5028985507
  0
LINE
  5
21E
100
AcDbEntity
  8
0
100
AcDbLine
 62
7
  6
BYLAYER
 10
166.9950080515
 20
44.5028985507
 11
161.9950080515
 21
44.5028985507
  0
LINE
  5
21F
100
AcDbEntity
  8
0
100
AcDbLine
 62
7
  6
BYLAYER
 10
178.2950080515
 20
59.5028985507
 11
165.6950080515
 21
59.5028985507
  0
LINE
  5
220
100
AcDbEntity
  8
0
100
AcDbLine
 62
7
  6
BYLAYER
 10
167.3950080515
 20
62.5028985507
 11
176.5950080515
 21
62.5028985507
  0
LINE
  5
221
100
AcDbEntity
  8
0
100
AcDbLine
 62
7
  6
BYLAYER
 10
176.5950080515
 20
68.5028985507
 11
167.3950080515
 21
68.5028985507
  0
LINE
  5
222
100
AcDbEntity
  8
0
100
AcDbLine
 62
7
  6
BYLAYER
 10
176.5950080515
 20
70.5028985507
 11
167.3950080515
 21
70.5028985507
  0
LINE
  5
223
100
AcDbEntity
  8
0
100
AcDbLine
 62
7
  6
BYLAYER
 10
168.9950080515
 20
35.5028985507
 11
167.4950080515
 21
36.5028985507
  0
LINE
  5
224
100
AcDbEntity
  8
0
100
AcDbLine
 62
7
  6
BYLAYER
 10
156.9068662427
 20
83.5028985507
 11
187.0831495511
 21
83.5028985507
  0
LINE
  5
225
100
AcDbEntity
  8
0
100
AcDbLine
 62
7
  6
BYLAYER
 10
155.9068663615
 20
84.5028985507
 11
188.0831497416
 21
84.5028985507
  0
LINE
  5
226
100
AcDbEntity
  8
0
100
AcDbLine
 62
7
  6
BYLAYER
 10
152.9953385296
 20
96.5028985507
 11
162.9950080515
 21
96.5028985507
  0
LINE
  5
227
100
AcDbEntity
  8
0
100
AcDbLine
 62
7
  6
BYLAYER
 10
180.9950080515
 20
96.5028985507
 11
190.9946775735
 21
96.5028985507
  0
LINE
  5
228
100
AcDbEntity
  8
0
100
AcDbLine
 62
7
  6
BYLAYER
 10
151.9950080515
 20
97.5028985507
 11
162.9950080515
 21
97.5028985507
  0
LINE
  5
229
100
AcDbEntity
  8
0
100
AcDbLine
 62
7
  6
BYLAYER
 10
180.9950080515
 20
97.5028985507
 11
191.9950080515
 21
97.5028985507
  0
LINE
  5
22A
100
AcDbEntity
  8
0
100
AcDbLine
 62
7
  6
BYLAYER
 10
180.9950080515
 20
106.0028985507
 11
162.9950080515
 21
106.0028985507
  0
LINE
  5
22B
100
AcDbEntity
  8
0
100
AcDbLine
 62
7
  6
BYLAYER
 10
163.9950080515
 20
107.0028985507
 11
179.9950080515
 21
107.0028985507
  0
LINE
  5
22C
100
AcDbEntity
  8
0
100
AcDbLine
 62
7
  6
BYLAYER
 10
172.7450080515
 20
125.203860445
 11
171.2450080515
 21
125.203860445
  0
LINE
  5
22D
100
AcDbEntity
  8
0
100
AcDbLine
 62
7
  6
BYLAYER
 10
171.2450080515
 20
127.8019366564
 11
172.7450080515
 21
127.8019366564
  0
LINE
  5
22E
100
AcDbEntity
  8
0
100
AcDbLine
 62
7
  6
BYLAYER
 10
151.9950080515
 20
129.5028985507
 11
191.9950080515
 21
129.5028985507
  0
LINE
  5
22F
100
AcDbEntity
  8
0
100
AcDbLine
 62
7
  6
BYLAYER
 10
158.9950333535
 20
135.5028985507
 11
184.9949827496
 21
135.5028985507
  0
LINE
  5
230
100
AcDbEntity
  8
0
100
AcDbLine
 62
7
  6
BYLAYER
 10
154.2950080515
 20
333.9528985507
 11
155.2950080515
 21
334.9528985507
  0
LINE
  5
231
100
AcDbEntity
  8
0
100
AcDbLine
 62
7
  6
BYLAYER
 10
184.9949827496
 20
139.0028985507
 11
158.9950333535
 21
139.0028985507
  0
LINE
  5
232
100
AcDbEntity
  8
0
100
AcDbLine
 62
7
  6
BYLAYER
 10
164.3950080515
 20
62.5028985507
 11
166.9950080515
 21
56.5028985507
  0
LINE
  5
233
100
AcDbEntity
  8
0
100
AcDbLine
 62
7
  6
BYLAYER
 10
162.8818017875
 20
283.2028985507
 11
163.1818017875
 21
283.5028985507
  0
LINE
  5
234
100
AcDbEntity
  8
0
100
AcDbLine
 62
7
  6
BYLAYER
 10
170.4950080515
 20
126.5028985507
 11
171.2450080515
 21
125.203860445
  0
LINE
  5
235
100
AcDbEntity
  8
0
100
AcDbLine
 62
7
  6
BYLAYER
 10
173.4950080515
 20
126.5028985507
 11
172.7450080515
 21
127.8019366564
  0
LINE
  5
236
100
AcDbEntity
  8
0
100
AcDbLine
 62
7
  6
BYLAYER
 10
129.7950080515
 20
407.0028985507
 11
129.7950080515
 21
409.5028985507
  0
LINE
  5
237
100
AcDbEntity
  8
0
100
AcDbLine
 62
7
  6
BYLAYER
 10
130.7950080515
 20
407.0028985507
 11
130.7950080515
 21
409.5028985507
  0
LINE
  5
238
100
AcDbEntity
  8
0
100
AcDbLine
 62
7
  6
BYLAYER
 10
140.2450080515
 20
271.5028985507
 11
140.2450080515
 21
274.0028985507
  0
LINE
  5
239
100
AcDbEntity
  8
0
100
AcDbLine
 62
7
  6
BYLAYER
 10
144.7950080515
 20
406.0028985507
 11
144.7950080515
 21
268.0028985507
  0
LINE
  5
23A
100
AcDbEntity
  8
0
100
AcDbLine
 62
7
  6
BYLAYER
 10
147.2950080515
 20
269.0028985507
 11
147.2950080515
 21
407.0028985507
  0
LINE
  5
23B
100
AcDbEntity
  8
0
100
AcDbLine
 62
7
  6
BYLAYER
 10
148.2450080515
 20
271.5028985507
 11
148.2450080515
 21
274.0028985507
  0
LINE
  5
23C
100
AcDbEntity
  8
0
100
AcDbLine
 62
7
  6
BYLAYER
 10
172.1318017875
 20
280.0519366564
 11
171.3818017875
 21
278.7528985507
  0
LINE
  5
23D
100
AcDbEntity
  8
0
100
AcDbLine
 62
7
  6
BYLAYER
 10
173.6318017875
 20
277.453860445
 11
174.3818017875
 21
278.7528985507
  0
LINE
  5
23E
100
AcDbEntity
  8
0
100
AcDbLine
 62
7
  6
BYLAYER
 10
182.8818017875
 20
274.3028985507
 11
182.5818017875
 21
274.0028985507
  0
LINE
  5
23F
100
AcDbEntity
  8
0
100
AcDbLine
 62
7
  6
BYLAYER
 10
151.9950080515
 20
97.5028985507
 11
151.9950080515
 21
129.5028985507
  0
LINE
  5
240
100
AcDbEntity
  8
0
100
AcDbLine
 62
7
  6
BYLAYER
 10
153.2450080515
 20
271.5028985507
 11
153.2450080515
 21
274.0028985507
  0
LINE
  5
241
100
AcDbEntity
  8
0
100
AcDbLine
 62
7
  6
BYLAYER
 10
154.2950080515
 20
326.7028985507
 11
154.2950080515
 21
403.2028985507
  0
LINE
  5
242
100
AcDbEntity
  8
0
100
AcDbLine
 62
7
  6
BYLAYER
 10
155.2950080515
 20
334.9528985507
 11
155.2950080515
 21
339.9528985507
  0
LINE
  5
243
100
AcDbEntity
  8
0
100
AcDbLine
 62
7
  6
BYLAYER
 10
155.9068663615
 20
96.5028985507
 11
155.9068663615
 21
84.5028985507
  0
LINE
  5
244
100
AcDbEntity
  8
0
100
AcDbLine
 62
7
  6
BYLAYER
 10
156.3417336337
 20
96.5028985507
 11
156.3417336337
 21
84.5028985507
  0
LINE
  5
245
100
AcDbEntity
  8
0
100
AcDbLine
 62
7
  6
BYLAYER
 10
158.7950080515
 20
271.5028985507
 11
158.7950080515
 21
268.0028985507
  0
LINE
  5
246
100
AcDbEntity
  8
0
100
AcDbLine
 62
7
  6
BYLAYER
 10
158.9950080515
 20
135.5028985507
 11
158.9950080515
 21
139.0028985507
  0
LINE
  5
247
100
AcDbEntity
  8
0
100
AcDbLine
 62
7
  6
BYLAYER
 10
161.2950080515
 20
265.5028985507
 11
161.2950080515
 21
261.9028985507
  0
LINE
  5
248
100
AcDbEntity
  8
0
100
AcDbLine
 62
7
  6
BYLAYER
 10
161.4950080515
 20
129.5028985507
 11
161.4950080515
 21
135.5028985507
  0
LINE
  5
249
100
AcDbEntity
  8
0
100
AcDbLine
 62
7
  6
BYLAYER
 10
161.9950080515
 20
36.5028985507
 11
161.9950080515
 21
44.5028545438
  0
LINE
  5
24A
100
AcDbEntity
  8
0
100
AcDbLine
 62
7
  6
BYLAYER
 10
162.5601407792
 20
84.5028985507
 11
162.5601407793
 21
96.5028985507
  0
LINE
  5
24B
100
AcDbEntity
  8
0
100
AcDbLine
 62
7
  6
BYLAYER
 10
162.8818017875
 20
283.2028985507
 11
162.8818017875
 21
274.3028985507
  0
LINE
  5
24C
100
AcDbEntity
  8
0
100
AcDbLine
 62
7
  6
BYLAYER
 10
162.9950080515
 20
84.5028985507
 11
162.9950080515
 21
129.5028985507
  0
LINE
  5
24D
100
AcDbEntity
  8
0
100
AcDbLine
 62
7
  6
BYLAYER
 10
163.9950080515
 20
129.5028985507
 11
163.9950080515
 21
83.5028985507
  0
LINE
  5
24E
100
AcDbEntity
  8
0
100
AcDbLine
 62
7
  6
BYLAYER
 10
164.3703868491
 20
240.9028985507
 11
164.3703868491
 21
261.9028985507
  0
LINE
  5
24F
100
AcDbEntity
  8
0
100
AcDbLine
 62
7
  6
BYLAYER
 10
164.3950080515
 20
62.5028985507
 11
164.3950080515
 21
83.5028985507
  0
LINE
  5
250
100
AcDbEntity
  8
0
100
AcDbLine
 62
7
  6
BYLAYER
 10
166.9950080515
 20
56.5028985507
 11
166.9950080515
 21
36.5028985507
  0
LINE
  5
251
100
AcDbEntity
  8
0
100
AcDbLine
 62
7
  6
BYLAYER
 10
166.9950080515
 20
139.0028985507
 11
166.9950080515
 21
240.9028985507
  0
LINE
  5
252
100
AcDbEntity
  8
0
100
AcDbLine
 62
7
  6
BYLAYER
 10
167.2450080515
 20
283.5028985507
 11
167.2450080515
 21
356.5028985507
  0
LINE
  5
253
100
AcDbEntity
  8
0
100
AcDbLine
 62
7
  6
BYLAYER
 10
167.3950080515
 20
83.5028985507
 11
167.3950080515
 21
62.5028985507
  0
LINE
  5
254
100
AcDbEntity
  8
0
100
AcDbLine
 62
7
  6
BYLAYER
 10
168.7450080515
 20
283.5028985507
 11
168.7450080515
 21
356.5028985507
  0
LINE
  5
255
100
AcDbEntity
  8
0
100
AcDbLine
 62
7
  6
BYLAYER
 10
168.9950080515
 20
139.0028985507
 11
168.9950080515
 21
240.9028985507
  0
LINE
  5
256
100
AcDbEntity
  8
0
100
AcDbLine
 62
7
  6
BYLAYER
 10
169.4950080515
 20
129.5028985507
 11
169.4950080515
 21
107.0028985507
  0
LINE
  5
257
100
AcDbEntity
  8
0
100
AcDbLine
 62
7
  6
BYLAYER
 10
174.4950080515
 20
129.5028985507
 11
174.4950080515
 21
107.0028985507
  0
LINE
  5
258
100
AcDbEntity
  8
0
100
AcDbLine
 62
7
  6
BYLAYER
 10
174.9950080515
 20
139.0028985507
 11
174.9950080515
 21
240.9028985507
  0
LINE
  5
259
100
AcDbEntity
  8
0
100
AcDbLine
 62
7
  6
BYLAYER
 10
175.2450080515
 20
283.5028985507
 11
175.2450080515
 21
356.5028985507
  0
LINE
  5
25A
100
AcDbEntity
  8
0
100
AcDbLine
 62
7
  6
BYLAYER
 10
176.5950080515
 20
62.5028985507
 11
176.5950080515
 21
83.5028985507
  0
LINE
  5
25B
100
AcDbEntity
  8
0
100
AcDbLine
 62
7
  6
BYLAYER
 10
176.7450080515
 20
283.5028985507
 11
176.7450080515
 21
356.5028985507
  0
LINE
  5
25C
100
AcDbEntity
  8
0
100
AcDbLine
 62
7
  6
BYLAYER
 10
176.9950080515
 20
56.5028985507
 11
176.9950080515
 21
36.5028985507
  0
LINE
  5
25D
100
AcDbEntity
  8
0
100
AcDbLine
 62
7
  6
BYLAYER
 10
176.9950080515
 20
139.0028985507
 11
176.9950080515
 21
240.9028985507
  0
LINE
  5
25E
100
AcDbEntity
  8
0
100
AcDbLine
 62
7
  6
BYLAYER
 10
178.7950080515
 20
265.5028985507
 11
178.7950080515
 21
268.0028985507
  0
LINE
  5
25F
100
AcDbEntity
  8
0
100
AcDbLine
 62
7
  6
BYLAYER
 10
179.219629254
 20
240.9028985507
 11
179.219629254
 21
261.9028985507
  0
LINE
  5
260
100
AcDbEntity
  8
0
100
AcDbLine
 62
7
  6
BYLAYER
 10
179.5950080515
 20
83.5028985507
 11
179.5950080515
 21
62.5028985507
  0
LINE
  5
261
100
AcDbEntity
  8
0
100
AcDbLine
 62
7
  6
BYLAYER
 10
179.7450080515
 20
271.5028985507
 11
179.7450080515
 21
274.0028985507
  0
LINE
  5
262
100
AcDbEntity
  8
0
100
AcDbLine
 62
7
  6
BYLAYER
 10
179.9950080515
 20
83.5028985507
 11
179.9950080515
 21
129.5028985507
  0
LINE
  5
263
100
AcDbEntity
  8
0
100
AcDbLine
 62
7
  6
BYLAYER
 10
180.9950080515
 20
129.5028985507
 11
180.9950080515
 21
84.5028985507
  0
LINE
  5
264
100
AcDbEntity
  8
0
100
AcDbLine
 62
7
  6
BYLAYER
 10
181.9950080515
 20
36.5028985507
 11
181.9950080515
 21
44.5028545438
  0
LINE
  5
265
100
AcDbEntity
  8
0
100
AcDbLine
 62
7
  6
BYLAYER
 10
182.2950080515
 20
265.5028985507
 11
182.2950080515
 21
261.9028985507
  0
LINE
  5
266
100
AcDbEntity
  8
0
100
AcDbLine
 62
7
  6
BYLAYER
 10
182.4950080515
 20
129.5028985507
 11
182.4950080515
 21
135.5028985507
  0
LINE
  5
267
100
AcDbEntity
  8
0
100
AcDbLine
 62
7
  6
BYLAYER
 10
182.8818017875
 20
283.2028985507
 11
182.8818017875
 21
274.3028985507
  0
LINE
  5
268
100
AcDbEntity
  8
0
100
AcDbLine
 62
7
  6
BYLAYER
 10
184.7450080515
 20
274.0028985507
 11
184.7450080515
 21
271.5028985507
  0
LINE
  5
269
100
AcDbEntity
  8
0
100
AcDbLine
 62
7
  6
BYLAYER
 10
184.7950080515
 20
271.5028985507
 11
184.7950080515
 21
268.0028985507
  0
LINE
  5
26A
100
AcDbEntity
  8
0
100
AcDbLine
 62
7
  6
BYLAYER
 10
184.9950080515
 20
135.5028985507
 11
184.9950080515
 21
139.0028985507
  0
LINE
  5
26B
100
AcDbEntity
  8
0
100
AcDbLine
 62
7
  6
BYLAYER
 10
186.2950080515
 20
285.0028985507
 11
186.2950080515
 21
269.0028985507
  0
LINE
  5
26C
100
AcDbEntity
  8
0
100
AcDbLine
 62
7
  6
BYLAYER
 10
187.6482824694
 20
84.5028985507
 11
187.6482824694
 21
96.5028985507
  0
LINE
  5
26D
100
AcDbEntity
  8
0
100
AcDbLine
 62
7
  6
BYLAYER
 10
164.3703868491
 20
240.9028985507
 11
179.219629254
 21
240.9028985507
  0
LINE
  5
26E
100
AcDbEntity
  8
0
100
AcDbLine
 62
7
  6
BYLAYER
 10
188.0831497416
 20
96.5028985507
 11
188.0831497416
 21
84.5028985507
  0
LINE
  5
26F
100
AcDbEntity
  8
0
100
AcDbLine
 62
7
  6
BYLAYER
 10
188.7950080515
 20
265.5028985507
 11
188.7950080515
 21
285.0028985507
  0
LINE
  5
270
100
AcDbEntity
  8
0
100
AcDbLine
 62
7
  6
BYLAYER
 10
191.9950080515
 20
97.5028985507
 11
191.9950080515
 21
129.5028985507
  0
LINE
  5
271
100
AcDbEntity
  8
0
100
AcDbLine
 62
7
  6
BYLAYER
 10
161.2951120289
 20
261.9028985507
 11
182.2949040742
 21
261.9028985507
  0
LINE
  5
272
100
AcDbEntity
  8
0
100
AcDbLine
 62
7
  6
BYLAYER
 10
162.8818017875
 20
274.3028985507
 11
163.1818017875
 21
274.0028985507
  0
LINE
  5
273
100
AcDbEntity
  8
0
100
AcDbLine
 62
7
  6
BYLAYER
 10
171.3818017875
 20
278.7528985507
 11
172.1318017875
 21
277.453860445
  0
LINE
  5
274
100
AcDbEntity
  8
0
100
AcDbLine
 62
7
  6
BYLAYER
 10
147.2950080515
 20
265.5028985507
 11
188.7950080515
 21
265.5028985507
  0
LINE
  5
275
100
AcDbEntity
  8
0
100
AcDbLine
 62
7
  6
BYLAYER
 10
148.2950080515
 20
268.0028985507
 11
188.7950080515
 21
268.0028985507
  0
LINE
  5
276
100
AcDbEntity
  8
0
100
AcDbLine
 62
7
  6
BYLAYER
 10
140.2450080515
 20
271.5028985507
 11
144.7950080515
 21
271.5028985507
  0
LINE
  5
277
100
AcDbEntity
  8
0
100
AcDbLine
 62
7
  6
BYLAYER
 10
147.2950080515
 20
271.5028985507
 11
184.7950008753
 21
271.5028985507
  0
LINE
  5
278
100
AcDbEntity
  8
0
100
AcDbLine
 62
7
  6
BYLAYER
 10
140.2450080515
 20
274.0028985507
 11
144.7950080515
 21
274.0028985507
  0
LINE
  5
279
100
AcDbEntity
  8
0
100
AcDbLine
 62
7
  6
BYLAYER
 10
147.2950080515
 20
274.0028985507
 11
184.7450080515
 21
274.0028985507
  0
LINE
  5
27A
100
AcDbEntity
  8
0
100
AcDbLine
 62
7
  6
BYLAYER
 10
162.8818017875
 20
274.3028985507
 11
182.8818017875
 21
274.3028985507
  0
LINE
  5
27B
100
AcDbEntity
  8
0
100
AcDbLine
 62
7
  6
BYLAYER
 10
174.3818017875
 20
278.7528985507
 11
173.6318017875
 21
280.0519366564
  0
LINE
  5
27C
100
AcDbEntity
  8
0
100
AcDbLine
 62
7
  6
BYLAYER
 10
171.2450080515
 20
127.8019366564
 11
170.4950080515
 21
126.5028985507
  0
LINE
  5
27D
100
AcDbEntity
  8
0
100
AcDbLine
 62
7
  6
BYLAYER
 10
172.7450080515
 20
125.203860445
 11
173.4950080515
 21
126.5028985507
  0
LINE
  5
27E
100
AcDbEntity
  8
0
100
AcDbLine
 62
7
  6
BYLAYER
 10
173.6318017875
 20
277.453860445
 11
172.1318017875
 21
277.453860445
  0
LINE
  5
27F
100
AcDbEntity
  8
0
100
AcDbLine
 62
7
  6
BYLAYER
 10
172.1318017875
 20
280.0519366564
 11
173.6318017875
 21
280.0519366564
  0
LINE
  5
280
100
AcDbEntity
  8
0
100
AcDbLine
 62
7
  6
BYLAYER
 10
188.7950080515
 20
281.0028985507
 11
186.2950080515
 21
281.0028985507
  0
LINE
  5
281
100
AcDbEntity
  8
0
100
AcDbLine
 62
7
  6
BYLAYER
 10
182.8818017875
 20
283.2028985507
 11
162.8818017875
 21
283.2028985507
  0
LINE
  5
282
100
AcDbEntity
  8
0
100
AcDbLine
 62
7
  6
BYLAYER
 10
182.5818017875
 20
283.5028985507
 11
163.1818017875
 21
283.5028985507
  0
LINE
  5
283
100
AcDbEntity
  8
0
100
AcDbLine
 62
7
  6
BYLAYER
 10
186.2950080515
 20
285.0028985507
 11
188.7950080515
 21
285.0028985507
  0
LINE
  5
284
100
AcDbEntity
  8
0
100
AcDbLine
 62
7
  6
BYLAYER
 10
182.8818017875
 20
283.2028985507
 11
182.5818017875
 21
283.5028985507
  0
LINE
  5
285
100
AcDbEntity
  8
0
100
AcDbLine
 62
7
  6
BYLAYER
 10
176.9950080515
 20
56.5028985507
 11
179.5950080515
 21
62.5028985507
  0
LINE
  5
286
100
AcDbEntity
  8
0
100
AcDbLine
 62
7
  6
BYLAYER
 10
154.2950080515
 20
340.9528985507
 11
155.2950080515
 21
339.9528985507
  0
LINE
  5
287
100
AcDbEntity
  8
0
100
AcDbLine
 62
7
  6
BYLAYER
 10
147.2950080515
 20
320.5028985507
 11
144.7950080515
 21
320.5028985507
  0
LINE
  5
288
100
AcDbEntity
  8
0
100
AcDbLine
 62
7
  6
BYLAYER
 10
147.2950080515
 20
325.5028985507
 11
144.7950080515
 21
325.5028985507
  0
LINE
  5
289
100
AcDbEntity
  8
0
100
AcDbLine
 62
7
  6
BYLAYER
 10
154.2950080515
 20
326.7028985507
 11
147.2950080515
 21
326.7028985507
  0
LINE
  5
28A
100
AcDbEntity
  8
0
100
AcDbLine
 62
7
  6
BYLAYER
 10
144.7950080515
 20
335.5028985507
 11
147.2950080515
 21
335.5028985507
  0
LINE
  5
28B
100
AcDbEntity
  8
0
100
AcDbLine
 62
7
  6
BYLAYER
 10
147.2950080515
 20
336.7028985507
 11
154.2950080515
 21
336.7028985507
  0
LINE
  5
28C
100
AcDbEntity
  8
0
100
AcDbLine
 62
7
  6
BYLAYER
 10
167.2450080515
 20
356.5028985507
 11
176.7450080515
 21
356.5028985507
  0
LINE
  5
28D
100
AcDbEntity
  8
0
100
AcDbLine
 62
7
  6
BYLAYER
 10
174.9950080515
 20
35.5028985507
 11
176.4950080515
 21
36.5028985507
  0
LINE
  5
28E
100
AcDbEntity
  8
0
100
AcDbLine
 62
7
  6
BYLAYER
 10
154.2950080515
 20
393.2028985507
 11
147.2950080515
 21
393.2028985507
  0
LINE
  5
28F
100
AcDbEntity
  8
0
100
AcDbLine
 62
7
  6
BYLAYER
 10
147.2950080515
 20
403.2028985507
 11
154.2950080515
 21
403.2028985507
  0
LINE
  5
290
100
AcDbEntity
  8
0
100
AcDbLine
 62
7
  6
BYLAYER
 10
129.7950080515
 20
407.0028985507
 11
143.7950080515
 21
407.0028985507
  0
LINE
  5
291
100
AcDbEntity
  8
0
100
AcDbLine
 62
7
  6
BYLAYER
 10
144.7950080515
 20
409.5028985507
 11
129.7950080515
 21
409.5028985507
  0
CIRCLE
  5
292
100
AcDbEntity
  8
0
100
AcDbCircle
 62
7
  6
BYLAYER
 10
171.9950080515
 20
126.5028985507
 40
2.5
  0
ARC
  5
293
100
AcDbEntity
  8
0
100
AcDbCircle
 62
7
  6
BYLAYER
 10
144.7950080515
 20
407.0028985507
 40
2.5
100
AcDbArc
 50
0.0
 51
90.0
  0
ARC
  5
294
100
AcDbEntity
  8
0
100
AcDbCircle
 62
7
  6
BYLAYER
 10
147.2950080515
 20
268.0028985507
 40
2.5
100
AcDbArc
 50
180.0
 51
270.0
  0
CIRCLE
  5
295
100
AcDbEntity
  8
0
100
AcDbCircle
 62
7
  6
BYLAYER
 10
172.8818017875
 20
278.7528985507
 40
2.0
  0
ARC
  5
296
100
AcDbEntity
  8
0
100
AcDbCircle
 62
7
  6
BYLAYER
 10
156.9068663615
 20
84.5028985507
 40
1.0
100
AcDbArc
 50
180.0
 51
269.9999999997
  0
ARC
  5
297
100
AcDbEntity
  8
0
100
AcDbCircle
 62
7
  6
BYLAYER
 10
187.0831497416
 20
84.5028985507
 40
1.0
100
AcDbArc
 50
270.0000000003
 51
360.0
  0
ARC
  5
298
100
AcDbEntity
  8
0
100
AcDbCircle
 62
7
  6
BYLAYER
 10
190.9950080515
 20
97.5028985507
 40
1.0
100
AcDbArc
 50
270.0
 51
360.0
  0
ARC
  5
299
100
AcDbEntity
  8
0
100
AcDbCircle
 62
7
  6
BYLAYER
 10
152.9950080515
 20
97.5028985507
 40
1.0
100
AcDbArc
 50
180.0
 51
270.0
  0
ARC
  5
29A
100
AcDbEntity
  8
0
100
AcDbCircle
 62
7
  6
BYLAYER
 10
179.9950080515
 20
84.5028985507
 40
1.0
100
AcDbArc
 50
270.0
 51
360.0
  0
ARC
  5
29B
100
AcDbEntity
  8
0
100
AcDbCircle
 62
7
  6
BYLAYER
 10
163.9950080515
 20
84.5028985507
 40
1.0
100
AcDbArc
 50
180.0
 51
269.9999999614
  0
ARC
  5
29C
100
AcDbEntity
  8
0
100
AcDbCircle
 62
7
  6
BYLAYER
 10
163.9950080515
 20
106.0028985507
 40
1.0
100
AcDbArc
 50
90.0
 51
180.0
  0
ARC
  5
29D
100
AcDbEntity
  8
0
100
AcDbCircle
 62
7
  6
BYLAYER
 10
179.9950080515
 20
106.0028985507
 40
1.0
100
AcDbArc
 50
0.0
 51
90.0
  0
ARC
  5
29E
100
AcDbEntity
  8
0
100
AcDbCircle
 62
7
  6
BYLAYER
 10
143.7950080515
 20
406.0028985507
 40
1.0
100
AcDbArc
 50
0.0
 51
90.0
  0
ARC
  5
29F
100
AcDbEntity
  8
0
100
AcDbCircle
 62
7
  6
BYLAYER
 10
148.2950080515
 20
269.0028985507
 40
1.0
100
AcDbArc
 50
180.0
 51
270.0
  0
ARC
  5
2A0
100
AcDbEntity
  8
0
100
AcDbCircle
 62
7
  6
BYLAYER
 10
185.2950080515
 20
269.0028985507
 40
1.0
100
AcDbArc
 50
270.0
 51
360.0
  0
SPLINE
  5
2A1
100
AcDbEntity
  8
0
100
AcDbSpline
 62
7
  6
BYLAYER
 70
0
 71
3
 72
13
 73
9
 74
0
 42
0.0000001
 43
0.0000001
 44
0.0000000001
 40
0.0
 40
0.0
 40
0.0
 40
0.0
 40
0.0894916543
 40
0.1858608341
 40
0.2934692965
 40
0.4143164743
 40
0.6917834669
 40
1.0
 40
1.0
 40
1.0
 40
1.0
 10
163.1252735071
 20
83.5028985507
 30
0.0
 10
163.0879981148
 20
83.5028985507
 30
0.0
 10
163.0100688454
 20
83.517119642
 30
0.0
 10
162.9017458878
 20
83.5773288493
 30
0.0
 10
162.8038735921
 20
83.6725554776
 30
0.0
 10
162.6857029688
 20
83.8483951877
 30
0.0
 10
162.5861460372
 20
84.1298897283
 30
0.0
 10
162.5601407793
 20
84.3745190692
 30
0.0
 10
162.5601407793
 20
84.5028985507
 30
0.0
  0
SPLINE
  5
2A2
100
AcDbEntity
  8
0
100
AcDbSpline
 62
7
  6
BYLAYER
 70
0
 71
3
 72
13
 73
9
 74
0
 42
0.0000001
 43
0.0000001
 44
0.0000000001
 40
0.0
 40
0.0
 40
0.0
 40
0.0
 40
0.3082165331
 40
0.5856835257
 40
0.7065307036
 40
0.8141391659
 40
0.9105083457
 40
1.0
 40
1.0
 40
1.0
 40
1.0
 10
156.3417336337
 20
84.5028985507
 30
0.0
 10
156.3417336337
 20
84.3745190692
 30
0.0
 10
156.3677388916
 20
84.1298897283
 30
0.0
 10
156.4672958232
 20
83.8483951877
 30
0.0
 10
156.5854664465
 20
83.6725554776
 30
0.0
 10
156.6833387421
 20
83.5773288492
 30
0.0
 10
156.7916616999
 20
83.5171196422
 30
0.0
 10
156.8695909692
 20
83.502898551
 30
0.0
 10
156.9068663615
 20
83.5028985507
 30
0.0
  0
SPLINE
  5
2A3
100
AcDbEntity
  8
0
100
AcDbSpline
 62
7
  6
BYLAYER
 70
0
 71
3
 72
13
 73
9
 74
0
 42
0.0000001
 43
0.0000001
 44
0.0000000001
 40
0.0
 40
0.0
 40
0.0
 40
0.0
 40
0.0894916543
 40
0.1858608341
 40
0.2934692965
 40
0.4143164743
 40
0.6917834669
 40
1.0
 40
1.0
 40
1.0
 40
1.0
 10
187.0831497416
 20
83.5028985507
 30
0.0
 10
187.1204251339
 20
83.5028985507
 30
0.0
 10
187.1983544033
 20
83.517119642
 30
0.0
 10
187.3066773609
 20
83.5773288493
 30
0.0
 10
187.4045496566
 20
83.6725554776
 30
0.0
 10
187.5227202799
 20
83.8483951877
 30
0.0
 10
187.6222772115
 20
84.1298897283
 30
0.0
 10
187.6482824694
 20
84.3745190692
 30
0.0
 10
187.6482824694
 20
84.5028985507
 30
0.0
  0
SPLINE
  5
2A4
100
AcDbEntity
  8
0
100
AcDbSpline
 62
7
  6
BYLAYER
 70
0
 71
3
 72
13
 73
9
 74
0
 42
0.0000001
 43
0.0000001
 44
0.0000000001
 40
0.0
 40
0.0
 40
0.0
 40
0.0
 40
0.30103837
 40
0.5757370299
 40
0.6961328909
 40
0.8041178441
 40
0.9029209568
 40
1.0
 40
1.0
 40
1.0
 40
1.0
 10
176.5950080515
 20
62.5028985507
 30
0.0
 10
176.8881663892
 20
62.5028985507
 30
0.0
 10
177.4484084087
 20
62.5041418984
 30
0.0
 10
178.127748683
 20
62.4873486161
 30
0.0
 10
178.6123480659
 20
62.4087646206
 30
0.0
 10
178.9171820196
 20
62.3083375518
 30
0.0
 10
179.168535885
 20
62.1444668012
 30
0.0
 10
179.2905586925
 20
61.993309881
 30
0.0
 10
179.3389263696
 20
61.9120819327
 30
0.0
  0
SPLINE
  5
2A5
100
AcDbEntity
  8
0
100
AcDbSpline
 62
7
  6
BYLAYER
 70
0
 71
3
 72
13
 73
9
 74
0
 42
0.0000001
 43
0.0000001
 44
0.0000000001
 40
0.0
 40
0.0
 40
0.0
 40
0.0
 40
0.0970765591
 40
0.1958793305
 40
0.3038772805
 40
0.4242861578
 40
0.6989783112
 40
1.0
 40
1.0
 40
1.0
 40
1.0
 10
164.6510897391
 20
61.9120819216
 30
0.0
 10
164.6994561813
 20
61.9933077978
 30
0.0
 10
164.8214587473
 20
62.144478654
 30
0.0
 10
165.0728394753
 20
62.308334762
 30
0.0
 10
165.3776998725
 20
62.4087512555
 30
0.0
 10
165.8623133548
 20
62.4873692544
 30
0.0
 10
166.5416475867
 20
62.5041188786
 30
0.0
 10
167.1018659369
 20
62.5028985507
 30
0.0
 10
167.3950080515
 20
62.5028985507
 30
0.0
  0
SPLINE
  5
2A6
100
AcDbEntity
  8
0
100
AcDbSpline
 62
7
  6
BYLAYER
 70
0
 71
3
 72
13
 73
9
 74
0
 42
0.0000001
 43
0.0000001
 44
0.0000000001
 40
0.0
 40
0.0
 40
0.0
 40
0.0
 40
0.1247236078
 40
0.2496106798
 40
0.374670521
 40
0.4998363006
 40
0.7497177826
 40
1.0
 40
1.0
 40
1.0
 40
1.0
 10
176.995008074
 20
38.0028980449
 30
0.0
 10
176.995008074
 20
37.8672988939
 30
0.0
 10
176.9408289659
 20
37.593444278
 30
0.0
 10
176.7226401476
 20
37.2413804573
 30
0.0
 10
176.4149662576
 20
36.9669931604
 30
0.0
 10
175.9362314337
 20
36.7022855138
 30
0.0
 10
175.2686430824
 20
36.5310783746
 30
0.0
 10
174.7241034944
 20
36.5028985507
 30
0.0
 10
174.4519973809
 20
36.5028985507
 30
0.0
  0
SPLINE
  5
2A7
100
AcDbEntity
  8
0
100
AcDbSpline
 62
7
  6
BYLAYER
 70
0
 71
3
 72
13
 73
9
 74
0
 42
0.0000001
 43
0.0000001
 44
0.0000000001
 40
0.0
 40
0.0
 40
0.0
 40
0.0
 40
0.1247233722
 40
0.2496106393
 40
0.374670436
 40
0.4998362145
 40
0.7497177601
 40
1.0
 40
1.0
 40
1.0
 40
1.0
 10
166.9950080515
 20
38.0028985507
 30
0.0
 10
166.9950080515
 20
37.8672996347
 30
0.0
 10
167.0491867575
 20
37.5934449901
 30
0.0
 10
167.2673754087
 20
37.2413810099
 30
0.0
 10
167.5750494025
 20
36.9669935111
 30
0.0
 10
168.0537842295
 20
36.7022856437
 30
0.0
 10
168.7213727763
 20
36.5310783824
 30
0.0
 10
169.2659125417
 20
36.5028985507
 30
0.0
 10
169.5380187222
 20
36.5028985507
 30
0.0
  0
ENDSEC
  0
SECTION
  2
OBJECTS
  0
DICTIONARY
  5
C
100
AcDbDictionary
280
0
281
1
  3
ACAD_GROUP
350
D
  3
ACAD_MLINESTYLE
350
17
  3
ACAD_LAYOUT
350
1A
  3
ACAD_PLOTSETTINGS
350
19
  3
ACAD_PLOTSTYLENAME
350
E
  0
DICTIONARY
  5
D
102
{ACAD_REACTORS
330
C
102
}
100
AcDbDictionary
280
0
281
1
  0
ACDBDICTIONARYWDFLT
  5
E
102
{ACAD_REACTORS
330
C
102
}
100
AcDbDictionary
281
1
  3
Normal
350
F
100
AcDbDictionaryWithDefault
340
F
  0
DICTIONARY
  5
17
102
{ACAD_REACTORS
330
C
102
}
100
AcDbDictionary
280
0
281
1
  3
Standard
350
18
  0
DICTIONARY
  5
19
102
{ACAD_REACTORS
330
C
102
}
100
AcDbDictionary
281
1
  0
DICTIONARY
  5
1A
102
{ACAD_REACTORS
330
C
102
}
100
AcDbDictionary
281
1
  3
Model
350
2A8
  3
Layout1
350
2A9
  0
ACDBPLACEHOLDER
  5
F
102
{ACAD_REACTORS
330
E
102
}
  0
MLINESTYLE
  5
18
102
{ACAD_REACTORS
330
17
102
}
100
AcDbMlineStyle
  2
STANDARD
 70
0
  3

 62
256
 51
90.0
 52
90.0
 71
2
 49
0.5
 62
256
  6
BYLAYER
 49
-0.5
 62
256
  6
BYLAYER
  0
LAYOUT
  5
2A8
102
{ACAD_REACTORS
330
1A
102
}
100
AcDbPlotSettings
  1

  2
none_device
  4

  6

 40
0.0
 41
0.0
 42
0.0
 43
0.0
 44
210.0
 45
297.0
 46
0.0
 47
0.0
 48
0.0
 49
0.0
140
0.0
141
0.0
142
1.0
143
1.0
 70
1024
 72
1
 73
0
 74
0
  7

 75
0
147
1.0
148
0.0
149
0.0
100
AcDbLayout
  1
Model
 70
0
 71
0
 10
0.0
 20
0.0
 11
210.0
 21
297.0
 12
0.0
 22
0.0
 32
0.0
 14
0.0
 24
0.0
 34
0.0
 15
0.0
 25
0.0
 35
0.0
146
0.0
 13
0.0
 23
0.0
 33
0.0
 16
1.0
 26
0.0
 36
0.0
 17
0.0
 27
1.0
 37
0.0
 76
0
330
210
345
0
346
0
  0
LAYOUT
  5
2A9
102
{ACAD_REACTORS
330
1A
102
}
100
AcDbPlotSettings
  1

  2
none_device
  4

  6

 40
0.0
 41
0.0
 42
0.0
 43
0.0
 44
210.0
 45
297.0
 46
0.0
 47
0.0
 48
0.0
 49
0.0
140
0.0
141
0.0
142
1.0
143
1.0
 70
0
 72
1
 73
0
 74
0
  7

 75
0
147
1.0
148
0.0
149
0.0
100
AcDbLayout
  1
Layout1
 70
0
 71
1
 10
0.0
 20
0.0
 11
210.0
 21
297.0
 12
0.0
 22
0.0
 32
0.0
 14
0.0
 24
0.0
 34
0.0
 15
0.0
 25
0.0
 35
0.0
146
0.0
 13
0.0
 23
0.0
 33
0.0
 16
1.0
 26
0.0
 36
0.0
 17
0.0
 27
1.0
 37
0.0
 76
0
330
211
345
0
346
0
  0
ENDSEC
  0
EOF
