999
DXF file: C:\Users\sesa63760\Dev\_Creo\CAD\MCADID0005084_3D-CAD\drw0001_5.dxf
999
Pro/ENGINEER 2019471 by Parametric Technology Corporation
  0
SECTION
  2
HEADER
  9
$ACADVER
  1
AC1024
  9
$DWGCODEPAGE
  3
ANSI_1252
  9
$EXTMAX
 10
85.5796437925
 20
121.0340676494
 30
0.0
  9
$EXTMIN
 10
0.0
 20
0.0
 30
0.0
  9
$LIMMIN
 10
0.0
 20
0.0
  9
$LIMMAX
 10
85.5796437925
 20
121.0340676494
  9
$VIEWCTR
 10
42.7898218963
 20
60.5170338247
  9
$VIEWSIZE
 40
121.0340676494
  9
$CLAYER
  8
0
  9
$LTSCALE
 40
7.8896281134
  9
$CELTYPE
  6
BYLAYER
  9
$DIMSCALE
 40
1.0
  9
$DIMASZ
 40
1.0188052832
  9
$DIMEXO
 40
1.0
  9
$DIMDLI
 40
5.4510157875
  9
$DIMEXE
 40
1.0
  9
$DIMCEN
 40
1.2910300549
  9
$DIMLFAC
 40
1.0
  9
$DIMBLK
  1
_FILLED
  9
$DIMALT
 70
0
  9
$DIMALTF
 40
0.0393700787
  9
$DIMTXT
 40
1.4263273965
  9
$DIMTOL
 70
1
  9
$DIMLIM
 70
0
  9
$DIMTFAC
 40
1.0
  9
$DIMTP
 40
0.01
  9
$DIMTM
 40
0.01
  9
$DIMGAP
 40
0.625
  9
$DIMDSEP
 70
46
  9
$AUNITS
 70
0
  9
$PDMODE
 70
3
  9
$PDSIZE
 40
0.3125
  9
$HANDSEED
  5
23B
  9
$TILEMODE
 70
1
  9
$MEASUREMENT
 70
1
  9
$INSUNITS
 70
4
  0
ENDSEC
  0
SECTION
  2
CLASSES
  0
CLASS
  1
ACDBDICTIONARYWDFLT
  2
AcDbDictionaryWithDefault
  3
AutoCAD 2000
 90
0
 91
1
280
0
281
0
  0
CLASS
  1
ACDBPLACEHOLDER
  2
AcDbPlaceHolder
  3
AutoCAD 2000
 90
0
 91
1
280
0
281
0
  0
CLASS
  1
LAYOUT
  2
AcDbLayout
  3
AutoCAD 2000
 90
0
 91
0
280
0
281
0
  0
ENDSEC
  0
SECTION
  2
TABLES
  0
TABLE
  2
VPORT
  5
8
100
AcDbSymbolTable
 70
2
  0
VPORT
  5
1F4
100
AcDbSymbolTableRecord
100
AcDbViewportTableRecord
  2
*ACTIVE
 70
0
 10
0.0
 20
0.0
 11
1.0
 21
1.0
 12
42.7898218963
 22
60.5170338247
 13
0.0
 23
0.0
 14
1.0
 24
1.0
 15
0.0
 25
0.0
 16
0.0
 26
0.0
 36
1.0
 17
0.0
 27
0.0
 37
0.0
 40
121.0340676494
 41
0.7070707071
 42
50.0
 43
0.0
 44
0.0
 50
0.0
 51
0.0
 71
0
 72
100
 73
1
 74
1
 75
0
 76
0
 77
0
 78
0
  0
ENDTAB
  0
TABLE
  2
LTYPE
  5
5
100
AcDbSymbolTable
 70
6
  0
LTYPE
  5
14
100
AcDbSymbolTableRecord
100
AcDbLinetypeTableRecord
  2
BYBLOCK
 70
0
  3

 72
65
 73
0
 40
0.0
  0
LTYPE
  5
15
100
AcDbSymbolTableRecord
100
AcDbLinetypeTableRecord
  2
BYLAYER
 70
0
  3

 72
65
 73
0
 40
0.0
  0
LTYPE
  5
16
100
AcDbSymbolTableRecord
100
AcDbLinetypeTableRecord
  2
CONTINUOUS
 70
64
  3
Solid line
 72
65
 73
0
 40
0.0
  0
LTYPE
  5
1F5
100
AcDbSymbolTableRecord
100
AcDbLinetypeTableRecord
  2
CENTER
 70
64
  3
____ _ ____ _ ____ _ ____ _ ____ _ ____ _ ____
 72
65
 73
4
 40
0.6
 49
0.375
 74
0
 49
-0.075
 74
0
 49
0.075
 74
0
 49
-0.075
 74
0
  0
LTYPE
  5
1F6
100
AcDbSymbolTableRecord
100
AcDbLinetypeTableRecord
  2
HIDDEN
 70
64
  3
- - - - - - - - - - - - - - - - - - - -
 72
65
 73
2
 40
0.2
 49
0.1
 74
0
 49
-0.1
 74
0
  0
LTYPE
  5
1F7
100
AcDbSymbolTableRecord
100
AcDbLinetypeTableRecord
  2
PHANTOM
 70
64
  3
_____ _ _ _____ _ _ _____ _ _ _____
 72
65
 73
6
 40
0.8
 49
0.45
 74
0
 49
-0.05
 74
0
 49
0.1
 74
0
 49
-0.05
 74
0
 49
0.1
 74
0
 49
-0.05
 74
0
  0
LTYPE
  5
1F8
100
AcDbSymbolTableRecord
100
AcDbLinetypeTableRecord
  2
DOT
 70
64
  3
. . . . . . . . . . . . . . . . . . . .
 72
65
 73
2
 40
0.2
 49
0.1
 74
0
 49
-0.1
 74
0
  0
LTYPE
  5
1F9
100
AcDbSymbolTableRecord
100
AcDbLinetypeTableRecord
  2
DASHED
 70
64
  3
- - - - - - - - - - - - - - - - - - - -
 72
65
 73
2
 40
0.2
 49
0.1
 74
0
 49
-0.1
 74
0
  0
ENDTAB
  0
TABLE
  2
LAYER
  5
2
100
AcDbSymbolTable
 70
36
  0
LAYER
  5
10
100
AcDbSymbolTableRecord
100
AcDbLayerTableRecord
  2
0
 70
0
 62
7
  6
CONTINUOUS
370
-3
390
F
  0
LAYER
  5
1FA
100
AcDbSymbolTableRecord
100
AcDbLayerTableRecord
  2
DEFAULT_1
 70
0
 62
7
  6
CENTER
370
-3
390
F
  0
LAYER
  5
1FB
100
AcDbSymbolTableRecord
100
AcDbLayerTableRecord
  2
DEFAULT_2
 70
0
 62
7
  6
HIDDEN
370
-3
390
F
  0
LAYER
  5
1FC
100
AcDbSymbolTableRecord
100
AcDbLayerTableRecord
  2
DEFAULT_3
 70
0
 62
7
  6
PHANTOM
370
-3
390
F
  0
LAYER
  5
1FD
100
AcDbSymbolTableRecord
100
AcDbLayerTableRecord
  2
00_COMPONENTS
 70
0
 62
7
  6
CONTINUOUS
370
-3
390
F
  0
LAYER
  5
1FE
100
AcDbSymbolTableRecord
100
AcDbLayerTableRecord
  2
01_1_DEFAULT_DATUMS
 70
0
 62
7
  6
CONTINUOUS
370
-3
390
F
  0
LAYER
  5
1FF
100
AcDbSymbolTableRecord
100
AcDbLayerTableRecord
  2
01_PLANES
 70
0
 62
7
  6
CONTINUOUS
370
-3
390
F
  0
LAYER
  5
200
100
AcDbSymbolTableRecord
100
AcDbLayerTableRecord
  2
02_COORD_SYS
 70
0
 62
7
  6
CONTINUOUS
370
-3
390
F
  0
LAYER
  5
201
100
AcDbSymbolTableRecord
100
AcDbLayerTableRecord
  2
03_AXES
 70
0
 62
7
  6
CONTINUOUS
370
-3
390
F
  0
LAYER
  5
202
100
AcDbSymbolTableRecord
100
AcDbLayerTableRecord
  2
04_POINTS
 70
0
 62
7
  6
CONTINUOUS
370
-3
390
F
  0
LAYER
  5
203
100
AcDbSymbolTableRecord
100
AcDbLayerTableRecord
  2
05_CURVES
 70
0
 62
7
  6
CONTINUOUS
370
-3
390
F
  0
LAYER
  5
204
100
AcDbSymbolTableRecord
100
AcDbLayerTableRecord
  2
06_SURFS
 70
0
 62
7
  6
CONTINUOUS
370
-3
390
F
  0
LAYER
  5
205
100
AcDbSymbolTableRecord
100
AcDbLayerTableRecord
  2
07_COSMETICS
 70
0
 62
7
  6
CONTINUOUS
370
-3
390
F
  0
LAYER
  5
206
100
AcDbSymbolTableRecord
100
AcDbLayerTableRecord
  2
10_NOTES
 70
0
 62
7
  6
CONTINUOUS
370
-3
390
F
  0
LAYER
  5
207
100
AcDbSymbolTableRecord
100
AcDbLayerTableRecord
  2
11_NOTES_PUB
 70
0
 62
7
  6
CONTINUOUS
370
-3
390
F
  0
LAYER
  5
208
100
AcDbSymbolTableRecord
100
AcDbLayerTableRecord
  2
13_REF_GTOL
 70
0
 62
7
  6
CONTINUOUS
370
-3
390
F
  0
LAYER
  5
209
100
AcDbSymbolTableRecord
100
AcDbLayerTableRecord
  2
16_MISC
 70
0
 62
7
  6
CONTINUOUS
370
-3
390
F
  0
LAYER
  5
20A
100
AcDbSymbolTableRecord
100
AcDbLayerTableRecord
  2
17_NO_PRINT
 70
0
 62
7
  6
CONTINUOUS
370
-3
390
F
  0
LAYER
  5
20B
100
AcDbSymbolTableRecord
100
AcDbLayerTableRecord
  2
18_DATUM_CAMS_JOINTS
 70
0
 62
7
  6
CONTINUOUS
370
-3
390
F
  0
LAYER
  5
20C
100
AcDbSymbolTableRecord
100
AcDbLayerTableRecord
  2
19_DATUM_FUNCTIONAL
 70
0
 62
7
  6
CONTINUOUS
370
-3
390
F
  0
LAYER
  5
20D
100
AcDbSymbolTableRecord
100
AcDbLayerTableRecord
  2
20_DATUM_KINEMATIC_SCHEME
 70
0
 62
7
  6
CONTINUOUS
370
-3
390
F
  0
ENDTAB
  0
TABLE
  2
STYLE
  5
3
100
AcDbSymbolTable
 70
1
  0
STYLE
  5
11
100
AcDbSymbolTableRecord
100
AcDbTextStyleTableRecord
  2
STANDARD
 70
0
 40
0.0
 41
1.0
 50
0.0
 71
0
 42
0.2
  3
ARIAL.TTF
  4

  0
STYLE
  5
20E
100
AcDbSymbolTableRecord
100
AcDbTextStyleTableRecord
  2
TEXTSTYLE_1
 70
0
 40
0.0
 41
0.8
 50
0.0
 71
0
 42
0.2
  3
gdt
  4

  0
ENDTAB
  0
TABLE
  2
VIEW
  5
6
100
AcDbSymbolTable
 70
0
  0
ENDTAB
  0
TABLE
  2
UCS
  5
7
100
AcDbSymbolTable
 70
0
  0
ENDTAB
  0
TABLE
  2
APPID
  5
9
100
AcDbSymbolTable
 70
1
  0
APPID
  5
20F
100
AcDbSymbolTableRecord
100
AcDbRegAppTableRecord
  2
ACAD
 70
0
  0
ENDTAB
  0
TABLE
  2
BLOCK_RECORD
  5
1
100
AcDbSymbolTable
 70
0
  0
BLOCK_RECORD
  5
210
100
AcDbSymbolTableRecord
100
AcDbBlockTableRecord
  2
*Model_Space
  0
BLOCK_RECORD
  5
211
100
AcDbSymbolTableRecord
100
AcDbBlockTableRecord
  2
*Paper_Space
  0
BLOCK_RECORD
  5
212
100
AcDbSymbolTableRecord
100
AcDbBlockTableRecord
  2
_FILLED
  0
ENDTAB
  0
TABLE
  2
DIMSTYLE
  5
A
100
AcDbSymbolTable
 70
1
100
AcDbDimStyleTable
 71
0
  0
DIMSTYLE
105
213
100
AcDbSymbolTableRecord
100
AcDbDimStyleTableRecord
  2
STANDARD
 70
0
  3

  4

 40
1.0
 41
1.0188052832
 42
1.0
 43
0.38
 44
1.0
 45
0.0
 46
0.0
 47
0.01
 48
0.01
140
1.4263273965
141
0.09
142
0.0
143
25.4
144
1.0
145
0.0
146
1.0
147
0.625
 71
1
 72
0
 73
0
 74
0
 75
0
 76
0
 77
1
 78
8
 79
2
170
0
171
1
172
0
173
0
174
0
175
0
176
0
177
0
178
0
270
2
179
2
271
2
272
2
273
2
274
2
275
0
280
0
281
0
282
0
283
1
284
8
285
0
286
0
287
3
288
0
340
11
278
46
341
212
342
212
343
212
344
212
  0
ENDTAB
  0
ENDSEC
  0
SECTION
  2
BLOCKS
  0
BLOCK
  5
20
100
AcDbEntity
  8
0
100
AcDbBlockBegin
  2
*Model_Space
 70
0
 10
0.0
 20
0.0
 30
0.0
  3
*Model_Space
  1

  0
ENDBLK
  5
21
100
AcDbEntity
  8
0
100
AcDbBlockEnd
  0
BLOCK
  5
1C
100
AcDbEntity
  8
0
100
AcDbBlockBegin
  2
*Paper_Space
 70
0
 10
0.0
 20
0.0
 30
0.0
  3
*Paper_Space
  1

  0
ENDBLK
  5
1D
100
AcDbEntity
  8
0
100
AcDbBlockEnd
  0
BLOCK
  5
214
100
AcDbEntity
  8
0
100
AcDbBlockBegin
  2
_FILLED
 70
64
 10
0.0
 20
0.0
  3
_FILLED
  1

  0
SOLID
  5
215
100
AcDbEntity
  8
0
  6
BYBLOCK
 62
0
100
AcDbTrace
 10
0.0
 20
0.0
 11
-1.0
 21
0.25
 12
-1.0
 22
-0.25
 13
-1.0
 23
-0.25
  0
ENDBLK
  5
216
100
AcDbEntity
  8
0
  6
BYBLOCK
 62
0
100
AcDbBlockEnd
  0
ENDSEC
  0
SECTION
  2
ENTITIES
  0
LINE
  5
217
100
AcDbEntity
  8
0
100
AcDbLine
 62
7
  6
BYLAYER
 10
10.3823825581
 20
84.2414729884
 11
16.2258121235
 21
87.6151783384
  0
LINE
  5
218
100
AcDbEntity
  8
0
100
AcDbLine
 62
7
  6
BYLAYER
 10
10.7012378437
 20
35.662833958
 11
9.9758121235
 21
63.4335925868
  0
LINE
  5
219
100
AcDbEntity
  8
0
100
AcDbLine
 62
7
  6
BYLAYER
 10
10.095957004
 20
58.834204414
 11
10.095957004
 21
69.5824910124
  0
LINE
  5
21A
100
AcDbEntity
  8
0
100
AcDbLine
 62
7
  6
BYLAYER
 10
10.3467864987
 20
82.4197012018
 11
10.3467864987
 21
49.2319458255
  0
LINE
  5
21B
100
AcDbEntity
  8
0
100
AcDbLine
 62
7
  6
BYLAYER
 10
10.9639649248
 20
34.7230739847
 11
10.9639649248
 21
84.5772496963
  0
LINE
  5
21C
100
AcDbEntity
  8
0
100
AcDbLine
 62
7
  6
BYLAYER
 10
9.9758121235
 20
63.4335925868
 11
10.3823825581
 21
84.2414729884
  0
LINE
  5
21D
100
AcDbEntity
  8
0
100
AcDbLine
 62
7
  6
BYLAYER
 10
12.6346532113
 20
33.7171247693
 11
12.6346532113
 21
85.5418219474
  0
LINE
  5
21E
100
AcDbEntity
  8
0
100
AcDbLine
 62
7
  6
BYLAYER
 10
27.4758629851
 20
33.7171514323
 11
12.6122133529
 21
33.7171234368
  0
LINE
  5
21F
100
AcDbEntity
  8
0
100
AcDbLine
 62
7
  6
BYLAYER
 10
27.4758629851
 20
34.2151783384
 11
60.4758629851
 21
34.2151783384
  0
LINE
  5
220
100
AcDbEntity
  8
0
100
AcDbLine
 62
7
  6
BYLAYER
 10
75.3506977123
 20
33.7171220936
 11
56.2260402165
 21
33.7151783384
  0
LINE
  5
221
100
AcDbEntity
  8
0
100
AcDbLine
 62
7
  6
BYLAYER
 10
73.2635468899
 20
35.6628244087
 11
14.6880756504
 21
35.6628244087
  0
LINE
  5
222
100
AcDbEntity
  8
0
100
AcDbLine
 62
7
  6
BYLAYER
 10
27.4758629851
 20
34.2151783384
 11
27.4758629851
 21
33.7171514323
  0
LINE
  5
223
100
AcDbEntity
  8
0
100
AcDbLine
 62
7
  6
BYLAYER
 10
70.9676740816
 20
59.7151783384
 11
16.9832300171
 21
59.7151783384
  0
LINE
  5
224
100
AcDbEntity
  8
0
100
AcDbLine
 62
7
  6
BYLAYER
 10
56.2258121235
 20
34.2151783384
 11
56.2258121235
 21
33.7151783384
  0
LINE
  5
225
100
AcDbEntity
  8
0
100
AcDbLine
 62
7
  6
BYLAYER
 10
60.4758629851
 20
33.7171514323
 11
60.4758629851
 21
34.2151783384
  0
LINE
  5
226
100
AcDbEntity
  8
0
100
AcDbLine
 62
7
  6
BYLAYER
 10
73.3429962931
 20
85.6106744552
 11
14.6086264682
 21
85.6106744552
  0
LINE
  5
227
100
AcDbEntity
  8
0
100
AcDbLine
 62
7
  6
BYLAYER
 10
71.7258121235
 20
87.6151783384
 11
16.2258121235
 21
87.6151783384
  0
LINE
  5
228
100
AcDbEntity
  8
0
100
AcDbLine
 62
7
  6
BYLAYER
 10
75.3169743086
 20
33.7171389384
 11
75.3169743086
 21
85.5418200578
  0
LINE
  5
229
100
AcDbEntity
  8
0
100
AcDbLine
 62
7
  6
BYLAYER
 10
77.5692416889
 20
84.2414729884
 11
77.9741412861
 21
63.3067863277
  0
LINE
  5
22A
100
AcDbEntity
  8
0
100
AcDbLine
 62
7
  6
BYLAYER
 10
76.9876618242
 20
34.7230440599
 11
76.9876618242
 21
84.5772482518
  0
LINE
  5
22B
100
AcDbEntity
  8
0
100
AcDbLine
 62
7
  6
BYLAYER
 10
77.6048398929
 20
49.2012509225
 11
77.6048398929
 21
82.4009247375
  0
LINE
  5
22C
100
AcDbEntity
  8
0
100
AcDbLine
 62
7
  6
BYLAYER
 10
77.8556692233
 20
69.4321950232
 11
77.8556692233
 21
58.7817238519
  0
LINE
  5
22D
100
AcDbEntity
  8
0
100
AcDbLine
 62
7
  6
BYLAYER
 10
77.2503864033
 20
35.662833958
 11
77.9741412861
 21
63.3067863277
  0
LINE
  5
22E
100
AcDbEntity
  8
0
100
AcDbLine
 62
7
  6
BYLAYER
 10
71.7258121235
 20
87.6151783384
 11
77.5692416889
 21
84.2414729884
  0
ARC
  5
22F
100
AcDbEntity
  8
0
100
AcDbCircle
 62
7
  6
BYLAYER
 10
75.2503183479
 20
35.7153496865
 40
2.0007573886
100
AcDbArc
 50
272.8757877108
 51
358.4959319753
  0
ARC
  5
230
100
AcDbEntity
  8
0
100
AcDbCircle
 62
7
  6
BYLAYER
 10
12.700564828
 20
35.7151832083
 40
2.0000122084
100
AcDbArc
 50
181.4998576912
 51
267.4681103817
  0
SPLINE
  5
231
100
AcDbEntity
  8
0
100
AcDbSpline
 62
7
  6
BYLAYER
 70
0
 71
3
 72
37
 73
33
 74
0
 42
0.0000001
 43
0.0000001
 44
0.0000000001
 40
0.0
 40
0.0
 40
0.0
 40
0.0
 40
0.1250008318
 40
0.2500016455
 40
0.3125020996
 40
0.3750025563
 40
0.4375030147
 40
0.5000034731
 40
0.5625039272
 40
0.6250043671
 40
0.6875047695
 40
0.7187550397
 40
0.7500053108
 40
0.7812555788
 40
0.8125058335
 40
0.8437560521
 40
0.8750061727
 40
0.8906313521
 40
0.9062565215
 40
0.9218816544
 40
0.9375066878
 40
0.953131408
 40
0.9687548506
 40
0.976567045
 40
0.9804734603
 40
0.9843798092
 40
0.9882859308
 40
0.9921909314
 40
0.9941447012
 40
0.996098378
 40
0.9980511926
 40
1.0
 40
1.0
 40
1.0
 40
1.0
 10
14.6880756504
 20
35.6628244087
 30
0.0
 10
14.7326968437
 20
36.674037001
 30
0.0
 10
14.825435663
 20
38.6963098836
 30
0.0
 10
14.9518759235
 20
41.2236507273
 30
0.0
 10
15.0608908738
 20
43.2451093968
 30
0.0
 10
15.1471219611
 20
44.7609571086
 30
0.0
 10
15.2384724023
 20
46.276505756
 30
0.0
 10
15.3357824865
 20
47.7916845896
 30
0.0
 10
15.4401580515
 20
49.3063952342
 30
0.0
 10
15.5531178298
 20
50.8204917748
 30
0.0
 10
15.6561903363
 20
52.0815486915
 30
0.0
 10
15.7456893198
 20
53.0897856079
 30
0.0
 10
15.8169544029
 20
53.84558673
 30
0.0
 10
15.8931455076
 20
54.6009087773
 30
0.0
 10
15.9753464807
 20
55.3556041004
 30
0.0
 10
16.065118552
 20
56.1094390535
 30
0.0
 10
16.1481806358
 20
56.7366153018
 30
0.0
 10
16.22160066
 20
57.2373684517
 30
0.0
 10
16.2809701424
 20
57.6122827067
 30
0.0
 10
16.3457730446
 20
57.9862995877
 30
0.0
 10
16.417721835
 20
58.3590254908
 30
0.0
 10
16.499750285
 20
58.7296594139
 30
0.0
 10
16.5808140369
 20
59.0355896285
 30
0.0
 10
16.6500776691
 20
59.2459946628
 30
0.0
 10
16.6954051656
 20
59.3641474846
 30
0.0
 10
16.7332224731
 20
59.4512318313
 30
0.0
 10
16.7763303308
 20
59.5358217915
 30
0.0
 10
16.8188691922
 20
59.6027884417
 30
0.0
 10
16.8595260355
 20
59.6514074312
 30
0.0
 10
16.8946243408
 20
59.683625755
 30
0.0
 10
16.9356501823
 20
59.7083746559
 30
0.0
 10
16.9674495843
 20
59.7151305498
 30
0.0
 10
16.9832300171
 20
59.7151783384
 30
0.0
  0
SPLINE
  5
232
100
AcDbEntity
  8
0
100
AcDbSpline
 62
7
  6
BYLAYER
 70
0
 71
3
 72
17
 73
13
 74
0
 42
0.0000001
 43
0.0000001
 44
0.0000000001
 40
0.0
 40
0.0
 40
0.0
 40
0.0
 40
0.0792024683
 40
0.1574088347
 40
0.2341550758
 40
0.3091982623
 40
0.4535190625
 40
0.5891867744
 40
0.7142670766
 40
0.8262008468
 40
0.9221075517
 40
1.0
 40
1.0
 40
1.0
 40
1.0
 10
14.688063887
 20
35.6628244087
 30
0.0
 10
14.6848500222
 20
35.5900950923
 30
0.0
 10
14.6649971416
 20
35.4458496265
 30
0.0
 10
14.6003422623
 20
35.2397572133
 30
0.0
 10
14.5103179797
 20
35.0479111859
 30
0.0
 10
14.3691851936
 20
34.8147645495
 30
0.0
 10
14.167085034
 20
34.5571221761
 30
0.0
 10
13.9060789417
 20
34.2908651194
 30
0.0
 10
13.6446269656
 20
34.0688669275
 30
0.0
 10
13.392997772
 20
33.8934897133
 30
0.0
 10
13.1604585982
 20
33.7704628025
 30
0.0
 10
13.0049478044
 20
33.7236712736
 30
0.0
 10
12.9336491201
 20
33.7171514323
 30
0.0
  0
SPLINE
  5
233
100
AcDbEntity
  8
0
100
AcDbSpline
 62
7
  6
BYLAYER
 70
0
 71
3
 72
17
 73
13
 74
0
 42
0.0000001
 43
0.0000001
 44
0.0000000001
 40
0.0
 40
0.0
 40
0.0
 40
0.0
 40
0.0778924849
 40
0.173799213
 40
0.2857329691
 40
0.4108132754
 40
0.5464809893
 40
0.6908017466
 40
0.7658449292
 40
0.8425911586
 40
0.92079755
 40
1.0
 40
1.0
 40
1.0
 40
1.0
 10
75.0179768844
 20
33.7171514323
 30
0.0
 10
74.9466781035
 20
33.7236712708
 30
0.0
 10
74.7911671037
 20
33.77046277
 30
0.0
 10
74.5586275952
 20
33.8934896305
 30
0.0
 10
74.3069980337
 20
34.068866801
 30
0.0
 10
74.045545602
 20
34.2908649027
 30
0.0
 10
73.7845390098
 20
34.5571218796
 30
0.0
 10
73.5824384397
 20
34.8147642357
 30
0.0
 10
73.4413052339
 20
35.0479108305
 30
0.0
 10
73.3512806174
 20
35.2397569177
 30
0.0
 10
73.2866255049
 20
35.4458494542
 30
0.0
 10
73.2667725292
 20
35.5900950462
 30
0.0
 10
73.2635586532
 20
35.6628244087
 30
0.0
  0
SPLINE
  5
234
100
AcDbEntity
  8
0
100
AcDbSpline
 62
7
  6
BYLAYER
 70
0
 71
3
 72
37
 73
33
 74
0
 42
0.0000001
 43
0.0000001
 44
0.0000000001
 40
0.0
 40
0.0
 40
0.0
 40
0.0
 40
0.1250011504
 40
0.2500022837
 40
0.3125028946
 40
0.3750035079
 40
0.4375041226
 40
0.5000047373
 40
0.5625053477
 40
0.6250059449
 40
0.6875065069
 40
0.7187568521
 40
0.7500071982
 40
0.7812575409
 40
0.8125078716
 40
0.8437581683
 40
0.8750083734
 40
0.8906335865
 40
0.9062587895
 40
0.9218839595
 40
0.9375090362
 40
0.9531338196
 40
0.9687574249
 40
0.9765696511
 40
0.980476055
 40
0.9843824015
 40
0.9882884792
 40
0.9921935366
 40
0.994147104
 40
0.996100682
 40
0.9980524849
 40
1.0
 40
1.0
 40
1.0
 40
1.0
 10
73.3429962931
 20
85.6106744552
 30
0.0
 10
73.2971662104
 20
84.5225476975
 30
0.0
 10
73.2018499903
 20
82.3464461572
 30
0.0
 10
73.07171968
 20
79.6268186435
 30
0.0
 10
72.9594129187
 20
77.4515299943
 30
0.0
 10
72.8705227303
 20
75.8203093926
 30
0.0
 10
72.7762984961
 20
74.1893873758
 30
0.0
 10
72.6758687101
 20
72.5588345534
 30
0.0
 10
72.5680860431
 20
70.9287491304
 30
0.0
 10
72.451376142
 20
69.2992766819
 30
0.0
 10
72.3448270887
 20
67.9420717979
 30
0.0
 10
72.2522750663
 20
66.8569151808
 30
0.0
 10
72.1785623915
 20
66.0434233491
 30
0.0
 10
72.0997369664
 20
65.2304094011
 30
0.0
 10
72.0146774364
 20
64.4180203657
 30
0.0
 10
71.921766995
 20
63.6064890091
 30
0.0
 10
71.8357883014
 20
62.9312289009
 30
0.0
 10
71.7597852124
 20
62.3920045463
 30
0.0
 10
71.698324921
 20
61.9882340162
 30
0.0
 10
71.6312400932
 20
61.5853563516
 30
0.0
 10
71.5567598342
 20
61.1837626786
 30
0.0
 10
71.4718497334
 20
60.7842482074
 30
0.0
 10
71.3879509437
 20
60.4542306145
 30
0.0
 10
71.3162683168
 20
60.2269341376
 30
0.0
 10
71.269349947
 20
60.0991130752
 30
0.0
 10
71.2301997178
 20
60.0047636278
 30
0.0
 10
71.1855307363
 20
59.9129025624
 30
0.0
 10
71.1414027812
 20
59.8398504671
 30
0.0
 10
71.0990286743
 20
59.786437353
 30
0.0
 10
71.0622788733
 20
59.7507051693
 30
0.0
 10
71.0188468965
 20
59.7229813474
 30
0.0
 10
70.9846408845
 20
59.7151253645
 30
0.0
 10
70.9676729468
 20
59.7151783384
 30
0.0
  0
SPLINE
  5
235
100
AcDbEntity
  8
0
100
AcDbSpline
 62
7
  6
BYLAYER
 70
0
 71
3
 72
37
 73
33
 74
0
 42
0.0000001
 43
0.0000001
 44
0.0000000001
 40
0.0
 40
0.0
 40
0.0
 40
0.0
 40
0.125000816
 40
0.2500016141
 40
0.3125020603
 40
0.3750025092
 40
0.4375029597
 40
0.5000034102
 40
0.5625038564
 40
0.6250042885
 40
0.687504683
 40
0.7187549493
 40
0.7500052164
 40
0.7812554805
 40
0.8125057312
 40
0.8437559458
 40
0.8750060624
 40
0.8906312398
 40
0.9062564072
 40
0.921881538
 40
0.9375065692
 40
0.9531312863
 40
0.9687547219
 40
0.976566913
 40
0.9804733276
 40
0.9843796744
 40
0.988285792
 40
0.9921907885
 40
0.9941444907
 40
0.9960983357
 40
0.9980507411
 40
1.0
 40
1.0
 40
1.0
 40
1.0
 10
73.2635468899
 20
35.6628244087
 30
0.0
 10
73.2189244281
 20
36.6740628537
 30
0.0
 10
73.1261828718
 20
38.6963874327
 30
0.0
 10
72.9997385264
 20
41.223792863
 30
0.0
 10
72.8907197457
 20
43.2453031685
 30
0.0
 10
72.8044854409
 20
44.7611895857
 30
0.0
 10
72.7131313544
 20
46.2767769097
 30
0.0
 10
72.6158170823
 20
47.7919943803
 30
0.0
 10
72.5114366126
 20
49.3067436056
 30
0.0
 10
72.3984709538
 20
50.8208786422
 30
0.0
 10
72.2953923818
 20
52.0819675294
 30
0.0
 10
72.2058874536
 20
53.0902299044
 30
0.0
 10
72.1346172031
 20
53.8460500395
 30
0.0
 10
72.0584199798
 20
54.6013909829
 30
0.0
 10
71.9762115853
 20
55.3561050293
 30
0.0
 10
71.8864301768
 20
56.1099584251
 30
0.0
 10
71.8033578501
 20
56.7371496536
 30
0.0
 10
71.7299270236
 20
57.2379143044
 30
0.0
 10
71.6705475954
 20
57.6128368207
 30
0.0
 10
71.6057320254
 20
57.9868613688
 30
0.0
 10
71.5337663437
 20
58.3595939357
 30
0.0
 10
71.4517134533
 20
58.7302324053
 30
0.0
 10
71.3706173417
 20
59.0361627553
 30
0.0
 10
71.301313267
 20
59.246560897
 30
0.0
 10
71.2559513438
 20
59.364703888
 30
0.0
 10
71.2180996903
 20
59.4517766815
 30
0.0
 10
71.1749412099
 20
59.5363421455
 30
0.0
 10
71.1323421858
 20
59.6032796111
 30
0.0
 10
71.0915959841
 20
59.6518213395
 30
0.0
 10
71.0564341115
 20
59.6839902451
 30
0.0
 10
71.0152665886
 20
59.708476973
 30
0.0
 10
70.9834585708
 20
59.7152276175
 30
0.0
 10
70.9676740816
 20
59.7151783384
 30
0.0
  0
SPLINE
  5
236
100
AcDbEntity
  8
0
100
AcDbSpline
 62
7
  6
BYLAYER
 70
0
 71
3
 72
37
 73
33
 74
0
 42
0.0000001
 43
0.0000001
 44
0.0000000001
 40
0.0
 40
0.0
 40
0.0
 40
0.0
 40
0.125001166
 40
0.2500023149
 40
0.3125029336
 40
0.3750035548
 40
0.4375041773
 40
0.5000047999
 40
0.5625054181
 40
0.6250060231
 40
0.6875065929
 40
0.718756942
 40
0.750007292
 40
0.7812576387
 40
0.8125079732
 40
0.8437582739
 40
0.8750084831
 40
0.8906336981
 40
0.9062589031
 40
0.9218840751
 40
0.9375091541
 40
0.9531339404
 40
0.9687575518
 40
0.9765697809
 40
0.9804761853
 40
0.9843825338
 40
0.9882886143
 40
0.992193674
 40
0.9941472948
 40
0.9961007294
 40
0.9980529559
 40
1.0
 40
1.0
 40
1.0
 40
1.0
 10
14.6086264682
 20
85.6106744552
 30
0.0
 10
14.654455334
 20
84.5225736452
 30
0.0
 10
14.7497689254
 20
82.346523992
 30
0.0
 10
14.8798953041
 20
79.6269613056
 30
0.0
 10
14.9921983741
 20
77.4517244872
 30
0.0
 10
15.0810854594
 20
75.8205427386
 30
0.0
 10
15.1753061758
 20
74.189659548
 30
0.0
 10
15.2757319181
 20
72.5591455151
 30
0.0
 10
15.3835098472
 20
70.9290988291
 30
0.0
 10
15.5002140659
 20
69.2996650387
 30
0.0
 10
15.6067572571
 20
67.9424922681
 30
0.0
 10
15.6993035346
 20
66.8573612322
 30
0.0
 10
15.7730112156
 20
66.0438885113
 30
0.0
 10
15.8518307279
 20
65.2308935653
 30
0.0
 10
15.9368830871
 20
64.4185233715
 30
0.0
 10
16.0297845113
 20
63.6070105964
 30
0.0
 10
16.1157533097
 20
62.9317656113
 30
0.0
 10
16.1917459821
 20
62.3925529092
 30
0.0
 10
16.2531966673
 20
61.9887907785
 30
0.0
 10
16.3202692809
 20
61.5859209654
 30
0.0
 10
16.3947332524
 20
61.1843342152
 30
0.0
 10
16.4796197941
 20
60.7848247114
 30
0.0
 10
16.5634874456
 20
60.4548078939
 30
0.0
 10
16.6351310913
 20
60.2275055167
 30
0.0
 10
16.6820162785
 20
60.0996756529
 30
0.0
 10
16.7211333877
 20
60.0053158006
 30
0.0
 10
16.7657530259
 20
59.913432124
 30
0.0
 10
16.8098224217
 20
59.8403534344
 30
0.0
 10
16.8521080872
 20
59.7868679454
 30
0.0
 10
16.8887928763
 20
59.7510879989
 30
0.0
 10
16.9320735882
 20
59.7231041595
 30
0.0
 10
16.9662654841
 20
59.7152297095
 30
0.0
 10
16.9832289161
 20
59.7151783384
 30
0.0
  0
ELLIPSE
  5
237
100
AcDbEntity
  8
0
100
AcDbEllipse
 62
7
  6
BYLAYER
 10
16.9835861595
 20
87.8161270577
 30
0.0
 11
4.4980548109
 21
-0.0
 31
0.0
 40
0.5773502692
 41
-2.4206483721
 42
-2.1270366602
  0
ELLIPSE
  5
238
100
AcDbEntity
  8
0
100
AcDbEllipse
 62
7
  6
BYLAYER
 10
70.9680412378
 20
87.8161287218
 30
0.0
 11
4.4980548109
 21
-0.0
 31
0.0
 40
0.5773502692
 41
-1.014557207
 42
-0.7209452318
  0
ENDSEC
  0
SECTION
  2
OBJECTS
  0
DICTIONARY
  5
C
100
AcDbDictionary
280
0
281
1
  3
ACAD_GROUP
350
D
  3
ACAD_MLINESTYLE
350
17
  3
ACAD_LAYOUT
350
1A
  3
ACAD_PLOTSETTINGS
350
19
  3
ACAD_PLOTSTYLENAME
350
E
  0
DICTIONARY
  5
D
102
{ACAD_REACTORS
330
C
102
}
100
AcDbDictionary
280
0
281
1
  0
ACDBDICTIONARYWDFLT
  5
E
102
{ACAD_REACTORS
330
C
102
}
100
AcDbDictionary
281
1
  3
Normal
350
F
100
AcDbDictionaryWithDefault
340
F
  0
DICTIONARY
  5
17
102
{ACAD_REACTORS
330
C
102
}
100
AcDbDictionary
280
0
281
1
  3
Standard
350
18
  0
DICTIONARY
  5
19
102
{ACAD_REACTORS
330
C
102
}
100
AcDbDictionary
281
1
  0
DICTIONARY
  5
1A
102
{ACAD_REACTORS
330
C
102
}
100
AcDbDictionary
281
1
  3
Model
350
239
  3
Layout1
350
23A
  0
ACDBPLACEHOLDER
  5
F
102
{ACAD_REACTORS
330
E
102
}
  0
MLINESTYLE
  5
18
102
{ACAD_REACTORS
330
17
102
}
100
AcDbMlineStyle
  2
STANDARD
 70
0
  3

 62
256
 51
90.0
 52
90.0
 71
2
 49
0.5
 62
256
  6
BYLAYER
 49
-0.5
 62
256
  6
BYLAYER
  0
LAYOUT
  5
239
102
{ACAD_REACTORS
330
1A
102
}
100
AcDbPlotSettings
  1

  2
none_device
  4

  6

 40
0.0
 41
0.0
 42
0.0
 43
0.0
 44
210.0
 45
297.0
 46
0.0
 47
0.0
 48
0.0
 49
0.0
140
0.0
141
0.0
142
1.0
143
1.0
 70
1024
 72
1
 73
0
 74
0
  7

 75
0
147
1.0
148
0.0
149
0.0
100
AcDbLayout
  1
Model
 70
0
 71
0
 10
0.0
 20
0.0
 11
210.0
 21
297.0
 12
0.0
 22
0.0
 32
0.0
 14
0.0
 24
0.0
 34
0.0
 15
0.0
 25
0.0
 35
0.0
146
0.0
 13
0.0
 23
0.0
 33
0.0
 16
1.0
 26
0.0
 36
0.0
 17
0.0
 27
1.0
 37
0.0
 76
0
330
210
345
0
346
0
  0
LAYOUT
  5
23A
102
{ACAD_REACTORS
330
1A
102
}
100
AcDbPlotSettings
  1

  2
none_device
  4

  6

 40
0.0
 41
0.0
 42
0.0
 43
0.0
 44
210.0
 45
297.0
 46
0.0
 47
0.0
 48
0.0
 49
0.0
140
0.0
141
0.0
142
1.0
143
1.0
 70
0
 72
1
 73
0
 74
0
  7

 75
0
147
1.0
148
0.0
149
0.0
100
AcDbLayout
  1
Layout1
 70
0
 71
1
 10
0.0
 20
0.0
 11
210.0
 21
297.0
 12
0.0
 22
0.0
 32
0.0
 14
0.0
 24
0.0
 34
0.0
 15
0.0
 25
0.0
 35
0.0
146
0.0
 13
0.0
 23
0.0
 33
0.0
 16
1.0
 26
0.0
 36
0.0
 17
0.0
 27
1.0
 37
0.0
 76
0
330
211
345
0
346
0
  0
ENDSEC
  0
EOF
