999
DXF file: C:\Users\sesa63760\Dev\_Creo\CAD\MCADID0000866_3D-CAD\drw0001_7.dxf
999
Pro/ENGINEER 2019471 by Parametric Technology Corporation
  0
SECTION
  2
HEADER
  9
$ACADVER
  1
AC1024
  9
$DWGCODEPAGE
  3
ANSI_1252
  9
$EXTMAX
 10
133.9906725902
 20
189.5010940919
 30
0.0
  9
$EXTMIN
 10
0.0
 20
0.0
 30
0.0
  9
$LIMMIN
 10
0.0
 20
0.0
  9
$LIMMAX
 10
133.9906725902
 20
189.5010940919
  9
$VIEWCTR
 10
66.9953362951
 20
94.750547046
  9
$VIEWSIZE
 40
189.5010940919
  9
$CLAYER
  8
0
  9
$LTSCALE
 40
12.3526639112
  9
$CELTYPE
  6
BYLAYER
  9
$DIMSCALE
 40
1.0
  9
$DIMASZ
 40
1.5951270546
  9
$DIMEXO
 40
1.0
  9
$DIMDLI
 40
8.5345677932
  9
$DIMEXE
 40
1.0
  9
$DIMCEN
 40
2.0213450036
  9
$DIMLFAC
 40
1.0
  9
$DIMBLK
  1
_FILLED
  9
$DIMALT
 70
0
  9
$DIMALTF
 40
0.0393700787
  9
$DIMTXT
 40
2.2331778765
  9
$DIMTOL
 70
1
  9
$DIMLIM
 70
0
  9
$DIMTFAC
 40
1.0
  9
$DIMTP
 40
0.01
  9
$DIMTM
 40
0.01
  9
$DIMGAP
 40
0.625
  9
$DIMDSEP
 70
46
  9
$AUNITS
 70
0
  9
$PDMODE
 70
3
  9
$PDSIZE
 40
0.3125
  9
$HANDSEED
  5
49D
  9
$TILEMODE
 70
1
  9
$MEASUREMENT
 70
1
  9
$INSUNITS
 70
4
  0
ENDSEC
  0
SECTION
  2
CLASSES
  0
CLASS
  1
ACDBDICTIONARYWDFLT
  2
AcDbDictionaryWithDefault
  3
AutoCAD 2000
 90
0
 91
1
280
0
281
0
  0
CLASS
  1
ACDBPLACEHOLDER
  2
AcDbPlaceHolder
  3
AutoCAD 2000
 90
0
 91
1
280
0
281
0
  0
CLASS
  1
LAYOUT
  2
AcDbLayout
  3
AutoCAD 2000
 90
0
 91
0
280
0
281
0
  0
ENDSEC
  0
SECTION
  2
TABLES
  0
TABLE
  2
VPORT
  5
8
100
AcDbSymbolTable
 70
2
  0
VPORT
  5
1F4
100
AcDbSymbolTableRecord
100
AcDbViewportTableRecord
  2
*ACTIVE
 70
0
 10
0.0
 20
0.0
 11
1.0
 21
1.0
 12
66.9953362951
 22
94.750547046
 13
0.0
 23
0.0
 14
1.0
 24
1.0
 15
0.0
 25
0.0
 16
0.0
 26
0.0
 36
1.0
 17
0.0
 27
0.0
 37
0.0
 40
189.5010940919
 41
0.7070707071
 42
50.0
 43
0.0
 44
0.0
 50
0.0
 51
0.0
 71
0
 72
100
 73
1
 74
1
 75
0
 76
0
 77
0
 78
0
  0
ENDTAB
  0
TABLE
  2
LTYPE
  5
5
100
AcDbSymbolTable
 70
6
  0
LTYPE
  5
14
100
AcDbSymbolTableRecord
100
AcDbLinetypeTableRecord
  2
BYBLOCK
 70
0
  3

 72
65
 73
0
 40
0.0
  0
LTYPE
  5
15
100
AcDbSymbolTableRecord
100
AcDbLinetypeTableRecord
  2
BYLAYER
 70
0
  3

 72
65
 73
0
 40
0.0
  0
LTYPE
  5
16
100
AcDbSymbolTableRecord
100
AcDbLinetypeTableRecord
  2
CONTINUOUS
 70
64
  3
Solid line
 72
65
 73
0
 40
0.0
  0
LTYPE
  5
1F5
100
AcDbSymbolTableRecord
100
AcDbLinetypeTableRecord
  2
CENTER
 70
64
  3
____ _ ____ _ ____ _ ____ _ ____ _ ____ _ ____
 72
65
 73
4
 40
0.6
 49
0.375
 74
0
 49
-0.075
 74
0
 49
0.075
 74
0
 49
-0.075
 74
0
  0
LTYPE
  5
1F6
100
AcDbSymbolTableRecord
100
AcDbLinetypeTableRecord
  2
HIDDEN
 70
64
  3
- - - - - - - - - - - - - - - - - - - -
 72
65
 73
2
 40
0.2
 49
0.1
 74
0
 49
-0.1
 74
0
  0
LTYPE
  5
1F7
100
AcDbSymbolTableRecord
100
AcDbLinetypeTableRecord
  2
PHANTOM
 70
64
  3
_____ _ _ _____ _ _ _____ _ _ _____
 72
65
 73
6
 40
0.8
 49
0.45
 74
0
 49
-0.05
 74
0
 49
0.1
 74
0
 49
-0.05
 74
0
 49
0.1
 74
0
 49
-0.05
 74
0
  0
LTYPE
  5
1F8
100
AcDbSymbolTableRecord
100
AcDbLinetypeTableRecord
  2
DOT
 70
64
  3
. . . . . . . . . . . . . . . . . . . .
 72
65
 73
2
 40
0.2
 49
0.1
 74
0
 49
-0.1
 74
0
  0
LTYPE
  5
1F9
100
AcDbSymbolTableRecord
100
AcDbLinetypeTableRecord
  2
DASHED
 70
64
  3
- - - - - - - - - - - - - - - - - - - -
 72
65
 73
2
 40
0.2
 49
0.1
 74
0
 49
-0.1
 74
0
  0
ENDTAB
  0
TABLE
  2
LAYER
  5
2
100
AcDbSymbolTable
 70
36
  0
LAYER
  5
10
100
AcDbSymbolTableRecord
100
AcDbLayerTableRecord
  2
0
 70
0
 62
7
  6
CONTINUOUS
370
-3
390
F
  0
LAYER
  5
1FA
100
AcDbSymbolTableRecord
100
AcDbLayerTableRecord
  2
DEFAULT_1
 70
0
 62
7
  6
CENTER
370
-3
390
F
  0
LAYER
  5
1FB
100
AcDbSymbolTableRecord
100
AcDbLayerTableRecord
  2
DEFAULT_2
 70
0
 62
8
  6
HIDDEN
370
-3
390
F
  0
LAYER
  5
1FC
100
AcDbSymbolTableRecord
100
AcDbLayerTableRecord
  2
DEFAULT_3
 70
0
 62
7
  6
PHANTOM
370
-3
390
F
  0
LAYER
  5
1FD
100
AcDbSymbolTableRecord
100
AcDbLayerTableRecord
  2
00_COMPONENTS
 70
0
 62
7
  6
CONTINUOUS
370
-3
390
F
  0
LAYER
  5
1FE
100
AcDbSymbolTableRecord
100
AcDbLayerTableRecord
  2
01_1_DEFAULT_DATUMS
 70
0
 62
7
  6
CONTINUOUS
370
-3
390
F
  0
LAYER
  5
1FF
100
AcDbSymbolTableRecord
100
AcDbLayerTableRecord
  2
01_PLANES
 70
0
 62
7
  6
CONTINUOUS
370
-3
390
F
  0
LAYER
  5
200
100
AcDbSymbolTableRecord
100
AcDbLayerTableRecord
  2
02_COORD_SYS
 70
0
 62
7
  6
CONTINUOUS
370
-3
390
F
  0
LAYER
  5
201
100
AcDbSymbolTableRecord
100
AcDbLayerTableRecord
  2
03_AXES
 70
0
 62
7
  6
CONTINUOUS
370
-3
390
F
  0
LAYER
  5
202
100
AcDbSymbolTableRecord
100
AcDbLayerTableRecord
  2
04_POINTS
 70
0
 62
7
  6
CONTINUOUS
370
-3
390
F
  0
LAYER
  5
203
100
AcDbSymbolTableRecord
100
AcDbLayerTableRecord
  2
05_CURVES
 70
0
 62
7
  6
CONTINUOUS
370
-3
390
F
  0
LAYER
  5
204
100
AcDbSymbolTableRecord
100
AcDbLayerTableRecord
  2
06_SURFS
 70
0
 62
7
  6
CONTINUOUS
370
-3
390
F
  0
LAYER
  5
205
100
AcDbSymbolTableRecord
100
AcDbLayerTableRecord
  2
07_COSMETICS
 70
0
 62
7
  6
CONTINUOUS
370
-3
390
F
  0
LAYER
  5
206
100
AcDbSymbolTableRecord
100
AcDbLayerTableRecord
  2
10_NOTES
 70
0
 62
7
  6
CONTINUOUS
370
-3
390
F
  0
LAYER
  5
207
100
AcDbSymbolTableRecord
100
AcDbLayerTableRecord
  2
11_NOTES_PUB
 70
0
 62
7
  6
CONTINUOUS
370
-3
390
F
  0
LAYER
  5
208
100
AcDbSymbolTableRecord
100
AcDbLayerTableRecord
  2
13_REF_GTOL
 70
0
 62
7
  6
CONTINUOUS
370
-3
390
F
  0
LAYER
  5
209
100
AcDbSymbolTableRecord
100
AcDbLayerTableRecord
  2
16_MISC
 70
0
 62
7
  6
CONTINUOUS
370
-3
390
F
  0
LAYER
  5
20A
100
AcDbSymbolTableRecord
100
AcDbLayerTableRecord
  2
17_NO_PRINT
 70
0
 62
7
  6
CONTINUOUS
370
-3
390
F
  0
LAYER
  5
20B
100
AcDbSymbolTableRecord
100
AcDbLayerTableRecord
  2
18_DATUM_CAMS_JOINTS
 70
0
 62
7
  6
CONTINUOUS
370
-3
390
F
  0
LAYER
  5
20C
100
AcDbSymbolTableRecord
100
AcDbLayerTableRecord
  2
19_DATUM_FUNCTIONAL
 70
0
 62
7
  6
CONTINUOUS
370
-3
390
F
  0
LAYER
  5
20D
100
AcDbSymbolTableRecord
100
AcDbLayerTableRecord
  2
20_DATUM_KINEMATIC_SCHEME
 70
0
 62
7
  6
CONTINUOUS
370
-3
390
F
  0
ENDTAB
  0
TABLE
  2
STYLE
  5
3
100
AcDbSymbolTable
 70
1
  0
STYLE
  5
11
100
AcDbSymbolTableRecord
100
AcDbTextStyleTableRecord
  2
STANDARD
 70
0
 40
0.0
 41
0.8
 50
0.0
 71
0
 42
0.2
  3
txt
  4

  0
STYLE
  5
20E
100
AcDbSymbolTableRecord
100
AcDbTextStyleTableRecord
  2
TEXTSTYLE_1
 70
0
 40
0.0
 41
0.8
 50
0.0
 71
0
 42
0.2
  3
gdt
  4

  0
ENDTAB
  0
TABLE
  2
VIEW
  5
6
100
AcDbSymbolTable
 70
0
  0
ENDTAB
  0
TABLE
  2
UCS
  5
7
100
AcDbSymbolTable
 70
0
  0
ENDTAB
  0
TABLE
  2
APPID
  5
9
100
AcDbSymbolTable
 70
1
  0
APPID
  5
20F
100
AcDbSymbolTableRecord
100
AcDbRegAppTableRecord
  2
ACAD
 70
0
  0
ENDTAB
  0
TABLE
  2
BLOCK_RECORD
  5
1
100
AcDbSymbolTable
 70
0
  0
BLOCK_RECORD
  5
210
100
AcDbSymbolTableRecord
100
AcDbBlockTableRecord
  2
*Model_Space
  0
BLOCK_RECORD
  5
211
100
AcDbSymbolTableRecord
100
AcDbBlockTableRecord
  2
*Paper_Space
  0
BLOCK_RECORD
  5
212
100
AcDbSymbolTableRecord
100
AcDbBlockTableRecord
  2
_FILLED
  0
ENDTAB
  0
TABLE
  2
DIMSTYLE
  5
A
100
AcDbSymbolTable
 70
1
100
AcDbDimStyleTable
 71
0
  0
DIMSTYLE
105
213
100
AcDbSymbolTableRecord
100
AcDbDimStyleTableRecord
  2
STANDARD
 70
0
  3

  4

 40
1.0
 41
1.5951270546
 42
1.0
 43
0.38
 44
1.0
 45
0.0
 46
0.0
 47
0.01
 48
0.01
140
2.2331778765
141
0.09
142
0.0
143
25.4
144
1.0
145
0.0
146
1.0
147
0.625
 71
1
 72
0
 73
0
 74
0
 75
0
 76
0
 77
1
 78
8
 79
2
170
0
171
1
172
0
173
0
174
0
175
0
176
0
177
0
178
0
270
2
179
2
271
2
272
2
273
2
274
2
275
0
280
0
281
0
282
0
283
1
284
8
285
0
286
0
287
3
288
0
340
11
278
46
341
212
342
212
343
212
344
212
  0
ENDTAB
  0
ENDSEC
  0
SECTION
  2
BLOCKS
  0
BLOCK
  5
20
100
AcDbEntity
  8
0
100
AcDbBlockBegin
  2
*Model_Space
 70
0
 10
0.0
 20
0.0
 30
0.0
  3
*Model_Space
  1

  0
ENDBLK
  5
21
100
AcDbEntity
  8
0
100
AcDbBlockEnd
  0
BLOCK
  5
1C
100
AcDbEntity
  8
0
100
AcDbBlockBegin
  2
*Paper_Space
 70
0
 10
0.0
 20
0.0
 30
0.0
  3
*Paper_Space
  1

  0
ENDBLK
  5
1D
100
AcDbEntity
  8
0
100
AcDbBlockEnd
  0
BLOCK
  5
214
100
AcDbEntity
  8
0
100
AcDbBlockBegin
  2
_FILLED
 70
64
 10
0.0
 20
0.0
  3
_FILLED
  1

  0
SOLID
  5
215
100
AcDbEntity
  8
0
  6
BYBLOCK
 62
0
100
AcDbTrace
 10
0.0
 20
0.0
 11
-1.0
 21
0.25
 12
-1.0
 22
-0.25
 13
-1.0
 23
-0.25
  0
ENDBLK
  5
216
100
AcDbEntity
  8
0
  6
BYBLOCK
 62
0
100
AcDbBlockEnd
  0
ENDSEC
  0
SECTION
  2
ENTITIES
  0
LINE
  5
217
100
AcDbEntity
  8
0
100
AcDbLine
 62
7
  6
CONTINUOUS
 10
98.7274360835
 20
23.4644420131
 11
84.7277407396
 21
23.4644420131
  0
LINE
  5
218
100
AcDbEntity
  8
0
100
AcDbLine
 62
7
  6
CONTINUOUS
 10
39.7268268178
 20
23.4644420131
 11
25.7271314739
 21
23.4644420131
  0
LINE
  5
219
100
AcDbEntity
  8
0
100
AcDbLine
 62
7
  6
CONTINUOUS
 10
81.7097922385
 20
23.5345669057
 11
42.7448873747
 21
23.5345669057
  0
LINE
  5
21A
100
AcDbEntity
  8
0
100
AcDbLine
 62
7
  6
CONTINUOUS
 10
25.8496215613
 20
23.5869321005
 11
98.6049459962
 21
23.5869321005
  0
LINE
  5
21B
100
AcDbEntity
  8
0
100
AcDbLine
 62
7
  6
CONTINUOUS
 10
99.6047936913
 20
24.5867797957
 11
92.5753815508
 21
24.5867797957
  0
LINE
  5
21C
100
AcDbEntity
  8
0
100
AcDbLine
 62
7
  6
CONTINUOUS
 10
90.8781048279
 20
24.5867797957
 11
24.8497738661
 21
24.5867797957
  0
LWPOLYLINE
  5
21D
100
AcDbEntity
  8
0
100
AcDbPolyline
 62
7
  6
CONTINUOUS
 90
10
 70
0
 10
81.7095240515
 20
23.5344142558
 10
81.9362602099
 20
23.5342636737
 10
82.5237052736
 20
23.5324370713
 10
83.0548874184
 20
23.5288150084
 10
83.5153931163
 20
23.5237768081
 10
83.8968382182
 20
23.5177118077
 10
84.1954684465
 20
23.5110158607
 10
84.3133250378
 20
23.5075686263
 10
84.4847137739
 20
23.5009130659
 10
84.5493001937
 20
23.4972478444
  0
LINE
  5
21E
100
AcDbEntity
  8
0
100
AcDbLine
 62
7
  6
CONTINUOUS
 10
22.4444393913
 20
34.4472864005
 11
21.4272837787
 21
35.4644420131
  0
LINE
  5
21F
100
AcDbEntity
  8
0
100
AcDbLine
 62
7
  6
CONTINUOUS
 10
24.8497738661
 20
34.48174475
 11
24.7967993291
 21
34.5347192893
  0
LINE
  5
220
100
AcDbEntity
  8
0
100
AcDbLine
 62
7
  6
CONTINUOUS
 10
25.7966471007
 20
35.5345669057
 11
25.8496215612
 21
35.4815924452
  0
LWPOLYLINE
  5
221
100
AcDbEntity
  8
0
100
AcDbPolyline
 62
7
  6
CONTINUOUS
 90
12
 70
0
 10
39.890081411
 20
23.4961023186
 10
39.8890348823
 20
23.4959957034
 10
39.9365327494
 20
23.4991777505
 10
40.0618623352
 20
23.5048173429
 10
40.2542446861
 20
23.5108855082
 10
40.5064225415
 20
23.5167141223
 10
40.8155296074
 20
23.5220377083
 10
41.1799336946
 20
23.526665853
 10
41.5972113546
 20
23.5304035466
 10
42.0630754945
 20
23.5330352681
 10
42.570451677
 20
23.5343249973
 10
42.7450435003
 20
23.5344142992
  0
LINE
  5
222
100
AcDbEntity
  8
0
100
AcDbLine
 62
7
  6
CONTINUOUS
 10
91.3772837787
 20
27.0144420131
 11
92.0772837787
 21
27.0144420131
  0
LINE
  5
223
100
AcDbEntity
  8
0
100
AcDbLine
 62
7
  6
CONTINUOUS
 10
83.3272837787
 20
27.8644420131
 11
82.1272837787
 21
27.8644420131
  0
LINE
  5
224
100
AcDbEntity
  8
0
100
AcDbLine
 62
7
  6
CONTINUOUS
 10
82.1272837787
 20
28.0644420131
 11
83.3272837787
 21
28.0644420131
  0
LINE
  5
225
100
AcDbEntity
  8
0
100
AcDbLine
 62
7
  6
CONTINUOUS
 10
83.8272837787
 20
28.3644420131
 11
81.6272837787
 21
28.3644420131
  0
LINE
  5
226
100
AcDbEntity
  8
0
100
AcDbLine
 62
7
  6
CONTINUOUS
 10
81.6272837787
 20
28.5644420131
 11
83.8272837787
 21
28.5644420131
  0
LINE
  5
227
100
AcDbEntity
  8
0
100
AcDbLine
 62
7
  6
CONTINUOUS
 10
84.3272837787
 20
28.8644420131
 11
81.1272837787
 21
28.8644420131
  0
LINE
  5
228
100
AcDbEntity
  8
0
100
AcDbLine
 62
7
  6
CONTINUOUS
 10
81.1272837787
 20
29.0644420131
 11
82.6272837787
 21
29.0644420131
  0
LINE
  5
229
100
AcDbEntity
  8
0
100
AcDbLine
 62
7
  6
CONTINUOUS
 10
82.8272837787
 20
29.0644420131
 11
84.3272837787
 21
29.0644420131
  0
LINE
  5
22A
100
AcDbEntity
  8
0
100
AcDbLine
 62
7
  6
CONTINUOUS
 10
90.8772837787
 20
29.1144420131
 11
89.2772837787
 21
29.1144420131
  0
LINE
  5
22B
100
AcDbEntity
  8
0
100
AcDbLine
 62
7
  6
CONTINUOUS
 10
92.5772837787
 20
29.1144420131
 11
94.1772837787
 21
29.1144420131
  0
LINE
  5
22C
100
AcDbEntity
  8
0
100
AcDbLine
 62
7
  6
CONTINUOUS
 10
94.1772837787
 20
29.8144420131
 11
92.5772837787
 21
29.8144420131
  0
LINE
  5
22D
100
AcDbEntity
  8
0
100
AcDbLine
 62
7
  6
CONTINUOUS
 10
89.2772837787
 20
29.8144420131
 11
90.8772837787
 21
29.8144420131
  0
LINE
  5
22E
100
AcDbEntity
  8
0
100
AcDbLine
 62
7
  6
CONTINUOUS
 10
48.9658975015
 20
157.3494219438
 11
49.5733684099
 21
157.824030233
  0
LINE
  5
22F
100
AcDbEntity
  8
0
100
AcDbLine
 62
7
  6
CONTINUOUS
 10
49.7272837787
 20
157.6270275446
 11
49.119812959
 21
157.1524193246
  0
LINE
  5
230
100
AcDbEntity
  8
0
100
AcDbLine
 62
7
  6
CONTINUOUS
 10
46.2272837787
 20
157.3442820984
 11
46.8105038663
 21
157.7684421621
  0
LINE
  5
231
100
AcDbEntity
  8
0
100
AcDbLine
 62
7
  6
CONTINUOUS
 10
46.9880332555
 20
157.5884301154
 11
46.3743267031
 21
157.1420980773
  0
LINE
  5
232
100
AcDbEntity
  8
0
100
AcDbLine
 62
7
  6
CONTINUOUS
 10
20.2230461999
 20
35.5202242537
 11
14.8930239136
 21
35.4271883686
  0
LINE
  5
233
100
AcDbEntity
  8
0
100
AcDbLine
 62
7
  6
CONTINUOUS
 10
82.6272837787
 20
31.0644420131
 11
82.8272837787
 21
31.0644420131
  0
LINE
  5
234
100
AcDbEntity
  8
0
100
AcDbLine
 62
7
  6
CONTINUOUS
 10
92.0772837787
 20
31.9144420131
 11
91.3772837787
 21
31.9144420131
  0
LINE
  5
235
100
AcDbEntity
  8
0
100
AcDbLine
 62
7
  6
CONTINUOUS
 10
15.4186324103
 20
33.4644420131
 11
21.9359351471
 21
33.4644420131
  0
LINE
  5
236
100
AcDbEntity
  8
0
100
AcDbLine
 62
7
  6
CONTINUOUS
 10
22.4358589947
 20
33.9557158099
 11
15.9185562631
 21
33.9557158098
  0
LINE
  5
237
100
AcDbEntity
  8
0
100
AcDbLine
 62
7
  6
CONTINUOUS
 10
20.6805181416
 20
34.4472864005
 11
22.4444393913
 21
34.4472864005
  0
LINE
  5
238
100
AcDbEntity
  8
0
100
AcDbLine
 62
7
  6
CONTINUOUS
 10
24.8497738661
 20
34.48174475
 11
99.6047936913
 21
34.48174475
  0
LINE
  5
239
100
AcDbEntity
  8
0
100
AcDbLine
 62
7
  6
CONTINUOUS
 10
20.2240198825
 20
35.4644420131
 11
21.4272837787
 21
35.4644420131
  0
LINE
  5
23A
100
AcDbEntity
  8
0
100
AcDbLine
 62
7
  6
CONTINUOUS
 10
98.6049459962
 20
35.4815924452
 11
25.8496215612
 21
35.4815924452
  0
LINE
  5
23B
100
AcDbEntity
  8
0
100
AcDbLine
 62
7
  6
CONTINUOUS
 10
25.7966471007
 20
35.5345669057
 11
98.6579204567
 21
35.5345669057
  0
LINE
  5
23C
100
AcDbEntity
  8
0
100
AcDbLine
 62
7
  6
CONTINUOUS
 10
20.6924304183
 20
35.738863883
 11
107.1924304183
 21
35.738863883
  0
LINE
  5
23D
100
AcDbEntity
  8
0
100
AcDbLine
 62
7
  6
CONTINUOUS
 10
15.4272837787
 20
36.4644420131
 11
118.2272837787
 21
36.4644420131
  0
LINE
  5
23E
100
AcDbEntity
  8
0
100
AcDbLine
 62
7
  6
CONTINUOUS
 10
14.9187085627
 20
33.9557158098
 11
14.8930239136
 21
35.4271883686
  0
LINE
  5
23F
100
AcDbEntity
  8
0
100
AcDbLine
 62
7
  6
CONTINUOUS
 10
14.2272837787
 20
45.4644420131
 11
14.2272837787
 21
71.4644420131
  0
LINE
  5
240
100
AcDbEntity
  8
0
100
AcDbLine
 62
7
  6
CONTINUOUS
 10
28.5335041438
 20
156.9203111499
 11
30.0308261773
 21
161.5160559982
  0
LINE
  5
241
100
AcDbEntity
  8
0
100
AcDbLine
 62
7
  6
CONTINUOUS
 10
30.0338125116
 20
161.5068900159
 11
28.5394768117
 21
156.9203111499
  0
LINE
  5
242
100
AcDbEntity
  8
0
100
AcDbLine
 62
7
  6
CONTINUOUS
 10
27.7016584638
 20
154.1969069809
 11
28.3671349364
 21
156.2394601673
  0
LINE
  5
243
100
AcDbEntity
  8
0
100
AcDbLine
 62
7
  6
CONTINUOUS
 10
28.3731076043
 20
156.2394601673
 11
27.7076311317
 21
154.1969069809
  0
LINE
  5
244
100
AcDbEntity
  8
0
100
AcDbLine
 62
7
  6
CONTINUOUS
 10
29.3653498237
 20
162.1969069809
 11
26.7034436955
 21
154.1969069809
  0
LINE
  5
245
100
AcDbEntity
  8
0
100
AcDbLine
 62
7
  6
CONTINUOUS
 10
118.3044380873
 20
37.2644420131
 11
16.1790775282
 21
37.2644420131
  0
LINE
  5
246
100
AcDbEntity
  8
0
100
AcDbLine
 62
7
  6
CONTINUOUS
 10
119.0058408929
 20
37.964441122
 11
119.7272837787
 21
37.964441122
  0
LINE
  5
247
100
AcDbEntity
  8
0
100
AcDbLine
 62
7
  6
CONTINUOUS
 10
103.5391837787
 20
37.9644420131
 11
75.7252837787
 21
37.9644420131
  0
LINE
  5
248
100
AcDbEntity
  8
0
100
AcDbLine
 62
7
  6
CONTINUOUS
 10
57.7188928788
 20
37.9644420131
 11
16.7272837787
 21
37.9644420131
  0
LINE
  5
249
100
AcDbEntity
  8
0
100
AcDbLine
 62
7
  6
CONTINUOUS
 10
15.4785461207
 20
37.9644420136
 11
14.7272837787
 21
37.9644420136
  0
LINE
  5
24A
100
AcDbEntity
  8
0
100
AcDbLine
 62
7
  6
CONTINUOUS
 10
15.8925670687
 20
35.4446354593
 11
15.9185562631
 21
33.9557158098
  0
LINE
  5
24B
100
AcDbEntity
  8
0
100
AcDbLine
 62
7
  6
CONTINUOUS
 10
20.2358760135
 20
34.7852047236
 11
20.2065648176
 21
36.4644420131
  0
LINE
  5
24C
100
AcDbEntity
  8
0
100
AcDbLine
 62
7
  6
CONTINUOUS
 10
14.7272837787
 20
164.9644420134
 11
14.7272837787
 21
37.9644420131
  0
LINE
  5
24D
100
AcDbEntity
  8
0
100
AcDbLine
 62
7
  6
CONTINUOUS
 10
15.4785461207
 20
164.9644420131
 11
15.4785461207
 21
37.9644420131
  0
LINE
  5
24E
100
AcDbEntity
  8
0
100
AcDbLine
 62
7
  6
CONTINUOUS
 10
15.7290539114
 20
153.1969069809
 11
15.7290539114
 21
163.1969069809
  0
LINE
  5
24F
100
AcDbEntity
  8
0
100
AcDbLine
 62
7
  6
CONTINUOUS
 10
15.918556265
 20
33.4644420131
 11
15.918556265
 21
33.9557158099
  0
LINE
  5
250
100
AcDbEntity
  8
0
100
AcDbLine
 62
7
  6
CONTINUOUS
 10
15.9272837787
 20
36.4644420131
 11
15.9272837787
 21
36.561917922
  0
LINE
  5
251
100
AcDbEntity
  8
0
100
AcDbLine
 62
7
  6
CONTINUOUS
 10
16.7272837787
 20
90.9644420131
 11
16.7272837787
 21
37.9644420131
  0
LINE
  5
252
100
AcDbEntity
  8
0
100
AcDbLine
 62
7
  6
CONTINUOUS
 10
17.0272837787
 20
36.4644420131
 11
17.0272837787
 21
35.4644420131
  0
LINE
  5
253
100
AcDbEntity
  8
0
100
AcDbLine
 62
7
  6
CONTINUOUS
 10
14.9272837946
 20
36.9644424692
 11
14.9394066285
 21
37.3115950104
  0
LINE
  5
254
100
AcDbEntity
  8
0
100
AcDbLine
 62
7
  6
CONTINUOUS
 10
14.2272837787
 20
45.4644420131
 11
14.7272837787
 21
45.4644420131
  0
LINE
  5
255
100
AcDbEntity
  8
0
100
AcDbLine
 62
7
  6
CONTINUOUS
 10
20.6924304183
 20
35.738863883
 11
20.6924304183
 21
36.4644420131
  0
LINE
  5
256
100
AcDbEntity
  8
0
100
AcDbLine
 62
7
  6
CONTINUOUS
 10
24.7272837787
 20
35.464594318
 11
24.7272837787
 21
24.4642897083
  0
LINE
  5
257
100
AcDbEntity
  8
0
100
AcDbLine
 62
7
  6
CONTINUOUS
 10
24.8497738661
 20
34.48174475
 11
24.8497738661
 21
24.5867797957
  0
LINE
  5
258
100
AcDbEntity
  8
0
100
AcDbLine
 62
7
  6
CONTINUOUS
 10
25.7966471007
 20
35.5345669057
 11
25.7966471007
 21
35.738863883
  0
LINE
  5
259
100
AcDbEntity
  8
0
100
AcDbLine
 62
7
  6
CONTINUOUS
 10
25.8496215612
 20
23.5869321005
 11
25.8496215612
 21
35.4815924452
  0
LINE
  5
25A
100
AcDbEntity
  8
0
100
AcDbLine
 62
7
  6
CONTINUOUS
 10
20.6763998199
 20
33.9557158099
 11
20.6805176531
 21
34.4472884228
  0
LINE
  5
25B
100
AcDbEntity
  8
0
100
AcDbLine
 62
7
  6
CONTINUOUS
 10
22.4358589947
 20
33.9557158099
 11
22.4444393913
 21
34.4472864005
  0
LINE
  5
25C
100
AcDbEntity
  8
0
100
AcDbLine
 62
7
  6
CONTINUOUS
 10
119.9272837787
 20
48.4644420131
 11
119.7272837787
 21
48.4644420131
  0
LINE
  5
25D
100
AcDbEntity
  8
0
100
AcDbLine
 62
7
  6
CONTINUOUS
 10
28.7272837787
 20
166.9644420131
 11
28.7272837787
 21
166.4644420131
  0
LINE
  5
25E
100
AcDbEntity
  8
0
100
AcDbLine
 62
7
  6
CONTINUOUS
 10
50.0867062922
 20
154.3476950043
 11
50.0659744325
 21
154.3026961152
  0
LINE
  5
25F
100
AcDbEntity
  8
0
100
AcDbLine
 62
7
  6
CONTINUOUS
 10
14.2272837787
 20
58.4644420131
 11
14.7272837787
 21
58.4644420131
  0
LINE
  5
260
100
AcDbEntity
  8
0
100
AcDbLine
 62
7
  6
CONTINUOUS
 10
84.7277407396
 20
23.4644420131
 11
84.7090704182
 21
23.4831123346
  0
LINE
  5
261
100
AcDbEntity
  8
0
100
AcDbLine
 62
7
  6
CONTINUOUS
 10
49.9055110238
 20
153.8469662345
 11
49.4608645636
 21
152.0635866901
  0
LINE
  5
262
100
AcDbEntity
  8
0
100
AcDbLine
 62
7
  6
CONTINUOUS
 10
49.3769132714
 20
151.5390358694
 11
49.3885900656
 21
151.5858688444
  0
LINE
  5
263
100
AcDbEntity
  8
0
100
AcDbLine
 62
7
  6
CONTINUOUS
 10
49.4566424787
 20
151.8587991322
 11
49.4248814092
 21
151.7314124406
  0
LINE
  5
264
100
AcDbEntity
  8
0
100
AcDbLine
 62
7
  6
CONTINUOUS
 10
49.9979250788
 20
154.0297650646
 11
50.0296861482
 21
154.1571517563
  0
LINE
  5
265
100
AcDbEntity
  8
0
100
AcDbLine
 62
7
  6
CONTINUOUS
 10
49.5490565337
 20
152.0415979623
 11
49.9937029938
 21
153.8249775068
  0
LINE
  5
266
100
AcDbEntity
  8
0
100
AcDbLine
 62
7
  6
CONTINUOUS
 10
75.7252837787
 20
60.4644420131
 11
103.5391837787
 21
60.4644420131
  0
LINE
  5
267
100
AcDbEntity
  8
0
100
AcDbLine
 62
7
  6
CONTINUOUS
 10
42.7450434997
 20
23.5344146749
 11
42.7450434997
 21
23.5345669057
  0
LINE
  5
268
100
AcDbEntity
  8
0
100
AcDbLine
 62
7
  6
CONTINUOUS
 10
14.2272837787
 20
71.4644420131
 11
14.7272837787
 21
71.4644420131
  0
LINE
  5
269
100
AcDbEntity
  8
0
100
AcDbLine
 62
7
  6
CONTINUOUS
 10
98.7274360836
 20
23.4644420131
 11
98.6049459962
 21
23.5869321005
  0
LINE
  5
26A
100
AcDbEntity
  8
0
100
AcDbLine
 62
7
  6
CONTINUOUS
 10
99.6047936913
 20
24.5867797957
 11
99.7272837787
 21
24.4642897083
  0
LINE
  5
26B
100
AcDbEntity
  8
0
100
AcDbLine
 62
7
  6
CONTINUOUS
 10
45.6754969623
 20
163.1969069809
 11
45.6754969623
 21
153.1969069809
  0
LINE
  5
26C
100
AcDbEntity
  8
0
100
AcDbLine
 62
7
  6
CONTINUOUS
 10
45.6874422981
 20
163.1969069809
 11
45.6874422981
 21
153.1969069809
  0
LINE
  5
26D
100
AcDbEntity
  8
0
100
AcDbLine
 62
7
  6
CONTINUOUS
 10
46.2272837787
 20
158.1442820984
 11
46.2272837787
 21
158.3942820984
  0
LINE
  5
26E
100
AcDbEntity
  8
0
100
AcDbLine
 62
7
  6
CONTINUOUS
 10
49.7272837787
 20
158.3942820984
 11
49.7272837787
 21
158.1442820984
  0
LINE
  5
26F
100
AcDbEntity
  8
0
100
AcDbLine
 62
7
  6
CONTINUOUS
 10
75.2272837787
 20
75.9644420131
 11
75.7272837787
 21
75.9644420131
  0
LINE
  5
270
100
AcDbEntity
  8
0
100
AcDbLine
 62
7
  6
CONTINUOUS
 10
99.7272837787
 20
35.464594318
 11
99.6716086142
 21
35.5203540133
  0
LINE
  5
271
100
AcDbEntity
  8
0
100
AcDbLine
 62
7
  6
CONTINUOUS
 10
75.7272837787
 20
80.9644420131
 11
103.0400510415
 21
80.9644420131
  0
LINE
  5
272
100
AcDbEntity
  8
0
100
AcDbLine
 62
7
  6
CONTINUOUS
 10
75.2272837787
 20
81.4644420131
 11
95.7272837787
 21
81.4644420131
  0
LINE
  5
273
100
AcDbEntity
  8
0
100
AcDbLine
 62
7
  6
CONTINUOUS
 10
33.3582086592
 20
154.1969069809
 11
30.6963027689
 21
162.1969069809
  0
LINE
  5
274
100
AcDbEntity
  8
0
100
AcDbLine
 62
7
  6
CONTINUOUS
 10
30.7022754368
 20
162.1969069809
 11
33.3641813271
 21
154.1969069809
  0
LINE
  5
275
100
AcDbEntity
  8
0
100
AcDbLine
 62
7
  6
CONTINUOUS
 10
31.6945175373
 20
156.2394601673
 11
32.3599938908
 21
154.1969069809
  0
LINE
  5
276
100
AcDbEntity
  8
0
100
AcDbLine
 62
7
  6
CONTINUOUS
 10
30.0308261773
 20
161.5160559982
 11
31.5281485679
 21
156.9203111499
  0
LINE
  5
277
100
AcDbEntity
  8
0
100
AcDbLine
 62
7
  6
CONTINUOUS
 10
57.7188928788
 20
37.9644420131
 11
57.7188928788
 21
90.9644420131
  0
LINE
  5
278
100
AcDbEntity
  8
0
100
AcDbLine
 62
7
  6
CONTINUOUS
 10
113.7772837787
 20
88.8644420131
 11
115.6772837787
 21
88.8644420131
  0
LINE
  5
279
100
AcDbEntity
  8
0
100
AcDbLine
 62
7
  6
CONTINUOUS
 10
79.2159351339
 20
89.0144420131
 11
79.2272837787
 21
89.0144420131
  0
LINE
  5
27A
100
AcDbEntity
  8
0
100
AcDbLine
 62
7
  6
CONTINUOUS
 10
80.2272837787
 20
89.0144420131
 11
80.2386324235
 21
89.0144420131
  0
LINE
  5
27B
100
AcDbEntity
  8
0
100
AcDbLine
 62
7
  6
CONTINUOUS
 10
62.1924304183
 20
36.4644420131
 11
62.1924304183
 21
35.738863883
  0
LINE
  5
27C
100
AcDbEntity
  8
0
100
AcDbLine
 62
7
  6
CONTINUOUS
 10
63.6110150352
 20
91.6389498045
 11
63.6110150352
 21
91.4196374968
  0
LINE
  5
27D
100
AcDbEntity
  8
0
100
AcDbLine
 62
7
  6
CONTINUOUS
 10
64.2272837787
 20
141.3387152065
 11
64.2272837787
 21
150.3399744819
  0
LINE
  5
27E
100
AcDbEntity
  8
0
100
AcDbLine
 62
7
  6
CONTINUOUS
 10
115.6772837787
 20
90.3644420131
 11
115.4772837787
 21
90.3644420131
  0
LINE
  5
27F
100
AcDbEntity
  8
0
100
AcDbLine
 62
7
  6
CONTINUOUS
 10
115.1772837787
 20
90.3644420131
 11
114.2772837787
 21
90.3644420131
  0
LINE
  5
280
100
AcDbEntity
  8
0
100
AcDbLine
 62
7
  6
CONTINUOUS
 10
113.9772837787
 20
90.3644420131
 11
113.7772837787
 21
90.3644420131
  0
LINE
  5
281
100
AcDbEntity
  8
0
100
AcDbLine
 62
7
  6
CONTINUOUS
 10
16.7272837787
 20
90.9644420131
 11
57.7188928788
 21
90.9644420131
  0
LINE
  5
282
100
AcDbEntity
  8
0
100
AcDbLine
 62
7
  6
CONTINUOUS
 10
119.0058408929
 20
92.9653055024
 11
119.7272837787
 21
92.9653055024
  0
LINE
  5
283
100
AcDbEntity
  8
0
100
AcDbLine
 62
7
  6
CONTINUOUS
 10
120.2272837787
 20
93.4644420131
 11
119.9272837787
 21
93.4644420131
  0
LINE
  5
284
100
AcDbEntity
  8
0
100
AcDbLine
 62
7
  6
CONTINUOUS
 10
117.5272837787
 20
93.8644420131
 11
114.7272837787
 21
93.8644420131
  0
LINE
  5
285
100
AcDbEntity
  8
0
100
AcDbLine
 62
7
  6
CONTINUOUS
 10
114.7272837787
 20
93.9644420131
 11
116.7272837787
 21
93.9644420131
  0
LINE
  5
286
100
AcDbEntity
  8
0
100
AcDbLine
 62
7
  6
CONTINUOUS
 10
116.7272840265
 20
94.2644420131
 11
114.7272840582
 21
94.2644420131
  0
LINE
  5
287
100
AcDbEntity
  8
0
100
AcDbLine
 62
7
  6
CONTINUOUS
 10
118.7272837787
 20
95.9644420131
 11
118.4272837787
 21
95.9644420131
  0
LINE
  5
288
100
AcDbEntity
  8
0
100
AcDbLine
 62
7
  6
CONTINUOUS
 10
117.5272837787
 20
93.847894441
 11
118.9272837786
 21
93.8466137474
  0
LINE
  5
289
100
AcDbEntity
  8
0
100
AcDbLine
 62
7
  6
CONTINUOUS
 10
116.2845575976
 20
97.568083623
 11
115.7076229442
 21
97.5526554039
  0
LINE
  5
28A
100
AcDbEntity
  8
0
100
AcDbLine
 62
7
  6
CONTINUOUS
 10
113.1700099598
 20
98.3608004032
 11
113.7469446041
 21
98.3762286222
  0
LINE
  5
28B
100
AcDbEntity
  8
0
100
AcDbLine
 62
7
  6
CONTINUOUS
 10
119.9272837787
 20
96.9644420131
 11
119.7272837787
 21
96.9644420131
  0
LINE
  5
28C
100
AcDbEntity
  8
0
100
AcDbLine
 62
7
  6
CONTINUOUS
 10
111.7272837787
 20
97.3344420131
 11
114.1391688237
 21
97.3344420131
  0
LINE
  5
28D
100
AcDbEntity
  8
0
100
AcDbLine
 62
7
  6
CONTINUOUS
 10
115.3153988247
 20
97.3344420131
 11
117.7272837787
 21
97.3344420131
  0
LINE
  5
28E
100
AcDbEntity
  8
0
100
AcDbLine
 62
7
  6
CONTINUOUS
 10
110.6468426261
 20
97.5644420131
 11
110.7558923433
 21
97.5644420131
  0
LINE
  5
28F
100
AcDbEntity
  8
0
100
AcDbLine
 62
7
  6
CONTINUOUS
 10
118.4272837787
 20
97.9644420134
 11
118.7272837787
 21
97.9644420134
  0
LINE
  5
290
100
AcDbEntity
  8
0
100
AcDbLine
 62
7
  6
CONTINUOUS
 10
110.6468426261
 20
98.3644420131
 11
110.7837397612
 21
98.3644420131
  0
LINE
  5
291
100
AcDbEntity
  8
0
100
AcDbLine
 62
7
  6
CONTINUOUS
 10
111.7272837787
 20
98.5944420131
 11
114.1391687327
 21
98.5944420131
  0
LINE
  5
292
100
AcDbEntity
  8
0
100
AcDbLine
 62
7
  6
CONTINUOUS
 10
115.3153987338
 20
98.5944420131
 11
117.7272837787
 21
98.5944420131
  0
LINE
  5
293
100
AcDbEntity
  8
0
100
AcDbLine
 62
7
  6
CONTINUOUS
 10
119.9272837787
 20
98.9644420131
 11
119.7272837787
 21
98.9644420131
  0
LINE
  5
294
100
AcDbEntity
  8
0
100
AcDbLine
 62
7
  6
CONTINUOUS
 10
117.758654988
 20
101.7644420131
 11
117.7972108254
 21
101.7644420134
  0
LINE
  5
295
100
AcDbEntity
  8
0
100
AcDbLine
 62
7
  6
CONTINUOUS
 10
115.7076242467
 20
98.3762285883
 11
116.2845573212
 21
98.3608014891
  0
LINE
  5
296
100
AcDbEntity
  8
0
100
AcDbLine
 62
7
  6
CONTINUOUS
 10
79.2272837787
 20
88.2101315201
 11
79.2159351339
 21
88.2218098933
  0
LINE
  5
297
100
AcDbEntity
  8
0
100
AcDbLine
 62
7
  6
CONTINUOUS
 10
75.2272837787
 20
81.4644420131
 11
75.2272837787
 21
75.9644420131
  0
LINE
  5
298
100
AcDbEntity
  8
0
100
AcDbLine
 62
7
  6
CONTINUOUS
 10
75.7252837787
 20
75.9644420131
 11
75.7252837787
 21
60.9644420131
  0
LINE
  5
299
100
AcDbEntity
  8
0
100
AcDbLine
 62
7
  6
CONTINUOUS
 10
75.7252837787
 20
60.4644420131
 11
75.7252837787
 21
37.9644420131
  0
LINE
  5
29A
100
AcDbEntity
  8
0
100
AcDbLine
 62
7
  6
CONTINUOUS
 10
75.7272837787
 20
75.9644420131
 11
75.7272837787
 21
80.9644420131
  0
LINE
  5
29B
100
AcDbEntity
  8
0
100
AcDbLine
 62
7
  6
CONTINUOUS
 10
79.0772837787
 20
88.4265306182
 11
79.0772837787
 21
89.0146005453
  0
LINE
  5
29C
100
AcDbEntity
  8
0
100
AcDbLine
 62
7
  6
CONTINUOUS
 10
79.2159351339
 20
88.2218098933
 11
79.2159351339
 21
89.0144420131
  0
LINE
  5
29D
100
AcDbEntity
  8
0
100
AcDbLine
 62
7
  6
CONTINUOUS
 10
79.2272837787
 20
89.0144420131
 11
79.2272837787
 21
88.2101314411
  0
LINE
  5
29E
100
AcDbEntity
  8
0
100
AcDbLine
 62
7
  6
CONTINUOUS
 10
79.7272837784
 20
166.4644420132
 11
79.727283778
 21
166.4194110512
  0
LINE
  5
29F
100
AcDbEntity
  8
0
100
AcDbLine
 62
7
  6
CONTINUOUS
 10
79.7272837787
 20
37.9644420131
 11
79.7272837656
 21
36.4644420131
  0
LINE
  5
2A0
100
AcDbEntity
  8
0
100
AcDbLine
 62
7
  6
CONTINUOUS
 10
79.7272837787
 20
80.9644420131
 11
79.7272836707
 21
88.0354309404
  0
LINE
  5
2A1
100
AcDbEntity
  8
0
100
AcDbLine
 62
7
  6
CONTINUOUS
 10
79.7272868605
 20
166.1194690898
 11
79.7272820849
 21
166.4194265105
  0
LINE
  5
2A2
100
AcDbEntity
  8
0
100
AcDbLine
 62
7
  6
CONTINUOUS
 10
79.7284644065
 20
88.2034573843
 11
79.7284602113
 21
88.2008391295
  0
LINE
  5
2A3
100
AcDbEntity
  8
0
100
AcDbLine
 62
7
  6
CONTINUOUS
 10
24.7829589499
 20
35.5203531644
 11
24.7272837787
 21
35.464594318
  0
LINE
  5
2A4
100
AcDbEntity
  8
0
100
AcDbLine
 62
7
  6
CONTINUOUS
 10
118.9272837787
 20
102.0822702789
 11
117.5272837787
 21
102.0809895852
  0
LINE
  5
2A5
100
AcDbEntity
  8
0
100
AcDbLine
 62
7
  6
CONTINUOUS
 10
114.7272837787
 20
102.0644420131
 11
117.5272837787
 21
102.0644420131
  0
LINE
  5
2A6
100
AcDbEntity
  8
0
100
AcDbLine
 62
7
  6
CONTINUOUS
 10
119.7272837787
 20
102.9635785238
 11
119.0058408929
 21
102.9635785238
  0
LINE
  5
2A7
100
AcDbEntity
  8
0
100
AcDbLine
 62
7
  6
CONTINUOUS
 10
113.7772837787
 20
104.4644420131
 11
115.6772837787
 21
104.4644420131
  0
LINE
  5
2A8
100
AcDbEntity
  8
0
100
AcDbLine
 62
7
  6
CONTINUOUS
 10
115.6772837787
 20
105.9644420131
 11
114.2772837787
 21
105.9644420131
  0
LINE
  5
2A9
100
AcDbEntity
  8
0
100
AcDbLine
 62
7
  6
CONTINUOUS
 10
113.9772837787
 20
105.9644420131
 11
113.7772837787
 21
105.9644420131
  0
LINE
  5
2AA
100
AcDbEntity
  8
0
100
AcDbLine
 62
7
  6
CONTINUOUS
 10
113.0772837787
 20
105.9644420131
 11
112.7772837787
 21
105.9644420131
  0
LINE
  5
2AB
100
AcDbEntity
  8
0
100
AcDbLine
 62
7
  6
CONTINUOUS
 10
53.4772837789
 20
127.0893890269
 11
47.7625529845
 21
135.1647412762
  0
LINE
  5
2AC
100
AcDbEntity
  8
0
100
AcDbLine
 62
7
  6
CONTINUOUS
 10
80.2272837787
 20
88.2101315352
 11
80.2272837787
 21
89.0144420131
  0
LINE
  5
2AD
100
AcDbEntity
  8
0
100
AcDbLine
 62
7
  6
CONTINUOUS
 10
80.2386324235
 20
89.0144420131
 11
80.2386324235
 21
88.221809895
  0
LINE
  5
2AE
100
AcDbEntity
  8
0
100
AcDbLine
 62
7
  6
CONTINUOUS
 10
80.3772837787
 20
88.4267283145
 11
80.3772837787
 21
89.0150285997
  0
LINE
  5
2AF
100
AcDbEntity
  8
0
100
AcDbLine
 62
7
  6
CONTINUOUS
 10
81.1272837787
 20
28.8644420131
 11
81.1272837787
 21
29.0644420131
  0
LINE
  5
2B0
100
AcDbEntity
  8
0
100
AcDbLine
 62
7
  6
CONTINUOUS
 10
81.6272837787
 20
28.3644420131
 11
81.6272837787
 21
28.5644420131
  0
LINE
  5
2B1
100
AcDbEntity
  8
0
100
AcDbLine
 62
7
  6
CONTINUOUS
 10
81.7095240535
 20
23.5345669057
 11
81.7095240535
 21
23.5344146752
  0
LINE
  5
2B2
100
AcDbEntity
  8
0
100
AcDbLine
 62
7
  6
CONTINUOUS
 10
82.1272837787
 20
27.8644420131
 11
82.1272837787
 21
28.0644420131
  0
LINE
  5
2B3
100
AcDbEntity
  8
0
100
AcDbLine
 62
7
  6
CONTINUOUS
 10
82.6272837787
 20
29.0644420131
 11
82.6272837787
 21
31.0644420131
  0
LINE
  5
2B4
100
AcDbEntity
  8
0
100
AcDbLine
 62
7
  6
CONTINUOUS
 10
82.8272837787
 20
31.0644420131
 11
82.8272837787
 21
29.0644420131
  0
LINE
  5
2B5
100
AcDbEntity
  8
0
100
AcDbLine
 62
7
  6
CONTINUOUS
 10
83.3272837787
 20
28.0644420131
 11
83.3272837787
 21
27.8644420131
  0
LINE
  5
2B6
100
AcDbEntity
  8
0
100
AcDbLine
 62
7
  6
CONTINUOUS
 10
83.8272837787
 20
28.5644420131
 11
83.8272837787
 21
28.3644420131
  0
LINE
  5
2B7
100
AcDbEntity
  8
0
100
AcDbLine
 62
7
  6
CONTINUOUS
 10
84.3272837787
 20
29.0644420131
 11
84.3272837787
 21
28.8644420131
  0
LINE
  5
2B8
100
AcDbEntity
  8
0
100
AcDbLine
 62
7
  6
CONTINUOUS
 10
105.9772837786
 20
127.0894968495
 11
111.6906560177
 21
135.1625488566
  0
LINE
  5
2B9
100
AcDbEntity
  8
0
100
AcDbLine
 62
7
  6
CONTINUOUS
 10
80.2272837787
 20
88.2101315201
 11
80.2386324235
 21
88.221809895
  0
LINE
  5
2BA
100
AcDbEntity
  8
0
100
AcDbLine
 62
7
  6
CONTINUOUS
 10
113.8650295964
 20
98.3244405462
 11
114.2075602945
 21
98.4841654973
  0
LINE
  5
2BB
100
AcDbEntity
  8
0
100
AcDbLine
 62
7
  6
CONTINUOUS
 10
115.589537961
 20
97.60444348
 11
115.2470072629
 21
97.444718529
  0
LINE
  5
2BC
100
AcDbEntity
  8
0
100
AcDbLine
 62
7
  6
CONTINUOUS
 10
89.2772837787
 20
29.8144420131
 11
89.2772837787
 21
29.1144420131
  0
LINE
  5
2BD
100
AcDbEntity
  8
0
100
AcDbLine
 62
7
  6
CONTINUOUS
 10
91.3772837787
 20
27.0144420131
 11
91.3772837787
 21
28.6144420131
  0
LINE
  5
2BE
100
AcDbEntity
  8
0
100
AcDbLine
 62
7
  6
CONTINUOUS
 10
91.3772837787
 20
30.3144420131
 11
91.3772837787
 21
31.9144420131
  0
LINE
  5
2BF
100
AcDbEntity
  8
0
100
AcDbLine
 62
7
  6
CONTINUOUS
 10
24.7272837787
 20
24.4642897083
 11
24.8497738661
 21
24.5867797957
  0
LINE
  5
2C0
100
AcDbEntity
  8
0
100
AcDbLine
 62
7
  6
CONTINUOUS
 10
25.8496215613
 20
23.5869321005
 11
25.7271314739
 21
23.4644420131
  0
LINE
  5
2C1
100
AcDbEntity
  8
0
100
AcDbLine
 62
7
  6
CONTINUOUS
 10
120.2272837787
 20
118.4644420131
 11
119.7272837787
 21
118.4644420131
  0
LINE
  5
2C2
100
AcDbEntity
  8
0
100
AcDbLine
 62
7
  6
CONTINUOUS
 10
120.2272837787
 20
118.9644420131
 11
119.7272837787
 21
118.9644420131
  0
LINE
  5
2C3
100
AcDbEntity
  8
0
100
AcDbLine
 62
7
  6
CONTINUOUS
 10
114.2075602945
 20
97.444718529
 11
113.9074398377
 21
97.5846674823
  0
LINE
  5
2C4
100
AcDbEntity
  8
0
100
AcDbLine
 62
7
  6
CONTINUOUS
 10
115.2470072629
 20
98.4841654973
 11
115.589534665
 21
98.3244424188
  0
LINE
  5
2C5
100
AcDbEntity
  8
0
100
AcDbLine
 62
7
  6
CONTINUOUS
 10
46.3743267031
 20
157.1420980773
 11
46.2272837787
 21
157.3442820984
  0
LINE
  5
2C6
100
AcDbEntity
  8
0
100
AcDbLine
 62
7
  6
CONTINUOUS
 10
92.0772837787
 20
31.9144420131
 11
92.0772837787
 21
30.3144420131
  0
LINE
  5
2C7
100
AcDbEntity
  8
0
100
AcDbLine
 62
7
  6
CONTINUOUS
 10
92.0772837787
 20
28.6144420131
 11
92.0772837787
 21
27.0144420131
  0
LINE
  5
2C8
100
AcDbEntity
  8
0
100
AcDbLine
 62
7
  6
CONTINUOUS
 10
94.1772837787
 20
29.1144420131
 11
94.1772837787
 21
29.8144420131
  0
LINE
  5
2C9
100
AcDbEntity
  8
0
100
AcDbLine
 62
7
  6
CONTINUOUS
 10
95.2272837787
 20
141.3389095444
 11
95.2272837787
 21
150.3401688198
  0
LINE
  5
2CA
100
AcDbEntity
  8
0
100
AcDbLine
 62
7
  6
CONTINUOUS
 10
95.7272837787
 20
80.9644420131
 11
95.7272837787
 21
81.4644420131
  0
LINE
  5
2CB
100
AcDbEntity
  8
0
100
AcDbLine
 62
7
  6
CONTINUOUS
 10
49.5733684099
 20
157.824030233
 11
49.7272837787
 21
157.6270275446
  0
LINE
  5
2CC
100
AcDbEntity
  8
0
100
AcDbLine
 62
7
  6
CONTINUOUS
 10
98.6049459962
 20
35.4815924452
 11
98.6049459962
 21
23.5869321005
  0
LINE
  5
2CD
100
AcDbEntity
  8
0
100
AcDbLine
 62
7
  6
CONTINUOUS
 10
98.6579203474
 20
35.738863883
 11
98.6579203474
 21
35.5345669057
  0
LINE
  5
2CE
100
AcDbEntity
  8
0
100
AcDbLine
 62
7
  6
CONTINUOUS
 10
99.6047936913
 20
24.5867797957
 11
99.6047936913
 21
34.48174475
  0
LINE
  5
2CF
100
AcDbEntity
  8
0
100
AcDbLine
 62
7
  6
CONTINUOUS
 10
99.7272837787
 20
35.464594318
 11
99.7272837787
 21
24.4642897083
  0
LINE
  5
2D0
100
AcDbEntity
  8
0
100
AcDbLine
 62
7
  6
CONTINUOUS
 10
103.5391837787
 20
37.9644420131
 11
103.5391837787
 21
60.4644420131
  0
LINE
  5
2D1
100
AcDbEntity
  8
0
100
AcDbLine
 62
7
  6
CONTINUOUS
 10
103.5391837787
 20
60.9644420131
 11
103.5391837787
 21
80.4644420131
  0
LINE
  5
2D2
100
AcDbEntity
  8
0
100
AcDbLine
 62
7
  6
CONTINUOUS
 10
110.7442772761
 20
97.588135775
 11
110.7449537445
 21
97.588879104
  0
LINE
  5
2D3
100
AcDbEntity
  8
0
100
AcDbLine
 62
7
  6
CONTINUOUS
 10
39.7454951953
 20
23.4831103906
 11
39.7268268178
 21
23.4644420131
  0
LINE
  5
2D4
100
AcDbEntity
  8
0
100
AcDbLine
 62
7
  6
CONTINUOUS
 10
105.9772837785
 20
127.0894965246
 11
105.6463003038
 21
127.0894044325
  0
LINE
  5
2D5
100
AcDbEntity
  8
0
100
AcDbLine
 62
7
  6
CONTINUOUS
 10
53.7989178619
 20
127.0892978542
 11
53.4772837789
 21
127.0893890144
  0
LINE
  5
2D6
100
AcDbEntity
  8
0
100
AcDbLine
 62
7
  6
CONTINUOUS
 10
107.1924304183
 20
36.4644420131
 11
107.1924304183
 21
35.738863883
  0
LINE
  5
2D7
100
AcDbEntity
  8
0
100
AcDbLine
 62
7
  6
CONTINUOUS
 10
114.2075602945
 20
98.4841654973
 11
114.3672833731
 21
98.8266928994
  0
LINE
  5
2D8
100
AcDbEntity
  8
0
100
AcDbLine
 62
7
  6
CONTINUOUS
 10
114.1253637872
 20
98.566361936
 11
114.1391687327
 21
98.5944420131
  0
LINE
  5
2D9
100
AcDbEntity
  8
0
100
AcDbLine
 62
7
  6
CONTINUOUS
 10
115.3292037705
 20
97.3625220907
 11
115.3153988247
 21
97.3344420131
  0
LINE
  5
2DA
100
AcDbEntity
  8
0
100
AcDbLine
 62
7
  6
CONTINUOUS
 10
47.6899197514
 20
135.1647248498
 11
47.7625520336
 21
135.16474123
  0
LINE
  5
2DB
100
AcDbEntity
  8
0
100
AcDbLine
 62
7
  6
CONTINUOUS
 10
111.7654662085
 20
135.162531325
 11
111.690658444
 21
135.1625488478
  0
LINE
  5
2DC
100
AcDbEntity
  8
0
100
AcDbLine
 62
7
  6
CONTINUOUS
 10
48.1347545985
 20
157.1524193247
 11
47.589949842
 21
157.5780674501
  0
LINE
  5
2DD
100
AcDbEntity
  8
0
100
AcDbLine
 62
7
  6
CONTINUOUS
 10
47.7735704047
 20
157.7518618975
 11
48.2886699673
 21
157.349422013
  0
LINE
  5
2DE
100
AcDbEntity
  8
0
100
AcDbLine
 62
7
  6
CONTINUOUS
 10
110.6468456589
 20
97.5409901756
 11
110.6468426261
 21
97.5644420131
  0
LINE
  5
2DF
100
AcDbEntity
  8
0
100
AcDbLine
 62
7
  6
CONTINUOUS
 10
111.7272837787
 20
98.5944420131
 11
111.7272837787
 21
97.3344420131
  0
LINE
  5
2E0
100
AcDbEntity
  8
0
100
AcDbLine
 62
7
  6
CONTINUOUS
 10
112.7772837787
 20
105.9644420131
 11
112.7772837787
 21
106.3144420131
  0
LINE
  5
2E1
100
AcDbEntity
  8
0
100
AcDbLine
 62
7
  6
CONTINUOUS
 10
113.0772837787
 20
106.3144420131
 11
113.0772837787
 21
105.9644420131
  0
LINE
  5
2E2
100
AcDbEntity
  8
0
100
AcDbLine
 62
7
  6
CONTINUOUS
 10
113.6772837787
 20
88.9644420131
 11
113.6772837787
 21
90.2644420131
  0
LINE
  5
2E3
100
AcDbEntity
  8
0
100
AcDbLine
 62
7
  6
CONTINUOUS
 10
113.6772837787
 20
104.5644420131
 11
113.6772837787
 21
105.8644420131
  0
LINE
  5
2E4
100
AcDbEntity
  8
0
100
AcDbLine
 62
7
  6
CONTINUOUS
 10
113.9772837787
 20
90.3644420131
 11
113.9772837787
 21
90.7144420131
  0
LINE
  5
2E5
100
AcDbEntity
  8
0
100
AcDbLine
 62
7
  6
CONTINUOUS
 10
113.9772837787
 20
105.9644420131
 11
113.9772837787
 21
106.3144420131
  0
LINE
  5
2E6
100
AcDbEntity
  8
0
100
AcDbLine
 62
7
  6
CONTINUOUS
 10
114.2772837787
 20
106.3144420131
 11
114.2772837787
 21
105.9644420131
  0
LINE
  5
2E7
100
AcDbEntity
  8
0
100
AcDbLine
 62
7
  6
CONTINUOUS
 10
114.2772837787
 20
90.7144420131
 11
114.2772837787
 21
90.3644420131
  0
LINE
  5
2E8
100
AcDbEntity
  8
0
100
AcDbLine
 62
7
  6
CONTINUOUS
 10
114.7272837787
 20
93.7436635599
 11
114.7272837787
 21
93.8644420131
  0
LINE
  5
2E9
100
AcDbEntity
  8
0
100
AcDbLine
 62
7
  6
CONTINUOUS
 10
114.7272837787
 20
93.9644420131
 11
114.7272837787
 21
94.2644420131
  0
LINE
  5
2EA
100
AcDbEntity
  8
0
100
AcDbLine
 62
7
  6
CONTINUOUS
 10
114.7272837787
 20
102.0644420131
 11
114.7272837787
 21
102.1852204664
  0
LINE
  5
2EB
100
AcDbEntity
  8
0
100
AcDbLine
 62
7
  6
CONTINUOUS
 10
115.1772837787
 20
90.3644420131
 11
115.1772837787
 21
90.7144420131
  0
LINE
  5
2EC
100
AcDbEntity
  8
0
100
AcDbLine
 62
7
  6
CONTINUOUS
 10
115.4772837787
 20
90.7144420131
 11
115.4772837787
 21
90.3644420131
  0
LINE
  5
2ED
100
AcDbEntity
  8
0
100
AcDbLine
 62
7
  6
CONTINUOUS
 10
110.6483234818
 20
98.3840056113
 11
110.6468426261
 21
98.3644420131
  0
LINE
  5
2EE
100
AcDbEntity
  8
0
100
AcDbLine
 62
7
  6
CONTINUOUS
 10
115.2470072629
 20
97.444718529
 11
115.0872841843
 21
97.1021911269
  0
LINE
  5
2EF
100
AcDbEntity
  8
0
100
AcDbLine
 62
7
  6
CONTINUOUS
 10
65.2267512508
 20
140.3394420131
 11
94.2280104701
 21
140.3394420131
  0
LINE
  5
2F0
100
AcDbEntity
  8
0
100
AcDbLine
 62
7
  6
CONTINUOUS
 10
114.1391688237
 20
97.3344420131
 11
114.1253638558
 21
97.3625220216
  0
LINE
  5
2F1
100
AcDbEntity
  8
0
100
AcDbLine
 62
7
  6
CONTINUOUS
 10
115.3153987338
 20
98.5944420131
 11
115.3292037016
 21
98.5663620047
  0
LINE
  5
2F2
100
AcDbEntity
  8
0
100
AcDbLine
 62
7
  6
CONTINUOUS
 10
114.3672852456
 20
97.1021878308
 11
114.2075602945
 21
97.444718529
  0
LINE
  5
2F3
100
AcDbEntity
  8
0
100
AcDbLine
 62
7
  6
CONTINUOUS
 10
115.0872823118
 20
98.8266961954
 11
115.2470072629
 21
98.4841654973
  0
LINE
  5
2F4
100
AcDbEntity
  8
0
100
AcDbLine
 62
7
  6
CONTINUOUS
 10
115.7272837787
 20
166.9644420131
 11
115.7272837787
 21
166.4644420131
  0
LINE
  5
2F5
100
AcDbEntity
  8
0
100
AcDbLine
 62
7
  6
CONTINUOUS
 10
115.7772837787
 20
105.8644420131
 11
115.7772837787
 21
104.5644420131
  0
LINE
  5
2F6
100
AcDbEntity
  8
0
100
AcDbLine
 62
7
  6
CONTINUOUS
 10
115.7772837787
 20
90.2644420131
 11
115.7772837787
 21
88.9644420131
  0
LINE
  5
2F7
100
AcDbEntity
  8
0
100
AcDbLine
 62
7
  6
CONTINUOUS
 10
116.7272837795
 20
94.2644420131
 11
116.7272837795
 21
93.9644420131
  0
LINE
  5
2F8
100
AcDbEntity
  8
0
100
AcDbLine
 62
7
  6
CONTINUOUS
 10
117.5272837787
 20
102.0644420131
 11
117.5272837787
 21
100.7798355526
  0
LINE
  5
2F9
100
AcDbEntity
  8
0
100
AcDbLine
 62
7
  6
CONTINUOUS
 10
117.5272837787
 20
94.1550452942
 11
117.5272837787
 21
93.8644420131
  0
LINE
  5
2FA
100
AcDbEntity
  8
0
100
AcDbLine
 62
7
  6
CONTINUOUS
 10
117.7272837787
 20
98.5944420131
 11
117.7272837787
 21
97.3344420131
  0
LINE
  5
2FB
100
AcDbEntity
  8
0
100
AcDbLine
 62
7
  6
CONTINUOUS
 10
117.758654988
 20
101.7644420131
 11
117.758654988
 21
100.5121556473
  0
LINE
  5
2FC
100
AcDbEntity
  8
0
100
AcDbLine
 62
7
  6
CONTINUOUS
 10
117.7972108254
 20
100.4675493069
 11
117.7972108254
 21
101.7644420131
  0
LINE
  5
2FD
100
AcDbEntity
  8
0
100
AcDbLine
 62
7
  6
CONTINUOUS
 10
117.8197956228
 20
93.8476268567
 11
117.8197956228
 21
94.3040875231
  0
LINE
  5
2FE
100
AcDbEntity
  8
0
100
AcDbLine
 62
7
  6
CONTINUOUS
 10
117.8197956228
 20
100.4414203151
 11
117.8197956228
 21
102.0812571696
  0
LINE
  5
2FF
100
AcDbEntity
  8
0
100
AcDbLine
 62
7
  6
CONTINUOUS
 10
118.4272837787
 20
97.9644417329
 11
118.4272837787
 21
95.9644417653
  0
LINE
  5
300
100
AcDbEntity
  8
0
100
AcDbLine
 62
7
  6
CONTINUOUS
 10
118.7272837787
 20
95.9644420131
 11
118.7272837787
 21
97.9644420131
  0
LINE
  5
301
100
AcDbEntity
  8
0
100
AcDbLine
 62
7
  6
CONTINUOUS
 10
118.9272837787
 20
102.164674896
 11
118.9272837787
 21
102.0822702789
  0
LINE
  5
302
100
AcDbEntity
  8
0
100
AcDbLine
 62
7
  6
CONTINUOUS
 10
118.9272837786
 20
93.8466137474
 11
118.9272837787
 21
93.7642091303
  0
LINE
  5
303
100
AcDbEntity
  8
0
100
AcDbLine
 62
7
  6
CONTINUOUS
 10
119.0058408929
 20
164.9644420127
 11
119.0058408929
 21
102.9635785238
  0
LINE
  5
304
100
AcDbEntity
  8
0
100
AcDbLine
 62
7
  6
CONTINUOUS
 10
119.0058408929
 20
92.9653055024
 11
119.0058408929
 21
37.964441122
  0
LINE
  5
305
100
AcDbEntity
  8
0
100
AcDbLine
 62
7
  6
CONTINUOUS
 10
119.4272837787
 20
102.2894694587
 11
119.4272837787
 21
93.6389586852
  0
LINE
  5
306
100
AcDbEntity
  8
0
100
AcDbLine
 62
7
  6
CONTINUOUS
 10
119.7272837787
 20
37.9644420128
 11
119.7272837787
 21
164.9644420131
  0
LINE
  5
307
100
AcDbEntity
  8
0
100
AcDbLine
 62
7
  6
CONTINUOUS
 10
119.9272837787
 20
48.4644420131
 11
119.9272837787
 21
118.4644420131
  0
LINE
  5
308
100
AcDbEntity
  8
0
100
AcDbLine
 62
7
  6
CONTINUOUS
 10
120.2272837787
 20
93.4644420131
 11
120.2272837787
 21
118.9644420131
  0
LINE
  5
309
100
AcDbEntity
  8
0
100
AcDbLine
 62
7
  6
CONTINUOUS
 10
49.5490565481
 20
152.0415980205
 11
49.4608645781
 21
152.0635867483
  0
LINE
  5
30A
100
AcDbEntity
  8
0
100
AcDbLine
 62
7
  6
CONTINUOUS
 10
52.8153028779
 20
152.1743517661
 11
52.7837151597
 21
152.1822274987
  0
LINE
  5
30B
100
AcDbEntity
  8
0
100
AcDbLine
 62
7
  6
CONTINUOUS
 10
47.0614200351
 20
153.608955834
 11
46.8163965999
 21
153.6700477852
  0
LINE
  5
30C
100
AcDbEntity
  8
0
100
AcDbLine
 62
7
  6
CONTINUOUS
 10
52.3931475301
 20
152.2796083608
 11
52.6381709575
 21
152.2185164116
  0
LINE
  5
30D
100
AcDbEntity
  8
0
100
AcDbLine
 62
7
  6
CONTINUOUS
 10
46.6255019317
 20
153.7176431454
 11
46.6708522352
 21
153.7063360465
  0
LINE
  5
30E
100
AcDbEntity
  8
0
100
AcDbLine
 62
7
  6
CONTINUOUS
 10
49.9055110093
 20
153.8469661764
 11
49.9937029792
 21
153.8249774486
  0
LINE
  5
30F
100
AcDbEntity
  8
0
100
AcDbLine
 62
7
  6
CONTINUOUS
 10
94.2278163066
 20
151.3394420131
 11
65.2265570873
 21
151.3394420131
  0
LINE
  5
310
100
AcDbEntity
  8
0
100
AcDbLine
 62
7
  6
CONTINUOUS
 10
15.7290539114
 20
153.1969069809
 11
45.6874422981
 21
153.1969069809
  0
LINE
  5
311
100
AcDbEntity
  8
0
100
AcDbLine
 62
7
  6
CONTINUOUS
 10
26.7034436955
 20
154.1969069809
 11
27.7076311317
 21
154.1969069809
  0
LINE
  5
312
100
AcDbEntity
  8
0
100
AcDbLine
 62
7
  6
CONTINUOUS
 10
32.3599938908
 20
154.1969069809
 11
33.3641813271
 21
154.1969069809
  0
LINE
  5
313
100
AcDbEntity
  8
0
100
AcDbLine
 62
7
  6
CONTINUOUS
 10
98.6049459962
 20
35.4815924452
 11
98.6579204567
 21
35.5345669057
  0
LINE
  5
314
100
AcDbEntity
  8
0
100
AcDbLine
 62
7
  6
CONTINUOUS
 10
99.657768229
 20
34.53471929
 11
99.6047936913
 21
34.48174475
  0
LINE
  5
315
100
AcDbEntity
  8
0
100
AcDbLine
 62
7
  6
CONTINUOUS
 10
31.6945175373
 20
156.2394601673
 11
28.3671349364
 21
156.2394601673
  0
LINE
  5
316
100
AcDbEntity
  8
0
100
AcDbLine
 62
7
  6
CONTINUOUS
 10
28.5335041438
 20
156.9203111499
 11
31.5281485679
 21
156.9203111499
  0
LINE
  5
317
100
AcDbEntity
  8
0
100
AcDbLine
 62
7
  6
CONTINUOUS
 10
46.2272837787
 20
158.1442820984
 11
49.7272837787
 21
158.1442820984
  0
LINE
  5
318
100
AcDbEntity
  8
0
100
AcDbLine
 62
7
  6
CONTINUOUS
 10
49.7272837787
 20
158.3942820984
 11
46.2272837787
 21
158.3942820984
  0
LINE
  5
319
100
AcDbEntity
  8
0
100
AcDbLine
 62
7
  6
CONTINUOUS
 10
79.7007065625
 20
165.9759505661
 11
79.7272837787
 21
165.978406065
  0
LINE
  5
31A
100
AcDbEntity
  8
0
100
AcDbLine
 62
7
  6
CONTINUOUS
 10
79.7272837787
 20
166.1194567426
 11
79.6890546788
 21
166.1160653423
  0
LINE
  5
31B
100
AcDbEntity
  8
0
100
AcDbLine
 62
7
  6
CONTINUOUS
 10
79.7007030588
 20
165.9783869697
 11
79.7272837787
 21
165.978406065
  0
LINE
  5
31C
100
AcDbEntity
  8
0
100
AcDbLine
 62
7
  6
CONTINUOUS
 10
29.3653498237
 20
162.1969069809
 11
30.7022754368
 21
162.1969069809
  0
LINE
  5
31D
100
AcDbEntity
  8
0
100
AcDbLine
 62
7
  6
CONTINUOUS
 10
15.7290539114
 20
163.1969069809
 11
45.6874422981
 21
163.1969069809
  0
LINE
  5
31E
100
AcDbEntity
  8
0
100
AcDbLine
 62
7
  6
CONTINUOUS
 10
15.4785461207
 20
164.9644429282
 11
14.7272837787
 21
164.9644429282
  0
LINE
  5
31F
100
AcDbEntity
  8
0
100
AcDbLine
 62
7
  6
CONTINUOUS
 10
119.0058408929
 20
164.9644420127
 11
119.7272837787
 21
164.9644420127
  0
LINE
  5
320
100
AcDbEntity
  8
0
100
AcDbLine
 62
7
  6
CONTINUOUS
 10
16.1790775282
 20
165.6644420131
 11
54.0881674485
 21
165.6644420131
  0
LINE
  5
321
100
AcDbEntity
  8
0
100
AcDbLine
 62
7
  6
CONTINUOUS
 10
105.3665166327
 20
165.6644420131
 11
118.3044380873
 21
165.6644420131
  0
LINE
  5
322
100
AcDbEntity
  8
0
100
AcDbLine
 62
7
  6
CONTINUOUS
 10
16.2272837787
 20
166.4644420131
 11
118.227283779
 21
166.4644420131
  0
LINE
  5
323
100
AcDbEntity
  8
0
100
AcDbLine
 62
7
  6
CONTINUOUS
 10
115.7272837787
 20
166.9644420131
 11
28.7272837787
 21
166.9644420131
  0
LINE
  5
324
100
AcDbEntity
  8
0
100
AcDbLine
 62
7
  6
CONTINUOUS
 10
79.7523364425
 20
166.1194468666
 11
79.6890469137
 21
166.1193912433
  0
LINE
  5
325
100
AcDbEntity
  8
0
100
AcDbLine
 62
7
  6
CONTINUOUS
 10
79.7523331035
 20
166.1171782461
 11
79.7272837787
 21
166.1194567426
  0
LINE
  5
326
100
AcDbEntity
  8
0
100
AcDbLine
 62
7
  6
CONTINUOUS
 10
79.727283778
 20
166.4194110512
 11
84.6330044943
 21
165.7227751662
  0
ARC
  5
327
100
AcDbEntity
  8
0
100
AcDbCircle
 62
7
  6
CONTINUOUS
 10
-2.0373515586
 20
5.0158470108
 40
37.1794476171
100
AcDbArc
 50
52.3357672715
 51
53.1964181644
  0
ARC
  5
328
100
AcDbEntity
  8
0
100
AcDbCircle
 62
7
  6
CONTINUOUS
 10
40.7775604457
 20
2.6557812861
 40
20.8621360643
100
AcDbArc
 50
91.6832047948
 51
91.8214058007
  0
CIRCLE
  5
329
100
AcDbEntity
  8
0
100
AcDbCircle
 62
7
  6
CONTINUOUS
 10
32.7272837787
 20
29.4644420131
 40
3.0
  0
CIRCLE
  5
32A
100
AcDbEntity
  8
0
100
AcDbCircle
 62
7
  6
CONTINUOUS
 10
32.7272837787
 20
29.4644420131
 40
2.5
  0
ARC
  5
32B
100
AcDbEntity
  8
0
100
AcDbCircle
 62
7
  6
CONTINUOUS
 10
16.2272837787
 20
37.9644420131
 40
1.5
100
AcDbArc
 50
180.0
 51
269.9999999946
  0
ARC
  5
32C
100
AcDbEntity
  8
0
100
AcDbCircle
 62
7
  6
CONTINUOUS
 10
25.8499874286
 20
24.587145663
 40
1.0002154544
100
AcDbArc
 50
180.0209581763
 51
269.9790418236
  0
ARC
  5
32D
100
AcDbEntity
  8
0
100
AcDbCircle
 62
7
  6
CONTINUOUS
 10
25.8499874146
 20
34.4813788967
 40
1.0002154541
100
AcDbArc
 50
90.020957376
 51
179.9790426241
  0
ARC
  5
32E
100
AcDbEntity
  8
0
100
AcDbCircle
 62
7
  6
CONTINUOUS
 10
39.7455341811
 20
24.4796354555
 40
0.9965182367
100
AcDbArc
 50
269.9980585317
 51
277.7239950552
  0
ARC
  5
32F
100
AcDbEntity
  8
0
100
AcDbCircle
 62
7
  6
CONTINUOUS
 10
23.7915320766
 20
35.5115615362
 40
0.9914658229
100
AcDbArc
 50
0.5056674043
 51
13.2532872964
  0
ARC
  5
330
100
AcDbEntity
  8
0
100
AcDbCircle
 62
7
  6
CONTINUOUS
 10
21.9359351471
 20
33.9644420131
 40
0.5
100
AcDbArc
 50
270.0
 51
359.0
  0
ARC
  5
331
100
AcDbEntity
  8
0
100
AcDbCircle
 62
7
  6
CONTINUOUS
 10
15.4272837787
 20
36.9644420131
 40
0.5
100
AcDbArc
 50
179.9999999997
 51
270.0
  0
ARC
  5
332
100
AcDbEntity
  8
0
100
AcDbCircle
 62
7
  6
CONTINUOUS
 10
15.4185514155
 20
33.9644450685
 40
0.4998775865
100
AcDbArc
 50
181.0005121419
 51
270.0092812579
  0
CIRCLE
  5
333
100
AcDbEntity
  8
0
100
AcDbCircle
 62
7
  6
CONTINUOUS
 10
82.7272837787
 20
29.4644420131
 40
2.25
  0
CIRCLE
  5
334
100
AcDbEntity
  8
0
100
AcDbCircle
 62
7
  6
CONTINUOUS
 10
82.7272837787
 20
29.4644420131
 40
2.0
  0
ARC
  5
335
100
AcDbEntity
  8
0
100
AcDbCircle
 62
7
  6
CONTINUOUS
 10
84.7095287869
 20
24.4871102396
 40
1.0039930479
100
AcDbArc
 50
261.4641544939
 51
269.9736549626
  0
ARC
  5
336
100
AcDbEntity
  8
0
100
AcDbCircle
 62
7
  6
CONTINUOUS
 10
76.2252715731
 20
60.9644298076
 40
0.4999877946
100
AcDbArc
 50
179.9986013158
 51
269.9988762212
  0
ARC
  5
337
100
AcDbEntity
  8
0
100
AcDbCircle
 62
7
  6
CONTINUOUS
 10
56.2650650543
 20
101.7651513918
 40
61.5321457748
100
AcDbArc
 50
359.9993725928
 51
0.3095051564
  0
ARC
  5
338
100
AcDbEntity
  8
0
100
AcDbCircle
 62
7
  6
CONTINUOUS
 10
45.7525950873
 20
127.0855183289
 40
60.2229744531
100
AcDbArc
 50
359.0900590014
 51
0.0037756176
  0
ARC
  5
339
100
AcDbEntity
  8
0
100
AcDbCircle
 62
7
  6
CONTINUOUS
 10
46.3002356696
 20
127.0946003355
 40
59.6770483272
100
AcDbArc
 50
359.9951001563
 51
1.947430392
  0
ARC
  5
33A
100
AcDbEntity
  8
0
100
AcDbCircle
 62
7
  6
CONTINUOUS
 10
48.2946407345
 20
127.1514241399
 40
57.6824539779
100
AcDbArc
 50
6.355274348
 51
8.8459222713
  0
ARC
  5
33B
100
AcDbEntity
  8
0
100
AcDbCircle
 62
7
  6
CONTINUOUS
 10
48.3729532406
 20
127.1647994827
 40
57.6031423578
100
AcDbArc
 50
1.9477064924
 51
6.3506745356
  0
ARC
  5
33C
100
AcDbEntity
  8
0
100
AcDbCircle
 62
7
  6
CONTINUOUS
 10
49.694856149
 20
127.3731691073
 40
56.2647941639
100
AcDbArc
 50
8.842067612
 51
11.3001098786
  0
ARC
  5
33D
100
AcDbEntity
  8
0
100
AcDbCircle
 62
7
  6
CONTINUOUS
 10
52.7761798298
 20
128.0164095326
 40
53.1171693197
100
AcDbArc
 50
11.2709950597
 51
16.4242618794
  0
ARC
  5
33E
100
AcDbEntity
  8
0
100
AcDbCircle
 62
7
  6
CONTINUOUS
 10
55.2903592155
 20
128.7242191336
 40
50.505461309
100
AcDbArc
 50
16.4605090164
 51
17.6720147453
  0
ARC
  5
33F
100
AcDbEntity
  8
0
100
AcDbCircle
 62
7
  6
CONTINUOUS
 10
62.2441239494
 20
131.4620376247
 40
43.0252105739
100
AcDbArc
 50
25.2282202172
 51
27.3313402651
  0
ARC
  5
340
100
AcDbEntity
  8
0
100
AcDbCircle
 62
7
  6
CONTINUOUS
 10
83.116217474
 20
112.0215810987
 40
25.192216181
100
AcDbArc
 50
231.1554206865
 51
232.4393135671
  0
ARC
  5
341
100
AcDbEntity
  8
0
100
AcDbCircle
 62
7
  6
CONTINUOUS
 10
76.5264620419
 20
111.7811366886
 40
24.8869320747
100
AcDbArc
 50
306.0271951958
 51
308.4163413053
  0
ARC
  5
342
100
AcDbEntity
  8
0
100
AcDbCircle
 62
7
  6
CONTINUOUS
 10
79.7007945112
 20
104.9468615294
 40
16.7434269629
100
AcDbArc
 50
268.3794366439
 51
270.0946389296
  0
ARC
  5
343
100
AcDbEntity
  8
0
100
AcDbCircle
 62
7
  6
CONTINUOUS
 10
79.7011289763
 20
104.9368839539
 40
16.7360671469
100
AcDbArc
 50
267.8052168782
 51
270.0935742636
  0
ARC
  5
344
100
AcDbEntity
  8
0
100
AcDbCircle
 62
7
  6
CONTINUOUS
 10
79.7540031935
 20
104.9386863577
 40
16.7352484582
100
AcDbArc
 50
269.9125167326
 51
271.6205672744
  0
ARC
  5
345
100
AcDbEntity
  8
0
100
AcDbCircle
 62
7
  6
CONTINUOUS
 10
79.7536855658
 20
104.9287807976
 40
16.7279606878
100
AcDbArc
 50
269.9136053176
 51
272.1949458783
  0
ARC
  5
346
100
AcDbEntity
  8
0
100
AcDbCircle
 62
7
  6
CONTINUOUS
 10
79.7007871629
 20
104.9379441997
 40
16.7231469503
100
AcDbArc
 50
267.7841483081
 51
268.3386020099
  0
ARC
  5
347
100
AcDbEntity
  8
0
100
AcDbCircle
 62
7
  6
CONTINUOUS
 10
79.7539647123
 20
104.9313898293
 40
16.7165899896
100
AcDbArc
 50
271.6614178325
 51
272.2162936718
  0
ARC
  5
348
100
AcDbEntity
  8
0
100
AcDbCircle
 62
7
  6
CONTINUOUS
 10
62.2216838086
 20
121.1126149914
 40
4.4764556566
100
AcDbArc
 50
77.006499235
 51
102.8863903243
  0
ARC
  5
349
100
AcDbEntity
  8
0
100
AcDbCircle
 62
7
  6
CONTINUOUS
 10
62.2272837787
 20
127.0894420131
 40
1.9
100
AcDbArc
 50
121.8956582215
 51
238.1042973784
  0
ARC
  5
34A
100
AcDbEntity
  8
0
100
AcDbCircle
 62
7
  6
CONTINUOUS
 10
62.2272837787
 20
127.0894420131
 40
1.9
100
AcDbArc
 50
301.7882726586
 51
58.2116829288
  0
CIRCLE
  5
34B
100
AcDbEntity
  8
0
100
AcDbCircle
 62
7
  6
CONTINUOUS
 10
71.7272837787
 20
113.5894420131
 40
0.9
  0
CIRCLE
  5
34C
100
AcDbEntity
  8
0
100
AcDbCircle
 62
7
  6
CONTINUOUS
 10
62.2272450434
 20
127.0894496306
 40
0.8999583878
  0
ARC
  5
34D
100
AcDbEntity
  8
0
100
AcDbCircle
 62
7
  6
CONTINUOUS
 10
79.7272837787
 20
89.0144420131
 40
0.65
100
AcDbArc
 50
0.0517022819
 51
179.9860258109
  0
ARC
  5
34E
100
AcDbEntity
  8
0
100
AcDbCircle
 62
7
  6
CONTINUOUS
 10
79.7272837694
 20
89.0143288055
 40
0.5113844163
100
AcDbArc
 50
26.2187156129
 51
153.7812831776
  0
ARC
  5
34F
100
AcDbEntity
  8
0
100
AcDbCircle
 62
7
  6
CONTINUOUS
 10
79.7272837787
 20
89.0144420131
 40
0.5
100
AcDbArc
 50
0.0
 51
180.0
  0
ARC
  5
350
100
AcDbEntity
  8
0
100
AcDbCircle
 62
7
  6
CONTINUOUS
 10
76.225262333
 20
80.4644793443
 40
0.4999626688
100
AcDbArc
 50
90.0000494458
 51
179.1425367566
  0
ARC
  5
351
100
AcDbEntity
  8
0
100
AcDbCircle
 62
7
  6
CONTINUOUS
 10
87.4244332574
 20
137.7725132483
 40
31.3504207092
100
AcDbArc
 50
138.9904119343
 51
139.740400643
  0
ARC
  5
352
100
AcDbEntity
  8
0
100
AcDbCircle
 62
7
  6
CONTINUOUS
 10
74.1636447021
 20
139.7306173093
 40
28.4538722762
100
AcDbArc
 50
44.6376668046
 51
44.9718702579
  0
ARC
  5
353
100
AcDbEntity
  8
0
100
AcDbCircle
 62
7
  6
CONTINUOUS
 10
57.0422536523
 20
180.7636581464
 40
27.1177603005
100
AcDbArc
 50
255.2450653412
 51
255.3669807085
  0
ARC
  5
354
100
AcDbEntity
  8
0
100
AcDbCircle
 62
7
  6
CONTINUOUS
 10
81.5812261909
 20
144.3462759293
 40
22.5183355992
100
AcDbArc
 50
121.8620313945
 51
122.0541701069
  0
ARC
  5
355
100
AcDbEntity
  8
0
100
AcDbCircle
 62
7
  6
CONTINUOUS
 10
62.1757397015
 20
182.4479403573
 40
18.7203277224
100
AcDbArc
 50
244.5186493347
 51
244.6671464313
  0
ARC
  5
356
100
AcDbEntity
  8
0
100
AcDbCircle
 62
7
  6
CONTINUOUS
 10
79.7199120651
 20
148.7687050477
 40
17.6957385009
100
AcDbArc
 50
89.9761316493
 51
93.6070241707
  0
ARC
  5
357
100
AcDbEntity
  8
0
100
AcDbCircle
 62
7
  6
CONTINUOUS
 10
51.1146828288
 20
158.4950735134
 40
7.3711622601
100
AcDbArc
 50
255.9305826681
 51
256.3230146824
  0
ARC
  5
358
100
AcDbEntity
  8
0
100
AcDbCircle
 62
7
  6
CONTINUOUS
 10
51.1135253647
 20
158.4903516155
 40
7.1649517896
100
AcDbArc
 50
255.9731714595
 51
256.3661001516
  0
ARC
  5
359
100
AcDbEntity
  8
0
100
AcDbCircle
 62
7
  6
CONTINUOUS
 10
62.2216885687
 20
133.0662688382
 40
4.4764554593
100
AcDbArc
 50
257.1137980306
 51
282.9936850576
  0
ARC
  5
35A
100
AcDbEntity
  8
0
100
AcDbCircle
 62
7
  6
CONTINUOUS
 10
16.2272837787
 20
164.9644420131
 40
1.5
100
AcDbArc
 50
90.0
 51
179.9999999944
  0
ARC
  5
35B
100
AcDbEntity
  8
0
100
AcDbCircle
 62
7
  6
CONTINUOUS
 10
65.2272837787
 20
141.3394420131
 40
1.0
100
AcDbArc
 50
180.0416318082
 51
269.9694894005
  0
ARC
  5
35C
100
AcDbEntity
  8
0
100
AcDbCircle
 62
7
  6
CONTINUOUS
 10
65.2272837787
 20
150.3394420131
 40
1.0
100
AcDbArc
 50
90.0416456631
 51
179.9694918559
  0
CIRCLE
  5
35D
100
AcDbEntity
  8
0
100
AcDbCircle
 62
7
  6
CONTINUOUS
 10
79.7272837787
 20
138.0894420131
 40
0.9
  0
ARC
  5
35E
100
AcDbEntity
  8
0
100
AcDbCircle
 62
7
  6
CONTINUOUS
 10
48.6272837787
 20
157.7828279275
 40
0.8
100
AcDbArc
 50
232.0000000007
 51
307.9999999993
  0
ARC
  5
35F
100
AcDbEntity
  8
0
100
AcDbCircle
 62
7
  6
CONTINUOUS
 10
47.2810412244
 20
157.1214532946
 40
0.8
100
AcDbArc
 50
52.0000000007
 51
126.0273733827
  0
ARC
  5
360
100
AcDbEntity
  8
0
100
AcDbCircle
 62
7
  6
CONTINUOUS
 10
52.1998787123
 20
152.3281787456
 40
0.6018029274
100
AcDbArc
 50
340.4445273042
 51
345.9645446581
  0
ARC
  5
361
100
AcDbEntity
  8
0
100
AcDbCircle
 62
7
  6
CONTINUOUS
 10
47.2546855985
 20
153.5603868273
 40
0.6017994439
100
AcDbArc
 50
160.4445480832
 51
165.9645967888
  0
ARC
  5
362
100
AcDbEntity
  8
0
100
AcDbCircle
 62
7
  6
CONTINUOUS
 10
48.6272837787
 20
157.7828279275
 40
0.55
100
AcDbArc
 50
232.000000001
 51
307.999990627
  0
ARC
  5
363
100
AcDbEntity
  8
0
100
AcDbCircle
 62
7
  6
CONTINUOUS
 10
47.2821191044
 20
157.1840620733
 40
0.5
100
AcDbArc
 50
52.0
 51
126.0273733888
  0
CIRCLE
  5
364
100
AcDbEntity
  8
0
100
AcDbCircle
 62
7
  6
CONTINUOUS
 10
91.7272837787
 20
29.4644420131
 40
5.0
  0
CIRCLE
  5
365
100
AcDbEntity
  8
0
100
AcDbCircle
 62
7
  6
CONTINUOUS
 10
91.7272837787
 20
29.4644420131
 40
4.6
  0
CIRCLE
  5
366
100
AcDbEntity
  8
0
100
AcDbCircle
 62
7
  6
CONTINUOUS
 10
91.7272837787
 20
29.4644420131
 40
4.5
  0
CIRCLE
  5
367
100
AcDbEntity
  8
0
100
AcDbCircle
 62
7
  6
CONTINUOUS
 10
91.7272837787
 20
29.4644420131
 40
4.3721354523
  0
CIRCLE
  5
368
100
AcDbEntity
  8
0
100
AcDbCircle
 62
7
  6
CONTINUOUS
 10
91.7272837787
 20
29.4644420131
 40
3.2056430023
  0
ARC
  5
369
100
AcDbEntity
  8
0
100
AcDbCircle
 62
7
  6
CONTINUOUS
 10
118.2272837787
 20
37.9644420131
 40
1.5
100
AcDbArc
 50
270.0
 51
359.9999999943
  0
ARC
  5
36A
100
AcDbEntity
  8
0
100
AcDbCircle
 62
7
  6
CONTINUOUS
 10
98.6045803742
 20
34.4813791281
 40
1.0002154544
100
AcDbArc
 50
0.020944126
 51
89.9790558741
  0
ARC
  5
36B
100
AcDbEntity
  8
0
100
AcDbCircle
 62
7
  6
CONTINUOUS
 10
98.6045803745
 20
24.5871454173
 40
1.0002154541
100
AcDbArc
 50
270.0209441085
 51
359.9790558915
  0
ARC
  5
36C
100
AcDbEntity
  8
0
100
AcDbCircle
 62
7
  6
CONTINUOUS
 10
100.6649924047
 20
35.5113219532
 40
0.9934248108
100
AcDbArc
 50
166.7596773946
 51
179.4814867602
  0
ARC
  5
36D
100
AcDbEntity
  8
0
100
AcDbCircle
 62
7
  6
CONTINUOUS
 10
92.5772837787
 20
28.6144420131
 40
0.5
100
AcDbArc
 50
90.0
 51
180.0
  0
ARC
  5
36E
100
AcDbEntity
  8
0
100
AcDbCircle
 62
7
  6
CONTINUOUS
 10
90.8772837787
 20
28.6144420131
 40
0.5
100
AcDbArc
 50
0.0
 51
90.0
  0
ARC
  5
36F
100
AcDbEntity
  8
0
100
AcDbCircle
 62
7
  6
CONTINUOUS
 10
90.8772837787
 20
30.3144420131
 40
0.5
100
AcDbArc
 50
270.0
 51
360.0
  0
ARC
  5
370
100
AcDbEntity
  8
0
100
AcDbCircle
 62
7
  6
CONTINUOUS
 10
92.5772837787
 20
30.3144420131
 40
0.5
100
AcDbArc
 50
180.0
 51
270.0
  0
ARC
  5
371
100
AcDbEntity
  8
0
100
AcDbCircle
 62
7
  6
CONTINUOUS
 10
90.9312911852
 20
86.5409222961
 40
27.3150505365
100
AcDbArc
 50
26.3197427306
 51
27.3252133374
  0
ARC
  5
372
100
AcDbEntity
  8
0
100
AcDbCircle
 62
7
  6
CONTINUOUS
 10
104.2514792051
 20
76.046833159
 40
25.096716109
100
AcDbArc
 50
62.8398095448
 51
63.8066726722
  0
ARC
  5
373
100
AcDbEntity
  8
0
100
AcDbCircle
 62
7
  6
CONTINUOUS
 10
106.4778642681
 20
80.5384082481
 40
20.1981299582
100
AcDbArc
 50
63.3733425935
 51
63.7391710829
  0
ARC
  5
374
100
AcDbEntity
  8
0
100
AcDbCircle
 62
7
  6
CONTINUOUS
 10
90.3359689683
 20
109.6867104969
 40
27.9811277364
100
AcDbArc
 50
332.6907276691
 51
333.6724518354
  0
ARC
  5
375
100
AcDbEntity
  8
0
100
AcDbCircle
 62
7
  6
CONTINUOUS
 10
104.2614671485
 20
119.8621017341
 40
25.0744068337
100
AcDbArc
 50
296.1929694635
 51
297.1606899456
  0
ARC
  5
376
100
AcDbEntity
  8
0
100
AcDbCircle
 62
7
  6
CONTINUOUS
 10
106.4655825502
 20
115.4152825113
 40
20.2258104025
100
AcDbArc
 50
296.2609820928
 51
296.626266049
  0
ARC
  5
377
100
AcDbEntity
  8
0
100
AcDbCircle
 62
7
  6
CONTINUOUS
 10
114.7272837787
 20
90.7144420131
 40
0.75
100
AcDbArc
 50
0.0
 51
180.0
  0
ARC
  5
378
100
AcDbEntity
  8
0
100
AcDbCircle
 62
7
  6
CONTINUOUS
 10
114.7272837787
 20
90.7144420131
 40
0.45
100
AcDbArc
 50
0.0
 51
180.0
  0
ARC
  5
379
100
AcDbEntity
  8
0
100
AcDbCircle
 62
7
  6
CONTINUOUS
 10
115.6772837787
 20
90.2644420131
 40
0.1
100
AcDbArc
 50
0.0
 51
90.0
  0
ARC
  5
37A
100
AcDbEntity
  8
0
100
AcDbCircle
 62
7
  6
CONTINUOUS
 10
115.6772837787
 20
88.9644420131
 40
0.1
100
AcDbArc
 50
270.0
 51
360.0
  0
ARC
  5
37B
100
AcDbEntity
  8
0
100
AcDbCircle
 62
7
  6
CONTINUOUS
 10
113.7772837787
 20
88.9644420131
 40
0.1
100
AcDbArc
 50
180.0
 51
270.0
  0
ARC
  5
37C
100
AcDbEntity
  8
0
100
AcDbCircle
 62
7
  6
CONTINUOUS
 10
113.7772837787
 20
90.2644420131
 40
0.1
100
AcDbArc
 50
90.0
 51
180.0
  0
ARC
  5
37D
100
AcDbEntity
  8
0
100
AcDbCircle
 62
7
  6
CONTINUOUS
 10
114.7041478245
 20
97.9612596342
 40
4.2176595309
100
AcDbArc
 50
269.4891614921
 51
270.3142973413
  0
ARC
  5
37E
100
AcDbEntity
  8
0
100
AcDbCircle
 62
7
  6
CONTINUOUS
 10
114.6693615973
 20
97.9644117207
 40
4.1844238784
100
AcDbArc
 50
178.8921425985
 51
179.9995852166
  0
ARC
  5
37F
100
AcDbEntity
  8
0
100
AcDbCircle
 62
7
  6
CONTINUOUS
 10
114.6664706238
 20
97.9644594277
 40
4.1815329048
100
AcDbArc
 50
180.0002386155
 51
180.8314097319
  0
ARC
  5
380
100
AcDbEntity
  8
0
100
AcDbCircle
 62
7
  6
CONTINUOUS
 10
114.7127794427
 20
97.9643247199
 40
4.1327066409
100
AcDbArc
 50
174.4440771957
 51
179.9983738483
  0
ARC
  5
381
100
AcDbEntity
  8
0
100
AcDbCircle
 62
7
  6
CONTINUOUS
 10
114.7041477126
 20
97.9676895789
 40
4.2175943457
100
AcDbArc
 50
89.6856962807
 51
90.5108447558
  0
ARC
  5
382
100
AcDbEntity
  8
0
100
AcDbCircle
 62
7
  6
CONTINUOUS
 10
114.7127794427
 20
97.9645593064
 40
4.1327066409
100
AcDbArc
 50
180.0016261517
 51
185.5559228043
  0
ARC
  5
383
100
AcDbEntity
  8
0
100
AcDbCircle
 62
7
  6
CONTINUOUS
 10
114.7742366396
 20
97.9475473689
 40
5.0366300747
100
AcDbArc
 50
89.7714882371
 51
90.5414322642
  0
ARC
  5
384
100
AcDbEntity
  8
0
100
AcDbCircle
 62
7
  6
CONTINUOUS
 10
114.7272837787
 20
97.9644420131
 40
4.1
100
AcDbArc
 50
90.0
 51
174.1271855171
  0
ARC
  5
385
100
AcDbEntity
  8
0
100
AcDbCircle
 62
7
  6
CONTINUOUS
 10
114.7272837787
 20
97.9644420131
 40
4.1
100
AcDbArc
 50
185.802647423
 51
270.0
  0
ARC
  5
386
100
AcDbEntity
  8
0
100
AcDbCircle
 62
7
  6
CONTINUOUS
 10
114.7272837787
 20
97.9644420131
 40
4.0
100
AcDbArc
 50
0.0
 51
270.0
  0
ARC
  5
387
100
AcDbEntity
  8
0
100
AcDbCircle
 62
7
  6
CONTINUOUS
 10
114.7272837787
 20
97.9644420131
 40
3.69999998
100
AcDbArc
 50
359.9999956601
 51
270.0000043283
  0
ARC
  5
388
100
AcDbEntity
  8
0
100
AcDbCircle
 62
7
  6
CONTINUOUS
 10
114.7272837787
 20
97.9644420131
 40
2.2
100
AcDbArc
 50
258.3827626575
 51
281.6175948287
  0
ARC
  5
389
100
AcDbEntity
  8
0
100
AcDbCircle
 62
7
  6
CONTINUOUS
 10
114.7272837787
 20
97.9644420131
 40
2.2
100
AcDbArc
 50
78.3827626574
 51
101.6176000409
  0
ARC
  5
38A
100
AcDbEntity
  8
0
100
AcDbCircle
 62
7
  6
CONTINUOUS
 10
114.7272837787
 20
97.9644420131
 40
1.6069230599
100
AcDbArc
 50
345.720237415
 51
14.2798025363
  0
ARC
  5
38B
100
AcDbEntity
  8
0
100
AcDbCircle
 62
7
  6
CONTINUOUS
 10
114.7272837787
 20
97.9644420131
 40
1.6069230599
100
AcDbArc
 50
165.720237415
 51
192.9458882361
  0
ARC
  5
38C
100
AcDbEntity
  8
0
100
AcDbCircle
 62
7
  6
CONTINUOUS
 10
114.7272837787
 20
97.9644420131
 40
1.145
100
AcDbArc
 50
161.6747712925
 51
198.3252287075
  0
ARC
  5
38D
100
AcDbEntity
  8
0
100
AcDbCircle
 62
7
  6
CONTINUOUS
 10
114.7272837787
 20
97.9644420131
 40
1.145
100
AcDbArc
 50
251.6747712925
 51
288.325296613
  0
ARC
  5
38E
100
AcDbEntity
  8
0
100
AcDbCircle
 62
7
  6
CONTINUOUS
 10
114.7272837787
 20
97.9644420131
 40
1.145
100
AcDbArc
 50
71.6747864969
 51
108.3252287075
  0
ARC
  5
38F
100
AcDbEntity
  8
0
100
AcDbCircle
 62
7
  6
CONTINUOUS
 10
114.7272837787
 20
97.9644420131
 40
1.145
100
AcDbArc
 50
341.6747864965
 51
18.3252966128
  0
ARC
  5
390
100
AcDbEntity
  8
0
100
AcDbCircle
 62
7
  6
CONTINUOUS
 10
114.7742388412
 20
97.9813929577
 40
5.0366863904
100
AcDbArc
 50
269.458588598
 51
270.2284674818
  0
ARC
  5
391
100
AcDbEntity
  8
0
100
AcDbCircle
 62
7
  6
CONTINUOUS
 10
118.926586926
 20
93.0459361168
 40
0.8006900015
100
AcDbArc
 50
359.9960798044
 51
89.9501338544
  0
ARC
  5
392
100
AcDbEntity
  8
0
100
AcDbCircle
 62
7
  6
CONTINUOUS
 10
116.7272837787
 20
95.9644420131
 40
2.0
100
AcDbArc
 50
270.0
 51
360.0
  0
ARC
  5
393
100
AcDbEntity
  8
0
100
AcDbCircle
 62
7
  6
CONTINUOUS
 10
116.7272837787
 20
95.9644420131
 40
1.7000000217
100
AcDbArc
 50
270.0000083524
 51
359.9999916478
  0
CIRCLE
  5
394
100
AcDbEntity
  8
0
100
AcDbCircle
 62
7
  6
CONTINUOUS
 10
117.2021575129
 20
95.489568279
 40
0.6
  0
ARC
  5
395
100
AcDbEntity
  8
0
100
AcDbCircle
 62
7
  6
CONTINUOUS
 10
125.1931698098
 20
76.066643692
 40
25.074561835
100
AcDbArc
 50
116.1929719686
 51
117.1606864883
  0
ARC
  5
396
100
AcDbEntity
  8
0
100
AcDbCircle
 62
7
  6
CONTINUOUS
 10
122.9889900201
 20
80.5135918954
 40
20.2258212477
100
AcDbArc
 50
116.2609827687
 51
116.6262665267
  0
ARC
  5
397
100
AcDbEntity
  8
0
100
AcDbCircle
 62
7
  6
CONTINUOUS
 10
119.9272837787
 20
98.6644420131
 40
0.3
100
AcDbArc
 50
0.0
 51
90.0
  0
ARC
  5
398
100
AcDbEntity
  8
0
100
AcDbCircle
 62
7
  6
CONTINUOUS
 10
119.9272837787
 20
97.2644420131
 40
0.3
100
AcDbArc
 50
270.0
 51
360.0
  0
ARC
  5
399
100
AcDbEntity
  8
0
100
AcDbCircle
 62
7
  6
CONTINUOUS
 10
113.7428850853
 20
127.0907419854
 40
60.2656187758
100
AcDbArc
 50
179.1601737043
 51
180.0013028745
  0
ARC
  5
39A
100
AcDbEntity
  8
0
100
AcDbCircle
 62
7
  6
CONTINUOUS
 10
113.5071859562
 20
127.0843608037
 40
60.0281880226
100
AcDbArc
 50
179.9952114993
 51
181.2357589449
  0
ARC
  5
39B
100
AcDbEntity
  8
0
100
AcDbCircle
 62
7
  6
CONTINUOUS
 10
111.1685536344
 20
127.0360648111
 40
57.690697178
100
AcDbArc
 50
186.8342524866
 51
188.9065692829
  0
ARC
  5
39C
100
AcDbEntity
  8
0
100
AcDbCircle
 62
7
  6
CONTINUOUS
 10
125.1088002869
 20
119.6907806999
 40
24.8834728812
100
AcDbArc
 50
242.8813639593
 51
243.8070841228
  0
ARC
  5
39D
100
AcDbEntity
  8
0
100
AcDbCircle
 62
7
  6
CONTINUOUS
 10
122.9767032536
 20
115.3904757064
 40
20.198129878
100
AcDbArc
 50
243.373342593
 51
243.7391710825
  0
ARC
  5
39E
100
AcDbEntity
  8
0
100
AcDbCircle
 62
7
  6
CONTINUOUS
 10
118.9265865585
 20
102.8829478703
 40
0.8006901858
100
AcDbArc
 50
270.0498924481
 51
0.0039239157
  0
ARC
  5
39F
100
AcDbEntity
  8
0
100
AcDbCircle
 62
7
  6
CONTINUOUS
 10
113.5272837787
 20
106.3144420131
 40
0.75
100
AcDbArc
 50
0.0
 51
180.0
  0
ARC
  5
3A0
100
AcDbEntity
  8
0
100
AcDbCircle
 62
7
  6
CONTINUOUS
 10
113.5272837787
 20
106.3144420131
 40
0.45
100
AcDbArc
 50
0.0
 51
180.0
  0
ARC
  5
3A1
100
AcDbEntity
  8
0
100
AcDbCircle
 62
7
  6
CONTINUOUS
 10
113.7772837787
 20
105.8644420131
 40
0.1
100
AcDbArc
 50
90.0
 51
180.0
  0
ARC
  5
3A2
100
AcDbEntity
  8
0
100
AcDbCircle
 62
7
  6
CONTINUOUS
 10
115.6772837787
 20
105.8644420131
 40
0.1
100
AcDbArc
 50
0.0
 51
90.0
  0
ARC
  5
3A3
100
AcDbEntity
  8
0
100
AcDbCircle
 62
7
  6
CONTINUOUS
 10
115.6772837787
 20
104.5644420131
 40
0.1
100
AcDbArc
 50
270.0
 51
360.0
  0
ARC
  5
3A4
100
AcDbEntity
  8
0
100
AcDbCircle
 62
7
  6
CONTINUOUS
 10
113.7772837787
 20
104.5644420131
 40
0.1
100
AcDbArc
 50
180.0
 51
270.0
  0
ARC
  5
3A5
100
AcDbEntity
  8
0
100
AcDbCircle
 62
7
  6
CONTINUOUS
 10
177.9414554669
 20
101.7687908677
 40
60.1828006335
100
AcDbArc
 50
179.6871167328
 51
180.0041062906
  0
ARC
  5
3A6
100
AcDbEntity
  8
0
100
AcDbCircle
 62
7
  6
CONTINUOUS
 10
139.1185986095
 20
86.242173519
 40
27.9811277593
100
AcDbArc
 50
152.6907276694
 51
153.672451833
  0
ARC
  5
3A7
100
AcDbEntity
  8
0
100
AcDbCircle
 62
7
  6
CONTINUOUS
 10
138.5232762991
 20
109.3879619725
 40
27.3150505809
100
AcDbArc
 50
206.3197432533
 51
207.3252138605
  0
ARC
  5
3A8
100
AcDbEntity
  8
0
100
AcDbCircle
 62
7
  6
CONTINUOUS
 10
130.0700907095
 20
260.742002123
 40
164.0115056048
100
AcDbArc
 50
264.082535715
 51
264.2949261264
  0
ARC
  5
3A9
100
AcDbEntity
  8
0
100
AcDbCircle
 62
7
  6
CONTINUOUS
 10
102.2466179799
 20
172.0027443843
 40
7.1523723476
100
AcDbArc
 50
295.1624914237
 51
295.5568533224
  0
ARC
  5
3AA
100
AcDbEntity
  8
0
100
AcDbCircle
 62
7
  6
CONTINUOUS
 10
118.2272837787
 20
164.9644420131
 40
1.5
100
AcDbArc
 50
0.0
 51
89.9999999946
  0
ARC
  5
3AB
100
AcDbEntity
  8
0
100
AcDbCircle
 62
7
  6
CONTINUOUS
 10
94.2272837787
 20
141.3394420131
 40
1.0
100
AcDbArc
 50
270.0416456623
 51
359.9694918352
  0
ARC
  5
3AC
100
AcDbEntity
  8
0
100
AcDbCircle
 62
7
  6
CONTINUOUS
 10
94.2272837787
 20
150.3394420131
 40
1.0
100
AcDbArc
 50
0.0416318082
 51
89.9694894005
  0
SPLINE
  5
3AD
100
AcDbEntity
  8
0
100
AcDbSpline
 62
7
  6
CONTINUOUS
 70
0
 71
3
 72
18
 73
14
 74
0
 42
0.0000001
 43
0.0000001
 44
0.0000000001
 40
0.0
 40
0.0
 40
0.0
 40
0.0
 40
0.1250024191
 40
0.2500043463
 40
0.3750058851
 40
0.5000059001
 40
0.6250012705
 40
0.6875100127
 40
0.7500173098
 40
0.8125228726
 40
0.8750252461
 40
0.937520192
 40
1.0
 40
1.0
 40
1.0
 40
1.0
 10
50.0296861482
 20
154.1571517563
 30
0.0
 10
50.1471449712
 20
154.1278659825
 30
0.0
 10
50.3806331832
 20
154.0633752165
 30
0.0
 10
50.7254282613
 20
153.9488441806
 30
0.0
 10
51.0635596053
 20
153.8158158496
 30
0.0
 10
51.3931892032
 20
153.6628781794
 30
0.0
 10
51.6586077059
 20
153.5167946898
 30
0.0
 10
51.8629530489
 20
153.3867991203
 30
0.0
 10
52.0113383919
 20
153.2819620086
 30
0.0
 10
52.1535732968
 20
153.168889939
 30
0.0
 10
52.2878750825
 20
153.0464132586
 30
0.0
 10
52.4113388541
 20
152.9129836158
 30
0.0
 10
52.4837256519
 20
152.8154919097
 30
0.0
 10
52.5161064566
 20
152.7643789672
 30
0.0
  0
SPLINE
  5
3AE
100
AcDbEntity
  8
0
100
AcDbSpline
 62
7
  6
CONTINUOUS
 70
0
 71
3
 72
16
 73
12
 74
0
 42
0.0000001
 43
0.0000001
 44
0.0000000001
 40
0.0
 40
0.0
 40
0.0
 40
0.0
 40
0.2499143164
 40
0.3749371909
 40
0.4999491414
 40
0.5624716293
 40
0.6250021807
 40
0.6875215914
 40
0.7500454452
 40
0.8750143619
 40
1.0
 40
1.0
 40
1.0
 40
1.0
 10
52.5161064566
 20
152.7643789672
 30
0.0
 10
52.5417418939
 20
152.7239135543
 30
0.0
 10
52.5766826389
 20
152.6607666976
 30
0.0
 10
52.6130351283
 20
152.5720068474
 30
0.0
 10
52.6308040979
 20
152.5146908235
 30
0.0
 10
52.6416715017
 20
152.4679924106
 30
0.0
 10
52.6481350686
 20
152.43260981
 30
0.0
 10
52.6526496525
 20
152.3969179792
 30
0.0
 10
52.655533376
 20
152.3490520993
 30
0.0
 10
52.6528043641
 20
152.2890064412
 30
0.0
 10
52.6439665794
 20
152.2417613812
 30
0.0
 10
52.6381709575
 20
152.2185164116
 30
0.0
  0
SPLINE
  5
3AF
100
AcDbEntity
  8
0
100
AcDbSpline
 62
7
  6
CONTINUOUS
 70
0
 71
3
 72
13
 73
9
 74
0
 42
0.0000001
 43
0.0000001
 44
0.0000000001
 40
0.0
 40
0.0
 40
0.0
 40
0.0
 40
0.2498380741
 40
0.3748745509
 40
0.4999097497
 40
0.6249639571
 40
0.7500126575
 40
1.0
 40
1.0
 40
1.0
 40
1.0
 10
46.8163965999
 20
153.6700477852
 30
0.0
 10
46.8242287162
 20
153.701460688
 30
0.0
 10
46.8398907588
 20
153.7478070006
 30
0.0
 10
46.8693021005
 20
153.805614182
 30
0.0
 10
46.8953807721
 20
153.8467202251
 30
0.0
 10
46.9247921018
 20
153.8854802907
 30
0.0
 10
46.9672671061
 20
153.9344644967
 30
0.0
 10
47.0026322394
 20
153.9680320941
 30
0.0
 10
47.0273606269
 20
153.9889574889
 30
0.0
  0
SPLINE
  5
3B0
100
AcDbEntity
  8
0
100
AcDbSpline
 62
7
  6
CONTINUOUS
 70
0
 71
3
 72
9
 73
5
 74
0
 42
0.0000001
 43
0.0000001
 44
0.0000000001
 40
0.0
 40
0.0
 40
0.0
 40
0.0
 40
0.2501170447
 40
1.0
 40
1.0
 40
1.0
 40
1.0
 10
47.0273606269
 20
153.9889574889
 30
0.0
 10
47.0392237589
 20
153.998996183
 30
0.0
 10
47.0877498268
 20
154.0378346277
 30
0.0
 10
47.1401046048
 20
154.0717624132
 30
0.0
 10
47.1806020714
 20
154.0948020998
 30
0.0
  0
SPLINE
  5
3B1
100
AcDbEntity
  8
0
100
AcDbSpline
 62
7
  6
CONTINUOUS
 70
0
 71
3
 72
18
 73
14
 74
0
 42
0.0000001
 43
0.0000001
 44
0.0000000001
 40
0.0
 40
0.0
 40
0.0
 40
0.0
 40
0.0624798073
 40
0.1249747539
 40
0.1874771214
 40
0.2499826805
 40
0.312489971
 40
0.3749987061
 40
0.4999940752
 40
0.6249940963
 40
0.7499956425
 40
0.8749975752
 40
1.0
 40
1.0
 40
1.0
 40
1.0
 10
47.1806020714
 20
154.0948020998
 30
0.0
 10
47.2331899593
 20
154.1247202295
 30
0.0
 10
47.3428722628
 20
154.1768000767
 30
0.0
 10
47.5145199523
 20
154.2366295817
 30
0.0
 10
47.690592226
 20
154.2817049541
 30
0.0
 10
47.8692524405
 20
154.3147555199
 30
0.0
 10
48.0494762519
 20
154.337650118
 30
0.0
 10
48.29091677
 20
154.3564866037
 30
0.0
 10
48.5938300533
 20
154.3608574112
 30
0.0
 10
48.9566520583
 20
154.341137835
 30
0.0
 10
49.317633833
 20
154.299851244
 30
0.0
 10
49.675815636
 20
154.2391067674
 30
0.0
 10
49.9122348418
 20
154.1864356559
 30
0.0
 10
50.0296861482
 20
154.1571517563
 30
0.0
  0
SPLINE
  5
3B2
100
AcDbEntity
  8
0
100
AcDbSpline
 62
7
  6
CONTINUOUS
 70
0
 71
3
 72
18
 73
14
 74
0
 42
0.0000001
 43
0.0000001
 44
0.0000000001
 40
0.0
 40
0.0
 40
0.0
 40
0.0
 40
0.1250024191
 40
0.2500043463
 40
0.3750058851
 40
0.5000059001
 40
0.6250012705
 40
0.6875100127
 40
0.7500173098
 40
0.8125228726
 40
0.8750252461
 40
0.937520192
 40
1.0
 40
1.0
 40
1.0
 40
1.0
 10
49.4248814092
 20
151.7314124406
 30
0.0
 10
49.307422586
 20
151.7606982144
 30
0.0
 10
49.0739343738
 20
151.8251889805
 30
0.0
 10
48.7291392952
 20
151.9397200166
 30
0.0
 10
48.3910079508
 20
152.0727483478
 30
0.0
 10
48.0613783525
 20
152.2256860183
 30
0.0
 10
47.7959598495
 20
152.3717695082
 30
0.0
 10
47.5916145064
 20
152.501765078
 30
0.0
 10
47.4432291633
 20
152.6066021899
 30
0.0
 10
47.3009942583
 20
152.7196742599
 30
0.0
 10
47.1666924726
 20
152.8421509406
 30
0.0
 10
47.043228701
 20
152.9755805838
 30
0.0
 10
46.9708419033
 20
153.0730722902
 30
0.0
 10
46.9384610988
 20
153.1241852328
 30
0.0
  0
SPLINE
  5
3B3
100
AcDbEntity
  8
0
100
AcDbSpline
 62
7
  6
CONTINUOUS
 70
0
 71
3
 72
16
 73
12
 74
0
 42
0.0000001
 43
0.0000001
 44
0.0000000001
 40
0.0
 40
0.0
 40
0.0
 40
0.0
 40
0.2499143164
 40
0.3749371909
 40
0.4999491414
 40
0.5624716293
 40
0.6250021807
 40
0.6875215914
 40
0.7500454452
 40
0.8750143619
 40
1.0
 40
1.0
 40
1.0
 40
1.0
 10
46.9384610988
 20
153.1241852328
 30
0.0
 10
46.9128256618
 20
153.1646506456
 30
0.0
 10
46.8778849172
 20
153.2277975019
 30
0.0
 10
46.8415324284
 20
153.3165573517
 30
0.0
 10
46.823763459
 20
153.3738733752
 30
0.0
 10
46.8128960554
 20
153.4205717879
 30
0.0
 10
46.8064324886
 20
153.4559543883
 30
0.0
 10
46.8019179049
 20
153.4916462188
 30
0.0
 10
46.7990341815
 20
153.5395120985
 30
0.0
 10
46.8017631934
 20
153.5995577561
 30
0.0
 10
46.8106009781
 20
153.6468028158
 30
0.0
 10
46.8163965999
 20
153.6700477852
 30
0.0
  0
SPLINE
  5
3B4
100
AcDbEntity
  8
0
100
AcDbSpline
 62
7
  6
CONTINUOUS
 70
0
 71
3
 72
13
 73
9
 74
0
 42
0.0000001
 43
0.0000001
 44
0.0000000001
 40
0.0
 40
0.0
 40
0.0
 40
0.0
 40
0.2498380741
 40
0.3748745509
 40
0.4999097497
 40
0.6249639571
 40
0.7500126575
 40
1.0
 40
1.0
 40
1.0
 40
1.0
 10
52.6381709575
 20
152.2185164116
 30
0.0
 10
52.6303388412
 20
152.1871035088
 30
0.0
 10
52.6146767986
 20
152.1407571961
 30
0.0
 10
52.5852654568
 20
152.0829500147
 30
0.0
 10
52.5591867851
 20
152.0418439715
 30
0.0
 10
52.5297754554
 20
152.0030839058
 30
0.0
 10
52.4873004509
 20
151.9540996998
 30
0.0
 10
52.4519353176
 20
151.9205321023
 30
0.0
 10
52.42720693
 20
151.8996067076
 30
0.0
  0
SPLINE
  5
3B5
100
AcDbEntity
  8
0
100
AcDbSpline
 62
7
  6
CONTINUOUS
 70
0
 71
3
 72
9
 73
5
 74
0
 42
0.0000001
 43
0.0000001
 44
0.0000000001
 40
0.0
 40
0.0
 40
0.0
 40
0.0
 40
0.2501170447
 40
1.0
 40
1.0
 40
1.0
 40
1.0
 10
52.42720693
 20
151.8996067076
 30
0.0
 10
52.4153437981
 20
151.8895680134
 30
0.0
 10
52.3668177301
 20
151.8507295688
 30
0.0
 10
52.314462952
 20
151.8168017833
 30
0.0
 10
52.2739654854
 20
151.7937620967
 30
0.0
  0
SPLINE
  5
3B6
100
AcDbEntity
  8
0
100
AcDbSpline
 62
7
  6
CONTINUOUS
 70
0
 71
3
 72
18
 73
14
 74
0
 42
0.0000001
 43
0.0000001
 44
0.0000000001
 40
0.0
 40
0.0
 40
0.0
 40
0.0
 40
0.0624798073
 40
0.1249747539
 40
0.1874771214
 40
0.2499826805
 40
0.312489971
 40
0.3749987061
 40
0.4999940752
 40
0.6249940963
 40
0.7499956425
 40
0.8749975752
 40
1.0
 40
1.0
 40
1.0
 40
1.0
 10
52.2739654854
 20
151.7937620967
 30
0.0
 10
52.2213775975
 20
151.7638439671
 30
0.0
 10
52.111695294
 20
151.7117641199
 30
0.0
 10
51.9400476045
 20
151.651934615
 30
0.0
 10
51.7639753308
 20
151.6068592427
 30
0.0
 10
51.5853151164
 20
151.5738086769
 30
0.0
 10
51.4050913051
 20
151.5509140788
 30
0.0
 10
51.1636507869
 20
151.5320775932
 30
0.0
 10
50.8607375037
 20
151.5277067857
 30
0.0
 10
50.4979154988
 20
151.5474263619
 30
0.0
 10
50.1369337243
 20
151.5887129529
 30
0.0
 10
49.7787519214
 20
151.6494574295
 30
0.0
 10
49.5423327156
 20
151.7021285409
 30
0.0
 10
49.4248814092
 20
151.7314124406
 30
0.0
  0
SPLINE
  5
3B7
100
AcDbEntity
  8
0
100
AcDbSpline
 62
7
  6
CONTINUOUS
 70
0
 71
3
 72
29
 73
25
 74
0
 42
0.0000001
 43
0.0000001
 44
0.0000000001
 40
0.0
 40
0.0
 40
0.0
 40
0.0
 40
0.0126190726
 40
0.0185826078
 40
0.0246310897
 40
0.0310353912
 40
0.0379186155
 40
0.0520797329
 40
0.0664332807
 40
0.0810857271
 40
0.0959666774
 40
0.1110484846
 40
0.1416839421
 40
0.172668899
 40
0.2352628252
 40
0.2983660682
 40
0.3617532354
 40
0.4253170001
 40
0.4889969541
 40
0.5527558585
 40
0.6165761813
 40
0.7443087461
 40
0.8721335832
 40
1.0
 40
1.0
 40
1.0
 40
1.0
 10
47.061420186
 20
153.6089565438
 30
0.0
 10
47.0583701393
 20
153.5966977455
 30
0.0
 10
47.0549751619
 20
153.5783096152
 30
0.0
 10
47.0537087911
 20
153.5536576987
 30
0.0
 10
47.054379133
 20
153.5352107781
 30
0.0
 10
47.0566305816
 20
153.5159688405
 30
0.0
 10
47.0614994508
 20
153.4889150454
 30
0.0
 10
47.070250553
 20
153.4545177133
 30
0.0
 10
47.0847577983
 20
153.4137557121
 30
0.0
 10
47.1027532907
 20
153.3736337305
 30
0.0
 10
47.1237594841
 20
153.3341853583
 30
0.0
 10
47.1553938738
 20
153.2823909904
 30
0.0
 10
47.2003365707
 20
153.2199949887
 30
0.0
 10
47.2805147647
 20
153.1248394193
 30
0.0
 10
47.3927407149
 20
153.0147677712
 30
0.0
 10
47.5392874295
 20
152.8947000076
 30
0.0
 10
47.6946213234
 20
152.7846155521
 30
0.0
 10
47.8564326331
 20
152.6832879878
 30
0.0
 10
48.0232811686
 20
152.5897670252
 30
0.0
 10
48.1941553706
 20
152.5032779766
 30
0.0
 10
48.4265040475
 20
152.3966821733
 30
0.0
 10
48.7238709471
 20
152.2785562291
 30
0.0
 10
49.0887730806
 20
152.1588551841
 30
0.0
 10
49.3362999133
 20
152.0930548037
 30
0.0
 10
49.4608650542
 20
152.0635887582
 30
0.0
  0
SPLINE
  5
3B8
100
AcDbEntity
  8
0
100
AcDbSpline
 62
7
  6
CONTINUOUS
 70
0
 71
3
 72
17
 73
13
 74
0
 42
0.0000001
 43
0.0000001
 44
0.0000000001
 40
0.0
 40
0.0
 40
0.0
 40
0.0
 40
0.1684729821
 40
0.3406284049
 40
0.5076217989
 40
0.6594798162
 40
0.7871747904
 40
0.8404443291
 40
0.8861116238
 40
0.9240647824
 40
0.9549753206
 40
1.0
 40
1.0
 40
1.0
 40
1.0
 10
49.905507569
 20
153.846967079
 30
0.0
 10
49.9084979465
 20
153.8583931708
 30
0.0
 10
49.9150131931
 20
153.8813749044
 30
0.0
 10
49.9261326333
 20
153.9151926895
 30
0.0
 10
49.9385041157
 20
153.9473330639
 30
0.0
 10
49.9514049357
 20
153.9758782494
 30
0.0
 10
49.9626999749
 20
153.9963436566
 30
0.0
 10
49.9716183508
 20
154.0095092796
 30
0.0
 10
49.9775785754
 20
154.0170369654
 30
0.0
 10
49.9832246824
 20
154.0228039195
 30
0.0
 10
49.9895031201
 20
154.0276657904
 30
0.0
 10
49.9947708501
 20
154.0298377027
 30
0.0
 10
49.99792643
 20
154.0297619606
 30
0.0
  0
SPLINE
  5
3B9
100
AcDbEntity
  8
0
100
AcDbSpline
 62
7
  6
CONTINUOUS
 70
0
 71
3
 72
24
 73
20
 74
0
 42
0.0000001
 43
0.0000001
 44
0.0000000001
 40
0.0
 40
0.0
 40
0.0
 40
0.0
 40
0.0159249939
 40
0.0318474716
 40
0.0636163945
 40
0.0953396905
 40
0.1269930734
 40
0.1585597923
 40
0.1900477316
 40
0.2528146148
 40
0.315407343
 40
0.3778794536
 40
0.4402591354
 40
0.5025735111
 40
0.5648395584
 40
0.627067697
 40
0.7514275503
 40
0.875728721
 40
1.0
 40
1.0
 40
1.0
 40
1.0
 10
46.9117230549
 20
153.6462802305
 30
0.0
 10
46.9159793951
 20
153.6633626955
 30
0.0
 10
46.9263138351
 20
153.6971110939
 30
0.0
 10
46.9551360396
 20
153.7614845168
 30
0.0
 10
47.006642868
 20
153.8335381078
 30
0.0
 10
47.0813281623
 20
153.9080605274
 30
0.0
 10
47.1657664166
 20
153.9709338849
 30
0.0
 10
47.2564033525
 20
154.0236675049
 30
0.0
 10
47.3824443506
 20
154.0828135775
 30
0.0
 10
47.5467720414
 20
154.1396170696
 30
0.0
 10
47.749123046
 20
154.187245158
 30
0.0
 10
47.9540649907
 20
154.2189906233
 30
0.0
 10
48.1602289821
 20
154.2377822706
 30
0.0
 10
48.3668400038
 20
154.2456849818
 30
0.0
 10
48.5734120688
 20
154.2441393752
 30
0.0
 10
48.8482557789
 20
154.2308869915
 30
0.0
 10
49.1903989479
 20
154.1953535371
 30
0.0
 10
49.5971247753
 20
154.1265460018
 30
0.0
 10
49.8650198776
 20
154.0645396747
 30
0.0
 10
49.9979250788
 20
154.0297650646
 30
0.0
  0
SPLINE
  5
3BA
100
AcDbEntity
  8
0
100
AcDbSpline
 62
7
  6
CONTINUOUS
 70
0
 71
3
 72
25
 73
21
 74
0
 42
0.0000001
 43
0.0000001
 44
0.0000000001
 40
0.0
 40
0.0
 40
0.0
 40
0.0
 40
0.0621364742
 40
0.1242848572
 40
0.248580931
 40
0.3729355452
 40
0.4351619897
 40
0.4974268265
 40
0.5597394802
 40
0.622122305
 40
0.6846018792
 40
0.7472023083
 40
0.809967844
 40
0.8414532877
 40
0.8730151481
 40
0.9046564875
 40
0.9363827666
 40
0.9681510663
 40
0.9840749241
 40
1.0
 40
1.0
 40
1.0
 40
1.0
 10
49.4566424787
 20
151.8587991322
 30
0.0
 10
49.389804659
 20
151.8746492762
 30
0.0
 10
49.2565451253
 20
151.9082070856
 30
0.0
 10
48.992143898
 20
151.983220818
 30
0.0
 10
48.6658963621
 20
152.0916965238
 30
0.0
 10
48.3471375368
 20
152.2209514808
 30
0.0
 10
48.0982461715
 20
152.3382770949
 30
0.0
 10
47.915129494
 20
152.4338892778
 30
0.0
 10
47.7364117033
 20
152.5378691038
 30
0.0
 10
47.5631889151
 20
152.6512519011
 30
0.0
 10
47.397115069
 20
152.7755029972
 30
0.0
 10
47.2408107602
 20
152.9125817914
 30
0.0
 10
47.1223705811
 20
153.0398791725
 30
0.0
 10
47.0388696926
 20
153.1512796294
 30
0.0
 10
46.9836099778
 20
153.240375356
 30
0.0
 10
46.9385819058
 20
153.3355183376
 30
0.0
 10
46.9076112816
 20
153.4363678309
 30
0.0
 10
46.8959769254
 20
153.5241752161
 30
0.0
 10
46.9007392263
 20
153.5945471547
 30
0.0
 10
46.9074619905
 20
153.629198604
 30
0.0
 10
46.9117230549
 20
153.6462802305
 30
0.0
  0
SPLINE
  5
3BB
100
AcDbEntity
  8
0
100
AcDbSpline
 62
7
  6
CONTINUOUS
 70
0
 71
3
 72
29
 73
25
 74
0
 42
0.0000001
 43
0.0000001
 44
0.0000000001
 40
0.0
 40
0.0
 40
0.0
 40
0.0
 40
0.1278670352
 40
0.2556929745
 40
0.3834265594
 40
0.447246718
 40
0.5110054922
 40
0.5746856756
 40
0.6382494567
 40
0.7016368062
 40
0.7647404488
 40
0.8273346746
 40
0.8583198358
 40
0.8889552901
 40
0.9040366938
 40
0.918917555
 40
0.9335705179
 40
0.9479239956
 40
0.9620863168
 40
0.9689681722
 40
0.9753727069
 40
0.9814208416
 40
0.9873843266
 40
1.0
 40
1.0
 40
1.0
 40
1.0
 10
49.9055103778
 20
153.8469637646
 30
0.0
 10
49.7816914085
 20
153.8794251812
 30
0.0
 10
49.5322458124
 20
153.9375368536
 30
0.0
 10
49.1538571429
 20
154.0031577624
 30
0.0
 10
48.8358390589
 20
154.0384642676
 30
0.0
 10
48.5806428838
 20
154.0534263022
 30
0.0
 10
48.3891658251
 20
154.0572809786
 30
0.0
 10
48.1979417726
 20
154.053037232
 30
0.0
 10
48.0075000473
 20
154.039535731
 30
0.0
 10
47.8186663221
 20
154.0152610891
 30
0.0
 10
47.6329040846
 20
153.9780463431
 30
0.0
 10
47.4821383545
 20
153.9335444785
 30
0.0
 10
47.3666722671
 20
153.8871673847
 30
0.0
 10
47.2976976422
 20
153.8531736055
 30
0.0
 10
47.2454508849
 20
153.8222930638
 30
0.0
 10
47.2083840582
 20
153.7973233471
 30
0.0
 10
47.1736589732
 20
153.7703453593
 30
0.0
 10
47.141712727
 20
153.7411634985
 30
0.0
 10
47.1178381364
 20
153.7149004643
 30
0.0
 10
47.1008389765
 20
153.6932984758
 30
0.0
 10
47.0898190177
 20
153.6773666044
 30
0.0
 10
47.0805677467
 20
153.6613933223
 30
0.0
 10
47.070115054
 20
153.6390354141
 30
0.0
 10
47.0644823456
 20
153.6212088148
 30
0.0
 10
47.0614203571
 20
153.6089565011
 30
0.0
  0
SPLINE
  5
3BC
100
AcDbEntity
  8
0
100
AcDbSpline
 62
7
  6
CONTINUOUS
 70
0
 71
3
 72
17
 73
13
 74
0
 42
0.0000001
 43
0.0000001
 44
0.0000000001
 40
0.0
 40
0.0
 40
0.0
 40
0.0
 40
0.168472942
 40
0.3406283615
 40
0.5076218303
 40
0.659479904
 40
0.78717492
 40
0.8404444718
 40
0.8861117557
 40
0.9240648836
 40
0.9549753857
 40
1.0
 40
1.0
 40
1.0
 40
1.0
 10
49.4608624117
 20
152.0635872791
 30
0.0
 10
49.4581384619
 20
152.0520947467
 30
0.0
 10
49.4531016652
 20
152.0287443626
 30
0.0
 10
49.4470428435
 20
151.9936647608
 30
0.0
 10
49.4428770121
 20
151.9594784098
 30
0.0
 10
49.4408664181
 20
151.9282179005
 30
0.0
 10
49.4412312862
 20
151.9048452803
 30
0.0
 10
49.4429247711
 20
151.8890337694
 30
0.0
 10
49.4446532527
 20
151.8795890422
 30
0.0
 10
49.4469310117
 20
151.8718464217
 30
0.0
 10
49.4501920006
 20
151.8646060818
 30
0.0
 10
49.4538234689
 20
151.860215335
 30
0.0
 10
49.4566452375
 20
151.8588007544
 30
0.0
  0
SPLINE
  5
3BD
100
AcDbEntity
  8
0
100
AcDbSpline
 62
7
  6
CONTINUOUS
 70
0
 71
3
 72
29
 73
25
 74
0
 42
0.0000001
 43
0.0000001
 44
0.0000000001
 40
0.0
 40
0.0
 40
0.0
 40
0.0
 40
0.1278674752
 40
0.2556924303
 40
0.3834242278
 40
0.4472444269
 40
0.5110032495
 40
0.5746835965
 40
0.6382477006
 40
0.7016353325
 40
0.7647394345
 40
0.8273339154
 40
0.8583192219
 40
0.888954791
 40
0.9040361297
 40
0.918917028
 40
0.9335702455
 40
0.947923784
 40
0.9620865816
 40
0.9689681167
 40
0.9753727519
 40
0.9814208323
 40
0.987384333
 40
1.0
 40
1.0
 40
1.0
 40
1.0
 10
49.5490565336
 20
152.0415979619
 30
0.0
 10
49.6728702458
 20
152.0091147557
 30
0.0
 10
49.9223244734
 20
151.9510384955
 30
0.0
 10
50.3007072035
 20
151.8854041062
 30
0.0
 10
50.6187234019
 20
151.8501008112
 30
0.0
 10
50.8739177598
 20
151.8351383534
 30
0.0
 10
51.0653950803
 20
151.8312831034
 30
0.0
 10
51.2566196804
 20
151.8355265662
 30
0.0
 10
51.447062175
 20
151.8490280995
 30
0.0
 10
51.6358970256
 20
151.8733023436
 30
0.0
 10
51.8216602984
 20
151.9105170634
 30
0.0
 10
51.9724269102
 20
151.955018976
 30
0.0
 10
52.0878935594
 20
152.0013960669
 30
0.0
 10
52.156868401
 20
152.0353898431
 30
0.0
 10
52.2091153385
 20
152.0662702526
 30
0.0
 10
52.2461823956
 20
152.0912400365
 30
0.0
 10
52.280907808
 20
152.1182181804
 30
0.0
 10
52.3128546887
 20
152.1474005224
 30
0.0
 10
52.336729438
 20
152.1736637147
 30
0.0
 10
52.3537287246
 20
152.1952659292
 30
0.0
 10
52.3647485279
 20
152.2111975753
 30
0.0
 10
52.373999828
 20
152.2271709116
 30
0.0
 10
52.3844525098
 20
152.2495287776
 30
0.0
 10
52.3900851816
 20
152.2673553961
 30
0.0
 10
52.3931471963
 20
152.2796076967
 30
0.0
  0
SPLINE
  5
3BE
100
AcDbEntity
  8
0
100
AcDbSpline
 62
7
  6
CONTINUOUS
 70
0
 71
3
 72
29
 73
25
 74
0
 42
0.0000001
 43
0.0000001
 44
0.0000000001
 40
0.0
 40
0.0
 40
0.0
 40
0.0
 40
0.0126194958
 40
0.0185829402
 40
0.0246312104
 40
0.0310360301
 40
0.0379178217
 40
0.0520805197
 40
0.0664340741
 40
0.0810874398
 40
0.0959683208
 40
0.1110495444
 40
0.1416850333
 40
0.172670176
 40
0.2352642528
 40
0.298368571
 40
0.3617562685
 40
0.4253200495
 40
0.4890006935
 40
0.5527590519
 40
0.6165783254
 40
0.7443091147
 40
0.8721332857
 40
1.0
 40
1.0
 40
1.0
 40
1.0
 10
52.3931473581
 20
152.2796076564
 30
0.0
 10
52.3961972649
 20
152.2918669264
 30
0.0
 10
52.399592571
 20
152.3102553253
 30
0.0
 10
52.4008587599
 20
152.334907385
 30
0.0
 10
52.4001883344
 20
152.3533545146
 30
0.0
 10
52.3979369223
 20
152.372595322
 30
0.0
 10
52.3930681629
 20
152.3996498089
 30
0.0
 10
52.3843167981
 20
152.4340472601
 30
0.0
 10
52.369808552
 20
152.4748115612
 30
0.0
 10
52.351812403
 20
152.514934194
 30
0.0
 10
52.3308059988
 20
152.5543827579
 30
0.0
 10
52.2991713522
 20
152.6061762436
 30
0.0
 10
52.2542287683
 20
152.6685718529
 30
0.0
 10
52.174050046
 20
152.7637274822
 30
0.0
 10
52.0618227236
 20
152.8737997141
 30
0.0
 10
51.9152749264
 20
152.9938689491
 30
0.0
 10
51.7599392964
 20
153.1039537862
 30
0.0
 10
51.5981268204
 20
153.2052818511
 30
0.0
 10
51.4312772214
 20
153.2988012573
 30
0.0
 10
51.2604037445
 20
153.3852897246
 30
0.0
 10
51.0280582913
 20
153.4918842939
 30
0.0
 10
50.7306951085
 20
153.6100114514
 30
0.0
 10
50.3657918948
 20
153.7296987061
 30
0.0
 10
50.1182732139
 20
153.7955316333
 30
0.0
 10
49.993702994
 20
153.8249775075
 30
0.0
  0
SPLINE
  5
3BF
100
AcDbEntity
  8
0
100
AcDbSpline
 62
7
  6
CONTINUOUS
 70
0
 71
3
 72
17
 73
13
 74
0
 42
0.0000001
 43
0.0000001
 44
0.0000000001
 40
0.0
 40
0.0
 40
0.0
 40
0.0
 40
0.0450243341
 40
0.075934699
 40
0.1138877433
 40
0.1595550066
 40
0.2128245936
 40
0.3405198453
 40
0.492378257
 40
0.6593719512
 40
0.8315273797
 40
1.0
 40
1.0
 40
1.0
 40
1.0
 10
49.9979250675
 20
154.0297650683
 30
0.0
 10
50.0007468316
 20
154.0283504773
 30
0.0
 10
50.004378262
 20
154.0239596723
 30
0.0
 10
50.0076391195
 20
154.0167192572
 30
0.0
 10
50.0099167259
 20
154.0089765544
 30
0.0
 10
50.0116450049
 20
153.9995317327
 30
0.0
 10
50.013338136
 20
153.9837200638
 30
0.0
 10
50.0137024437
 20
153.9603472421
 30
0.0
 10
50.0116910714
 20
153.9290865261
 30
0.0
 10
50.0075243693
 20
153.894900019
 30
0.0
 10
50.0014646419
 20
153.8598203491
 30
0.0
 10
49.99642724
 20
153.8364699619
 30
0.0
 10
49.9937029913
 20
153.8249774459
 30
0.0
  0
SPLINE
  5
3C0
100
AcDbEntity
  8
0
100
AcDbSpline
 62
7
  6
CONTINUOUS
 70
0
 71
3
 72
17
 73
13
 74
0
 42
0.0000001
 43
0.0000001
 44
0.0000000001
 40
0.0
 40
0.0
 40
0.0
 40
0.0
 40
0.1684726126
 40
0.3406280356
 40
0.5076217277
 40
0.6594801405
 40
0.7871753959
 40
0.8404449851
 40
0.8861122507
 40
0.924065297
 40
0.9549756635
 40
1.0
 40
1.0
 40
1.0
 40
1.0
 10
49.5490565586
 20
152.0415980178
 30
0.0
 10
49.5460665186
 20
152.0301717717
 30
0.0
 10
49.539551939
 20
152.0071896873
 30
0.0
 10
49.528433455
 20
151.9733713083
 30
0.0
 10
49.5160628433
 20
151.9412302662
 30
0.0
 10
49.5031627638
 20
151.9126844096
 30
0.0
 10
49.4918682249
 20
151.8922184643
 30
0.0
 10
49.4829501503
 20
151.8790524653
 30
0.0
 10
49.4769900954
 20
151.87152456
 30
0.0
 10
49.4713441096
 20
151.8657574302
 30
0.0
 10
49.4650657743
 20
151.8608954025
 30
0.0
 10
49.4597980532
 20
151.8587234048
 30
0.0
 10
49.456642473
 20
151.8587991331
 30
0.0
  0
SPLINE
  5
3C1
100
AcDbEntity
  8
0
100
AcDbSpline
 62
7
  6
CONTINUOUS
 70
0
 71
3
 72
26
 73
22
 74
0
 42
0.0000001
 43
0.0000001
 44
0.0000000001
 40
0.0
 40
0.0
 40
0.0
 40
0.0
 40
0.0159240178
 40
0.031844215
 40
0.0477591906
 40
0.0636571965
 40
0.0795386095
 40
0.0954013677
 40
0.127049107
 40
0.1586135896
 40
0.1900991735
 40
0.2528616923
 40
0.31545051
 40
0.377919073
 40
0.4402969243
 40
0.5026086931
 40
0.5648710739
 40
0.62709642
 40
0.7514478774
 40
0.8757372453
 40
1.0
 40
1.0
 40
1.0
 40
1.0
 10
52.5428445025
 20
152.2422839663
 30
0.0
 10
52.5385875243
 20
152.2252014966
 30
0.0
 10
52.5282572965
 20
152.1914515092
 30
0.0
 10
52.5066061471
 20
152.1431310145
 30
0.0
 10
52.4787871506
 20
152.0981226791
 30
0.0
 10
52.446258129
 20
152.0565315939
 30
0.0
 10
52.4105810259
 20
152.0177105647
 30
0.0
 10
52.3591294874
 20
151.9700302088
 30
0.0
 10
52.2888154491
 20
151.9176333428
 30
0.0
 10
52.1981754841
 20
151.8649134971
 30
0.0
 10
52.0721458859
 20
151.8057440381
 30
0.0
 10
51.9078106162
 20
151.7489565898
 30
0.0
 10
51.7054607905
 20
151.7013215853
 30
0.0
 10
51.5005142435
 20
151.669574957
 30
0.0
 10
51.2943447378
 20
151.65078208
 30
0.0
 10
51.087728131
 20
151.6428782054
 30
0.0
 10
50.8811515792
 20
151.6444244729
 30
0.0
 10
50.606304901
 20
151.6576760159
 30
0.0
 10
50.2641631568
 20
151.6932122456
 30
0.0
 10
49.8574407745
 20
151.7620224256
 30
0.0
 10
49.5895478184
 20
151.8240241162
 30
0.0
 10
49.4566424787
 20
151.8587991322
 30
0.0
  0
SPLINE
  5
3C2
100
AcDbEntity
  8
0
100
AcDbSpline
 62
7
  6
CONTINUOUS
 70
0
 71
3
 72
24
 73
20
 74
0
 42
0.0000001
 43
0.0000001
 44
0.0000000001
 40
0.0
 40
0.0
 40
0.0
 40
0.0
 40
0.1242707767
 40
0.2485667718
 40
0.3729233691
 40
0.4351501808
 40
0.4974161017
 40
0.5597356949
 40
0.6221255849
 40
0.6846013164
 40
0.7471963315
 40
0.8099586463
 40
0.8414426801
 40
0.8730042391
 40
0.9046532667
 40
0.9363777249
 40
0.9681489944
 40
0.9840737589
 40
1.0
 40
1.0
 40
1.0
 40
1.0
 10
49.9979250789
 20
154.0297650646
 30
0.0
 10
50.1315968601
 20
153.9980672252
 30
0.0
 10
50.3972396206
 20
153.9270545753
 30
0.0
 10
50.7886511922
 20
153.7968651343
 30
0.0
 10
51.1074180241
 20
153.6676185473
 30
0.0
 10
51.3563084817
 20
153.5502929299
 30
0.0
 10
51.5394313329
 20
153.4546785469
 30
0.0
 10
51.7181631272
 20
153.3506953635
 30
0.0
 10
51.8913900129
 20
153.2373030309
 30
0.0
 10
52.0574535471
 20
153.1130477061
 30
0.0
 10
52.21375306
 20
152.9759889215
 30
0.0
 10
52.3321832064
 20
152.8487004016
 30
0.0
 10
52.415680522
 20
152.7373064608
 30
0.0
 10
52.4709460593
 20
152.6482090373
 30
0.0
 10
52.5159852042
 20
152.5530642794
 30
0.0
 10
52.5469368406
 20
152.4522023435
 30
0.0
 10
52.5586003111
 20
152.3643964073
 30
0.0
 10
52.5538220323
 20
152.2940208559
 30
0.0
 10
52.5471084189
 20
152.2593659555
 30
0.0
 10
52.5428445025
 20
152.2422839663
 30
0.0
  0
LINE
  5
3C3
100
AcDbEntity
  8
0
100
AcDbLine
 62
7
  6
CONTINUOUS
 10
115.1984040533
 20
96.8491550034
 11
115.1703169785
 21
95.8095124124
  0
LINE
  5
3C4
100
AcDbEntity
  8
0
100
AcDbLine
 62
7
  6
CONTINUOUS
 10
114.367269864
 20
96.8775070019
 11
114.3672866338
 21
97.1021904857
  0
LINE
  5
3C5
100
AcDbEntity
  8
0
100
AcDbLine
 62
7
  6
CONTINUOUS
 10
114.3672866338
 20
97.1021904857
 11
114.2561422023
 21
96.849164012
  0
LINE
  5
3C6
100
AcDbEntity
  8
0
100
AcDbLine
 62
7
  6
CONTINUOUS
 10
115.0872841843
 20
97.1021911269
 11
115.0872850669
 21
96.8775086792
  0
SPLINE
  5
3C7
100
AcDbEntity
  8
0
100
AcDbSpline
 62
7
  6
CONTINUOUS
 70
0
 71
3
 72
9
 73
5
 74
0
 42
0.0000001
 43
0.0000001
 44
0.0000000001
 40
0.0
 40
0.0
 40
0.0
 40
0.0
 40
0.2517689157
 40
1.0
 40
1.0
 40
1.0
 40
1.0
 10
115.0872837787
 20
96.8775082525
 30
0.0
 10
115.0941650011
 20
96.787872127
 30
0.0
 10
115.1216418907
 20
96.4318579096
 30
0.0
 10
115.1494230782
 20
96.0758672455
 30
0.0
 10
115.1703169785
 20
95.8095124124
 30
0.0
  0
LINE
  5
3C8
100
AcDbEntity
  8
0
100
AcDbLine
 62
7
  6
CONTINUOUS
 10
115.2470072629
 20
97.444718529
 11
115.3292037705
 21
97.3625220907
  0
LINE
  5
3C9
100
AcDbEntity
  8
0
100
AcDbLine
 62
7
  6
CONTINUOUS
 10
114.0972836618
 20
98.5944420129
 11
114.0398617737
 21
98.6518630435
  0
LINE
  5
3CA
100
AcDbEntity
  8
0
100
AcDbLine
 62
7
  6
CONTINUOUS
 10
114.2075602945
 20
98.4841654973
 11
114.1253637872
 21
98.566361936
  0
LINE
  5
3CB
100
AcDbEntity
  8
0
100
AcDbLine
 62
7
  6
CONTINUOUS
 10
114.3672837787
 20
98.8266936145
 11
114.2561635041
 21
99.0797290228
  0
SPLINE
  5
3CC
100
AcDbEntity
  8
0
100
AcDbSpline
 62
7
  6
CONTINUOUS
 70
0
 71
3
 72
8
 73
4
 74
0
 42
0.0000001
 43
0.0000001
 44
0.0000000001
 40
0.0
 40
0.0
 40
0.0
 40
0.0
 40
1.0
 40
1.0
 40
1.0
 40
1.0
 10
115.1703035332
 20
100.119374378
 30
0.0
 10
115.1799495982
 20
99.7728042997
 30
0.0
 10
115.1893055712
 20
99.4262260539
 30
0.0
 10
115.1984063766
 20
99.0796412286
 30
0.0
  0
LINE
  5
3CD
100
AcDbEntity
  8
0
100
AcDbLine
 62
7
  6
CONTINUOUS
 10
114.3672833731
 20
98.8266928994
 11
114.3672824905
 21
99.0513753471
  0
SPLINE
  5
3CE
100
AcDbEntity
  8
0
100
AcDbSpline
 62
7
  6
CONTINUOUS
 70
0
 71
3
 72
9
 73
5
 74
0
 42
0.0000001
 43
0.0000001
 44
0.0000000001
 40
0.0
 40
0.0
 40
0.0
 40
0.0
 40
0.2517689204
 40
1.0
 40
1.0
 40
1.0
 40
1.0
 10
114.3672837787
 20
99.0513757738
 30
0.0
 10
114.3604025564
 20
99.1410118988
 30
0.0
 10
114.3329256768
 20
99.4970261087
 30
0.0
 10
114.3051444288
 20
99.8530167598
 30
0.0
 10
114.2842503829
 20
100.1193715735
 30
0.0
  0
LINE
  5
3CF
100
AcDbEntity
  8
0
100
AcDbLine
 62
7
  6
CONTINUOUS
 10
115.0872976923
 20
99.0513770245
 11
115.1703072036
 21
100.1193744802
  0
LINE
  5
3D0
100
AcDbEntity
  8
0
100
AcDbLine
 62
7
  6
CONTINUOUS
 10
115.087280421
 20
98.8266973266
 11
115.1984253551
 21
99.0797200142
  0
LINE
  5
3D1
100
AcDbEntity
  8
0
100
AcDbLine
 62
7
  6
CONTINUOUS
 10
115.0872976923
 20
99.0513770245
 11
115.087280421
 21
98.8266973266
  0
LINE
  5
3D2
100
AcDbEntity
  8
0
100
AcDbLine
 62
7
  6
CONTINUOUS
 10
115.3572838969
 20
97.3344420129
 11
115.4147057843
 21
97.2770209833
  0
LINE
  5
3D3
100
AcDbEntity
  8
0
100
AcDbLine
 62
7
  6
CONTINUOUS
 10
114.2561635041
 20
99.0797290228
 11
114.2842503829
 21
100.1193715735
  0
LINE
  5
3D4
100
AcDbEntity
  8
0
100
AcDbLine
 62
7
  6
CONTINUOUS
 10
115.3572864406
 20
98.5944405833
 11
115.4147055981
 21
98.6518632876
  0
LINE
  5
3D5
100
AcDbEntity
  8
0
100
AcDbLine
 62
7
  6
CONTINUOUS
 10
115.2470072629
 20
98.4841654973
 11
115.329201531
 21
98.5663598308
  0
LINE
  5
3D6
100
AcDbEntity
  8
0
100
AcDbLine
 62
7
  6
CONTINUOUS
 10
115.5895353801
 20
98.3244420131
 11
115.7076242467
 21
98.3762285883
  0
LINE
  5
3D7
100
AcDbEntity
  8
0
100
AcDbLine
 62
7
  6
CONTINUOUS
 10
115.589534665
 20
98.3244424188
 11
115.8142171127
 21
98.3244433013
  0
LINE
  5
3D8
100
AcDbEntity
  8
0
100
AcDbLine
 62
7
  6
CONTINUOUS
 10
115.8142175393
 20
98.3244420131
 11
116.2845573212
 21
98.3608014891
  0
LINE
  5
3D9
100
AcDbEntity
  8
0
100
AcDbLine
 62
7
  6
CONTINUOUS
 10
115.8142176349
 20
97.6044423016
 11
115.589537961
 21
97.60444348
  0
LINE
  5
3DA
100
AcDbEntity
  8
0
100
AcDbLine
 62
7
  6
CONTINUOUS
 10
115.5895342438
 20
97.6044425174
 11
115.7076229442
 21
97.5526554039
  0
LINE
  5
3DB
100
AcDbEntity
  8
0
100
AcDbLine
 62
7
  6
CONTINUOUS
 10
116.2845575976
 20
97.568083623
 11
115.8142175393
 21
97.6044420131
  0
LINE
  5
3DC
100
AcDbEntity
  8
0
100
AcDbLine
 62
7
  6
CONTINUOUS
 10
114.0972811171
 20
97.3344434434
 11
114.0398619593
 21
97.2770207387
  0
LINE
  5
3DD
100
AcDbEntity
  8
0
100
AcDbLine
 62
7
  6
CONTINUOUS
 10
114.2075602945
 20
97.444718529
 11
114.1253660264
 21
97.3625241955
  0
LINE
  5
3DE
100
AcDbEntity
  8
0
100
AcDbLine
 62
7
  6
CONTINUOUS
 10
113.1700099598
 20
98.3608004032
 11
113.6403500181
 21
98.3244420131
  0
LINE
  5
3DF
100
AcDbEntity
  8
0
100
AcDbLine
 62
7
  6
CONTINUOUS
 10
113.8650333136
 20
98.3244415089
 11
113.7469446041
 21
98.3762286222
  0
LINE
  5
3E0
100
AcDbEntity
  8
0
100
AcDbLine
 62
7
  6
CONTINUOUS
 10
113.6403499225
 20
98.3244417247
 11
113.8650295964
 21
98.3244405462
  0
LINE
  5
3E1
100
AcDbEntity
  8
0
100
AcDbLine
 62
7
  6
CONTINUOUS
 10
113.6403511703
 20
97.6044534976
 11
113.1612082126
 21
97.6044692425
  0
LINE
  5
3E2
100
AcDbEntity
  8
0
100
AcDbLine
 62
7
  6
CONTINUOUS
 10
113.9074403286
 20
97.5846724819
 11
113.6403511703
 21
97.6044534976
  0
LINE
  5
3E3
100
AcDbEntity
  8
0
100
AcDbLine
 62
7
  6
CONTINUOUS
 10
113.9074403286
 20
97.5846724819
 11
113.7660606639
 21
97.5429227655
  0
LINE
  5
3E4
100
AcDbEntity
  8
0
100
AcDbLine
 62
7
  6
CONTINUOUS
 10
114.367269864
 20
96.8775070019
 11
114.2842603538
 21
95.8095095461
  0
SPLINE
  5
3E5
100
AcDbEntity
  8
0
100
AcDbSpline
 62
7
  6
CONTINUOUS
 70
0
 71
3
 72
8
 73
4
 74
0
 42
0.0000001
 43
0.0000001
 44
0.0000000001
 40
0.0
 40
0.0
 40
0.0
 40
0.0
 40
1.0
 40
1.0
 40
1.0
 40
1.0
 10
114.2842640242
 20
95.8095096483
 30
0.0
 10
114.2746179592
 20
96.1560797264
 30
0.0
 10
114.2652619863
 20
96.502657972
 30
0.0
 10
114.2561611809
 20
96.849242797
 30
0.0
  0
LINE
  5
3E6
100
AcDbEntity
  8
0
100
AcDbLine
 62
7
  6
CONTINUOUS
 10
115.0872837787
 20
97.1021904118
 11
115.1984040533
 21
96.8491550034
  0
SPLINE
  5
3E7
100
AcDbEntity
  8
0
100
AcDbSpline
 62
7
  6
CONTINUOUS
 70
0
 71
3
 72
11
 73
7
 74
0
 42
0.0000001
 43
0.0000001
 44
0.0000000001
 40
0.0
 40
0.0
 40
0.0
 40
0.0
 40
0.2498205003
 40
0.4997194105
 40
0.7497826141
 40
1.0
 40
1.0
 40
1.0
 40
1.0
 10
103.0400518446
 20
80.9644420131
 30
0.0
 10
103.1049790611
 20
80.9644420131
 30
0.0
 10
103.2362788427
 20
80.938404297
 30
0.0
 10
103.4021801207
 20
80.82709906
 30
0.0
 10
103.5132266115
 20
80.6609135516
 30
0.0
 10
103.5391837787
 20
80.5294723784
 30
0.0
 10
103.5391837787
 20
80.4644420131
 30
0.0
  0
SPLINE
  5
3E8
100
AcDbEntity
  8
0
100
AcDbSpline
 62
7
  6
CONTINUOUS
 70
0
 71
3
 72
11
 73
7
 74
0
 42
0.0000001
 43
0.0000001
 44
0.0000000001
 40
0.0
 40
0.0
 40
0.0
 40
0.0
 40
0.2502175202
 40
0.5002808484
 40
0.7501797463
 40
1.0
 40
1.0
 40
1.0
 40
1.0
 10
103.5391829756
 20
60.9644420131
 30
0.0
 10
103.5391829756
 20
60.8994116314
 30
0.0
 10
103.5132254665
 20
60.767970483
 30
0.0
 10
103.4021790131
 20
60.6017850097
 30
0.0
 10
103.236277842
 20
60.4904797694
 30
0.0
 10
103.1049781754
 20
60.4644420131
 30
0.0
 10
103.0400510415
 20
60.4644420131
 30
0.0
  0
SPLINE
  5
3E9
100
AcDbEntity
  8
0
100
AcDbSpline
 62
7
  6
CONTINUOUS
 70
0
 71
3
 72
17
 73
13
 74
0
 42
0.0000001
 43
0.0000001
 44
0.0000000001
 40
0.0
 40
0.0
 40
0.0
 40
0.0
 40
0.005252732
 40
0.0178067085
 40
0.0381851639
 40
0.0664475091
 40
0.1465827306
 40
0.2579946475
 40
0.400023564
 40
0.5716994323
 40
0.7720505165
 40
1.0
 40
1.0
 40
1.0
 40
1.0
 10
14.9272838409
 20
36.9644424675
 30
0.0
 10
14.9272888608
 20
36.9647614715
 30
0.0
 10
14.928596613
 20
36.9652872688
 30
0.0
 10
14.9305987188
 20
36.9657474161
 30
0.0
 10
14.9344159116
 20
36.9663388457
 30
0.0
 10
14.9421061665
 20
36.9671865335
 30
0.0
 10
14.955483381
 20
36.9682136445
 30
0.0
 10
14.9756790429
 20
36.9694045522
 30
0.0
 10
15.001485603
 20
36.9705854731
 30
0.0
 10
15.032687735
 20
36.9716279308
 30
0.0
 10
15.0691232359
 20
36.972415131
 30
0.0
 10
15.0951361639
 20
36.9726913026
 30
0.0
 10
15.108981078
 20
36.9727983968
 30
0.0
  0
SPLINE
  5
3EA
100
AcDbEntity
  8
0
100
AcDbSpline
 62
7
  6
CONTINUOUS
 70
0
 71
3
 72
23
 73
19
 74
0
 42
0.0000001
 43
0.0000001
 44
0.0000000001
 40
0.0
 40
0.0
 40
0.0
 40
0.0
 40
0.1948933994
 40
0.382662028
 40
0.555481187
 40
0.6342562232
 40
0.7069431957
 40
0.772856904
 40
0.8313163055
 40
0.8817476825
 40
0.9237147967
 40
0.9567912148
 40
0.9698778334
 40
0.9806308622
 40
0.9890320423
 40
0.9950641548
 40
0.998713771
 40
1.0
 40
1.0
 40
1.0
 40
1.0
 10
15.9185562607
 20
33.9557157943
 30
0.0
 10
15.8535953133
 20
33.9551462174
 30
0.0
 10
15.7260471824
 20
33.9541423703
 30
0.0
 10
15.5408930696
 20
33.9530094714
 30
0.0
 10
15.3944422732
 20
33.9523964929
 30
0.0
 10
15.2863504646
 20
33.9521470581
 30
0.0
 10
15.2138931504
 20
33.9520833795
 30
0.0
 10
15.1482070884
 20
33.9521354663
 30
0.0
 10
15.0899412308
 20
33.9523040321
 30
0.0
 10
15.0396531781
 20
33.9525832693
 30
0.0
 10
14.9978406801
 20
33.9529761494
 30
0.0
 10
14.9684437571
 20
33.9533948191
 30
0.0
 10
14.9495127818
 20
33.9538322085
 30
0.0
 10
14.9386940411
 20
33.9541140165
 30
0.0
 10
14.9305036441
 20
33.9545304455
 30
0.0
 10
14.9240329918
 20
33.9546836158
 30
0.0
 10
14.9211958645
 20
33.9553567388
 30
0.0
 10
14.9187128844
 20
33.9552870953
 30
0.0
 10
14.9187085627
 20
33.9557158098
 30
0.0
  0
SPLINE
  5
3EB
100
AcDbEntity
  8
0
100
AcDbSpline
 62
7
  6
CONTINUOUS
 70
0
 71
3
 72
13
 73
9
 74
0
 42
0.0000001
 43
0.0000001
 44
0.0000000001
 40
0.0
 40
0.0
 40
0.0
 40
0.0
 40
0.3356336885
 40
0.6204307364
 40
0.7367963542
 40
0.8361061313
 40
0.9218896486
 40
1.0
 40
1.0
 40
1.0
 40
1.0
 10
20.6763998199
 20
33.9557158099
 30
0.0
 10
20.675844097
 20
33.8893973954
 30
0.0
 10
20.6634226358
 20
33.766661819
 30
0.0
 10
20.6184942945
 20
33.6262063686
 30
0.0
 10
20.5662870085
 20
33.5416237792
 30
0.0
 10
20.524934528
 20
33.4979800886
 30
0.0
 10
20.4796692285
 20
33.4707892395
 30
0.0
 10
20.4470423999
 20
33.4644420131
 30
0.0
 10
20.4316079048
 20
33.4644420131
 30
0.0
  0
SPLINE
  5
3EC
100
AcDbEntity
  8
0
100
AcDbSpline
 62
7
  6
CONTINUOUS
 70
0
 71
3
 72
23
 73
19
 74
0
 42
0.0000001
 43
0.0000001
 44
0.0000000001
 40
0.0
 40
0.0
 40
0.0
 40
0.0
 40
0.0309301083
 40
0.0748170324
 40
0.1190534556
 40
0.1651034435
 40
0.2160201961
 40
0.2725847307
 40
0.3337785631
 40
0.3985786726
 40
0.4673962567
 40
0.5412698202
 40
0.6188183373
 40
0.6982854088
 40
0.7788260449
 40
0.8556460726
 40
0.9287004367
 40
1.0
 40
1.0
 40
1.0
 40
1.0
 10
80.3772837787
 20
88.4267283145
 30
0.0
 10
80.8957321488
 20
88.446189863
 30
0.0
 10
82.1483413551
 20
88.5495829428
 30
0.0
 10
84.1105724582
 20
88.9416001224
 30
0.0
 10
86.2509065782
 20
89.6502693991
 30
0.0
 10
88.3967480801
 20
90.6619279567
 30
0.0
 10
90.5866432213
 20
92.0251821741
 30
0.0
 10
92.7981372544
 20
93.7972621481
 30
0.0
 10
94.961422431
 20
95.9705651002
 30
0.0
 10
97.0057048474
 20
98.5244935981
 30
0.0
 10
98.9059880309
 20
101.4441167506
 30
0.0
 10
100.6155659668
 20
104.7220972998
 30
0.0
 10
102.1067060138
 20
108.2986967395
 30
0.0
 10
103.3213587821
 20
112.0959333557
 30
0.0
 10
104.2297837479
 20
115.9641566879
 30
0.0
 10
104.8511986334
 20
119.7794722964
 30
0.0
 10
105.18943993
 20
123.4740068123
 30
0.0
 10
105.2659083673
 20
125.8942605453
 30
0.0
 10
105.2659083673
 20
127.0894420131
 30
0.0
  0
SPLINE
  5
3ED
100
AcDbEntity
  8
0
100
AcDbSpline
 62
7
  6
CONTINUOUS
 70
0
 71
3
 72
23
 73
19
 74
0
 42
0.0000001
 43
0.0000001
 44
0.0000000001
 40
0.0
 40
0.0
 40
0.0
 40
0.0
 40
0.0433581274
 40
0.0865546934
 40
0.1300735234
 40
0.1753737965
 40
0.2254334131
 40
0.2811020018
 40
0.3414203676
 40
0.4053590643
 40
0.4732878375
 40
0.5462972162
 40
0.6229665348
 40
0.7015210588
 40
0.7812144277
 40
0.857224241
 40
0.929482871
 40
1.0
 40
1.0
 40
1.0
 40
1.0
 10
79.7202480755
 20
165.7644420131
 30
0.0
 10
78.9849535519
 20
165.7644420131
 30
0.0
 10
77.5149091348
 20
165.6721352562
 30
0.0
 10
75.3462922556
 20
165.2371633364
 30
0.0
 10
73.2166645125
 20
164.5289843186
 30
0.0
 10
71.0828269569
 20
163.5195374764
 30
0.0
 10
68.9052982173
 20
162.1598998313
 30
0.0
 10
66.7052533663
 20
160.3920498626
 30
0.0
 10
64.5511250239
 20
158.2222238541
 30
0.0
 10
62.5141479881
 20
155.670650929
 30
0.0
 10
60.6193213325
 20
152.7519114928
 30
0.0
 10
58.9144877382
 20
149.4731818636
 30
0.0
 10
57.4265588607
 20
145.8950843405
 30
0.0
 10
56.2147631789
 20
142.0950907166
 30
0.0
 10
55.3083439969
 20
138.2235550703
 30
0.0
 10
54.6881033047
 20
134.4044967327
 30
0.0
 10
54.350848169
 20
130.7070666082
 30
0.0
 10
54.274544135
 20
128.2853160472
 30
0.0
 10
54.274544135
 20
127.0894420131
 30
0.0
  0
SPLINE
  5
3EE
100
AcDbEntity
  8
0
100
AcDbSpline
 62
7
  6
CONTINUOUS
 70
0
 71
3
 72
26
 73
22
 74
0
 42
0.0000001
 43
0.0000001
 44
0.0000000001
 40
0.0
 40
0.0
 40
0.0
 40
0.0
 40
0.0324948845
 40
0.0746755122
 40
0.1152389263
 40
0.15641661
 40
0.2005632157
 40
0.2507428213
 40
0.3070916961
 40
0.3683381543
 40
0.4349291554
 40
0.5103623237
 40
0.5918414444
 40
0.6335330277
 40
0.6764294928
 40
0.720757685
 40
0.7653018172
 40
0.808488801
 40
0.8495386712
 40
0.9270325033
 40
1.0
 40
1.0
 40
1.0
 40
1.0
 10
79.0772837787
 20
88.4265306182
 30
0.0
 10
78.5331919671
 20
88.4470020206
 30
0.0
 10
77.2843366892
 20
88.5538455431
 30
0.0
 10
75.3870604589
 20
88.9320929659
 30
0.0
 10
73.4122533948
 20
89.5838496633
 30
0.0
 10
71.4881367374
 20
90.4538664975
 30
0.0
 10
69.5261162466
 20
91.6023649751
 30
0.0
 10
67.4981334485
 20
93.1117441409
 30
0.0
 10
65.4287090956
 20
95.0198272727
 30
0.0
 10
63.3941878791
 20
97.344943627
 30
0.0
 10
61.4095971701
 20
100.1176022175
 30
0.0
 10
59.5620331382
 20
103.3792592942
 30
0.0
 10
58.1777906564
 20
106.4083705216
 30
0.0
 10
57.2043807571
 20
109.0143210784
 30
0.0
 10
56.5449340251
 20
111.0707108876
 30
0.0
 10
55.9643126291
 20
113.200111722
 30
0.0
 10
55.4648564115
 20
115.3548804559
 30
0.0
 10
55.0582995946
 20
117.4732950005
 30
0.0
 10
54.6563025113
 20
120.1522055063
 30
0.0
 10
54.356471723
 20
123.3476266304
 30
0.0
 10
54.274544135
 20
125.8675729116
 30
0.0
 10
54.274544135
 20
127.0894420131
 30
0.0
  0
SPLINE
  5
3EF
100
AcDbEntity
  8
0
100
AcDbSpline
 62
7
  6
CONTINUOUS
 70
0
 71
3
 72
25
 73
21
 74
0
 42
0.0000001
 43
0.0000001
 44
0.0000000001
 40
0.0
 40
0.0
 40
0.0
 40
0.0
 40
0.0448058057
 40
0.0865573245
 40
0.1267124161
 40
0.1674712797
 40
0.2111845608
 40
0.2608369516
 40
0.3165387892
 40
0.3770425504
 40
0.4428034605
 40
0.5172433817
 40
0.5976541459
 40
0.6811271285
 40
0.7248500521
 40
0.7687688028
 40
0.811345426
 40
0.8518151708
 40
0.9281766693
 40
1.0
 40
1.0
 40
1.0
 40
1.0
 10
79.7202480755
 20
165.7644420131
 30
0.0
 10
80.4811615891
 20
165.7644420131
 30
0.0
 10
81.9531173287
 20
165.6671623784
 30
0.0
 10
84.0691204082
 20
165.2470583929
 30
0.0
 10
86.0524110681
 20
164.5953666188
 30
0.0
 10
87.9854802635
 20
163.7246551535
 30
0.0
 10
89.9568898088
 20
162.5749686212
 30
0.0
 10
91.9942444881
 20
161.0640580012
 30
0.0
 10
94.072291522
 20
159.1546600927
 30
0.0
 10
96.1147630162
 20
156.8285464935
 30
0.0
 10
98.1065315866
 20
154.055356985
 30
0.0
 10
99.9610582447
 20
150.7930517994
 30
0.0
 10
101.6506865036
 20
147.1094257233
 30
0.0
 10
102.8055852074
 20
143.7721126525
 30
0.0
 10
103.5721448385
 20
140.9684932612
 30
0.0
 10
104.0730938759
 20
138.8139711552
 30
0.0
 10
104.4806343615
 20
136.6960649496
 30
0.0
 10
104.8835404672
 20
134.018400921
 30
0.0
 10
105.1839466139
 20
130.8261423547
 30
0.0
 10
105.2659083673
 20
128.3091799931
 30
0.0
 10
105.2659083673
 20
127.0894420131
 30
0.0
  0
SPLINE
  5
3F0
100
AcDbEntity
  8
0
100
AcDbSpline
 62
7
  6
CONTINUOUS
 70
0
 71
3
 72
15
 73
11
 74
0
 42
0.0000001
 43
0.0000001
 44
0.0000000001
 40
0.0
 40
0.0
 40
0.0
 40
0.0
 40
0.1249872249
 40
0.2500463907
 40
0.37503436
 40
0.5000410329
 40
0.6250409918
 40
0.7500126706
 40
0.875043351
 40
1.0
 40
1.0
 40
1.0
 40
1.0
 10
57.7231016762
 20
121.0894416585
 30
0.0
 10
57.7231016762
 20
121.3416067213
 30
0.0
 10
57.766050751
 20
121.8470857792
 30
0.0
 10
57.9559666835
 20
122.5830088121
 30
0.0
 10
58.2665610205
 20
123.2769814101
 30
0.0
 10
58.688915946
 20
123.9089828763
 30
0.0
 10
59.2112317627
 20
124.4611954607
 30
0.0
 10
59.8187074438
 20
124.9182338858
 30
0.0
 10
60.4939758791
 20
125.2667516083
 30
0.0
 10
60.9772482182
 20
125.4206296175
 30
0.0
 10
61.2230652393
 20
125.4765769483
 30
0.0
  0
SPLINE
  5
3F1
100
AcDbEntity
  8
0
100
AcDbSpline
 62
7
  6
CONTINUOUS
 70
0
 71
3
 72
21
 73
17
 74
0
 42
0.0000001
 43
0.0000001
 44
0.0000000001
 40
0.0
 40
0.0
 40
0.0
 40
0.0
 40
0.0638190376
 40
0.1267725713
 40
0.1898006529
 40
0.2525555834
 40
0.3148675598
 40
0.3769118734
 40
0.5000096735
 40
0.6230846886
 40
0.6851043836
 40
0.7473922249
 40
0.8101316932
 40
0.873158441
 40
0.9361328952
 40
1.0
 40
1.0
 40
1.0
 40
1.0
 10
66.7208211328
 20
121.0894425063
 30
0.0
 10
66.7208214383
 20
120.7896353471
 30
0.0
 10
66.6616930553
 20
120.1920848864
 30
0.0
 10
66.3926231077
 20
119.336079985
 30
0.0
 10
65.9674391152
 20
118.5519336998
 30
0.0
 10
65.4024082082
 20
117.8651340012
 30
0.0
 10
64.714227181
 20
117.3084826713
 30
0.0
 10
63.6804602902
 20
116.7636953777
 30
0.0
 10
62.2217973098
 20
116.474202535
 30
0.0
 10
60.763244363
 20
116.7635972242
 30
0.0
 10
59.7297386351
 20
117.3081563092
 30
0.0
 10
59.0417579649
 20
117.8645674472
 30
0.0
 10
58.476752022
 20
118.5511333565
 30
0.0
 10
58.0514553158
 20
119.3352438893
 30
0.0
 10
57.7822171216
 20
120.1915322077
 30
0.0
 10
57.7230233034
 20
120.7894086908
 30
0.0
 10
57.7230235484
 20
121.0894416586
 30
0.0
  0
SPLINE
  5
3F2
100
AcDbEntity
  8
0
100
AcDbSpline
 62
7
  6
CONTINUOUS
 70
0
 71
3
 72
23
 73
19
 74
0
 42
0.0000001
 43
0.0000001
 44
0.0000000001
 40
0.0
 40
0.0
 40
0.0
 40
0.0
 40
0.0634758982
 40
0.1261879334
 40
0.1886087995
 40
0.250838483
 40
0.3129495487
 40
0.3751135457
 40
0.4374775355
 40
0.4999510509
 40
0.5624276003
 40
0.6248000164
 40
0.6869776185
 40
0.7491055262
 40
0.8113533137
 40
0.8737913514
 40
0.9365167855
 40
1.0
 40
1.0
 40
1.0
 40
1.0
 10
81.2202472089
 20
105.089441959
 30
0.0
 10
81.2202485952
 20
105.5207780669
 30
0.0
 10
81.3055852477
 20
106.3807780569
 30
0.0
 10
81.6848262132
 20
107.6134644124
 30
0.0
 10
82.2940759518
 20
108.7406853198
 30
0.0
 10
83.1061428144
 20
109.7264273576
 30
0.0
 10
84.0940055372
 20
110.5332331499
 30
0.0
 10
85.2200121768
 20
111.1343423596
 30
0.0
 10
86.444234463
 20
111.5039377808
 30
0.0
 10
87.7189484743
 20
111.6314649034
 30
0.0
 10
88.9937664213
 20
111.5043874571
 30
0.0
 10
90.218277559
 20
111.1351389104
 30
0.0
 10
91.3446744622
 20
110.5341837162
 30
0.0
 10
92.3329482571
 20
109.7273454062
 30
0.0
 10
93.1453358511
 20
108.7413975479
 30
0.0
 10
93.7547915309
 20
107.6139053372
 30
0.0
 10
94.1341080336
 20
106.3809686295
 30
0.0
 10
94.2194539463
 20
105.5208278912
 30
0.0
 10
94.2194553309
 20
105.0894420665
 30
0.0
  0
SPLINE
  5
3F3
100
AcDbEntity
  8
0
100
AcDbSpline
 62
7
  6
CONTINUOUS
 70
0
 71
3
 72
23
 73
19
 74
0
 42
0.0000001
 43
0.0000001
 44
0.0000000001
 40
0.0
 40
0.0
 40
0.0
 40
0.0
 40
0.0634757954
 40
0.1261869947
 40
0.1886058554
 40
0.2508324028
 40
0.3129396648
 40
0.3750999778
 40
0.4374613037
 40
0.4999338229
 40
0.5624113648
 40
0.6247864428
 40
0.6869677299
 40
0.7490994442
 40
0.8113503709
 40
0.8737904162
 40
0.936516686
 40
1.0
 40
1.0
 40
1.0
 40
1.0
 10
94.2194553309
 20
105.0894420673
 30
0.0
 10
94.219453889
 20
104.6581066941
 30
0.0
 10
94.1341325287
 20
103.7981138977
 30
0.0
 10
93.7549544556
 20
102.5654313648
 30
0.0
 10
93.1457952689
 20
101.4382090137
 30
0.0
 10
92.3338299015
 20
100.4524620797
 30
0.0
 10
91.3460639997
 20
99.6456505523
 30
0.0
 10
90.2201359674
 20
99.0445379668
 30
0.0
 10
88.9959644768
 20
98.674943433
 30
0.0
 10
87.7212680344
 20
98.5474199385
 30
0.0
 10
86.4464327978
 20
98.6745009858
 30
0.0
 10
85.2218711071
 20
99.0437503376
 30
0.0
 10
84.0953957672
 20
99.6447020088
 30
0.0
 10
83.1070252265
 20
100.4515343755
 30
0.0
 10
82.2945361051
 20
101.4374770786
 30
0.0
 10
81.6849897367
 20
102.5649675498
 30
0.0
 10
81.3056101052
 20
103.7979077615
 30
0.0
 10
81.220248667
 20
104.6580554962
 30
0.0
 10
81.2202472089
 20
105.0894419598
 30
0.0
  0
SPLINE
  5
3F4
100
AcDbEntity
  8
0
100
AcDbSpline
 62
7
  6
CONTINUOUS
 70
0
 71
3
 72
21
 73
17
 74
0
 42
0.0000001
 43
0.0000001
 44
0.0000000001
 40
0.0
 40
0.0
 40
0.0
 40
0.0
 40
0.0638190333
 40
0.1267725582
 40
0.1898006305
 40
0.2525555541
 40
0.3148675279
 40
0.3769118441
 40
0.5000096625
 40
0.6230847006
 40
0.6851044028
 40
0.7473922465
 40
0.8101317118
 40
0.873158453
 40
0.9361328997
 40
1.0
 40
1.0
 40
1.0
 40
1.0
 10
92.7196768761
 20
121.0894414961
 30
0.0
 10
92.7196763783
 20
121.3892488005
 30
0.0
 10
92.7788044352
 20
121.9867995716
 30
0.0
 10
93.047874144
 20
122.8428049671
 30
0.0
 10
93.4730581173
 20
123.6269516979
 30
0.0
 10
94.038089198
 20
124.3137517834
 30
0.0
 10
94.7262705675
 20
124.8704034225
 30
0.0
 10
95.7600381224
 20
125.4151910346
 30
0.0
 10
97.2187021167
 20
125.7046840199
 30
0.0
 10
98.6772561023
 20
125.4152892335
 30
0.0
 10
99.7107625942
 20
124.8707298824
 30
0.0
 10
100.3987437148
 20
124.314318469
 30
0.0
 10
100.9637499505
 20
123.6277522007
 30
0.0
 10
101.3890467525
 20
122.8436412406
 30
0.0
 10
101.6582848065
 20
121.9873524387
 30
0.0
 10
101.7174783443
 20
121.3894756428
 30
0.0
 10
101.7174779231
 20
121.0894425306
 30
0.0
  0
SPLINE
  5
3F5
100
AcDbEntity
  8
0
100
AcDbSpline
 62
7
  6
CONTINUOUS
 70
0
 71
3
 72
21
 73
17
 74
0
 42
0.0000001
 43
0.0000001
 44
0.0000000001
 40
0.0
 40
0.0
 40
0.0
 40
0.0
 40
0.0638188696
 40
0.1267710803
 40
0.1897960715
 40
0.2525462325
 40
0.314852432
 40
0.3768911851
 40
0.4999834875
 40
0.6230640422
 40
0.6850893088
 40
0.7473829308
 40
0.8101271652
 40
0.8731569923
 40
0.9361327512
 40
1.0
 40
1.0
 40
1.0
 40
1.0
 10
101.7174779231
 20
121.0894425302
 30
0.0
 10
101.7174782245
 20
120.7896361056
 30
0.0
 10
101.6583658756
 20
120.1920934577
 30
0.0
 10
101.3893639835
 20
119.3360918172
 30
0.0
 10
100.9642752539
 20
118.5519438683
 30
0.0
 10
100.3993506586
 20
117.8651392226
 30
0.0
 10
99.7112706254
 20
117.3084817565
 30
0.0
 10
98.6775970567
 20
116.763681117
 30
0.0
 10
97.2189497559
 20
116.4742025459
 30
0.0
 10
95.7603801508
 20
116.7636114364
 30
0.0
 10
94.7267803189
 20
117.3081571675
 30
0.0
 10
94.0386981623
 20
117.864562142
 30
0.0
 10
93.473585465
 20
118.5511230702
 30
0.0
 10
93.048193116
 20
119.3352319126
 30
0.0
 10
92.7788865788
 20
120.1915234796
 30
0.0
 10
92.7196766361
 20
120.7894077967
 30
0.0
 10
92.7196768761
 20
121.0894414958
 30
0.0
  0
SPLINE
  5
3F6
100
AcDbEntity
  8
0
100
AcDbSpline
 62
7
  6
CONTINUOUS
 70
0
 71
3
 72
21
 73
17
 74
0
 42
0.0000001
 43
0.0000001
 44
0.0000000001
 40
0.0
 40
0.0
 40
0.0
 40
0.0
 40
0.0638190333
 40
0.1267725582
 40
0.1898006305
 40
0.2525555541
 40
0.3148675279
 40
0.3769118441
 40
0.5000096625
 40
0.6230847006
 40
0.6851044028
 40
0.7473922465
 40
0.8101317118
 40
0.873158453
 40
0.9361328997
 40
1.0
 40
1.0
 40
1.0
 40
1.0
 10
92.7196768761
 20
133.0894414961
 30
0.0
 10
92.7196763783
 20
133.3892488005
 30
0.0
 10
92.7788044352
 20
133.9867995716
 30
0.0
 10
93.047874144
 20
134.8428049671
 30
0.0
 10
93.4730581173
 20
135.6269516979
 30
0.0
 10
94.038089198
 20
136.3137517834
 30
0.0
 10
94.7262705675
 20
136.8704034225
 30
0.0
 10
95.7600381224
 20
137.4151910346
 30
0.0
 10
97.2187021167
 20
137.7046840199
 30
0.0
 10
98.6772561023
 20
137.4152892335
 30
0.0
 10
99.7107625942
 20
136.8707298824
 30
0.0
 10
100.3987437148
 20
136.314318469
 30
0.0
 10
100.9637499505
 20
135.6277522007
 30
0.0
 10
101.3890467525
 20
134.8436412406
 30
0.0
 10
101.6582848065
 20
133.9873524387
 30
0.0
 10
101.7174783443
 20
133.3894756428
 30
0.0
 10
101.7174779231
 20
133.0894425306
 30
0.0
  0
SPLINE
  5
3F7
100
AcDbEntity
  8
0
100
AcDbSpline
 62
7
  6
CONTINUOUS
 70
0
 71
3
 72
21
 73
17
 74
0
 42
0.0000001
 43
0.0000001
 44
0.0000000001
 40
0.0
 40
0.0
 40
0.0
 40
0.0
 40
0.0638188696
 40
0.1267710803
 40
0.1897960715
 40
0.2525462325
 40
0.314852432
 40
0.3768911851
 40
0.4999834875
 40
0.6230640422
 40
0.6850893088
 40
0.7473829308
 40
0.8101271652
 40
0.8731569923
 40
0.9361327512
 40
1.0
 40
1.0
 40
1.0
 40
1.0
 10
101.7174779231
 20
133.0894425302
 30
0.0
 10
101.7174782245
 20
132.7896361056
 30
0.0
 10
101.6583658756
 20
132.1920934577
 30
0.0
 10
101.3893639835
 20
131.3360918172
 30
0.0
 10
100.9642752539
 20
130.5519438683
 30
0.0
 10
100.3993506586
 20
129.8651392226
 30
0.0
 10
99.7112706254
 20
129.3084817565
 30
0.0
 10
98.6775970567
 20
128.763681117
 30
0.0
 10
97.2189497559
 20
128.4742025459
 30
0.0
 10
95.7603801508
 20
128.7636114364
 30
0.0
 10
94.7267803189
 20
129.3081571675
 30
0.0
 10
94.0386981623
 20
129.864562142
 30
0.0
 10
93.473585465
 20
130.5511230702
 30
0.0
 10
93.048193116
 20
131.3352319126
 30
0.0
 10
92.7788865788
 20
132.1915234796
 30
0.0
 10
92.7196766361
 20
132.7894077967
 30
0.0
 10
92.7196768761
 20
133.0894414958
 30
0.0
  0
SPLINE
  5
3F8
100
AcDbEntity
  8
0
100
AcDbSpline
 62
7
  6
CONTINUOUS
 70
0
 71
3
 72
23
 73
19
 74
0
 42
0.0000001
 43
0.0000001
 44
0.0000000001
 40
0.0
 40
0.0
 40
0.0
 40
0.0
 40
0.0634758025
 40
0.1261870059
 40
0.1886058674
 40
0.2508324124
 40
0.3129396693
 40
0.3750999757
 40
0.4374612947
 40
0.4999338077
 40
0.5624113453
 40
0.6247864211
 40
0.686967708
 40
0.7490994239
 40
0.8113503537
 40
0.8737904034
 40
0.9365166788
 40
1.0
 40
1.0
 40
1.0
 40
1.0
 10
65.2210431314
 20
105.089441959
 30
0.0
 10
65.221044509
 20
105.5207773788
 30
0.0
 10
65.3063657255
 20
106.3807702612
 30
0.0
 10
65.6855435664
 20
107.6134529459
 30
0.0
 10
66.294702513
 20
108.7406754424
 30
0.0
 10
67.106667646
 20
109.7264225084
 30
0.0
 10
68.0944333319
 20
110.5332341474
 30
0.0
 10
69.2203611764
 20
111.1343468162
 30
0.0
 10
70.4445325127
 20
111.5039413991
 30
0.0
 10
71.7192288347
 20
111.6314649077
 30
0.0
 10
72.9940639815
 20
111.5043838401
 30
0.0
 10
74.2186256069
 20
111.1351344378
 30
0.0
 10
75.3451008968
 20
110.5341826894
 30
0.0
 10
76.3334713915
 20
109.7273502213
 30
0.0
 10
77.1459604565
 20
108.7414073949
 30
0.0
 10
77.7555067436
 20
107.6139167812
 30
0.0
 10
78.1348862527
 20
106.3809764111
 30
0.0
 10
78.2202475735
 20
105.520828578
 30
0.0
 10
78.2202489668
 20
105.0894420665
 30
0.0
  0
SPLINE
  5
3F9
100
AcDbEntity
  8
0
100
AcDbSpline
 62
7
  6
CONTINUOUS
 70
0
 71
3
 72
23
 73
19
 74
0
 42
0.0000001
 43
0.0000001
 44
0.0000000001
 40
0.0
 40
0.0
 40
0.0
 40
0.0
 40
0.0634759021
 40
0.1261879423
 40
0.1886088136
 40
0.2508385016
 40
0.3129495702
 40
0.3751135678
 40
0.4374775554
 40
0.4999510661
 40
0.5624276091
 40
0.6248000183
 40
0.6869776144
 40
0.7491055184
 40
0.8113533048
 40
0.8737913442
 40
0.9365167817
 40
1.0
 40
1.0
 40
1.0
 40
1.0
 10
78.2202489668
 20
105.0894420673
 30
0.0
 10
78.2202475158
 20
104.6581060076
 30
0.0
 10
78.1349107516
 20
103.7981061196
 30
0.0
 10
77.7556696953
 20
102.5654199277
 30
0.0
 10
77.1464199407
 20
101.4381991701
 30
0.0
 10
76.3343531375
 20
100.4524572616
 30
0.0
 10
75.3464905485
 20
99.645651572
 30
0.0
 10
74.2204841121
 20
99.0445424349
 30
0.0
 10
72.9962620896
 20
98.6749470539
 30
0.0
 10
71.7215483896
 20
98.5474199421
 30
0.0
 10
70.4467307846
 20
98.6744973714
 30
0.0
 10
69.2222200002
 20
99.0437458764
 30
0.0
 10
68.0958234389
 20
99.6447010042
 30
0.0
 10
67.1075499487
 20
100.4515392218
 30
0.0
 10
66.2951625936
 20
101.4374869596
 30
0.0
 10
65.6857070584
 20
102.5649790233
 30
0.0
 10
65.3063905769
 20
103.7979155609
 30
0.0
 10
65.2210445804
 20
104.6580561845
 30
0.0
 10
65.2210431314
 20
105.0894419598
 30
0.0
  0
SPLINE
  5
3FA
100
AcDbEntity
  8
0
100
AcDbSpline
 62
7
  6
CONTINUOUS
 70
0
 71
3
 72
9
 73
5
 74
0
 42
0.0000001
 43
0.0000001
 44
0.0000000001
 40
0.0
 40
0.0
 40
0.0
 40
0.0
 40
0.5000178781
 40
1.0
 40
1.0
 40
1.0
 40
1.0
 10
78.8320881296
 20
137.9962930397
 30
0.0
 10
79.1258904273
 20
138.0567123395
 30
0.0
 10
79.7273417782
 20
138.1190845363
 30
0.0
 10
80.3285905963
 20
138.0548311551
 30
0.0
 10
80.6221854789
 20
137.9935167213
 30
0.0
  0
SPLINE
  5
3FB
100
AcDbEntity
  8
0
100
AcDbSpline
 62
7
  6
CONTINUOUS
 70
0
 71
3
 72
15
 73
11
 74
0
 42
0.0000001
 43
0.0000001
 44
0.0000000001
 40
0.0
 40
0.0
 40
0.0
 40
0.0
 40
0.1249924195
 40
0.2500086343
 40
0.3749996958
 40
0.5000006052
 40
0.6250002528
 40
0.7499928085
 40
0.8750071951
 40
1.0
 40
1.0
 40
1.0
 40
1.0
 10
75.2202071783
 20
133.5894411112
 30
0.0
 10
75.2202071783
 20
133.846334302
 30
0.0
 10
75.2648807055
 20
134.3612253022
 30
0.0
 10
75.4619562584
 20
135.1100317193
 30
0.0
 10
75.7840480908
 20
135.8144712414
 30
0.0
 10
76.2215496924
 20
136.4535478658
 30
0.0
 10
76.7616955764
 20
137.0085920775
 30
0.0
 10
77.388658661
 20
137.4634285574
 30
0.0
 10
78.0838382798
 20
137.8044872332
 30
0.0
 10
78.5798590204
 20
137.9495970235
 30
0.0
 10
78.8316869119
 20
138.0003634656
 30
0.0
  0
SPLINE
  5
3FC
100
AcDbEntity
  8
0
100
AcDbSpline
 62
7
  6
CONTINUOUS
 70
0
 71
3
 72
21
 73
17
 74
0
 42
0.0000001
 43
0.0000001
 44
0.0000000001
 40
0.0
 40
0.0
 40
0.0
 40
0.0
 40
0.0638114384
 40
0.1267580915
 40
0.1897804947
 40
0.2525316067
 40
0.3148422219
 40
0.376887937
 40
0.499996582
 40
0.6230879591
 40
0.6851146215
 40
0.7474068819
 40
0.8101473027
 40
0.8731714595
 40
0.9361403463
 40
1.0
 40
1.0
 40
1.0
 40
1.0
 10
84.2202244562
 20
133.5894430359
 30
0.0
 10
84.2202244619
 20
133.2896357757
 30
0.0
 10
84.1610880301
 20
132.6920818368
 30
0.0
 10
83.8919830262
 20
131.8360742169
 30
0.0
 10
83.4667398908
 20
131.0519256369
 30
0.0
 10
82.9016223587
 20
130.3651250606
 30
0.0
 10
82.2133267936
 20
129.8084757435
 30
0.0
 10
81.1793473812
 20
129.2636815908
 30
0.0
 10
79.720372354
 20
128.9742126402
 30
0.0
 10
78.2614911461
 20
129.2635973807
 30
0.0
 10
77.2276791215
 20
129.808149759
 30
0.0
 10
76.5394825844
 20
130.3645525879
 30
0.0
 10
75.974283334
 20
131.0511142767
 30
0.0
 10
75.5488318267
 20
131.8352253279
 30
0.0
 10
75.2794901379
 20
132.6915195476
 30
0.0
 10
75.2202720364
 20
133.2894073194
 30
0.0
 10
75.2202719174
 20
133.5894411112
 30
0.0
  0
SPLINE
  5
3FD
100
AcDbEntity
  8
0
100
AcDbSpline
 62
7
  6
CONTINUOUS
 70
0
 71
3
 72
15
 73
11
 74
0
 42
0.0000001
 43
0.0000001
 44
0.0000000001
 40
0.0
 40
0.0
 40
0.0
 40
0.0
 40
0.1249928153
 40
0.25000719
 40
0.3749997323
 40
0.4999994116
 40
0.6250003151
 40
0.7499914173
 40
0.8750075571
 40
1.0
 40
1.0
 40
1.0
 40
1.0
 10
80.6225967981
 20
137.9975616131
 30
0.0
 10
80.8736938384
 20
137.9461315907
 30
0.0
 10
81.3681460829
 20
137.799898234
 30
0.0
 10
82.0608631127
 20
137.4578625325
 30
0.0
 10
82.6854109438
 20
137.0027281088
 30
0.0
 10
83.2233416717
 20
136.4480110234
 30
0.0
 10
83.6589672274
 20
135.8098057136
 30
0.0
 10
83.979633071
 20
135.1066703662
 30
0.0
 10
84.1758195164
 20
134.3594675716
 30
0.0
 10
84.2202905168
 20
133.845752184
 30
0.0
 10
84.2202905168
 20
133.5894430359
 30
0.0
  0
SPLINE
  5
3FE
100
AcDbEntity
  8
0
100
AcDbSpline
 62
7
  6
CONTINUOUS
 70
0
 71
3
 72
15
 73
11
 74
0
 42
0.0000001
 43
0.0000001
 44
0.0000000001
 40
0.0
 40
0.0
 40
0.0
 40
0.0
 40
0.1249580957
 40
0.2499927629
 40
0.3749691536
 40
0.49997258
 40
0.6249800576
 40
0.7499656841
 40
0.8750195434
 40
1.0
 40
1.0
 40
1.0
 40
1.0
 10
63.2284806009
 20
125.4746955943
 30
0.0
 10
63.4738689917
 20
125.4183681071
 30
0.0
 10
63.9562312288
 20
125.2638527053
 30
0.0
 10
64.6300911788
 20
124.9147959555
 30
0.0
 10
65.2362128348
 20
124.4576218324
 30
0.0
 10
65.7573054768
 20
123.9056368289
 30
0.0
 10
66.1786381464
 20
123.2741784246
 30
0.0
 10
66.4884630844
 20
122.5809972788
 30
0.0
 10
66.6779029859
 20
121.8460363444
 30
0.0
 10
66.7207439215
 20
121.3412577885
 30
0.0
 10
66.7207439215
 20
121.0894425062
 30
0.0
  0
SPLINE
  5
3FF
100
AcDbEntity
  8
0
100
AcDbSpline
 62
7
  6
CONTINUOUS
 70
0
 71
3
 72
15
 73
11
 74
0
 42
0.0000001
 43
0.0000001
 44
0.0000000001
 40
0.0
 40
0.0
 40
0.0
 40
0.0
 40
0.1249804334
 40
0.2500342651
 40
0.3750198722
 40
0.5000273485
 40
0.6250307818
 40
0.7500071657
 40
0.8750418908
 40
1.0
 40
1.0
 40
1.0
 40
1.0
 10
66.7207435154
 20
133.0894423696
 30
0.0
 10
66.7207435154
 20
132.8376272283
 30
0.0
 10
66.6779017318
 20
132.3328490006
 30
0.0
 10
66.4884614409
 20
131.5978886884
 30
0.0
 10
66.1786369081
 20
130.9047077851
 30
0.0
 10
65.7573045599
 20
130.2732495688
 30
0.0
 10
65.2362127502
 20
129.7212641821
 30
0.0
 10
64.6300915228
 20
129.2640897803
 30
0.0
 10
63.9562327985
 20
128.9150313629
 30
0.0
 10
63.4738710704
 20
128.7605139713
 30
0.0
 10
63.2284826353
 20
128.7041869775
 30
0.0
  0
SPLINE
  5
400
100
AcDbEntity
  8
0
100
AcDbSpline
 62
7
  6
CONTINUOUS
 70
0
 71
3
 72
21
 73
17
 74
0
 42
0.0000001
 43
0.0000001
 44
0.0000000001
 40
0.0
 40
0.0
 40
0.0
 40
0.0
 40
0.0638188815
 40
0.1267711017
 40
0.1897960983
 40
0.2525462596
 40
0.3148524543
 40
0.3768911984
 40
0.4999834766
 40
0.6230640116
 40
0.6850892738
 40
0.7473828956
 40
0.8101271343
 40
0.8731569693
 40
0.9361327387
 40
1.0
 40
1.0
 40
1.0
 40
1.0
 10
57.7230235484
 20
133.0894415196
 30
0.0
 10
57.7230232484
 20
133.3892479453
 30
0.0
 10
57.7821355702
 20
133.9867905823
 30
0.0
 10
58.0511373338
 20
134.8427922187
 30
0.0
 10
58.4762258647
 20
135.6269401681
 30
0.0
 10
59.0411502053
 20
136.3137448171
 30
0.0
 10
59.7292299458
 20
136.8704022889
 30
0.0
 10
60.7629030765
 20
137.4152029223
 30
0.0
 10
62.2215498742
 20
137.7046814917
 30
0.0
 10
63.680118978
 20
137.4152725348
 30
0.0
 10
64.7137184269
 20
136.8707267799
 30
0.0
 10
65.4018003506
 20
136.3143217766
 30
0.0
 10
65.9669128521
 20
135.627760826
 30
0.0
 10
66.3923050496
 20
134.8436519679
 30
0.0
 10
66.6616114796
 20
133.9873603894
 30
0.0
 10
66.7208213832
 20
133.3894760723
 30
0.0
 10
66.7208211328
 20
133.0894423695
 30
0.0
  0
SPLINE
  5
401
100
AcDbEntity
  8
0
100
AcDbSpline
 62
7
  6
CONTINUOUS
 70
0
 71
3
 72
15
 73
11
 74
0
 42
0.0000001
 43
0.0000001
 44
0.0000000001
 40
0.0
 40
0.0
 40
0.0
 40
0.0
 40
0.1249566355
 40
0.2499872576
 40
0.3749589433
 40
0.4999588952
 40
0.6249655695
 40
0.7499535583
 40
0.8750127518
 40
1.0
 40
1.0
 40
1.0
 40
1.0
 10
61.2230671024
 20
128.7023083943
 30
0.0
 10
60.977250124
 20
128.758256223
 30
0.0
 10
60.4939772735
 20
128.9121322263
 30
0.0
 10
59.8187076123
 20
129.260648289
 30
0.0
 10
59.2112315188
 20
129.7176864636
 30
0.0
 10
58.6889148906
 20
130.2698986909
 30
0.0
 10
58.2665596785
 20
130.9019003757
 30
0.0
 10
57.9559649869
 20
131.5958732455
 30
0.0
 10
57.7660495073
 20
132.3317969237
 30
0.0
 10
57.7231013123
 20
132.8372763139
 30
0.0
 10
57.7231013123
 20
133.0894415197
 30
0.0
  0
SPLINE
  5
402
100
AcDbEntity
  8
0
100
AcDbSpline
 62
7
  6
CONTINUOUS
 70
0
 71
3
 72
8
 73
4
 74
0
 42
0.0000001
 43
0.0000001
 44
0.0000000001
 40
0.0
 40
0.0
 40
0.0
 40
0.0
 40
1.0
 40
1.0
 40
1.0
 40
1.0
 10
24.6825408508
 20
35.760088154
 30
0.0
 10
24.7118871397
 20
35.6648879587
 30
0.0
 10
24.7272796114
 20
35.5642150078
 30
0.0
 10
24.7272837787
 20
35.464594318
 30
0.0
  0
SPLINE
  5
403
100
AcDbEntity
  8
0
100
AcDbSpline
 62
7
  6
CONTINUOUS
 70
0
 71
3
 72
8
 73
4
 74
0
 42
0.0000001
 43
0.0000001
 44
0.0000000001
 40
0.0
 40
0.0
 40
0.0
 40
0.0
 40
1.0
 40
1.0
 40
1.0
 40
1.0
 10
99.7272837787
 20
35.464594318
 30
0.0
 10
99.7272879886
 20
35.5642152061
 30
0.0
 10
99.7426805276
 20
35.6648883516
 30
0.0
 10
99.7720269135
 20
35.7600887245
 30
0.0
  0
SPLINE
  5
404
100
AcDbEntity
  8
0
100
AcDbSpline
 62
7
  6
CONTINUOUS
 70
0
 71
3
 72
14
 73
10
 74
0
 42
0.0000001
 43
0.0000001
 44
0.0000000001
 40
0.0
 40
0.0
 40
0.0
 40
0.0
 40
0.0247399394
 40
0.0782934735
 40
0.1609631571
 40
0.2726061066
 40
0.4129629346
 40
0.5814586513
 40
1.0
 40
1.0
 40
1.0
 40
1.0
 10
84.7090704182
 20
23.4831123346
 30
0.0
 10
84.7068300547
 20
23.4853540891
 30
0.0
 10
84.6960198327
 20
23.4868703591
 30
0.0
 10
84.6764008509
 20
23.4904285719
 30
0.0
 10
84.6443714298
 20
23.4930828137
 30
0.0
 10
84.6017778354
 20
23.496275184
 30
0.0
 10
84.5479282139
 20
23.4992423089
 30
0.0
 10
84.4548729592
 20
23.5035559623
 30
0.0
 10
84.3796989725
 20
23.5061490617
 30
0.0
 10
84.3261072337
 20
23.5078168533
 30
0.0
  0
LINE
  5
405
100
AcDbEntity
  8
0
100
AcDbLine
 62
7
  6
CONTINUOUS
 10
84.3261072337
 20
23.5078168533
 11
84.2897775503
 21
23.5089159215
  0
LINE
  5
406
100
AcDbEntity
  8
0
100
AcDbLine
 62
7
  6
CONTINUOUS
 10
84.2897775503
 20
23.5089159215
 11
84.2511294221
 21
23.5100214597
  0
SPLINE
  5
407
100
AcDbEntity
  8
0
100
AcDbSpline
 62
7
  6
CONTINUOUS
 70
0
 71
3
 72
9
 73
5
 74
0
 42
0.0000001
 43
0.0000001
 44
0.0000000001
 40
0.0
 40
0.0
 40
0.0
 40
0.0
 40
0.2053533895
 40
1.0
 40
1.0
 40
1.0
 40
1.0
 10
84.2511294221
 20
23.5100214597
 30
0.0
 10
84.1841264225
 20
23.5118857156
 30
0.0
 10
83.8578104271
 20
23.5197118154
 30
0.0
 10
83.5314226238
 20
23.5241392004
 30
0.0
 10
83.2720585635
 20
23.5269025172
 30
0.0
  0
LINE
  5
408
100
AcDbEntity
  8
0
100
AcDbLine
 62
7
  6
CONTINUOUS
 10
83.2720585635
 20
23.5269025172
 11
83.1363476346
 21
23.5282646596
  0
SPLINE
  5
409
100
AcDbEntity
  8
0
100
AcDbSpline
 62
7
  6
CONTINUOUS
 70
0
 71
3
 72
9
 73
5
 74
0
 42
0.0000001
 43
0.0000001
 44
0.0000000001
 40
0.0
 40
0.0
 40
0.0
 40
0.0
 40
0.23629715
 40
1.0
 40
1.0
 40
1.0
 40
1.0
 10
83.1363476346
 20
23.5282646596
 30
0.0
 10
83.027039353
 20
23.5292963002
 30
0.0
 10
82.5644450879
 20
23.5330120996
 30
0.0
 10
82.1018338436
 20
23.5344814744
 30
0.0
 10
81.7485381658
 20
23.5345624361
 30
0.0
  0
LINE
  5
40A
100
AcDbEntity
  8
0
100
AcDbLine
 62
7
  6
CONTINUOUS
 10
81.7485381658
 20
23.5345624361
 11
81.7097922385
 21
23.5345669057
  0
LINE
  5
40B
100
AcDbEntity
  8
0
100
AcDbLine
 62
7
  6
CONTINUOUS
 10
42.7448873747
 20
23.5345669057
 11
42.7076164105
 21
23.534562775
  0
SPLINE
  5
40C
100
AcDbEntity
  8
0
100
AcDbSpline
 62
7
  6
CONTINUOUS
 70
0
 71
3
 72
9
 73
5
 74
0
 42
0.0000001
 43
0.0000001
 44
0.0000000001
 40
0.0
 40
0.0
 40
0.0
 40
0.0
 40
0.2596621343
 40
1.0
 40
1.0
 40
1.0
 40
1.0
 10
42.7076164105
 20
23.534562775
 30
0.0
 10
42.5879770145
 20
23.5345364213
 30
0.0
 10
42.1272272122
 20
23.5339449511
 30
0.0
 10
41.666478055
 20
23.5315304228
 30
0.0
 10
41.325382176
 20
23.5283321552
 30
0.0
  0
LINE
  5
40D
100
AcDbEntity
  8
0
100
AcDbLine
 62
7
  6
CONTINUOUS
 10
41.325382176
 20
23.5283321552
 11
41.2149951308
 21
23.5272438663
  0
SPLINE
  5
40E
100
AcDbEntity
  8
0
100
AcDbSpline
 62
7
  6
CONTINUOUS
 70
0
 71
3
 72
9
 73
5
 74
0
 42
0.0000001
 43
0.0000001
 44
0.0000000001
 40
0.0
 40
0.0
 40
0.0
 40
0.0
 40
0.2915228975
 40
1.0
 40
1.0
 40
1.0
 40
1.0
 10
41.2149951308
 20
23.5272438663
 30
0.0
 10
41.1170268626
 20
23.5262295992
 30
0.0
 10
40.7809775971
 20
23.5222479259
 30
0.0
 10
40.4449316969
 20
23.5167086672
 30
0.0
 10
40.2069215723
 20
23.5101183818
 30
0.0
  0
LINE
  5
40F
100
AcDbEntity
  8
0
100
AcDbLine
 62
7
  6
CONTINUOUS
 10
40.2069215723
 20
23.5101183818
 11
40.1647719119
 21
23.5089156159
  0
SPLINE
  5
410
100
AcDbEntity
  8
0
100
AcDbSpline
 62
7
  6
CONTINUOUS
 70
0
 71
3
 72
14
 73
10
 74
0
 42
0.0000001
 43
0.0000001
 44
0.0000000001
 40
0.0
 40
0.0
 40
0.0
 40
0.0
 40
0.4185048971
 40
0.5869332924
 40
0.7272124875
 40
0.8388078335
 40
0.9214818927
 40
0.9751043695
 40
1.0
 40
1.0
 40
1.0
 40
1.0
 10
40.1144746783
 20
23.5073768708
 30
0.0
 10
40.0628391377
 20
23.505733025
 30
0.0
 10
39.9904161163
 20
23.5031790642
 30
0.0
 10
39.9007734659
 20
23.4989392158
 30
0.0
 10
39.8489119737
 20
23.4960211228
 30
0.0
 10
39.8078843307
 20
23.4928945817
 30
0.0
 10
39.7770297333
 20
23.490271617
 30
0.0
 10
39.7580903852
 20
23.4868131686
 30
0.0
 10
39.7476675908
 20
23.4852841606
 30
0.0
 10
39.7454951953
 20
23.4831103906
 30
0.0
  0
SPLINE
  5
411
100
AcDbEntity
  8
0
100
AcDbSpline
 62
7
  6
CONTINUOUS
 70
0
 71
3
 72
9
 73
5
 74
0
 42
0.0000001
 43
0.0000001
 44
0.0000000001
 40
0.0
 40
0.0
 40
0.0
 40
0.0
 40
0.2297056658
 40
1.0
 40
1.0
 40
1.0
 40
1.0
 10
99.657768229
 20
34.53471929
 30
0.0
 10
99.6590944722
 20
34.6101838146
 30
0.0
 10
99.6648070812
 20
34.9387115935
 30
0.0
 10
99.6693612779
 20
35.2672623887
 30
0.0
 10
99.6716086142
 20
35.5203540133
 30
0.0
  0
SPLINE
  5
412
100
AcDbEntity
  8
0
100
AcDbSpline
 62
7
  6
CONTINUOUS
 70
0
 71
3
 72
11
 73
7
 74
0
 42
0.0000001
 43
0.0000001
 44
0.0000000001
 40
0.0
 40
0.0
 40
0.0
 40
0.0
 40
0.2502171205
 40
0.5000416626
 40
0.7498491691
 40
1.0
 40
1.0
 40
1.0
 40
1.0
 10
99.6577454248
 20
34.5347193401
 30
0.0
 10
99.6578240077
 20
34.6648160731
 30
0.0
 10
99.6039048102
 20
34.927017541
 30
0.0
 10
99.3840099062
 20
35.2608893994
 30
0.0
 10
99.0501173787
 20
35.4806742368
 30
0.0
 10
98.7879827407
 20
35.5346026038
 30
0.0
 10
98.657920455
 20
35.5345674758
 30
0.0
  0
SPLINE
  5
413
100
AcDbEntity
  8
0
100
AcDbSpline
 62
7
  6
CONTINUOUS
 70
0
 71
3
 72
11
 73
7
 74
0
 42
0.0000001
 43
0.0000001
 44
0.0000000001
 40
0.0
 40
0.0
 40
0.0
 40
0.0
 40
0.2501491243
 40
0.4999574012
 40
0.7497805851
 40
1.0
 40
1.0
 40
1.0
 40
1.0
 10
25.7966470927
 20
35.5345674598
 30
0.0
 10
25.6665857032
 20
35.5346022998
 30
0.0
 10
25.404452266
 20
35.4806720675
 30
0.0
 10
25.0705593023
 20
35.2608911858
 30
0.0
 10
24.8506609955
 20
34.9270197307
 30
0.0
 10
24.7967437956
 20
34.6648172748
 30
0.0
 10
24.7968220798
 20
34.5347193576
 30
0.0
  0
SPLINE
  5
414
100
AcDbEntity
  8
0
100
AcDbSpline
 62
7
  6
CONTINUOUS
 70
0
 71
3
 72
9
 73
5
 74
0
 42
0.0000001
 43
0.0000001
 44
0.0000000001
 40
0.0
 40
0.0
 40
0.0
 40
0.0
 40
0.2762192004
 40
1.0
 40
1.0
 40
1.0
 40
1.0
 10
24.7829589499
 20
35.5203531644
 30
0.0
 10
24.7837648213
 20
35.4295972418
 30
0.0
 10
24.7871934223
 20
35.1010365421
 30
0.0
 10
24.7926208695
 20
34.7725008899
 30
0.0
 10
24.7967993291
 20
34.5347192893
 30
0.0
  0
SPLINE
  5
415
100
AcDbEntity
  8
0
100
AcDbSpline
 62
7
  6
CONTINUOUS
 70
0
 71
3
 72
20
 73
16
 74
0
 42
0.0000001
 43
0.0000001
 44
0.0000000001
 40
0.0
 40
0.0
 40
0.0
 40
0.0
 40
0.0624935943
 40
0.1250134809
 40
0.1875113433
 40
0.2500217829
 40
0.3125428477
 40
0.3750669782
 40
0.5000187633
 40
0.6249823946
 40
0.749963047
 40
0.8124722071
 40
0.8749798044
 40
0.9374888004
 40
1.0
 40
1.0
 40
1.0
 40
1.0
 10
84.6330003972
 20
165.7227609705
 30
0.0
 10
85.5739447216
 20
165.4530380705
 30
0.0
 10
87.4164662186
 20
164.7641941253
 30
0.0
 10
89.9971524932
 20
163.3438660221
 30
0.0
 10
92.3720456648
 20
161.6030793321
 30
0.0
 10
94.5328663008
 20
159.6051823337
 30
0.0
 10
96.4773358209
 20
157.3969713211
 30
0.0
 10
98.7935146889
 20
154.2344445329
 30
0.0
 10
101.1920576788
 20
149.9458153631
 30
0.0
 10
103.3533486224
 20
144.4709319883
 30
0.0
 10
104.6040794232
 20
139.7278015905
 30
0.0
 10
105.2952845656
 20
135.8722608195
 30
0.0
 10
105.667455899
 20
132.9573398507
 30
0.0
 10
105.8885802098
 20
130.0271778356
 30
0.0
 10
105.9362291239
 20
128.0686116442
 30
0.0
 10
105.9365245588
 20
127.0894964872
 30
0.0
  0
SPLINE
  5
416
100
AcDbEntity
  8
0
100
AcDbSpline
 62
7
  6
CONTINUOUS
 70
0
 71
3
 72
15
 73
11
 74
0
 42
0.0000001
 43
0.0000001
 44
0.0000000001
 40
0.0
 40
0.0
 40
0.0
 40
0.0
 40
0.124930115
 40
0.249912348
 40
0.3749154259
 40
0.4999226883
 40
0.6249412439
 40
0.7499635083
 40
0.8749791302
 40
1.0
 40
1.0
 40
1.0
 40
1.0
 10
67.772757333
 20
92.067354611
 30
0.0
 10
66.4838516201
 20
93.0585305599
 30
0.0
 10
64.0971720089
 20
95.2990126159
 30
0.0
 10
61.1129006589
 20
99.1795527279
 30
0.0
 10
58.6768092223
 20
103.4232557901
 30
0.0
 10
56.7427158731
 20
107.9146872751
 30
0.0
 10
55.2763325422
 20
112.5785941171
 30
0.0
 10
54.2528486743
 20
117.3579442715
 30
0.0
 10
53.6387159153
 20
122.2061604048
 30
0.0
 10
53.5081951437
 20
125.4622597106
 30
0.0
 10
53.508688804
 20
127.0893890424
 30
0.0
  0
SPLINE
  5
417
100
AcDbEntity
  8
0
100
AcDbSpline
 62
7
  6
CONTINUOUS
 70
0
 71
3
 72
10
 73
6
 74
0
 42
0.0000001
 43
0.0000001
 44
0.0000000001
 40
0.0
 40
0.0
 40
0.0
 40
0.0
 40
0.5555111547
 40
0.7713053594
 40
1.0
 40
1.0
 40
1.0
 40
1.0
 10
110.5994875334
 20
97.5644420131
 30
0.0
 10
110.6064334604
 20
97.5611599537
 30
0.0
 10
110.6136721736
 20
97.5476531828
 30
0.0
 10
110.6274069253
 20
97.5547851338
 30
0.0
 10
110.633966023
 20
97.5529862057
 30
0.0
 10
110.6365137105
 20
97.551112223
 30
0.0
  0
SPLINE
  5
418
100
AcDbEntity
  8
0
100
AcDbSpline
 62
7
  6
CONTINUOUS
 70
0
 71
3
 72
8
 73
4
 74
0
 42
0.0000001
 43
0.0000001
 44
0.0000000001
 40
0.0
 40
0.0
 40
0.0
 40
0.0
 40
1.0
 40
1.0
 40
1.0
 40
1.0
 10
110.6365137105
 20
97.551112223
 30
0.0
 10
110.6401276588
 20
97.548453939
 30
0.0
 10
110.6431806293
 20
97.5450669374
 30
0.0
 10
110.6468776418
 20
97.5425254426
 30
0.0
  0
LINE
  5
419
100
AcDbEntity
  8
0
100
AcDbLine
 62
7
  6
CONTINUOUS
 10
110.6468776418
 20
97.5425254426
 11
110.6491911757
 21
97.5411681994
  0
SPLINE
  5
41A
100
AcDbEntity
  8
0
100
AcDbSpline
 62
7
  6
CONTINUOUS
 70
0
 71
3
 72
9
 73
5
 74
0
 42
0.0000001
 43
0.0000001
 44
0.0000000001
 40
0.0
 40
0.0
 40
0.0
 40
0.0
 40
0.5734349829
 40
1.0
 40
1.0
 40
1.0
 40
1.0
 10
110.6492032447
 20
98.3878320909
 30
0.0
 10
110.6428418289
 20
98.3848380403
 30
0.0
 10
110.6353407687
 20
98.3697838758
 30
0.0
 10
110.6215718053
 20
98.3784750765
 30
0.0
 10
110.6165671801
 20
98.3769561841
 30
0.0
  0
SPLINE
  5
41B
100
AcDbEntity
  8
0
100
AcDbSpline
 62
7
  6
CONTINUOUS
 70
0
 71
3
 72
9
 73
5
 74
0
 42
0.0000001
 43
0.0000001
 44
0.0000000001
 40
0.0
 40
0.0
 40
0.0
 40
0.0
 40
0.2247345351
 40
1.0
 40
1.0
 40
1.0
 40
1.0
 10
110.6165671801
 20
98.3769561841
 30
0.0
 10
110.6150455146
 20
98.3764943621
 30
0.0
 10
110.6089301021
 20
98.3726700152
 30
0.0
 10
110.604447421
 20
98.3667856378
 30
0.0
 10
110.5994875334
 20
98.3644420131
 30
0.0
  0
SPLINE
  5
41C
100
AcDbEntity
  8
0
100
AcDbSpline
 62
7
  6
CONTINUOUS
 70
0
 71
3
 72
17
 73
13
 74
0
 42
0.0000001
 43
0.0000001
 44
0.0000000001
 40
0.0
 40
0.0
 40
0.0
 40
0.0
 40
0.1250123653
 40
0.2500212462
 40
0.312539508
 40
0.3750578912
 40
0.5000526398
 40
0.6250313379
 40
0.7500049789
 40
0.8125377385
 40
0.8750759368
 40
1.0
 40
1.0
 40
1.0
 40
1.0
 10
53.508688804
 20
127.0893890262
 30
0.0
 10
53.5092142956
 20
128.8138656498
 30
0.0
 10
53.6590766272
 20
132.2647396609
 30
0.0
 10
54.2360585684
 20
136.5434642725
 30
0.0
 10
54.9280225173
 20
139.9237576021
 30
0.0
 10
55.7832115031
 20
143.2662412868
 30
0.0
 10
57.1642196357
 20
147.3587810485
 30
0.0
 10
59.355388955
 20
152.0561682401
 30
0.0
 10
61.6638210852
 20
155.7146664321
 30
0.0
 10
63.8286410034
 20
158.4049430843
 30
0.0
 10
66.2078915339
 20
160.9040981363
 30
0.0
 10
68.2535498617
 20
162.5256686643
 30
0.0
 10
69.7178367797
 20
163.4342302256
 30
0.0
  0
SPLINE
  5
41D
100
AcDbEntity
  8
0
100
AcDbSpline
 62
7
  6
CONTINUOUS
 70
0
 71
3
 72
18
 73
14
 74
0
 42
0.0000001
 43
0.0000001
 44
0.0000000001
 40
0.0
 40
0.0
 40
0.0
 40
0.0
 40
0.1250225191
 40
0.187546164
 40
0.2500698569
 40
0.312593132
 40
0.3751157555
 40
0.5001190033
 40
0.6251082887
 40
0.7500791061
 40
0.8125973097
 40
0.875112781
 40
1.0
 40
1.0
 40
1.0
 40
1.0
 10
105.9365245588
 20
127.0894961624
 30
0.0
 10
105.9371005267
 20
125.4348315473
 30
0.0
 10
105.8361897688
 20
122.9507401297
 30
0.0
 10
105.4839620072
 20
119.6591247579
 30
0.0
 10
105.1144069985
 20
117.2035010175
 30
0.0
 10
104.638818271
 20
114.7661212539
 30
0.0
 10
103.8555429393
 20
111.5498239277
 30
0.0
 10
102.5915854086
 20
107.6037381758
 30
0.0
 10
100.5879593219
 20
103.053384418
 30
0.0
 10
98.4839160874
 20
99.4783954885
 30
0.0
 10
96.5125797057
 20
96.8171528402
 30
0.0
 10
94.3485249552
 20
94.3133683181
 30
0.0
 10
92.4875898908
 20
92.6451664009
 30
0.0
 10
91.1510170202
 20
91.6727644733
 30
0.0
  0
SPLINE
  5
41E
100
AcDbEntity
  8
0
100
AcDbSpline
 62
7
  6
CONTINUOUS
 70
0
 71
3
 72
13
 73
9
 74
0
 42
0.0000001
 43
0.0000001
 44
0.0000000001
 40
0.0
 40
0.0
 40
0.0
 40
0.0
 40
0.2499936439
 40
0.3749983846
 40
0.4999996389
 40
0.625004312
 40
0.7500063099
 40
1.0
 40
1.0
 40
1.0
 40
1.0
 10
47.6899197515
 20
135.1647248953
 30
0.0
 10
47.6988453745
 20
136.5216847834
 30
0.0
 10
47.7372397735
 20
138.557805843
 30
0.0
 10
47.9130763526
 20
141.2665458414
 30
0.0
 10
48.0981601299
 20
143.2939157144
 30
0.0
 10
48.3329825973
 20
145.3160935895
 30
0.0
 10
48.7165179653
 20
148.0033808278
 30
0.0
 10
49.1035538135
 20
150.002729068
 30
0.0
 10
49.3717911417
 20
151.3329430433
 30
0.0
  0
SPLINE
  5
41F
100
AcDbEntity
  8
0
100
AcDbSpline
 62
7
  6
CONTINUOUS
 70
0
 71
3
 72
17
 73
13
 74
0
 42
0.0000001
 43
0.0000001
 44
0.0000000001
 40
0.0
 40
0.0
 40
0.0
 40
0.0
 40
0.1250527539
 40
0.2501027982
 40
0.3751452451
 40
0.5001781163
 40
0.6251819827
 40
0.7500950074
 40
0.812630598
 40
0.8751338337
 40
0.9375967754
 40
1.0
 40
1.0
 40
1.0
 40
1.0
 10
49.3227669816
 20
151.3450070864
 30
0.0
 10
49.1573107687
 20
151.3863318067
 30
0.0
 10
48.829162542
 20
151.4805358763
 30
0.0
 10
48.3483392065
 20
151.6566061825
 30
0.0
 10
47.8825953459
 20
151.8696261678
 30
0.0
 10
47.4378830113
 20
152.1242013626
 30
0.0
 10
47.0251531291
 20
152.4281396567
 30
0.0
 10
46.7246685693
 20
152.7350712928
 30
0.0
 10
46.5366412621
 20
153.0209675453
 30
0.0
 10
46.4355753184
 20
153.2575399944
 30
0.0
 10
46.386763697
 20
153.5111004163
 30
0.0
 10
46.4045769339
 20
153.68344452
 30
0.0
 10
46.4251567714
 20
153.7660201198
 30
0.0
  0
SPLINE
  5
420
100
AcDbEntity
  8
0
100
AcDbSpline
 62
7
  6
CONTINUOUS
 70
0
 71
3
 72
8
 73
4
 74
0
 42
0.0000001
 43
0.0000001
 44
0.0000000001
 40
0.0
 40
0.0
 40
0.0
 40
0.0
 40
1.0
 40
1.0
 40
1.0
 40
1.0
 10
118.9272858462
 20
102.1646759915
 30
0.0
 10
117.5272865355
 20
102.1719149707
 30
0.0
 10
116.1272851459
 20
102.1787623951
 30
0.0
 10
114.7272820103
 20
102.1852194165
 30
0.0
  0
SPLINE
  5
421
100
AcDbEntity
  8
0
100
AcDbSpline
 62
7
  6
CONTINUOUS
 70
0
 71
3
 72
13
 73
9
 74
0
 42
0.0000001
 43
0.0000001
 44
0.0000000001
 40
0.0
 40
0.0
 40
0.0
 40
0.0
 40
0.1248928512
 40
0.2499622488
 40
0.4991639701
 40
0.7488273858
 40
0.8744156446
 40
1.0
 40
1.0
 40
1.0
 40
1.0
 10
114.6665444646
 20
102.1851162896
 30
0.0
 10
114.3965739968
 20
102.1827085555
 30
0.0
 10
113.8551569836
 20
102.1253947369
 30
0.0
 10
112.8182648197
 20
101.8081529721
 30
0.0
 10
111.6638202379
 20
101.0431667578
 30
0.0
 10
110.8844875927
 20
99.8968661538
 30
0.0
 10
110.5542368965
 20
98.860181051
 30
0.0
 10
110.4909669359
 20
98.3167410114
 30
0.0
 10
110.4857199131
 20
98.0453156921
 30
0.0
  0
SPLINE
  5
422
100
AcDbEntity
  8
0
100
AcDbSpline
 62
7
  6
CONTINUOUS
 70
0
 71
3
 72
13
 73
9
 74
0
 42
0.0000001
 43
0.0000001
 44
0.0000000001
 40
0.0
 40
0.0
 40
0.0
 40
0.0
 40
0.1255798693
 40
0.2511764873
 40
0.5008361533
 40
0.7500331229
 40
0.8751041029
 40
1.0
 40
1.0
 40
1.0
 40
1.0
 10
110.4853779522
 20
97.9037840136
 30
0.0
 10
110.4893280763
 20
97.6315098482
 30
0.0
 10
110.5503805221
 20
97.0860851973
 30
0.0
 10
110.87756984
 20
96.0448821105
 30
0.0
 10
111.6559924703
 20
94.8925219643
 30
0.0
 10
112.812797382
 20
94.1229984501
 30
0.0
 10
113.8526321754
 20
93.8038405168
 30
0.0
 10
114.3957355079
 20
93.7461829664
 30
0.0
 10
114.6665444552
 20
93.7437677367
 30
0.0
  0
SPLINE
  5
423
100
AcDbEntity
  8
0
100
AcDbSpline
 62
7
  6
CONTINUOUS
 70
0
 71
3
 72
11
 73
7
 74
0
 42
0.0000001
 43
0.0000001
 44
0.0000000001
 40
0.0
 40
0.0
 40
0.0
 40
0.0
 40
0.2500791866
 40
0.5000886758
 40
0.7500574118
 40
1.0
 40
1.0
 40
1.0
 40
1.0
 10
91.1510170202
 20
91.6727644733
 30
0.0
 10
90.3235741292
 20
91.0707718099
 30
0.0
 10
88.5900510032
 20
89.9698294199
 30
0.0
 10
85.7774613865
 20
88.7128422805
 30
0.0
 10
82.800051216
 20
87.9161777246
 30
0.0
 10
80.7499828372
 20
87.7355531494
 30
0.0
 10
79.7272837788
 20
87.7354794809
 30
0.0
  0
SPLINE
  5
424
100
AcDbEntity
  8
0
100
AcDbSpline
 62
7
  6
CONTINUOUS
 70
0
 71
3
 72
11
 73
7
 74
0
 42
0.0000001
 43
0.0000001
 44
0.0000000001
 40
0.0
 40
0.0
 40
0.0
 40
0.0
 40
0.2500063011
 40
0.5000234137
 40
0.7500659205
 40
1.0
 40
1.0
 40
1.0
 40
1.0
 10
69.7178367797
 20
163.4342302256
 30
0.0
 10
70.4666066943
 20
163.8988273987
 30
0.0
 10
72.0206270729
 20
164.7411623972
 30
0.0
 10
74.495781234
 20
165.6925573447
 30
0.0
 10
77.0811619058
 20
166.2859830865
 30
0.0
 10
78.8463420384
 20
166.4194051167
 30
0.0
 10
79.7272837784
 20
166.4194110512
 30
0.0
  0
SPLINE
  5
425
100
AcDbEntity
  8
0
100
AcDbSpline
 62
7
  6
CONTINUOUS
 70
0
 71
3
 72
27
 73
23
 74
0
 42
0.0000001
 43
0.0000001
 44
0.0000000001
 40
0.0
 40
0.0
 40
0.0
 40
0.0
 40
0.0625255988
 40
0.1250511213
 40
0.1875740013
 40
0.250093737
 40
0.3126085169
 40
0.3751185204
 40
0.4376230237
 40
0.5001212299
 40
0.6249791445
 40
0.687457984
 40
0.7187082384
 40
0.7499590412
 40
0.7812107132
 40
0.8124631765
 40
0.8437169296
 40
0.8749714752
 40
0.9062277402
 40
0.9374851869
 40
0.9687423093
 40
1.0
 40
1.0
 40
1.0
 40
1.0
 10
111.7654662024
 20
135.1625313562
 30
0.0
 10
111.7651302707
 20
133.7951364438
 30
0.0
 10
111.6959070123
 20
131.0597787797
 30
0.0
 10
111.3747560355
 20
126.9684013297
 30
0.0
 10
110.8392408968
 20
122.8995868785
 30
0.0
 10
110.0872305493
 20
118.8652729887
 30
0.0
 10
109.1070814026
 20
114.8801538948
 30
0.0
 10
107.8869740442
 20
110.9620569804
 30
0.0
 10
106.4192860581
 20
107.1292812893
 30
0.0
 10
104.1181262713
 20
102.1703171686
 30
0.0
 10
101.2427355086
 20
97.4859089112
 30
0.0
 10
98.1710058023
 20
93.8119225688
 30
0.0
 10
96.2451346559
 20
91.8702669234
 30
0.0
 10
94.7126505266
 20
90.506050947
 30
0.0
 10
93.093443875
 20
89.2456365035
 30
0.0
 10
91.3888514639
 20
88.1027537364
 30
0.0
 10
89.6012887014
 20
87.0937011519
 30
0.0
 10
87.7349033161
 20
86.2380784069
 30
0.0
 10
85.7997954939
 20
85.5512074687
 30
0.0
 10
83.8097712433
 20
85.0434834224
 30
0.0
 10
81.7791734354
 20
84.7331844131
 30
0.0
 10
80.4108695286
 20
84.6672790055
 30
0.0
 10
79.7272837787
 20
84.6672284177
 30
0.0
  0
SPLINE
  5
426
100
AcDbEntity
  8
0
100
AcDbSpline
 62
7
  6
CONTINUOUS
 70
0
 71
3
 72
11
 73
7
 74
0
 42
0.0000001
 43
0.0000001
 44
0.0000000001
 40
0.0
 40
0.0
 40
0.0
 40
0.0
 40
0.2382439042
 40
0.4999701251
 40
0.761734881
 40
1.0
 40
1.0
 40
1.0
 40
1.0
 10
118.304438087
 20
37.2644423647
 30
0.0
 10
118.3912821249
 20
37.264515867
 30
0.0
 10
118.575251315
 20
37.2988829584
 30
0.0
 10
118.8142332125
 20
37.4550461557
 30
0.0
 10
118.9711517694
 20
37.6935796156
 30
0.0
 10
119.0057932014
 20
37.877590224
 30
0.0
 10
119.0058418971
 20
37.9644420126
 30
0.0
  0
SPLINE
  5
427
100
AcDbEntity
  8
0
100
AcDbSpline
 62
7
  6
CONTINUOUS
 70
0
 71
3
 72
15
 73
11
 74
0
 42
0.0000001
 43
0.0000001
 44
0.0000000001
 40
0.0
 40
0.0
 40
0.0
 40
0.0
 40
0.1248451301
 40
0.2498026327
 40
0.3748700777
 40
0.4999999863
 40
0.6251299028
 40
0.750197353
 40
0.8751548578
 40
1.0
 40
1.0
 40
1.0
 40
1.0
 10
114.7266458251
 20
92.9449312703
 30
0.0
 10
114.0779538755
 20
92.9510605977
 30
0.0
 10
112.7684714755
 20
93.2205876479
 30
0.0
 10
111.1142275219
 20
94.3372807684
 30
0.0
 10
110.0055418492
 20
96.0019096902
 30
0.0
 10
109.6163049831
 20
97.9644400341
 30
0.0
 10
110.0055403366
 20
99.9269707137
 30
0.0
 10
111.1142248066
 20
101.591600543
 30
0.0
 10
112.768468023
 20
102.7082949317
 30
0.0
 10
114.0779503132
 20
102.9778229636
 30
0.0
 10
114.7266423218
 20
102.9839527228
 30
0.0
  0
SPLINE
  5
428
100
AcDbEntity
  8
0
100
AcDbSpline
 62
7
  6
CONTINUOUS
 70
0
 71
3
 72
11
 73
7
 74
0
 42
0.0000001
 43
0.0000001
 44
0.0000000001
 40
0.0
 40
0.0
 40
0.0
 40
0.0
 40
0.2382663087
 40
0.5000310353
 40
0.7617572881
 40
1.0
 40
1.0
 40
1.0
 40
1.0
 10
119.0058406236
 20
164.9644420129
 30
0.0
 10
119.0057666693
 20
165.0512942262
 30
0.0
 10
118.9711645901
 20
165.2353046173
 30
0.0
 10
118.8142283374
 20
165.4738428671
 30
0.0
 10
118.5752511787
 20
165.6299883972
 30
0.0
 10
118.391281718
 20
165.6643948312
 30
0.0
 10
118.3044380881
 20
165.6644430317
 30
0.0
  0
SPLINE
  5
429
100
AcDbEntity
  8
0
100
AcDbSpline
 62
7
  6
CONTINUOUS
 70
0
 71
3
 72
14
 73
10
 74
0
 42
0.0000001
 43
0.0000001
 44
0.0000000001
 40
0.0
 40
0.0
 40
0.0
 40
0.0
 40
0.1249775005
 40
0.2499673957
 40
0.3749691266
 40
0.499980034
 40
0.7499403037
 40
0.874971673
 40
1.0
 40
1.0
 40
1.0
 40
1.0
 10
105.3322052395
 20
165.5501621121
 30
0.0
 10
105.9044687386
 20
164.3782639347
 30
0.0
 10
106.9413410841
 20
161.9813484331
 30
0.0
 10
108.2627842188
 20
158.2962958988
 30
0.0
 10
109.3622890517
 20
154.5381816445
 30
0.0
 10
110.5410163407
 20
149.4536676569
 30
0.0
 10
111.3106891002
 20
144.2819451747
 30
0.0
 10
111.6942990767
 20
139.0769970333
 30
0.0
 10
111.7624824139
 20
136.4672173846
 30
0.0
 10
111.7654662024
 20
135.1625313562
 30
0.0
  0
SPLINE
  5
42A
100
AcDbEntity
  8
0
100
AcDbSpline
 62
7
  6
CONTINUOUS
 70
0
 71
3
 72
14
 73
10
 74
0
 42
0.0000001
 43
0.0000001
 44
0.0000000001
 40
0.0
 40
0.0
 40
0.0
 40
0.0
 40
0.3631748148
 40
0.5400319063
 40
0.6983020128
 40
0.8270239349
 40
0.9204392194
 40
0.9760327383
 40
1.0
 40
1.0
 40
1.0
 40
1.0
 10
118.3044371283
 20
165.6644420131
 30
0.0
 10
118.3044375112
 20
165.7626175772
 30
0.0
 10
118.3019697226
 20
165.9086758478
 30
0.0
 10
118.2927826324
 20
166.0971145985
 30
0.0
 10
118.2832003624
 20
166.2224631595
 30
0.0
 10
118.2720790707
 20
166.3238750991
 30
0.0
 10
118.2582020362
 20
166.399779857
 30
0.0
 10
118.2477086539
 20
166.4416174772
 30
0.0
 10
118.2337647995
 20
166.4644454463
 30
0.0
 10
118.2272858275
 20
166.4644453902
 30
0.0
  0
SPLINE
  5
42B
100
AcDbEntity
  8
0
100
AcDbSpline
 62
7
  6
CONTINUOUS
 70
0
 71
3
 72
10
 73
6
 74
0
 42
0.0000001
 43
0.0000001
 44
0.0000000001
 40
0.0
 40
0.0
 40
0.0
 40
0.0
 40
0.3514861844
 40
0.4871912904
 40
1.0
 40
1.0
 40
1.0
 40
1.0
 10
105.3189706608
 20
166.4644017195
 30
0.0
 10
105.3198963349
 20
166.4643807202
 30
0.0
 10
105.3228675379
 20
166.4644510379
 30
0.0
 10
105.3193401823
 20
166.4635669304
 30
0.0
 10
105.3180677047
 20
166.4633264698
 30
0.0
 10
105.3168069732
 20
166.4628412539
 30
0.0
  0
SPLINE
  5
42C
100
AcDbEntity
  8
0
100
AcDbSpline
 62
7
  6
CONTINUOUS
 70
0
 71
3
 72
9
 73
5
 74
0
 42
0.0000001
 43
0.0000001
 44
0.0000000001
 40
0.0
 40
0.0
 40
0.0
 40
0.0
 40
0.1985658024
 40
1.0
 40
1.0
 40
1.0
 40
1.0
 10
105.3168069732
 20
166.4628412539
 30
0.0
 10
105.3120088726
 20
166.4615059992
 30
0.0
 10
105.2890624552
 20
166.4503693058
 30
0.0
 10
105.2743930781
 20
166.4274840997
 30
0.0
 10
105.2658612119
 20
166.4092829805
 30
0.0
  0
SPLINE
  5
42D
100
AcDbEntity
  8
0
100
AcDbSpline
 62
7
  6
CONTINUOUS
 70
0
 71
3
 72
14
 73
10
 74
0
 42
0.0000001
 43
0.0000001
 44
0.0000000001
 40
0.0
 40
0.0
 40
0.0
 40
0.0
 40
0.0720476083
 40
0.1640747936
 40
0.4018040046
 40
0.5414451993
 40
0.6902447889
 40
0.8444645618
 40
1.0
 40
1.0
 40
1.0
 40
1.0
 10
105.2658612119
 20
166.4092829805
 30
0.0
 10
105.2572402764
 20
166.3908918491
 30
0.0
 10
105.2439574329
 20
166.3462224659
 30
0.0
 10
105.2224728684
 20
166.2350931402
 30
0.0
 10
105.2052717268
 20
166.1036640274
 30
0.0
 10
105.193669371
 20
165.955784233
 30
0.0
 10
105.1880273513
 20
165.831072721
 30
0.0
 10
105.1830926825
 20
165.7020134511
 30
0.0
 10
105.1815486368
 20
165.6143885593
 30
0.0
 10
105.1858178212
 20
165.5707488315
 30
0.0
  0
SPLINE
  5
42E
100
AcDbEntity
  8
0
100
AcDbSpline
 62
7
  6
CONTINUOUS
 70
0
 71
3
 72
11
 73
7
 74
0
 42
0.0000001
 43
0.0000001
 44
0.0000000001
 40
0.0
 40
0.0
 40
0.0
 40
0.0
 40
0.2491967685
 40
0.4986892211
 40
0.7486706266
 40
1.0
 40
1.0
 40
1.0
 40
1.0
 10
105.1858178212
 20
165.5707488315
 30
0.0
 10
105.1861258052
 20
165.5908222016
 30
0.0
 10
105.1969945039
 20
165.6323862207
 30
0.0
 10
105.2457924192
 20
165.6724764261
 30
0.0
 10
105.3073049516
 20
165.6874881857
 30
0.0
 10
105.3471437542
 20
165.6719028697
 30
0.0
 10
105.3642177882
 20
165.6610198461
 30
0.0
  0
SPLINE
  5
42F
100
AcDbEntity
  8
0
100
AcDbSpline
 62
7
  6
CONTINUOUS
 70
0
 71
3
 72
18
 73
14
 74
0
 42
0.0000001
 43
0.0000001
 44
0.0000000001
 40
0.0
 40
0.0
 40
0.0
 40
0.0
 40
0.0067879396
 40
0.0223330874
 40
0.0469532195
 40
0.0805567838
 40
0.12293316
 40
0.1736124396
 40
0.2977333568
 40
0.4484122609
 40
0.6201454623
 40
0.806703911
 40
1.0
 40
1.0
 40
1.0
 40
1.0
 10
105.3189706608
 20
166.4644017195
 30
0.0
 10
105.3207635963
 20
166.4640601532
 30
0.0
 10
105.3232398024
 20
166.457055493
 30
0.0
 10
105.3263837507
 20
166.4460130767
 30
0.0
 10
105.3299481917
 20
166.4258601839
 30
0.0
 10
105.3338432581
 20
166.3993585594
 30
0.0
 10
105.3379943346
 20
166.3654519821
 30
0.0
 10
105.3440677413
 20
166.3074167937
 30
0.0
 10
105.3510171594
 20
166.2201327574
 30
0.0
 10
105.3573020973
 20
166.1002322235
 30
0.0
 10
105.3616858207
 20
165.9634353581
 30
0.0
 10
105.3638295927
 20
165.8151326732
 30
0.0
 10
105.3641983181
 20
165.7129944267
 30
0.0
 10
105.3642177882
 20
165.6610198461
 30
0.0
  0
SPLINE
  5
430
100
AcDbEntity
  8
0
100
AcDbSpline
 62
7
  6
CONTINUOUS
 70
0
 71
3
 72
9
 73
5
 74
0
 42
0.0000001
 43
0.0000001
 44
0.0000000001
 40
0.0
 40
0.0
 40
0.0
 40
0.0
 40
0.4999967608
 40
1.0
 40
1.0
 40
1.0
 40
1.0
 10
79.7272837787
 20
166.4644420131
 30
0.0
 10
79.9428435326
 20
166.4634901427
 30
0.0
 10
80.3740210539
 20
166.4572504831
 30
0.0
 10
80.804571565
 20
166.4325394047
 30
0.0
 10
81.0195654933
 20
166.4168636752
 30
0.0
  0
SPLINE
  5
431
100
AcDbEntity
  8
0
100
AcDbSpline
 62
7
  6
CONTINUOUS
 70
0
 71
3
 72
11
 73
7
 74
0
 42
0.0000001
 43
0.0000001
 44
0.0000000001
 40
0.0
 40
0.0
 40
0.0
 40
0.0
 40
0.2500646399
 40
0.5000808329
 40
0.7500762496
 40
1.0
 40
1.0
 40
1.0
 40
1.0
 10
111.6906508097
 20
135.1625488617
 30
0.0
 10
111.6931438736
 20
137.7688905123
 30
0.0
 10
111.4454724702
 20
142.9851302841
 30
0.0
 10
110.2870865162
 20
150.7303051857
 30
0.0
 10
108.3151642109
 20
158.3092659282
 30
0.0
 10
106.4063182561
 20
163.176304156
 30
0.0
 10
105.2878312949
 20
165.5288256849
 30
0.0
  0
SPLINE
  5
432
100
AcDbEntity
  8
0
100
AcDbSpline
 62
7
  6
CONTINUOUS
 70
0
 71
3
 72
11
 73
7
 74
0
 42
0.0000001
 43
0.0000001
 44
0.0000000001
 40
0.0
 40
0.0
 40
0.0
 40
0.0
 40
0.2527910018
 40
0.5008998864
 40
0.7521075545
 40
1.0
 40
1.0
 40
1.0
 40
1.0
 10
105.2878395831
 20
165.5288295475
 30
0.0
 10
105.2825508232
 20
165.536939206
 30
0.0
 10
105.2697871177
 20
165.5520759373
 30
0.0
 10
105.2425911062
 20
165.5636479805
 30
0.0
 10
105.2143173444
 20
165.5680570365
 30
0.0
 10
105.1953054255
 20
165.5703949455
 30
0.0
 10
105.1858178212
 20
165.5707488314
 30
0.0
  0
SPLINE
  5
433
100
AcDbEntity
  8
0
100
AcDbSpline
 62
7
  6
CONTINUOUS
 70
0
 71
3
 72
31
 73
27
 74
0
 42
0.0000001
 43
0.0000001
 44
0.0000000001
 40
0.0
 40
0.0
 40
0.0
 40
0.0
 40
0.0620496414
 40
0.0931055997
 40
0.1241813227
 40
0.1552735469
 40
0.1863808539
 40
0.2175052956
 40
0.2486496526
 40
0.2798141359
 40
0.3109942539
 40
0.3733972142
 40
0.4358642329
 40
0.4983888187
 40
0.5609643498
 40
0.5922705329
 40
0.623588665
 40
0.654917245
 40
0.686254984
 40
0.7176016579
 40
0.7489571921
 40
0.7803207449
 40
0.8116905098
 40
0.8744458484
 40
0.9372182999
 40
1.0
 40
1.0
 40
1.0
 40
1.0
 10
105.1858178212
 20
165.5707488314
 30
0.0
 10
104.685763124
 20
165.5804007681
 30
0.0
 10
103.9354554241
 20
165.596757699
 30
0.0
 10
102.9349612994
 20
165.6273627103
 30
0.0
 10
102.1839819036
 20
165.6532497779
 30
0.0
 10
101.4325201347
 20
165.6772648528
 30
0.0
 10
100.6805075524
 20
165.695579531
 30
0.0
 10
99.9280696043
 20
165.7136865996
 30
0.0
 10
99.1753502563
 20
165.7383849961
 30
0.0
 10
98.4223693828
 20
165.7679927272
 30
0.0
 10
97.4175310376
 20
165.8051412319
 30
0.0
 10
96.1602180311
 20
165.841756468
 30
0.0
 10
94.6507899141
 20
165.8984368476
 30
0.0
 10
93.1400114664
 20
165.9559768276
 30
0.0
 10
91.8800819894
 20
166.0002245827
 30
0.0
 10
90.871634191
 20
166.0383478574
 30
0.0
 10
90.1149675639
 20
166.0693775166
 30
0.0
 10
89.3580280842
 20
166.0999736554
 30
0.0
 10
88.6007491957
 20
166.1277367715
 30
0.0
 10
87.8432349544
 20
166.1549916277
 30
0.0
 10
87.0856173742
 20
166.1850528808
 30
0.0
 10
86.3278903112
 20
166.2169564885
 30
0.0
 10
85.3171643693
 20
166.2564288136
 30
0.0
 10
84.0532823899
 20
166.3009917741
 30
0.0
 10
82.5366440872
 20
166.3619402343
 30
0.0
 10
81.5252777812
 20
166.3984184821
 30
0.0
 10
81.0195654939
 20
166.4168636828
 30
0.0
  0
SPLINE
  5
434
100
AcDbEntity
  8
0
100
AcDbSpline
 62
7
  6
CONTINUOUS
 70
0
 71
3
 72
9
 73
5
 74
0
 42
0.0000001
 43
0.0000001
 44
0.0000000001
 40
0.0
 40
0.0
 40
0.0
 40
0.0
 40
0.5000030759
 40
1.0
 40
1.0
 40
1.0
 40
1.0
 10
81.0195654939
 20
166.4168636828
 30
0.0
 10
81.6327560697
 20
166.3716095221
 30
0.0
 10
82.8551884623
 20
166.2162471574
 30
0.0
 10
84.0548201586
 20
165.9354692658
 30
0.0
 10
84.6458498445
 20
165.7659840773
 30
0.0
  0
SPLINE
  5
435
100
AcDbEntity
  8
0
100
AcDbSpline
 62
7
  6
CONTINUOUS
 70
0
 71
3
 72
11
 73
7
 74
0
 42
0.0000001
 43
0.0000001
 44
0.0000000001
 40
0.0
 40
0.0
 40
0.0
 40
0.0
 40
0.2499593054
 40
0.4999434415
 40
0.7499605636
 40
1.0
 40
1.0
 40
1.0
 40
1.0
 10
84.6458498445
 20
165.7659840773
 30
0.0
 10
85.5618191764
 20
165.5033183625
 30
0.0
 10
87.3563260215
 20
164.8373275559
 30
0.0
 10
89.8765463949
 20
163.4701945504
 30
0.0
 10
92.2028788043
 20
161.7964544952
 30
0.0
 10
93.6197663497
 20
160.5150000972
 30
0.0
 10
94.2934463252
 20
159.8406629115
 30
0.0
  0
SPLINE
  5
436
100
AcDbEntity
  8
0
100
AcDbSpline
 62
7
  6
CONTINUOUS
 70
0
 71
3
 72
10
 73
6
 74
0
 42
0.0000001
 43
0.0000001
 44
0.0000000001
 40
0.0
 40
0.0
 40
0.0
 40
0.0
 40
0.2500598565
 40
0.500130334
 40
1.0
 40
1.0
 40
1.0
 40
1.0
 10
94.4104041229
 20
159.722905334
 30
0.0
 10
95.023933948
 20
159.1015704407
 30
0.0
 10
96.1943785356
 20
157.8017206149
 30
0.0
 10
98.3143139224
 20
155.0236901882
 30
0.0
 10
99.6646636222
 20
152.7670172394
 30
0.0
 10
100.4662677452
 20
151.2164414018
 30
0.0
  0
SPLINE
  5
437
100
AcDbEntity
  8
0
100
AcDbSpline
 62
7
  6
CONTINUOUS
 70
0
 71
3
 72
9
 73
5
 74
0
 42
0.0000001
 43
0.0000001
 44
0.0000000001
 40
0.0
 40
0.0
 40
0.0
 40
0.0
 40
0.2500598997
 40
1.0
 40
1.0
 40
1.0
 40
1.0
 10
101.1654708114
 20
149.800453679
 30
0.0
 10
101.3847532423
 20
149.3351800016
 30
0.0
 10
102.2288189163
 20
147.4591436309
 30
0.0
 10
102.9441372651
 20
145.5258190253
 30
0.0
 10
103.412461136
 20
144.0560464476
 30
0.0
  0
SPLINE
  5
438
100
AcDbEntity
  8
0
100
AcDbSpline
 62
7
  6
CONTINUOUS
 70
0
 71
3
 72
15
 73
11
 74
0
 42
0.0000001
 43
0.0000001
 44
0.0000000001
 40
0.0
 40
0.0
 40
0.0
 40
0.0
 40
0.2865896875
 40
0.5676239592
 40
0.6326584425
 40
0.6944578058
 40
0.75281484
 40
0.8077856333
 40
0.9086691022
 40
1.0
 40
1.0
 40
1.0
 40
1.0
 10
105.9679749514
 20
126.1291293868
 30
0.0
 10
105.9106702257
 20
122.5269549989
 30
0.0
 10
105.1409755589
 20
115.3882208838
 30
0.0
 10
102.7692025339
 20
107.7270605504
 30
0.0
 10
100.5601759607
 20
103.0978458233
 30
0.0
 10
99.439807064
 20
101.0556915617
 30
0.0
 10
98.2698401555
 20
99.1892447018
 30
0.0
 10
96.7046143055
 20
96.9965493706
 30
0.0
 10
94.6827400972
 20
94.6267752276
 30
0.0
 10
92.8900892844
 20
92.9951447037
 30
0.0
 10
91.9904866787
 20
92.2818205436
 30
0.0
  0
SPLINE
  5
439
100
AcDbEntity
  8
0
100
AcDbSpline
 62
7
  6
CONTINUOUS
 70
0
 71
3
 72
11
 73
7
 74
0
 42
0.0000001
 43
0.0000001
 44
0.0000000001
 40
0.0
 40
0.0
 40
0.0
 40
0.0
 40
0.2714317573
 40
0.5240620814
 40
0.7648726106
 40
1.0
 40
1.0
 40
1.0
 40
1.0
 10
91.1641885355
 20
91.654131169
 30
0.0
 10
90.2648787828
 20
91.0004029314
 30
0.0
 10
88.4382438807
 20
89.8552069425
 30
0.0
 10
85.5487285803
 20
88.6128189635
 30
0.0
 10
82.6437132671
 20
87.8768666138
 30
0.0
 10
80.6903865694
 20
87.7153364403
 30
0.0
 10
79.7272837787
 20
87.7153364403
 30
0.0
  0
SPLINE
  5
43A
100
AcDbEntity
  8
0
100
AcDbSpline
 62
7
  6
CONTINUOUS
 70
0
 71
3
 72
19
 73
15
 74
0
 42
0.0000001
 43
0.0000001
 44
0.0000000001
 40
0.0
 40
0.0
 40
0.0
 40
0.0
 40
0.0312447143
 40
0.0624818548
 40
0.0937200603
 40
0.1249643478
 40
0.1874048285
 40
0.2498750867
 40
0.3746552737
 40
0.4995793314
 40
0.6246070112
 40
0.7496997277
 40
0.8748396676
 40
1.0
 40
1.0
 40
1.0
 40
1.0
 10
79.7272837776
 20
84.7566843827
 30
0.0
 10
80.4087305565
 20
84.7567345951
 30
0.0
 10
81.7726568819
 20
84.8221736469
 30
0.0
 10
83.7963393417
 20
85.1330114829
 30
0.0
 10
85.7800522622
 20
85.6387532652
 30
0.0
 10
88.3497435846
 20
86.5541442366
 30
0.0
 10
91.3932311913
 20
88.1216072385
 30
0.0
 10
95.8080422015
 20
91.3381821357
 30
0.0
 10
100.4648381675
 20
96.3960848648
 30
0.0
 10
104.7550528771
 20
103.3944056826
 30
0.0
 10
107.927655488
 20
110.962617315
 30
0.0
 10
110.1181220411
 20
118.8682512097
 30
0.0
 10
111.4012399145
 20
126.9698930978
 30
0.0
 10
111.6879808393
 20
132.4328050687
 30
0.0
 10
111.690658444
 20
135.162548849
 30
0.0
  0
SPLINE
  5
43B
100
AcDbEntity
  8
0
100
AcDbSpline
 62
7
  6
CONTINUOUS
 70
0
 71
3
 72
11
 73
7
 74
0
 42
0.0000001
 43
0.0000001
 44
0.0000000001
 40
0.0
 40
0.0
 40
0.0
 40
0.0
 40
0.2337744323
 40
0.4737314795
 40
0.7265604775
 40
1.0
 40
1.0
 40
1.0
 40
1.0
 10
79.7272837787
 20
87.7153364403
 30
0.0
 10
78.7181598124
 20
87.7153364403
 30
0.0
 10
76.6688336462
 20
87.8931591674
 30
0.0
 10
73.6239173419
 20
88.7026229892
 30
0.0
 10
70.5975410695
 20
90.0717413395
 30
0.0
 10
68.6946917744
 20
91.3319876794
 30
0.0
 10
67.759007477
 20
92.0515070573
 30
0.0
  0
SPLINE
  5
43C
100
AcDbEntity
  8
0
100
AcDbSpline
 62
7
  6
CONTINUOUS
 70
0
 71
3
 72
9
 73
5
 74
0
 42
0.0000001
 43
0.0000001
 44
0.0000000001
 40
0.0
 40
0.0
 40
0.0
 40
0.0
 40
0.2425573454
 40
1.0
 40
1.0
 40
1.0
 40
1.0
 10
67.3154078134
 20
92.4006185795
 30
0.0
 10
67.1171227686
 20
92.5602767995
 30
0.0
 10
66.3094939336
 20
93.2306683596
 30
0.0
 10
65.5423225019
 20
93.9495962308
 30
0.0
 10
64.9854367562
 20
94.5169140364
 30
0.0
  0
SPLINE
  5
43D
100
AcDbEntity
  8
0
100
AcDbSpline
 62
7
  6
CONTINUOUS
 70
0
 71
3
 72
9
 73
5
 74
0
 42
0.0000001
 43
0.0000001
 44
0.0000000001
 40
0.0
 40
0.0
 40
0.0
 40
0.0
 40
0.2462099491
 40
1.0
 40
1.0
 40
1.0
 40
1.0
 10
64.9854367562
 20
94.5169140364
 30
0.0
 10
64.9009929431
 20
94.6029397232
 30
0.0
 10
64.560226509
 20
94.9545014738
 30
0.0
 10
64.228355566
 20
95.3146767703
 30
0.0
 10
63.9832409499
 20
95.5905807158
 30
0.0
  0
SPLINE
  5
43E
100
AcDbEntity
  8
0
100
AcDbSpline
 62
7
  6
CONTINUOUS
 70
0
 71
3
 72
9
 73
5
 74
0
 42
0.0000001
 43
0.0000001
 44
0.0000000001
 40
0.0
 40
0.0
 40
0.0
 40
0.0
 40
0.2328683773
 40
1.0
 40
1.0
 40
1.0
 40
1.0
 10
63.9832409499
 20
95.5905807158
 30
0.0
 10
63.6428608674
 20
95.9737166106
 30
0.0
 10
62.2225975269
 20
97.6555297848
 30
0.0
 10
60.9730030865
 20
99.4798816322
 30
0.0
 10
60.1128053955
 20
100.9326084106
 30
0.0
  0
SPLINE
  5
43F
100
AcDbEntity
  8
0
100
AcDbSpline
 62
7
  6
CONTINUOUS
 70
0
 71
3
 72
9
 73
5
 74
0
 42
0.0000001
 43
0.0000001
 44
0.0000000001
 40
0.0
 40
0.0
 40
0.0
 40
0.0
 40
0.241301091
 40
1.0
 40
1.0
 40
1.0
 40
1.0
 10
60.1128053955
 20
100.9326084106
 30
0.0
 10
59.9433436985
 20
101.2188002334
 30
0.0
 10
59.2563549425
 20
102.4138452229
 30
0.0
 10
58.6308576315
 20
103.6440828836
 30
0.0
 10
58.190145181
 20
104.5924452213
 30
0.0
  0
SPLINE
  5
440
100
AcDbEntity
  8
0
100
AcDbSpline
 62
7
  6
CONTINUOUS
 70
0
 71
3
 72
9
 73
5
 74
0
 42
0.0000001
 43
0.0000001
 44
0.0000000001
 40
0.0
 40
0.0
 40
0.0
 40
0.0
 40
0.2442558368
 40
1.0
 40
1.0
 40
1.0
 40
1.0
 10
58.190145181
 20
104.5924452213
 30
0.0
 10
58.0408647007
 20
104.9136795887
 30
0.0
 10
57.4455224842
 20
106.2361467408
 30
0.0
 10
56.9146828323
 20
107.5875142009
 30
0.0
 10
56.5485820084
 20
108.6205610863
 30
0.0
  0
SPLINE
  5
441
100
AcDbEntity
  8
0
100
AcDbSpline
 62
7
  6
CONTINUOUS
 70
0
 71
3
 72
9
 73
5
 74
0
 42
0.0000001
 43
0.0000001
 44
0.0000000001
 40
0.0
 40
0.0
 40
0.0
 40
0.0
 40
0.2480155163
 40
1.0
 40
1.0
 40
1.0
 40
1.0
 10
56.5485820084
 20
108.6205610863
 30
0.0
 10
56.4858244049
 20
108.797647677
 30
0.0
 10
56.2369226518
 20
109.5131220666
 30
0.0
 10
56.0045909715
 20
110.2343547547
 30
0.0
 10
55.8390959905
 20
110.7794324048
 30
0.0
  0
SPLINE
  5
442
100
AcDbEntity
  8
0
100
AcDbSpline
 62
7
  6
CONTINUOUS
 70
0
 71
3
 72
9
 73
5
 74
0
 42
0.0000001
 43
0.0000001
 44
0.0000000001
 40
0.0
 40
0.0
 40
0.0
 40
0.0
 40
0.2478202299
 40
1.0
 40
1.0
 40
1.0
 40
1.0
 10
55.8390959905
 20
110.7794324048
 30
0.0
 10
55.7356808484
 20
111.1200426294
 30
0.0
 10
55.3328343127
 20
112.4988197481
 30
0.0
 10
54.9873981589
 20
113.8943232241
 30
0.0
 10
54.7594908737
 20
114.9504262322
 30
0.0
  0
SPLINE
  5
443
100
AcDbEntity
  8
0
100
AcDbSpline
 62
7
  6
CONTINUOUS
 70
0
 71
3
 72
9
 73
5
 74
0
 42
0.0000001
 43
0.0000001
 44
0.0000000001
 40
0.0
 40
0.0
 40
0.0
 40
0.0
 40
0.7501901314
 40
1.0
 40
1.0
 40
1.0
 40
1.0
 10
54.7594908737
 20
114.9504262322
 30
0.0
 10
54.5902718316
 20
115.7345729051
 30
0.0
 10
54.3877582416
 20
116.7850103716
 30
0.0
 10
54.2148426826
 20
117.8402729218
 30
0.0
 10
54.1734839103
 20
118.1041799012
 30
0.0
  0
SPLINE
  5
444
100
AcDbEntity
  8
0
100
AcDbSpline
 62
7
  6
CONTINUOUS
 70
0
 71
3
 72
9
 73
5
 74
0
 42
0.0000001
 43
0.0000001
 44
0.0000000001
 40
0.0
 40
0.0
 40
0.0
 40
0.0
 40
0.2522023767
 40
1.0
 40
1.0
 40
1.0
 40
1.0
 10
53.8877750184
 20
120.1710125874
 30
0.0
 10
53.8314265695
 20
120.6412754832
 30
0.0
 10
53.631070658
 20
122.5086067028
 30
0.0
 10
53.5233096754
 20
124.3857610298
 30
0.0
 10
53.4929593881
 20
125.7897694771
 30
0.0
  0
SPLINE
  5
445
100
AcDbEntity
  8
0
100
AcDbSpline
 62
7
  6
CONTINUOUS
 70
0
 71
3
 72
22
 73
18
 74
0
 42
0.0000001
 43
0.0000001
 44
0.0000000001
 40
0.0
 40
0.0
 40
0.0
 40
0.0
 40
0.0625935861
 40
0.1251873431
 40
0.1877740552
 40
0.2503572299
 40
0.3129333117
 40
0.3755015907
 40
0.5005376815
 40
0.6254744224
 40
0.7502419713
 40
0.8126870859
 40
0.8750918754
 40
0.9063209543
 40
0.9375458806
 40
0.9687698604
 40
1.0
 40
1.0
 40
1.0
 40
1.0
 10
47.7625378861
 20
135.16474126
 30
0.0
 10
47.763855816
 20
133.799306733
 30
0.0
 10
47.8360514584
 20
131.0679706212
 30
0.0
 10
48.157325363
 20
126.9825911515
 30
0.0
 10
48.6960379205
 20
122.9202958951
 30
0.0
 10
49.4477993733
 20
118.8923292158
 30
0.0
 10
50.4295498591
 20
114.913915274
 30
0.0
 10
52.0541900055
 20
109.7013878909
 30
0.0
 10
54.6991220381
 20
103.3916741907
 30
0.0
 10
58.9907937594
 20
96.3926825215
 30
0.0
 10
63.6490133411
 20
91.3347561758
 30
0.0
 10
68.0641613644
 20
88.1195790329
 30
0.0
 10
71.1069540525
 20
86.5529640913
 30
0.0
 10
73.6759465053
 20
85.6381795871
 30
0.0
 10
75.6592159023
 20
85.1327494468
 30
0.0
 10
77.6824320708
 20
84.8221348685
 30
0.0
 10
79.0460201962
 20
84.7567148794
 30
0.0
 10
79.7272837785
 20
84.7566686399
 30
0.0
  0
SPLINE
  5
446
100
AcDbEntity
  8
0
100
AcDbSpline
 62
7
  6
CONTINUOUS
 70
0
 71
3
 72
11
 73
7
 74
0
 42
0.0000001
 43
0.0000001
 44
0.0000000001
 40
0.0
 40
0.0
 40
0.0
 40
0.0
 40
0.2503053676
 40
0.4996530805
 40
0.750811045
 40
1.0
 40
1.0
 40
1.0
 40
1.0
 10
105.3322052395
 20
165.5501621121
 30
0.0
 10
105.3281218928
 20
165.5597650409
 30
0.0
 10
105.3242986389
 20
165.58115117
 30
0.0
 10
105.332637375
 20
165.6119522796
 30
0.0
 10
105.347667238
 20
165.639455409
 30
0.0
 10
105.3598236092
 20
165.6564969378
 30
0.0
 10
105.3665166327
 20
165.6644420131
 30
0.0
  0
SPLINE
  5
447
100
AcDbEntity
  8
0
100
AcDbSpline
 62
7
  6
CONTINUOUS
 70
0
 71
3
 72
9
 73
5
 74
0
 42
0.0000001
 43
0.0000001
 44
0.0000000001
 40
0.0
 40
0.0
 40
0.0
 40
0.0
 40
0.248765343
 40
1.0
 40
1.0
 40
1.0
 40
1.0
 10
53.4837402025
 20
127.974067764
 30
0.0
 10
53.4893111349
 20
128.3535449144
 30
0.0
 10
53.5262227943
 20
129.8787337886
 30
0.0
 10
53.6228314881
 20
131.4025232641
 30
0.0
 10
53.7298724271
 20
132.5436022024
 30
0.0
  0
SPLINE
  5
448
100
AcDbEntity
  8
0
100
AcDbSpline
 62
7
  6
CONTINUOUS
 70
0
 71
3
 72
9
 73
5
 74
0
 42
0.0000001
 43
0.0000001
 44
0.0000000001
 40
0.0
 40
0.0
 40
0.0
 40
0.0
 40
0.2479286956
 40
1.0
 40
1.0
 40
1.0
 40
1.0
 10
53.7298724271
 20
132.5436022024
 30
0.0
 10
53.7600300091
 20
132.8650883735
 30
0.0
 10
53.8926867154
 20
134.1607192728
 30
0.0
 10
54.0694891325
 20
135.451829279
 30
0.0
 10
54.2270141668
 20
136.418562548
 30
0.0
  0
SPLINE
  5
449
100
AcDbEntity
  8
0
100
AcDbSpline
 62
7
  6
CONTINUOUS
 70
0
 71
3
 72
9
 73
5
 74
0
 42
0.0000001
 43
0.0000001
 44
0.0000000001
 40
0.0
 40
0.0
 40
0.0
 40
0.0
 40
0.2497847631
 40
1.0
 40
1.0
 40
1.0
 40
1.0
 10
54.2270141668
 20
136.418562548
 30
0.0
 10
54.266675173
 20
136.6619626799
 30
0.0
 10
54.4317381627
 20
137.635365604
 30
0.0
 10
54.6221248958
 20
138.6044941446
 30
0.0
 10
54.7797621685
 20
139.3282057656
 30
0.0
  0
SPLINE
  5
44A
100
AcDbEntity
  8
0
100
AcDbSpline
 62
7
  6
CONTINUOUS
 70
0
 71
3
 72
9
 73
5
 74
0
 42
0.0000001
 43
0.0000001
 44
0.0000000001
 40
0.0
 40
0.0
 40
0.0
 40
0.0
 40
0.2514786041
 40
1.0
 40
1.0
 40
1.0
 40
1.0
 10
54.7797621685
 20
139.3282057656
 30
0.0
 10
54.8486063249
 20
139.644268808
 30
0.0
 10
55.1336883816
 20
140.8985905213
 30
0.0
 10
55.4643666807
 20
142.1425783413
 30
0.0
 10
55.7377786986
 20
143.0657558882
 30
0.0
  0
SPLINE
  5
44B
100
AcDbEntity
  8
0
100
AcDbSpline
 62
7
  6
CONTINUOUS
 70
0
 71
3
 72
9
 73
5
 74
0
 42
0.0000001
 43
0.0000001
 44
0.0000000001
 40
0.0
 40
0.0
 40
0.0
 40
0.0
 40
0.2514692008
 40
1.0
 40
1.0
 40
1.0
 40
1.0
 10
55.7377786986
 20
143.0657558882
 30
0.0
 10
55.7848336491
 20
143.2246372501
 30
0.0
 10
55.9750211136
 20
143.8555367358
 30
0.0
 10
56.1775574101
 20
144.4827171053
 30
0.0
 10
56.336177862
 20
144.949751991
 30
0.0
  0
SPLINE
  5
44C
100
AcDbEntity
  8
0
100
AcDbSpline
 62
7
  6
CONTINUOUS
 70
0
 71
3
 72
9
 73
5
 74
0
 42
0.0000001
 43
0.0000001
 44
0.0000000001
 40
0.0
 40
0.0
 40
0.0
 40
0.0
 40
0.2550839775
 40
1.0
 40
1.0
 40
1.0
 40
1.0
 10
56.336177862
 20
144.949751991
 30
0.0
 10
56.4588650499
 20
145.3109865993
 30
0.0
 10
56.9562429102
 20
146.7214822146
 30
0.0
 10
57.5196228221
 20
148.1088435697
 30
0.0
 10
57.9775270674
 20
149.1244783366
 30
0.0
  0
SPLINE
  5
44D
100
AcDbEntity
  8
0
100
AcDbSpline
 62
7
  6
CONTINUOUS
 70
0
 71
3
 72
9
 73
5
 74
0
 42
0.0000001
 43
0.0000001
 44
0.0000000001
 40
0.0
 40
0.0
 40
0.0
 40
0.0
 40
0.256503915
 40
1.0
 40
1.0
 40
1.0
 40
1.0
 10
57.9775270674
 20
149.1244783366
 30
0.0
 10
58.1007931912
 20
149.3978834474
 30
0.0
 10
58.592115352
 20
150.4588807399
 30
0.0
 10
59.1258931952
 20
151.5002915661
 30
0.0
 10
59.5471441817
 20
152.2607134507
 30
0.0
  0
SPLINE
  5
44E
100
AcDbEntity
  8
0
100
AcDbSpline
 62
7
  6
CONTINUOUS
 70
0
 71
3
 72
9
 73
5
 74
0
 42
0.0000001
 43
0.0000001
 44
0.0000000001
 40
0.0
 40
0.0
 40
0.0
 40
0.0
 40
0.5242844852
 40
1.0
 40
1.0
 40
1.0
 40
1.0
 10
59.5471441817
 20
152.2607134507
 30
0.0
 10
60.1403259446
 20
153.3314964482
 30
0.0
 10
61.3654072521
 20
155.3239916985
 30
0.0
 10
62.7823614341
 20
157.1851798272
 30
0.0
 10
63.500168308
 20
158.0327804053
 30
0.0
  0
SPLINE
  5
44F
100
AcDbEntity
  8
0
100
AcDbSpline
 62
7
  6
CONTINUOUS
 70
0
 71
3
 72
9
 73
5
 74
0
 42
0.0000001
 43
0.0000001
 44
0.0000000001
 40
0.0
 40
0.0
 40
0.0
 40
0.0
 40
0.5251094527
 40
1.0
 40
1.0
 40
1.0
 40
1.0
 10
63.767412607
 20
158.3441989495
 30
0.0
 10
64.6614423218
 20
159.3722462919
 30
0.0
 10
66.4969341488
 20
161.2199928958
 30
0.0
 10
68.5859978967
 20
162.7777069845
 30
0.0
 10
69.6302768466
 20
163.4316171086
 30
0.0
  0
SPLINE
  5
450
100
AcDbEntity
  8
0
100
AcDbSpline
 62
7
  6
CONTINUOUS
 70
0
 71
3
 72
11
 73
7
 74
0
 42
0.0000001
 43
0.0000001
 44
0.0000000001
 40
0.0
 40
0.0
 40
0.0
 40
0.0
 40
0.2658724582
 40
0.5185519977
 40
0.7620956636
 40
1.0
 40
1.0
 40
1.0
 40
1.0
 10
69.6943457222
 20
163.4715866688
 30
0.0
 10
70.4079412639
 20
163.9151039824
 30
0.0
 10
71.8500356922
 20
164.7028559971
 30
0.0
 10
74.0929359231
 20
165.5957004891
 30
0.0
 10
76.342485423
 20
166.1858941528
 30
0.0
 10
77.856298762
 20
166.3821199854
 30
0.0
 10
78.6066212005
 20
166.4294060799
 30
0.0
  0
SPLINE
  5
451
100
AcDbEntity
  8
0
100
AcDbSpline
 62
7
  6
CONTINUOUS
 70
0
 71
3
 72
27
 73
23
 74
0
 42
0.0000001
 43
0.0000001
 44
0.0000000001
 40
0.0
 40
0.0
 40
0.0
 40
0.0
 40
0.125845229
 40
0.1887353397
 40
0.2515904973
 40
0.3143993466
 40
0.3771538431
 40
0.4398427187
 40
0.5024598534
 40
0.5649975191
 40
0.6274448831
 40
0.6586373473
 40
0.6898032207
 40
0.7209402711
 40
0.7520542463
 40
0.7831497123
 40
0.8142139067
 40
0.8452433401
 40
0.8762466277
 40
0.9072298596
 40
0.9381867675
 40
1.0
 40
1.0
 40
1.0
 40
1.0
 10
78.6066223352
 20
166.4293886635
 30
0.0
 10
77.5854541313
 20
166.3973687148
 30
0.0
 10
76.054034489
 20
166.347195855
 30
0.0
 10
74.0126204702
 20
166.279658112
 30
0.0
 10
72.482884628
 20
166.2233528196
 30
0.0
 10
70.9540699292
 20
166.1721131458
 30
0.0
 10
69.4269200422
 20
166.1122237671
 30
0.0
 10
67.9011298606
 20
166.0577251309
 30
0.0
 10
66.3772032536
 20
166.0004136439
 30
0.0
 10
64.8554200494
 20
165.9384387887
 30
0.0
 10
63.5881221602
 20
165.8978073918
 30
0.0
 10
62.5758832867
 20
165.8529174759
 30
0.0
 10
61.8174497451
 20
165.8222615563
 30
0.0
 10
61.0593387826
 20
165.8011384705
 30
0.0
 10
60.3019028537
 20
165.7759920252
 30
0.0
 10
59.5455769296
 20
165.7386976666
 30
0.0
 10
58.7896787832
 20
165.7064222591
 30
0.0
 10
58.034039948
 20
165.6896976492
 30
0.0
 10
57.2791029109
 20
165.6712848552
 30
0.0
 10
56.5251722876
 20
165.6400786082
 30
0.0
 10
55.5213553118
 20
165.5981415147
 30
0.0
 10
54.7683585298
 20
165.5803259528
 30
0.0
 10
54.2666315511
 20
165.5702289363
 30
0.0
  0
SPLINE
  5
452
100
AcDbEntity
  8
0
100
AcDbSpline
 62
7
  6
CONTINUOUS
 70
0
 71
3
 72
10
 73
6
 74
0
 42
0.0000001
 43
0.0000001
 44
0.0000000001
 40
0.0
 40
0.0
 40
0.0
 40
0.0
 40
0.5275085549
 40
0.7684595061
 40
1.0
 40
1.0
 40
1.0
 40
1.0
 10
54.2666315708
 20
165.5702281842
 30
0.0
 10
54.2467207949
 20
165.5680448443
 30
0.0
 10
54.2173609816
 20
165.5652740833
 30
0.0
 10
54.181926194
 20
165.5499861547
 30
0.0
 10
54.1695378413
 20
165.5357647188
 30
0.0
 10
54.165762776
 20
165.5278245791
 30
0.0
  0
SPLINE
  5
453
100
AcDbEntity
  8
0
100
AcDbSpline
 62
7
  6
CONTINUOUS
 70
0
 71
3
 72
16
 73
12
 74
0
 42
0.0000001
 43
0.0000001
 44
0.0000000001
 40
0.0
 40
0.0
 40
0.0
 40
0.0
 40
0.2480216399
 40
0.372228153
 40
0.4965723288
 40
0.6211468371
 40
0.7461092177
 40
0.8089955734
 40
0.8722580205
 40
0.9359507726
 40
1.0
 40
1.0
 40
1.0
 40
1.0
 10
50.1915730876
 20
154.5254892544
 30
0.0
 10
50.5159323117
 20
154.4403455366
 30
0.0
 10
50.9965404623
 20
154.2838103265
 30
0.0
 10
51.6061578417
 20
154.0009648519
 30
0.0
 10
52.0440990569
 20
153.7487445404
 30
0.0
 10
52.4518643609
 20
153.4479675081
 30
0.0
 10
52.7505518038
 20
153.1446942257
 30
0.0
 10
52.9400393365
 20
152.8614784761
 30
0.0
 10
53.044021786
 20
152.6250536761
 30
0.0
 10
53.0958023327
 20
152.3694454145
 30
0.0
 10
53.0798148735
 20
152.1940458171
 30
0.0
 10
53.0580371983
 20
152.1102283233
 30
0.0
  0
SPLINE
  5
454
100
AcDbEntity
  8
0
100
AcDbSpline
 62
7
  6
CONTINUOUS
 70
0
 71
3
 72
16
 73
12
 74
0
 42
0.0000001
 43
0.0000001
 44
0.0000000001
 40
0.0
 40
0.0
 40
0.0
 40
0.0
 40
0.1270019444
 40
0.2533936203
 40
0.3788497896
 40
0.5036778254
 40
0.6280635062
 40
0.7522016111
 40
0.8142051385
 40
0.8761523828
 40
1.0
 40
1.0
 40
1.0
 40
1.0
 10
53.0580371983
 20
152.1102283233
 30
0.0
 10
53.0214744365
 20
151.94439747
 30
0.0
 10
52.8241412452
 20
151.6410652549
 30
0.0
 10
52.3882161561
 20
151.3699117507
 30
0.0
 10
51.9046687582
 20
151.2171861668
 30
0.0
 10
51.407912285
 20
151.1431008175
 30
0.0
 10
50.9082018319
 20
151.1254166825
 30
0.0
 10
50.4931207523
 20
151.1473808734
 30
0.0
 10
50.1632948099
 20
151.1834835423
 30
0.0
 10
49.8358027845
 20
151.2345011428
 30
0.0
 10
49.5926198475
 20
151.2857675332
 30
0.0
 10
49.4306941709
 20
151.320439506
 30
0.0
  0
SPLINE
  5
455
100
AcDbEntity
  8
0
100
AcDbSpline
 62
7
  6
CONTINUOUS
 70
0
 71
3
 72
9
 73
5
 74
0
 42
0.0000001
 43
0.0000001
 44
0.0000000001
 40
0.0
 40
0.0
 40
0.0
 40
0.0
 40
0.5000388876
 40
1.0
 40
1.0
 40
1.0
 40
1.0
 10
47.7625520336
 20
135.16474123
 30
0.0
 10
47.7600856978
 20
137.8756263674
 30
0.0
 10
48.0293667652
 20
143.3009252488
 30
0.0
 10
48.8664445476
 20
148.6693189549
 30
0.0
 10
49.4306924287
 20
151.3204022707
 30
0.0
  0
SPLINE
  5
456
100
AcDbEntity
  8
0
100
AcDbSpline
 62
7
  6
CONTINUOUS
 70
0
 71
3
 72
14
 73
10
 74
0
 42
0.0000001
 43
0.0000001
 44
0.0000000001
 40
0.0
 40
0.0
 40
0.0
 40
0.0
 40
0.3657320368
 40
0.5428756962
 40
0.6999450709
 40
0.8265643221
 40
0.9196063513
 40
0.9777788538
 40
1.0
 40
1.0
 40
1.0
 40
1.0
 10
49.3717780816
 20
151.3329427458
 30
0.0
 10
49.3775659276
 20
151.3568222912
 30
0.0
 10
49.3863451752
 20
151.39223954
 30
0.0
 10
49.3980839764
 20
151.4377333762
 30
0.0
 10
49.405928426
 20
151.467786252
 30
0.0
 10
49.4129101111
 20
151.4918387431
 30
0.0
 10
49.4176865136
 20
151.5105369352
 30
0.0
 10
49.4222482369
 20
151.520140786
 30
0.0
 10
49.423165553
 20
151.5268364168
 30
0.0
 10
49.4245827122
 20
151.5273058382
 30
0.0
  0
LINE
  5
457
100
AcDbEntity
  8
0
100
AcDbLine
 62
7
  6
CONTINUOUS
 10
49.3717780526
 20
151.3329427326
 11
49.4306802294
 21
151.3204048553
  0
SPLINE
  5
458
100
AcDbEntity
  8
0
100
AcDbSpline
 62
7
  6
CONTINUOUS
 70
0
 71
3
 72
10
 73
6
 74
0
 42
0.0000001
 43
0.0000001
 44
0.0000000001
 40
0.0
 40
0.0
 40
0.0
 40
0.0
 40
0.1391466691
 40
0.3611623701
 40
1.0
 40
1.0
 40
1.0
 40
1.0
 10
49.424579821
 20
151.5272989345
 30
0.0
 10
49.4340592757
 20
151.5243606706
 30
0.0
 10
49.4465347698
 20
151.4961824102
 30
0.0
 10
49.4501361317
 20
151.42778278
 30
0.0
 10
49.4411688841
 20
151.364745151
 30
0.0
 10
49.4306753773
 20
151.3204060058
 30
0.0
  0
SPLINE
  5
459
100
AcDbEntity
  8
0
100
AcDbSpline
 62
7
  6
CONTINUOUS
 70
0
 71
3
 72
18
 73
14
 74
0
 42
0.0000001
 43
0.0000001
 44
0.0000000001
 40
0.0
 40
0.0
 40
0.0
 40
0.0
 40
0.1283420707
 40
0.2566489968
 40
0.3847998938
 40
0.5125842359
 40
0.6395683806
 40
0.7647045555
 40
0.825981565
 40
0.8857305239
 40
0.9151474804
 40
0.9439136204
 40
1.0
 40
1.0
 40
1.0
 40
1.0
 10
49.4246195436
 20
151.5272894401
 30
0.0
 10
49.5791169425
 20
151.4907310864
 30
0.0
 10
49.8906036663
 20
151.4278760869
 30
0.0
 10
50.3629601338
 20
151.3659462284
 30
0.0
 10
50.8380408779
 20
151.3395812849
 30
0.0
 10
51.3122762152
 20
151.3546574378
 30
0.0
 10
51.7785153045
 20
151.4209798555
 30
0.0
 10
52.152429082
 20
151.533883961
 30
0.0
 10
52.4236524269
 20
151.6743247653
 30
0.0
 10
52.5732796382
 20
151.7873334828
 30
0.0
 10
52.6731851603
 20
151.8940639371
 30
0.0
 10
52.7574862485
 20
152.0079443001
 30
0.0
 10
52.798496034
 20
152.1070371807
 30
0.0
 10
52.8153065301
 20
152.1743507579
 30
0.0
  0
SPLINE
  5
45A
100
AcDbEntity
  8
0
100
AcDbSpline
 62
7
  6
CONTINUOUS
 70
0
 71
3
 72
18
 73
14
 74
0
 42
0.0000001
 43
0.0000001
 44
0.0000000001
 40
0.0
 40
0.0
 40
0.0
 40
0.0
 40
0.0547671505
 40
0.1115550607
 40
0.1703323076
 40
0.2309974975
 40
0.3557148449
 40
0.4830092834
 40
0.5471948482
 40
0.6115926687
 40
0.7407841408
 40
0.8703167443
 40
1.0
 40
1.0
 40
1.0
 40
1.0
 10
46.6254966633
 20
153.7176444968
 30
0.0
 10
46.6088266841
 20
153.6507319762
 30
0.0
 10
46.5950585221
 20
153.5082610852
 30
0.0
 10
46.6406832106
 20
153.296212464
 30
0.0
 10
46.7327937347
 20
153.0929403077
 30
0.0
 10
46.9070371225
 20
152.8382707665
 30
0.0
 10
47.1884198935
 20
152.5586784076
 30
0.0
 10
47.5116339011
 20
152.3246184833
 30
0.0
 10
47.787586642
 20
152.1580977091
 30
0.0
 10
48.0736154872
 20
152.0044600996
 30
0.0
 10
48.4445816388
 20
151.8361541821
 30
0.0
 10
48.9044448287
 20
151.6686022544
 30
0.0
 10
49.2184954941
 20
151.5786063052
 30
0.0
 10
49.3769117737
 20
151.5390291107
 30
0.0
  0
SPLINE
  5
45B
100
AcDbEntity
  8
0
100
AcDbSpline
 62
7
  6
CONTINUOUS
 70
0
 71
3
 72
16
 73
12
 74
0
 42
0.0000001
 43
0.0000001
 44
0.0000000001
 40
0.0
 40
0.0
 40
0.0
 40
0.0
 40
0.2498487068
 40
0.3748237609
 40
0.4997771815
 40
0.6246942808
 40
0.7495374453
 40
0.8119842273
 40
0.8746303901
 40
0.9373672283
 40
1.0
 40
1.0
 40
1.0
 40
1.0
 10
50.086706293
 20
154.3476950074
 30
0.0
 10
49.7808508562
 20
154.4242078965
 30
0.0
 10
49.3135653624
 20
154.5092805057
 30
0.0
 10
48.6840364693
 20
154.5540503547
 30
0.0
 10
48.210295921
 20
154.5474920748
 30
0.0
 10
47.7399364647
 20
154.4911403574
 30
0.0
 10
47.3569612202
 20
154.3878697803
 30
0.0
 10
47.0708014228
 20
154.2532677946
 30
0.0
 10
46.8735185504
 20
154.1191120116
 30
0.0
 10
46.7123680832
 20
153.9413631965
 30
0.0
 10
46.6446065519
 20
153.794334774
 30
0.0
 10
46.6255019317
 20
153.7176431454
 30
0.0
  0
SPLINE
  5
45C
100
AcDbEntity
  8
0
100
AcDbSpline
 62
7
  6
CONTINUOUS
 70
0
 71
3
 72
16
 73
12
 74
0
 42
0.0000001
 43
0.0000001
 44
0.0000000001
 40
0.0
 40
0.0
 40
0.0
 40
0.0
 40
0.0642746694
 40
0.1278710621
 40
0.1909275329
 40
0.2535754961
 40
0.3783701373
 40
0.5029272246
 40
0.6273060472
 40
0.7516141052
 40
1.0
 40
1.0
 40
1.0
 40
1.0
 10
52.8153027203
 20
152.1743511344
 30
0.0
 10
52.8347820946
 20
152.2523011281
 30
0.0
 10
52.8441305224
 20
152.4159024821
 30
0.0
 10
52.7810162528
 20
152.6489588908
 30
0.0
 10
52.6686184419
 20
152.8587674306
 30
0.0
 10
52.4791719876
 20
153.1091693384
 30
0.0
 10
52.1922109626
 20
153.3770151828
 30
0.0
 10
51.8083489735
 20
153.6447961752
 30
0.0
 10
51.3995670049
 20
153.8712340773
 30
0.0
 10
50.8323551984
 20
154.1260275528
 30
0.0
 10
50.3875231889
 20
154.2707704098
 30
0.0
 10
50.0867062922
 20
154.3476950043
 30
0.0
  0
SPLINE
  5
45D
100
AcDbEntity
  8
0
100
AcDbSpline
 62
7
  6
CONTINUOUS
 70
0
 71
3
 72
8
 73
4
 74
0
 42
0.0000001
 43
0.0000001
 44
0.0000000001
 40
0.0
 40
0.0
 40
0.0
 40
0.0
 40
1.0
 40
1.0
 40
1.0
 40
1.0
 10
114.7272820106
 20
93.7436646096
 30
0.0
 10
116.1272851461
 20
93.750121631
 30
0.0
 10
117.5272865358
 20
93.7569690554
 30
0.0
 10
118.9272858465
 20
93.7642080346
 30
0.0
  0
SPLINE
  5
45E
100
AcDbEntity
  8
0
100
AcDbSpline
 62
7
  6
CONTINUOUS
 70
0
 71
3
 72
16
 73
12
 74
0
 42
0.0000001
 43
0.0000001
 44
0.0000000001
 40
0.0
 40
0.0
 40
0.0
 40
0.0
 40
0.0082764442
 40
0.0284293269
 40
0.0593798175
 40
0.099462296
 40
0.2001314383
 40
0.3163003692
 40
0.4513989763
 40
0.6159718387
 40
1.0
 40
1.0
 40
1.0
 40
1.0
 10
52.8153075638
 20
152.1743552989
 30
0.0
 10
52.8156633999
 20
152.1737608218
 30
0.0
 10
52.8183311908
 20
152.173239659
 30
0.0
 10
52.8226691675
 20
152.1713716775
 30
0.0
 10
52.8301679081
 20
152.1693118701
 30
0.0
 10
52.8438767407
 20
152.165244904
 30
0.0
 10
52.8646792571
 20
152.1595944114
 30
0.0
 10
52.8931184778
 20
152.1519750794
 30
0.0
 10
52.9268088762
 20
152.1431880587
 30
0.0
 10
52.9822472472
 20
152.1289767377
 30
0.0
 10
53.0268087735
 20
152.117862975
 30
0.0
 10
53.0580351469
 20
152.1102217216
 30
0.0
  0
SPLINE
  5
45F
100
AcDbEntity
  8
0
100
AcDbSpline
 62
7
  6
CONTINUOUS
 70
0
 71
3
 72
16
 73
12
 74
0
 42
0.0000001
 43
0.0000001
 44
0.0000000001
 40
0.0
 40
0.0
 40
0.0
 40
0.0
 40
0.2498006133
 40
0.3747568684
 40
0.4997086559
 40
0.6246404205
 40
0.7495317219
 40
0.8120778364
 40
0.8746474176
 40
0.9372259075
 40
1.0
 40
1.0
 40
1.0
 40
1.0
 10
50.0659744325
 20
154.3026961152
 30
0.0
 10
49.7714841879
 20
154.3761207798
 30
0.0
 10
49.3218614993
 20
154.4585486047
 30
0.0
 10
48.7160501085
 20
154.5045151257
 30
0.0
 10
48.2599613517
 20
154.5020052316
 30
0.0
 10
47.8063627159
 20
154.4539596835
 30
0.0
 10
47.4356605206
 20
154.3631636061
 30
0.0
 10
47.1551879745
 20
154.2446491301
 30
0.0
 10
46.9591939209
 20
154.1259450378
 30
0.0
 10
46.7904131853
 20
153.9688870585
 30
0.0
 10
46.7130877846
 20
153.8337054668
 30
0.0
 10
46.687599159
 20
153.7618205406
 30
0.0
  0
SPLINE
  5
460
100
AcDbEntity
  8
0
100
AcDbSpline
 62
7
  6
CONTINUOUS
 70
0
 71
3
 72
17
 73
13
 74
0
 42
0.0000001
 43
0.0000001
 44
0.0000000001
 40
0.0
 40
0.0
 40
0.0
 40
0.0
 40
0.0626023658
 40
0.1252255088
 40
0.1878058974
 40
0.2503477246
 40
0.3752304023
 40
0.5001571836
 40
0.6251071309
 40
0.7500625608
 40
0.8750343713
 40
1.0
 40
1.0
 40
1.0
 40
1.0
 10
46.6708522409
 20
153.7063360695
 30
0.0
 10
46.652158765
 20
153.6313606224
 30
0.0
 10
46.64426064
 20
153.4730244504
 30
0.0
 10
46.7067950854
 20
153.2470125109
 30
0.0
 10
46.8189088937
 20
153.0425939177
 30
0.0
 10
47.0078007483
 20
152.7975519619
 30
0.0
 10
47.2935815378
 20
152.5351088663
 30
0.0
 10
47.6754314472
 20
152.2725514035
 30
0.0
 10
48.0822696845
 20
152.0507893246
 30
0.0
 10
48.505923962
 20
151.8636306189
 30
0.0
 10
48.9419289232
 20
151.7075874979
 30
0.0
 10
49.238928609
 20
151.6231837069
 30
0.0
 10
49.3885931249
 20
151.5858680816
 30
0.0
  0
SPLINE
  5
461
100
AcDbEntity
  8
0
100
AcDbSpline
 62
7
  6
CONTINUOUS
 70
0
 71
3
 72
16
 73
12
 74
0
 42
0.0000001
 43
0.0000001
 44
0.0000000001
 40
0.0
 40
0.0
 40
0.0
 40
0.0
 40
0.2498006142
 40
0.3747568691
 40
0.4997086572
 40
0.624640422
 40
0.7495317239
 40
0.8120778376
 40
0.874647421
 40
0.9372259098
 40
1.0
 40
1.0
 40
1.0
 40
1.0
 10
49.3885931249
 20
151.5858680816
 30
0.0
 10
49.6830833368
 20
151.5124432866
 30
0.0
 10
50.1327060667
 20
151.4300156408
 30
0.0
 10
50.7385174457
 20
151.3840490588
 30
0.0
 10
51.1946062036
 20
151.3865589688
 30
0.0
 10
51.6482048382
 20
151.4346045132
 30
0.0
 10
52.0189070336
 20
151.5254005859
 30
0.0
 10
52.2993795782
 20
151.6439150708
 30
0.0
 10
52.4953736333
 20
151.7626191508
 30
0.0
 10
52.6641543897
 20
151.9196771252
 30
0.0
 10
52.7414797097
 20
152.054858747
 30
0.0
 10
52.7669683612
 20
152.1267436607
 30
0.0
  0
SPLINE
  5
462
100
AcDbEntity
  8
0
100
AcDbSpline
 62
7
  6
CONTINUOUS
 70
0
 71
3
 72
17
 73
13
 74
0
 42
0.0000001
 43
0.0000001
 44
0.0000000001
 40
0.0
 40
0.0
 40
0.0
 40
0.0
 40
0.0626023649
 40
0.1252255115
 40
0.1878058973
 40
0.2503477253
 40
0.3752304028
 40
0.5001571839
 40
0.6251071312
 40
0.7500625605
 40
0.8750343717
 40
1.0
 40
1.0
 40
1.0
 40
1.0
 10
52.7837153165
 20
152.1822281273
 30
0.0
 10
52.8024088613
 20
152.2572035561
 30
0.0
 10
52.8103069214
 20
152.4155397584
 30
0.0
 10
52.747772458
 20
152.6415516748
 30
0.0
 10
52.6356586702
 20
152.8459702853
 30
0.0
 10
52.4467668058
 20
153.091012231
 30
0.0
 10
52.1609860217
 20
153.3534553325
 30
0.0
 10
51.7791361084
 20
153.6160127904
 30
0.0
 10
51.3722978769
 20
153.8377748797
 30
0.0
 10
50.9486435877
 20
154.0249335617
 30
0.0
 10
50.5126386405
 20
154.1809767118
 30
0.0
 10
50.2156389647
 20
154.2653805563
 30
0.0
 10
50.0659744325
 20
154.3026961152
 30
0.0
  0
SPLINE
  5
463
100
AcDbEntity
  8
0
100
AcDbSpline
 62
7
  6
CONTINUOUS
 70
0
 71
3
 72
9
 73
5
 74
0
 42
0.0000001
 43
0.0000001
 44
0.0000000001
 40
0.0
 40
0.0
 40
0.0
 40
0.0
 40
0.2501769702
 40
1.0
 40
1.0
 40
1.0
 40
1.0
 10
50.1915677575
 20
154.5254984073
 30
0.0
 10
50.4393264824
 20
155.4698389569
 30
0.0
 10
51.507840989
 20
159.2231508338
 30
0.0
 10
52.9093693161
 20
162.8851234019
 30
0.0
 10
54.1657502461
 20
165.5278121378
 30
0.0
  0
SPLINE
  5
464
100
AcDbEntity
  8
0
100
AcDbSpline
 62
7
  6
CONTINUOUS
 70
0
 71
3
 72
11
 73
7
 74
0
 42
0.0000001
 43
0.0000001
 44
0.0000000001
 40
0.0
 40
0.0
 40
0.0
 40
0.0
 40
0.1363213225
 40
0.3582166646
 40
0.6337532805
 40
1.0
 40
1.0
 40
1.0
 40
1.0
 10
50.0926635659
 20
154.3461850802
 30
0.0
 10
50.1021172727
 20
154.3444577356
 30
0.0
 10
50.1254094907
 20
154.3640413888
 30
0.0
 10
50.1467258333
 20
154.4007947311
 30
0.0
 10
50.171895852
 20
154.4573847301
 30
0.0
 10
50.185099846
 20
154.5005024299
 30
0.0
 10
50.1915750974
 20
154.5254964987
 30
0.0
  0
SPLINE
  5
465
100
AcDbEntity
  8
0
100
AcDbSpline
 62
7
  6
CONTINUOUS
 70
0
 71
3
 72
15
 73
11
 74
0
 42
0.0000001
 43
0.0000001
 44
0.0000000001
 40
0.0
 40
0.0
 40
0.0
 40
0.0
 40
0.400372778
 40
0.5642363922
 40
0.6978294398
 40
0.8118710887
 40
0.9073621154
 40
0.9729211312
 40
0.9916988215
 40
1.0
 40
1.0
 40
1.0
 40
1.0
 10
50.1358820611
 20
154.5402149688
 30
0.0
 10
50.1294204274
 20
154.514462656
 30
0.0
 10
50.1205034789
 20
154.4781269768
 30
0.0
 10
50.1098905274
 20
154.4330733664
 30
0.0
 10
50.1038487469
 20
154.4064840448
 30
0.0
 10
50.0989215947
 20
154.3842052324
 30
0.0
 10
50.0954450191
 20
154.3664679422
 30
0.0
 10
50.0929728073
 20
154.3544564865
 30
0.0
 10
50.0926386656
 20
154.3486544828
 30
0.0
 10
50.0923127224
 20
154.3465983886
 30
0.0
 10
50.0926750684
 20
154.3461839677
 30
0.0
  0
SPLINE
  5
466
100
AcDbEntity
  8
0
100
AcDbSpline
 62
7
  6
CONTINUOUS
 70
0
 71
3
 72
16
 73
12
 74
0
 42
0.0000001
 43
0.0000001
 44
0.0000000001
 40
0.0
 40
0.0
 40
0.0
 40
0.0
 40
0.2498316307
 40
0.3747983367
 40
0.4997691956
 40
0.6246682983
 40
0.7494775677
 40
0.8119560032
 40
0.8746027948
 40
0.9373932865
 40
1.0
 40
1.0
 40
1.0
 40
1.0
 10
50.1357882787
 20
154.5402384921
 30
0.0
 10
49.8021391617
 20
154.6153643365
 30
0.0
 10
49.2971686004
 20
154.7164053562
 30
0.0
 10
48.6132185446
 20
154.7566941186
 30
0.0
 10
48.0994814722
 20
154.7413369505
 30
0.0
 10
47.5906493226
 20
154.6677592558
 30
0.0
 10
47.1796139923
 20
154.5385315218
 30
0.0
 10
46.8779814662
 20
154.3745308736
 30
0.0
 10
46.6751475499
 20
154.2134628243
 30
0.0
 10
46.5128596929
 20
154.0105606321
 30
0.0
 10
46.4446216086
 20
153.8494847651
 30
0.0
 10
46.4251567714
 20
153.7660201198
 30
0.0
  0
SPLINE
  5
467
100
AcDbEntity
  8
0
100
AcDbSpline
 62
7
  6
CONTINUOUS
 70
0
 71
3
 72
14
 73
10
 74
0
 42
0.0000001
 43
0.0000001
 44
0.0000000001
 40
0.0
 40
0.0
 40
0.0
 40
0.0
 40
0.0222247329
 40
0.0804044311
 40
0.1734547798
 40
0.3000810896
 40
0.457154138
 40
0.6342961028
 40
1.0
 40
1.0
 40
1.0
 40
1.0
 10
49.3769126948
 20
151.5390416232
 30
0.0
 10
49.3754919571
 20
151.5385814173
 30
0.0
 10
49.3745286982
 20
151.5318905421
 30
0.0
 10
49.3698998485
 20
151.5223147233
 30
0.0
 10
49.3649941045
 20
151.5036448362
 30
0.0
 10
49.3578458984
 20
151.4796347638
 30
0.0
 10
49.3497938083
 20
151.4496300079
 30
0.0
 10
49.3377413481
 20
151.4042105874
 30
0.0
 10
49.3287180776
 20
151.3688494633
 30
0.0
 10
49.322765853
 20
151.3450073746
 30
0.0
  0
SPLINE
  5
468
100
AcDbEntity
  8
0
100
AcDbSpline
 62
7
  6
CONTINUOUS
 70
0
 71
3
 72
13
 73
9
 74
0
 42
0.0000001
 43
0.0000001
 44
0.0000000001
 40
0.0
 40
0.0
 40
0.0
 40
0.0
 40
0.0264789995
 40
0.0920295993
 40
0.1873608967
 40
0.3008031694
 40
0.6001754335
 40
1.0
 40
1.0
 40
1.0
 40
1.0
 10
46.6254930116
 20
153.7176401282
 30
0.0
 10
46.6236912778
 20
153.7173888805
 30
0.0
 10
46.6174934588
 20
153.7197659656
 30
0.0
 10
46.6049561845
 20
153.7217563322
 30
0.0
 10
46.5866106819
 20
153.7265131829
 30
0.0
 10
46.5526687866
 20
153.734466924
 30
0.0
 10
46.4984344741
 20
153.7478688881
 30
0.0
 10
46.4518094894
 20
153.7593770963
 30
0.0
 10
46.4251576189
 20
153.7660266018
 30
0.0
  0
SPLINE
  5
469
100
AcDbEntity
  8
0
100
AcDbSpline
 62
7
  6
CONTINUOUS
 70
0
 71
3
 72
11
 73
7
 74
0
 42
0.0000001
 43
0.0000001
 44
0.0000000001
 40
0.0
 40
0.0
 40
0.0
 40
0.0
 40
0.2437606591
 40
0.4886455761
 40
0.7394902778
 40
1.0
 40
1.0
 40
1.0
 40
1.0
 10
80.4004282816
 20
88.2273045285
 30
0.0
 10
81.3172249826
 20
88.2627851555
 30
0.0
 10
83.1522136841
 20
88.4875593236
 30
0.0
 10
85.8380515453
 20
89.2559049679
 30
0.0
 10
88.4373151878
 20
90.4394509308
 30
0.0
 10
90.0674719034
 20
91.4748232022
 30
0.0
 10
90.8614454056
 20
92.0501786805
 30
0.0
  0
SPLINE
  5
46A
100
AcDbEntity
  8
0
100
AcDbSpline
 62
7
  6
CONTINUOUS
 70
0
 71
3
 72
11
 73
7
 74
0
 42
0.0000001
 43
0.0000001
 44
0.0000000001
 40
0.0
 40
0.0
 40
0.0
 40
0.0
 40
0.2608322562
 40
0.5114729324
 40
0.7561363933
 40
1.0
 40
1.0
 40
1.0
 40
1.0
 10
68.0609180392
 20
92.4473904425
 30
0.0
 10
68.88517101
 20
91.8142740773
 30
0.0
 10
70.5833478806
 20
90.6740961357
 30
0.0
 10
73.3089440188
 20
89.3641369454
 30
0.0
 10
76.1410366129
 20
88.51253735
 30
0.0
 10
78.0831998649
 20
88.2648727006
 30
0.0
 10
79.054198929
 20
88.2273018549
 30
0.0
  0
SPLINE
  5
46B
100
AcDbEntity
  8
0
100
AcDbSpline
 62
7
  6
CONTINUOUS
 70
0
 71
3
 72
8
 73
4
 74
0
 42
0.0000001
 43
0.0000001
 44
0.0000000001
 40
0.0
 40
0.0
 40
0.0
 40
0.0
 40
1.0
 40
1.0
 40
1.0
 40
1.0
 10
79.2159351339
 20
89.0144420994
 30
0.0
 10
79.2159351339
 20
89.0917278333
 30
0.0
 10
79.2344475113
 20
89.1708850973
 30
0.0
 10
79.2685094026
 20
89.2402599648
 30
0.0
  0
SPLINE
  5
46C
100
AcDbEntity
  8
0
100
AcDbSpline
 62
7
  6
CONTINUOUS
 70
0
 71
3
 72
8
 73
4
 74
0
 42
0.0000001
 43
0.0000001
 44
0.0000000001
 40
0.0
 40
0.0
 40
0.0
 40
0.0
 40
1.0
 40
1.0
 40
1.0
 40
1.0
 10
80.1860581411
 20
89.2402599551
 30
0.0
 10
80.2201200431
 20
89.1708850638
 30
0.0
 10
80.2386324235
 20
89.0917277724
 30
0.0
 10
80.2386324235
 20
89.0144420123
 30
0.0
  0
SPLINE
  5
46D
100
AcDbEntity
  8
0
100
AcDbSpline
 62
7
  6
CONTINUOUS
 70
0
 71
3
 72
11
 73
7
 74
0
 42
0.0000001
 43
0.0000001
 44
0.0000000001
 40
0.0
 40
0.0
 40
0.0
 40
0.0
 40
0.2500008108
 40
0.5000014952
 40
0.7499968692
 40
1.0
 40
1.0
 40
1.0
 40
1.0
 10
50.1357882787
 20
154.5402384921
 30
0.0
 10
50.3796582536
 20
155.4862935771
 30
0.0
 10
50.9243849274
 20
157.3637462276
 30
0.0
 10
51.8505359485
 20
160.1451798882
 30
0.0
 10
52.906203172
 20
162.8809511861
 30
0.0
 10
53.7084183195
 20
164.6634416772
 30
0.0
 10
54.1219235022
 20
165.5486105695
 30
0.0
  0
SPLINE
  5
46E
100
AcDbEntity
  8
0
100
AcDbSpline
 62
7
  6
CONTINUOUS
 70
0
 71
3
 72
11
 73
7
 74
0
 42
0.0000001
 43
0.0000001
 44
0.0000000001
 40
0.0
 40
0.0
 40
0.0
 40
0.0
 40
0.2502565804
 40
0.4995459316
 40
0.7506967127
 40
1.0
 40
1.0
 40
1.0
 40
1.0
 10
54.1219235022
 20
165.5486105695
 30
0.0
 10
54.1261613015
 20
165.5582960697
 30
0.0
 10
54.1304237981
 20
165.5798615972
 30
0.0
 10
54.122503822
 20
165.6112395323
 30
0.0
 10
54.1074158967
 20
165.639217448
 30
0.0
 10
54.0949868485
 20
165.656416195
 30
0.0
 10
54.0881674485
 20
165.6644420131
 30
0.0
  0
SPLINE
  5
46F
100
AcDbEntity
  8
0
100
AcDbSpline
 62
7
  6
CONTINUOUS
 70
0
 71
3
 72
11
 73
7
 74
0
 42
0.0000001
 43
0.0000001
 44
0.0000000001
 40
0.0
 40
0.0
 40
0.0
 40
0.0
 40
0.2382510554
 40
0.4999858996
 40
0.7617376789
 40
1.0
 40
1.0
 40
1.0
 40
1.0
 10
16.1790775285
 20
165.6644416698
 30
0.0
 10
16.0922849007
 20
165.6643681096
 30
0.0
 10
15.9084185034
 20
165.6299498277
 30
0.0
 10
15.6697235448
 20
165.4736455899
 30
0.0
 10
15.5131412282
 20
165.2351233718
 30
0.0
 10
15.4785936809
 20
165.0512387631
 30
0.0
 10
15.478545138
 20
164.9644420137
 30
0.0
  0
SPLINE
  5
470
100
AcDbEntity
  8
0
100
AcDbSpline
 62
7
  6
CONTINUOUS
 70
0
 71
3
 72
11
 73
7
 74
0
 42
0.0000001
 43
0.0000001
 44
0.0000000001
 40
0.0
 40
0.0
 40
0.0
 40
0.0
 40
0.2501581843
 40
0.5002240307
 40
0.750158641
 40
1.0
 40
1.0
 40
1.0
 40
1.0
 10
118.9272837787
 20
102.164674896
 30
0.0
 10
119.0313264563
 20
102.164674896
 30
0.0
 10
119.2416463935
 20
102.2062289873
 30
0.0
 10
119.5075523565
 20
102.3839818348
 30
0.0
 10
119.6856329165
 20
102.6495276539
 30
0.0
 10
119.7272837785
 20
102.8596676163
 30
0.0
 10
119.7272837787
 20
102.9635785239
 30
0.0
  0
SPLINE
  5
471
100
AcDbEntity
  8
0
100
AcDbSpline
 62
7
  6
CONTINUOUS
 70
0
 71
3
 72
14
 73
10
 74
0
 42
0.0000001
 43
0.0000001
 44
0.0000000001
 40
0.0
 40
0.0
 40
0.0
 40
0.0
 40
0.0301911646
 40
0.0916992965
 40
0.1884195468
 40
0.3174968351
 40
0.4733533856
 40
0.6460351121
 40
1.0
 40
1.0
 40
1.0
 40
1.0
 10
118.9272834638
 20
102.1646748976
 30
0.0
 10
118.9344689967
 20
102.1684808089
 30
0.0
 10
118.9454751811
 20
102.1934408306
 30
0.0
 10
118.9583975338
 20
102.2407352003
 30
0.0
 10
118.9710775925
 20
102.3180936163
 30
0.0
 10
118.9828338005
 20
102.419834401
 30
0.0
 10
118.9924722968
 20
102.5428662339
 30
0.0
 10
119.0022727848
 20
102.7263751177
 30
0.0
 10
119.0053523545
 20
102.8682482899
 30
0.0
 10
119.0058405771
 20
102.9635785277
 30
0.0
  0
SPLINE
  5
472
100
AcDbEntity
  8
0
100
AcDbSpline
 62
7
  6
CONTINUOUS
 70
0
 71
3
 72
15
 73
11
 74
0
 42
0.0000001
 43
0.0000001
 44
0.0000000001
 40
0.0
 40
0.0
 40
0.0
 40
0.0
 40
0.3546053882
 40
0.5275580762
 40
0.6836032062
 40
0.8127400335
 40
0.9093419059
 40
0.9704572918
 40
0.9886883519
 40
1.0
 40
1.0
 40
1.0
 40
1.0
 10
114.7974240594
 20
102.9841240942
 30
0.0
 10
114.7969877461
 20
102.8888003949
 30
0.0
 10
114.7942354296
 20
102.7469778357
 30
0.0
 10
114.7854926328
 20
102.5633988835
 30
0.0
 10
114.7768687563
 20
102.4405602069
 30
0.0
 10
114.7664326715
 20
102.3383554535
 30
0.0
 10
114.7549893663
 20
102.262251755
 30
0.0
 10
114.7444330861
 20
102.2157110813
 30
0.0
 10
114.7348565901
 20
102.1934376201
 30
0.0
 10
114.7298968991
 20
102.1867714286
 30
0.0
 10
114.7272820103
 20
102.1852194165
 30
0.0
  0
SPLINE
  5
473
100
AcDbEntity
  8
0
100
AcDbSpline
 62
7
  6
CONTINUOUS
 70
0
 71
3
 72
8
 73
4
 74
0
 42
0.0000001
 43
0.0000001
 44
0.0000000001
 40
0.0
 40
0.0
 40
0.0
 40
0.0
 40
1.0
 40
1.0
 40
1.0
 40
1.0
 10
119.0058408928
 20
102.9635785237
 30
0.0
 10
117.6020039258
 20
102.9708235926
 30
0.0
 10
116.1981648803
 20
102.9776764878
 30
0.0
 10
114.7943240898
 20
102.984138364
 30
0.0
  0
SPLINE
  5
474
100
AcDbEntity
  8
0
100
AcDbSpline
 62
7
  6
CONTINUOUS
 70
0
 71
3
 72
15
 73
11
 74
0
 42
0.0000001
 43
0.0000001
 44
0.0000000001
 40
0.0
 40
0.0
 40
0.0
 40
0.0
 40
0.354651017
 40
0.5275853413
 40
0.6836065829
 40
0.8127296576
 40
0.9093307469
 40
0.9704550102
 40
0.9886895173
 40
1.0
 40
1.0
 40
1.0
 40
1.0
 10
114.7250442614
 20
102.9839372083
 30
0.0
 10
114.7259689756
 20
102.8887275623
 30
0.0
 10
114.7252510997
 20
102.7470557372
 30
0.0
 10
114.7191611318
 20
102.563605695
 30
0.0
 10
114.7123227577
 20
102.4408286932
 30
0.0
 10
114.7033839715
 20
102.3386254915
 30
0.0
 10
114.693066555
 20
102.2624626221
 30
0.0
 10
114.6832101672
 20
102.2158288502
 30
0.0
 10
114.6739808117
 20
102.1934405532
 30
0.0
 10
114.6691313297
 20
102.1867065136
 30
0.0
 10
114.6665444661
 20
102.1851162896
 30
0.0
  0
SPLINE
  5
475
100
AcDbEntity
  8
0
100
AcDbSpline
 62
7
  6
CONTINUOUS
 70
0
 71
3
 72
15
 73
11
 74
0
 42
0.0000001
 43
0.0000001
 44
0.0000000001
 40
0.0
 40
0.0
 40
0.0
 40
0.0
 40
0.3547179339
 40
0.5276631126
 40
0.683678774
 40
0.8127829327
 40
0.9093602039
 40
0.9704647572
 40
0.9886928928
 40
1.0
 40
1.0
 40
1.0
 40
1.0
 10
114.7250425859
 20
92.9449466773
 30
0.0
 10
114.7259677974
 20
93.0401743129
 30
0.0
 10
114.7252499195
 20
93.1818670817
 30
0.0
 10
114.7191582009
 20
93.3653365178
 30
0.0
 10
114.7123187743
 20
93.4881098374
 30
0.0
 10
114.7033794865
 20
93.590299989
 30
0.0
 10
114.693062288
 20
93.6664460843
 30
0.0
 10
114.6832068741
 20
93.7130661979
 30
0.0
 10
114.6739789499
 20
93.7354467749
 30
0.0
 10
114.6691304561
 20
93.7421780049
 30
0.0
 10
114.6665443533
 20
93.7437677376
 30
0.0
  0
SPLINE
  5
476
100
AcDbEntity
  8
0
100
AcDbSpline
 62
7
  6
CONTINUOUS
 70
0
 71
3
 72
15
 73
11
 74
0
 42
0.0000001
 43
0.0000001
 44
0.0000000001
 40
0.0
 40
0.0
 40
0.0
 40
0.0
 40
0.3546024977
 40
0.5275534542
 40
0.6835973136
 40
0.8127338634
 40
0.9093367276
 40
0.9704544426
 40
0.9886869882
 40
1.0
 40
1.0
 40
1.0
 40
1.0
 10
114.7974240592
 20
92.9447599317
 30
0.0
 10
114.7969877505
 20
93.0400826186
 30
0.0
 10
114.7942354831
 20
93.1819035863
 30
0.0
 10
114.7854928908
 20
93.365480503
 30
0.0
 10
114.7768692253
 20
93.4883180168
 30
0.0
 10
114.7664334155
 20
93.5905223578
 30
0.0
 10
114.7549903426
 20
93.6666267997
 30
0.0
 10
114.7444343274
 20
93.7131685917
 30
0.0
 10
114.7348580329
 20
93.7354436746
 30
0.0
 10
114.7298986475
 20
93.7421108106
 30
0.0
 10
114.7272837787
 20
93.7436635598
 30
0.0
  0
SPLINE
  5
477
100
AcDbEntity
  8
0
100
AcDbSpline
 62
7
  6
CONTINUOUS
 70
0
 71
3
 72
14
 73
10
 74
0
 42
0.0000001
 43
0.0000001
 44
0.0000000001
 40
0.0
 40
0.0
 40
0.0
 40
0.0
 40
0.3539649451
 40
0.526646694
 40
0.6825032549
 40
0.8115805385
 40
0.9083007688
 40
0.9698088688
 40
1.0
 40
1.0
 40
1.0
 40
1.0
 10
119.0058385134
 20
92.9653054879
 30
0.0
 10
119.0053502907
 20
93.0606357435
 30
0.0
 10
119.0022707202
 20
93.2025089408
 30
0.0
 10
118.9924702293
 20
93.386017853
 30
0.0
 10
118.9828317302
 20
93.5090496971
 30
0.0
 10
118.9710755203
 20
93.6107904784
 30
0.0
 10
118.9583954577
 20
93.688148885
 30
0.0
 10
118.9454731081
 20
93.7354432243
 30
0.0
 10
118.934466917
 20
93.7604032364
 30
0.0
 10
118.9272813841
 20
93.7642091287
 30
0.0
  0
SPLINE
  5
478
100
AcDbEntity
  8
0
100
AcDbSpline
 62
7
  6
CONTINUOUS
 70
0
 71
3
 72
8
 73
4
 74
0
 42
0.0000001
 43
0.0000001
 44
0.0000000001
 40
0.0
 40
0.0
 40
0.0
 40
0.0
 40
1.0
 40
1.0
 40
1.0
 40
1.0
 10
114.7943226232
 20
92.9447456551
 30
0.0
 10
116.1981639026
 20
92.9512075333
 30
0.0
 10
117.6020034369
 20
92.9580604307
 30
0.0
 10
119.0058408928
 20
92.9653055021
 30
0.0
  0
SPLINE
  5
479
100
AcDbEntity
  8
0
100
AcDbSpline
 62
7
  6
CONTINUOUS
 70
0
 71
3
 72
11
 73
7
 74
0
 42
0.0000001
 43
0.0000001
 44
0.0000000001
 40
0.0
 40
0.0
 40
0.0
 40
0.0
 40
0.249841381
 40
0.4997759912
 40
0.7498418213
 40
1.0
 40
1.0
 40
1.0
 40
1.0
 10
119.7272837787
 20
92.9653055024
 30
0.0
 10
119.7272837787
 20
93.0692164191
 30
0.0
 10
119.6856329084
 20
93.2793563849
 30
0.0
 10
119.5075523403
 20
93.5449022258
 30
0.0
 10
119.2416463818
 20
93.7226549698
 30
0.0
 10
119.031326454
 20
93.7642092862
 30
0.0
 10
118.9272837787
 20
93.7642091302
 30
0.0
  0
SPLINE
  5
47A
100
AcDbEntity
  8
0
100
AcDbSpline
 62
7
  6
CONTINUOUS
 70
0
 71
3
 72
14
 73
10
 74
0
 42
0.0000001
 43
0.0000001
 44
0.0000000001
 40
0.0
 40
0.0
 40
0.0
 40
0.0
 40
0.3631749291
 40
0.5400319453
 40
0.698302028
 40
0.8270238278
 40
0.9204390933
 40
0.9760326722
 40
1.0
 40
1.0
 40
1.0
 40
1.0
 10
118.3044382829
 20
37.2644420131
 30
0.0
 10
118.3044382414
 20
37.1662668303
 30
0.0
 10
118.301969832
 20
37.0202091746
 30
0.0
 10
118.2927819268
 20
36.831771247
 30
0.0
 10
118.2831991398
 20
36.7064233286
 30
0.0
 10
118.2720774278
 20
36.6050118725
 30
0.0
 10
118.258200079
 20
36.5291076095
 30
0.0
 10
118.2477065332
 20
36.4872700372
 30
0.0
 10
118.2337626084
 20
36.4644423719
 30
0.0
 10
118.2272836458
 20
36.4644423719
 30
0.0
  0
SPLINE
  5
47B
100
AcDbEntity
  8
0
100
AcDbSpline
 62
7
  6
CONTINUOUS
 70
0
 71
3
 72
16
 73
12
 74
0
 42
0.0000001
 43
0.0000001
 44
0.0000000001
 40
0.0
 40
0.0
 40
0.0
 40
0.0
 40
0.1809973187
 40
0.3658164864
 40
0.543839
 40
0.7029789779
 40
0.8320947283
 40
0.9252388534
 40
0.9794853527
 40
0.9932465257
 40
1.0
 40
1.0
 40
1.0
 40
1.0
 10
16.1790784958
 20
37.2644420131
 30
0.0
 10
16.1790783067
 20
37.2158712387
 30
0.0
 10
16.1796213743
 20
37.1177016897
 30
0.0
 10
16.1820767723
 20
36.9717865586
 30
0.0
 10
16.1863993016
 20
36.8317476685
 30
0.0
 10
16.1922160783
 20
36.7068323284
 30
0.0
 10
16.1996002608
 20
36.6045054899
 30
0.0
 10
16.2071997529
 20
36.5312096602
 30
0.0
 10
16.2151020158
 20
36.4876963847
 30
0.0
 10
16.2212117097
 20
36.4694139583
 30
0.0
 10
16.2254694029
 20
36.4644385883
 30
0.0
 10
16.2272817031
 20
36.4644385977
 30
0.0
  0
SPLINE
  5
47C
100
AcDbEntity
  8
0
100
AcDbSpline
 62
7
  6
CONTINUOUS
 70
0
 71
3
 72
11
 73
7
 74
0
 42
0.0000001
 43
0.0000001
 44
0.0000000001
 40
0.0
 40
0.0
 40
0.0
 40
0.0
 40
0.2382635091
 40
0.5000152622
 40
0.761750145
 40
1.0
 40
1.0
 40
1.0
 40
1.0
 10
15.4785464022
 20
37.9644420134
 30
0.0
 10
15.4786199727
 20
37.877644841
 30
0.0
 10
15.5131285457
 20
37.6937604516
 30
0.0
 10
15.669728396
 20
37.4552334733
 30
0.0
 10
15.9084186561
 20
37.2989467942
 30
0.0
 10
16.0922853116
 20
37.2644894132
 30
0.0
 10
16.1790775276
 20
37.2644409918
 30
0.0
  0
SPLINE
  5
47D
100
AcDbEntity
  8
0
100
AcDbSpline
 62
7
  6
CONTINUOUS
 70
0
 71
3
 72
16
 73
12
 74
0
 42
0.0000001
 43
0.0000001
 44
0.0000000001
 40
0.0
 40
0.0
 40
0.0
 40
0.0
 40
0.1809974419
 40
0.3658166514
 40
0.5438391289
 40
0.7029790619
 40
0.832094723
 40
0.9252388065
 40
0.9794853179
 40
0.9932464949
 40
1.0
 40
1.0
 40
1.0
 40
1.0
 10
16.1790773438
 20
165.6644420131
 30
0.0
 10
16.1790773629
 20
165.7130126062
 30
0.0
 10
16.179620851
 20
165.8111817637
 30
0.0
 10
16.1820768701
 20
165.9570962746
 30
0.0
 10
16.1863999945
 20
166.0971345165
 30
0.0
 10
16.1922172982
 20
166.2220492351
 30
0.0
 10
16.1996018971
 20
166.3243755376
 30
0.0
 10
16.2072017145
 20
166.3976709855
 30
0.0
 10
16.2151041154
 20
166.4411840103
 30
0.0
 10
16.2212139107
 20
166.4594663515
 30
0.0
 10
16.2254716036
 20
166.46444167
 30
0.0
 10
16.227283904
 20
166.46444167
 30
0.0
  0
SPLINE
  5
47E
100
AcDbEntity
  8
0
100
AcDbSpline
 62
7
  6
CONTINUOUS
 70
0
 71
3
 72
11
 73
7
 74
0
 42
0.0000001
 43
0.0000001
 44
0.0000000001
 40
0.0
 40
0.0
 40
0.0
 40
0.0
 40
0.2515398972
 40
0.5014458795
 40
0.7506737471
 40
1.0
 40
1.0
 40
1.0
 40
1.0
 10
54.0899336367
 20
165.6600586333
 30
0.0
 10
54.1069456088
 20
165.6707187165
 30
0.0
 10
54.1464396642
 20
165.6862420667
 30
0.0
 10
54.2071237824
 20
165.6709152571
 30
0.0
 10
54.2560598354
 20
165.6313332078
 30
0.0
 10
54.2653072314
 20
165.5900752683
 30
0.0
 10
54.2666337934
 20
165.5702202404
 30
0.0
  0
SPLINE
  5
47F
100
AcDbEntity
  8
0
100
AcDbSpline
 62
7
  6
CONTINUOUS
 70
0
 71
3
 72
18
 73
14
 74
0
 42
0.0000001
 43
0.0000001
 44
0.0000000001
 40
0.0
 40
0.0
 40
0.0
 40
0.0
 40
0.0075109915
 40
0.0241990203
 40
0.049923336
 40
0.0844589512
 40
0.1275130645
 40
0.1786112541
 40
0.302916687
 40
0.4530293431
 40
0.6236170073
 40
0.8085948139
 40
1.0
 40
1.0
 40
1.0
 40
1.0
 10
54.1051059232
 20
166.4640745048
 30
0.0
 10
54.1061001115
 20
166.4623232202
 30
0.0
 10
54.1051817433
 20
166.455336622
 30
0.0
 10
54.1049320051
 20
166.4423734707
 30
0.0
 10
54.102978997
 20
166.4216064932
 30
0.0
 10
54.101282597
 20
166.3940492359
 30
0.0
 10
54.0995241272
 20
166.3595564073
 30
0.0
 10
54.0972742119
 20
166.3010420791
 30
0.0
 10
54.0950354507
 20
166.2137826226
 30
0.0
 10
54.0932603718
 20
166.0944869882
 30
0.0
 10
54.0912622392
 20
165.9589202106
 30
0.0
 10
54.0884597677
 20
165.8122990132
 30
0.0
 10
54.0886666511
 20
165.7113614644
 30
0.0
 10
54.0899336367
 20
165.6600586333
 30
0.0
  0
SPLINE
  5
480
100
AcDbEntity
  8
0
100
AcDbSpline
 62
7
  6
CONTINUOUS
 70
0
 71
3
 72
10
 73
6
 74
0
 42
0.0000001
 43
0.0000001
 44
0.0000000001
 40
0.0
 40
0.0
 40
0.0
 40
0.0
 40
0.204176058
 40
0.4488275216
 40
1.0
 40
1.0
 40
1.0
 40
1.0
 10
54.2079608965
 20
166.289308093
 30
0.0
 10
54.2198814491
 20
166.2415655126
 30
0.0
 10
54.239314541
 20
166.1349439534
 30
0.0
 10
54.2652585577
 20
165.8952544803
 30
0.0
 10
54.2695917835
 20
165.7030248292
 30
0.0
 10
54.2666337934
 20
165.5702202404
 30
0.0
  0
SPLINE
  5
481
100
AcDbEntity
  8
0
100
AcDbSpline
 62
7
  6
CONTINUOUS
 70
0
 71
3
 72
9
 73
5
 74
0
 42
0.0000001
 43
0.0000001
 44
0.0000000001
 40
0.0
 40
0.0
 40
0.0
 40
0.0
 40
0.2130873442
 40
1.0
 40
1.0
 40
1.0
 40
1.0
 10
54.1600091984
 20
166.4218762573
 30
0.0
 10
54.1630109172
 20
166.4166833808
 30
0.0
 10
54.1760630057
 20
166.3917132756
 30
0.0
 10
54.1856450172
 20
166.3650894149
 30
0.0
 10
54.1923838482
 20
166.3439892237
 30
0.0
  0
SPLINE
  5
482
100
AcDbEntity
  8
0
100
AcDbSpline
 62
7
  6
CONTINUOUS
 70
0
 71
3
 72
9
 73
5
 74
0
 42
0.0000001
 43
0.0000001
 44
0.0000000001
 40
0.0
 40
0.0
 40
0.0
 40
0.0
 40
0.2358059363
 40
1.0
 40
1.0
 40
1.0
 40
1.0
 10
54.1923838482
 20
166.3439892237
 30
0.0
 10
54.1937435955
 20
166.3397316709
 30
0.0
 10
54.1993541768
 20
166.3216266789
 30
0.0
 10
54.2043798394
 20
166.3033427992
 30
0.0
 10
54.2079608965
 20
166.289308093
 30
0.0
  0
SPLINE
  5
483
100
AcDbEntity
  8
0
100
AcDbSpline
 62
7
  6
CONTINUOUS
 70
0
 71
3
 72
9
 73
5
 74
0
 42
0.0000001
 43
0.0000001
 44
0.0000000001
 40
0.0
 40
0.0
 40
0.0
 40
0.0
 40
0.1501559322
 40
1.0
 40
1.0
 40
1.0
 40
1.0
 10
54.1051059232
 20
166.4640745048
 30
0.0
 10
54.1069231549
 20
166.4635474191
 30
0.0
 10
54.1186326034
 20
166.4588396331
 30
0.0
 10
54.1297528002
 20
166.4524649411
 30
0.0
 10
54.1380541382
 20
166.4456996126
 30
0.0
  0
SPLINE
  5
484
100
AcDbEntity
  8
0
100
AcDbSpline
 62
7
  6
CONTINUOUS
 70
0
 71
3
 72
9
 73
5
 74
0
 42
0.0000001
 43
0.0000001
 44
0.0000000001
 40
0.0
 40
0.0
 40
0.0
 40
0.0
 40
0.2352581041
 40
1.0
 40
1.0
 40
1.0
 40
1.0
 10
54.1380541382
 20
166.4456996126
 30
0.0
 10
54.1400266497
 20
166.444092078
 30
0.0
 10
54.1481166019
 20
166.4368939778
 30
0.0
 10
54.1550633848
 20
166.4285063535
 30
0.0
 10
54.1600091984
 20
166.4218762573
 30
0.0
  0
SPLINE
  5
485
100
AcDbEntity
  8
0
100
AcDbSpline
 62
7
  6
CONTINUOUS
 70
0
 71
3
 72
27
 73
23
 74
0
 42
0.0000001
 43
0.0000001
 44
0.0000000001
 40
0.0
 40
0.0
 40
0.0
 40
0.0
 40
0.0312514326
 40
0.0625029962
 40
0.0937561987
 40
0.1250097115
 40
0.1562634501
 40
0.1875179892
 40
0.2187732735
 40
0.2500289779
 40
0.2812850128
 40
0.3125412546
 40
0.3750330543
 40
0.499913997
 40
0.5624193919
 40
0.6249273417
 40
0.6874368563
 40
0.7499474602
 40
0.8124601024
 40
0.8749727213
 40
0.9374866833
 40
1.0
 40
1.0
 40
1.0
 40
1.0
 10
79.7272837787
 20
84.6672284177
 30
0.0
 10
79.0438212789
 20
84.6672747131
 30
0.0
 10
77.6757501698
 20
84.7331805336
 30
0.0
 10
75.6454521662
 20
85.0433776911
 30
0.0
 10
73.6556523529
 20
85.5510442504
 30
0.0
 10
71.7206658645
 20
86.2378528811
 30
0.0
 10
69.8542208724
 20
87.093303024
 30
0.0
 10
68.0666319736
 20
88.1025379838
 30
0.0
 10
66.3620018687
 20
89.2457209862
 30
0.0
 10
64.7423918289
 20
90.5061126909
 30
0.0
 10
63.2097224044
 20
91.870694199
 30
0.0
 10
61.2835446079
 20
93.8128645246
 30
0.0
 10
58.2114661326
 20
97.4878885065
 30
0.0
 10
55.3358786753
 20
102.1734169735
 30
0.0
 10
53.0347715361
 20
107.1333363033
 30
0.0
 10
51.5671534993
 20
110.9664599548
 30
0.0
 10
50.3472157054
 20
114.8846743517
 30
0.0
 10
49.3676032782
 20
118.8697410849
 30
0.0
 10
48.6155616552
 20
122.9036432194
 30
0.0
 10
48.0801485661
 20
126.9719305684
 30
0.0
 10
47.7597767364
 20
131.0626961521
 30
0.0
 10
47.6902931728
 20
133.7975713711
 30
0.0
 10
47.6899197515
 20
135.1647248953
 30
0.0
  0
SPLINE
  5
486
100
AcDbEntity
  8
0
100
AcDbSpline
 62
7
  6
CONTINUOUS
 70
0
 71
3
 72
12
 73
8
 74
0
 42
0.0000001
 43
0.0000001
 44
0.0000000001
 40
0.0
 40
0.0
 40
0.0
 40
0.0
 40
0.2499176715
 40
0.3749849319
 40
0.5000372849
 40
0.7499838402
 40
1.0
 40
1.0
 40
1.0
 40
1.0
 10
79.7272837788
 20
87.7354794809
 30
0.0
 10
78.6494584243
 20
87.735481918
 30
0.0
 10
77.0271900087
 20
87.8863271067
 30
0.0
 10
74.9254180392
 20
88.3776989986
 30
0.0
 10
72.8731216828
 20
89.0486027541
 30
0.0
 10
70.4246783011
 20
90.2045617897
 30
0.0
 10
68.6274971606
 20
91.4100547394
 30
0.0
 10
67.772757333
 20
92.067354611
 30
0.0
  0
SPLINE
  5
487
100
AcDbEntity
  8
0
100
AcDbSpline
 62
7
  6
CONTINUOUS
 70
0
 71
3
 72
11
 73
7
 74
0
 42
0.0000001
 43
0.0000001
 44
0.0000000001
 40
0.0
 40
0.0
 40
0.0
 40
0.0
 40
0.2498816217
 40
0.4998180152
 40
0.7498512697
 40
1.0
 40
1.0
 40
1.0
 40
1.0
 10
79.6890469137
 20
166.1193912433
 30
0.0
 10
78.827033471
 20
166.1173790493
 30
0.0
 10
77.1001695921
 20
165.9848223024
 30
0.0
 10
74.5712478989
 20
165.4000766822
 30
0.0
 10
72.1487814963
 20
164.4690601503
 30
0.0
 10
70.6262016179
 20
163.6465434916
 30
0.0
 10
69.8924609916
 20
163.1923570047
 30
0.0
  0
SPLINE
  5
488
100
AcDbEntity
  8
0
100
AcDbSpline
 62
7
  6
CONTINUOUS
 70
0
 71
3
 72
17
 73
13
 74
0
 42
0.0000001
 43
0.0000001
 44
0.0000000001
 40
0.0
 40
0.0
 40
0.0
 40
0.0
 40
0.1247593221
 40
0.2496467994
 40
0.3746107061
 40
0.4996265085
 40
0.624674187
 40
0.687226245
 40
0.7497827285
 40
0.8123441129
 40
0.8749040915
 40
1.0
 40
1.0
 40
1.0
 40
1.0
 10
69.8924609916
 20
163.1923570047
 30
0.0
 10
68.4390504837
 20
162.292693842
 30
0.0
 10
65.7346412255
 20
160.1500479269
 30
0.0
 10
62.3548988443
 20
156.2587421043
 30
0.0
 10
59.6054636633
 20
151.9005874299
 30
0.0
 10
57.4294547792
 20
147.2332363482
 30
0.0
 10
56.0580596265
 20
143.1666257528
 30
0.0
 10
55.208735062
 20
139.8450445083
 30
0.0
 10
54.6930006374
 20
137.3250152503
 30
0.0
 10
54.2926266777
 20
134.7840894861
 30
0.0
 10
53.9106551392
 20
131.3763743657
 30
0.0
 10
53.7994865071
 20
128.8032354874
 30
0.0
 10
53.7989576979
 20
127.0892978453
 30
0.0
  0
SPLINE
  5
489
100
AcDbEntity
  8
0
100
AcDbSpline
 62
7
  6
CONTINUOUS
 70
0
 71
3
 72
21
 73
17
 74
0
 42
0.0000001
 43
0.0000001
 44
0.0000000001
 40
0.0
 40
0.0
 40
0.0
 40
0.0
 40
0.0625806275
 40
0.1251561495
 40
0.1877322746
 40
0.2503060913
 40
0.3753838951
 40
0.5004195447
 40
0.5629547247
 40
0.6254734782
 40
0.6879756471
 40
0.7504538497
 40
0.8128987982
 40
0.875310002
 40
0.9376746286
 40
1.0
 40
1.0
 40
1.0
 40
1.0
 10
105.6463003038
 20
127.0894044416
 30
0.0
 10
105.6460016642
 20
128.061697786
 30
0.0
 10
105.5987634548
 20
130.0065697841
 30
0.0
 10
105.3795666674
 20
132.9162893429
 30
0.0
 10
105.0104798108
 20
135.8108068183
 30
0.0
 10
104.325247928
 20
139.6390355996
 30
0.0
 10
103.085749774
 20
144.3471744541
 30
0.0
 10
101.3001345812
 20
148.8796644918
 30
0.0
 10
99.5182735474
 20
152.335694373
 30
0.0
 10
97.9956768872
 20
154.8237931556
 30
0.0
 10
96.2738586373
 20
157.1779384247
 30
0.0
 10
94.3490454154
 20
159.3689485634
 30
0.0
 10
92.2101362192
 20
161.3511594801
 30
0.0
 10
89.8599328187
 20
163.0773449318
 30
0.0
 10
87.3068403352
 20
164.4853564109
 30
0.0
 10
85.4839988465
 20
165.1672902281
 30
0.0
 10
84.5531699288
 20
165.434153111
 30
0.0
  0
SPLINE
  5
48A
100
AcDbEntity
  8
0
100
AcDbSpline
 62
7
  6
CONTINUOUS
 70
0
 71
3
 72
9
 73
5
 74
0
 42
0.0000001
 43
0.0000001
 44
0.0000000001
 40
0.0
 40
0.0
 40
0.0
 40
0.0
 40
0.5000274973
 40
1.0
 40
1.0
 40
1.0
 40
1.0
 10
84.5531699288
 20
165.434153111
 30
0.0
 10
83.7742836757
 20
165.6574549734
 30
0.0
 10
82.1848923287
 20
166.0011229961
 30
0.0
 10
80.5625103061
 20
166.1182545364
 30
0.0
 10
79.7523364425
 20
166.1194468666
 30
0.0
  0
SPLINE
  5
48B
100
AcDbEntity
  8
0
100
AcDbSpline
 62
7
  6
CONTINUOUS
 70
0
 71
3
 72
11
 73
7
 74
0
 42
0.0000001
 43
0.0000001
 44
0.0000000001
 40
0.0
 40
0.0
 40
0.0
 40
0.0
 40
0.2498289111
 40
0.4997251935
 40
0.7497698313
 40
1.0
 40
1.0
 40
1.0
 40
1.0
 10
79.7272837794
 20
88.0354112422
 30
0.0
 10
80.7341769248
 20
88.0354426037
 30
0.0
 10
82.7527416615
 20
88.2134946068
 30
0.0
 10
85.6846936193
 20
88.9987287816
 30
0.0
 10
88.4552974916
 20
90.2374414871
 30
0.0
 10
90.1634042727
 20
91.3222801709
 30
0.0
 10
90.9790159219
 20
91.9154671207
 30
0.0
  0
SPLINE
  5
48C
100
AcDbEntity
  8
0
100
AcDbSpline
 62
7
  6
CONTINUOUS
 70
0
 71
3
 72
19
 73
15
 74
0
 42
0.0000001
 43
0.0000001
 44
0.0000000001
 40
0.0
 40
0.0
 40
0.0
 40
0.0
 40
0.0624104987
 40
0.1248458593
 40
0.1873084636
 40
0.2497901425
 40
0.3747231767
 40
0.4997120451
 40
0.6247380497
 40
0.6872776431
 40
0.7498234991
 40
0.8123737923
 40
0.8749230406
 40
1.0
 40
1.0
 40
1.0
 40
1.0
 10
90.9790159219
 20
91.9154671207
 30
0.0
 10
91.6424062588
 20
92.3979448917
 30
0.0
 10
92.9208298113
 20
93.4316333701
 30
0.0
 10
94.6844820432
 20
95.1536569448
 30
0.0
 10
96.2963337557
 20
97.0193375432
 30
0.0
 10
98.2514958934
 20
99.661410364
 30
0.0
 10
100.3390662754
 20
103.2119173571
 30
0.0
 10
102.3268921079
 20
107.7313546318
 30
0.0
 10
103.5810500988
 20
111.6510406105
 30
0.0
 10
104.3583129386
 20
114.8460836362
 30
0.0
 10
104.8303078097
 20
117.2675532026
 30
0.0
 10
105.1971840682
 20
119.7072091902
 30
0.0
 10
105.5467055715
 20
122.9775053347
 30
0.0
 10
105.6468172295
 20
125.445465361
 30
0.0
 10
105.6463155543
 20
127.089404446
 30
0.0
  0
SPLINE
  5
48D
100
AcDbEntity
  8
0
100
AcDbSpline
 62
7
  6
CONTINUOUS
 70
0
 71
3
 72
17
 73
13
 74
0
 42
0.0000001
 43
0.0000001
 44
0.0000000001
 40
0.0
 40
0.0
 40
0.0
 40
0.0
 40
0.1250803316
 40
0.2501540279
 40
0.3752111262
 40
0.5002428568
 40
0.6252396893
 40
0.7501850307
 40
0.8126694666
 40
0.8751382763
 40
0.9375810156
 40
1.0
 40
1.0
 40
1.0
 40
1.0
 10
53.7989212048
 20
127.0892978562
 30
0.0
 10
53.7984314123
 20
125.472776139
 30
0.0
 10
53.9279491334
 20
122.2379289728
 30
0.0
 10
54.5373873592
 20
117.4215674569
 30
0.0
 10
55.5530827772
 20
112.6741482824
 30
0.0
 10
57.0076463777
 20
108.0417347391
 30
0.0
 10
58.9263847067
 20
103.582157547
 30
0.0
 10
60.9392794475
 20
100.0684686927
 30
0.0
 10
62.8226198315
 20
97.4418577248
 30
0.0
 10
64.3753957148
 20
95.5800494645
 30
0.0
 10
66.0730916794
 20
93.8501544062
 30
0.0
 10
67.3045421402
 20
92.8028831415
 30
0.0
 10
67.9439015336
 20
92.3109725734
 30
0.0
  0
SPLINE
  5
48E
100
AcDbEntity
  8
0
100
AcDbSpline
 62
7
  6
CONTINUOUS
 70
0
 71
3
 72
13
 73
9
 74
0
 42
0.0000001
 43
0.0000001
 44
0.0000000001
 40
0.0
 40
0.0
 40
0.0
 40
0.0
 40
0.2501329099
 40
0.5000580855
 40
0.6250707202
 40
0.750055237
 40
0.8750216077
 40
1.0
 40
1.0
 40
1.0
 40
1.0
 10
67.9439015336
 20
92.3109725734
 30
0.0
 10
68.7870154182
 20
91.6622972989
 30
0.0
 10
70.5587387381
 20
90.4720831503
 30
0.0
 10
72.9733593209
 20
89.3317009804
 30
0.0
 10
74.9959278457
 20
88.6690989333
 30
0.0
 10
76.5508388955
 20
88.3055102506
 30
0.0
 10
78.1321183344
 20
88.0844459201
 30
0.0
 10
79.1957700009
 20
88.0354562471
 30
0.0
 10
79.7272837789
 20
88.0354388753
 30
0.0
  0
SPLINE
  5
48F
100
AcDbEntity
  8
0
100
AcDbSpline
 62
7
  6
CONTINUOUS
 70
0
 71
3
 72
20
 73
16
 74
0
 42
0.0000001
 43
0.0000001
 44
0.0000000001
 40
0.0
 40
0.0
 40
0.0
 40
0.0
 40
0.1249981332
 40
0.1875102234
 40
0.2500225803
 40
0.3750124636
 40
0.4999926473
 40
0.5625004201
 40
0.6250058389
 40
0.6875087114
 40
0.7500095267
 40
0.8125098713
 40
0.8750087174
 40
0.937506292
 40
1.0
 40
1.0
 40
1.0
 40
1.0
 10
105.4912399834
 20
127.0894420131
 30
0.0
 10
105.4912399834
 20
125.4525176478
 30
0.0
 10
105.3901838116
 20
122.9951460079
 30
0.0
 10
105.0421158117
 20
119.7387404299
 30
0.0
 10
104.5558424979
 20
116.5000810454
 30
0.0
 10
103.6833618295
 20
112.4960961349
 30
0.0
 10
102.4344453019
 20
108.5914287773
 30
0.0
 10
101.1940593423
 20
105.5602274872
 30
0.0
 10
100.1413327703
 20
103.3402233446
 30
0.0
 10
98.9597566661
 20
101.1858734421
 30
0.0
 10
97.6407740645
 20
99.1125170686
 30
0.0
 10
96.1798112378
 20
97.136311805
 30
0.0
 10
94.5721600115
 20
95.2769800617
 30
0.0
 10
92.8159969642
 20
93.5567703945
 30
0.0
 10
91.5405129358
 20
92.5256923849
 30
0.0
 10
90.8781604708
 20
92.0450108982
 30
0.0
  0
SPLINE
  5
490
100
AcDbEntity
  8
0
100
AcDbSpline
 62
7
  6
CONTINUOUS
 70
0
 71
3
 72
12
 73
8
 74
0
 42
0.0000001
 43
0.0000001
 44
0.0000000001
 40
0.0
 40
0.0
 40
0.0
 40
0.0
 40
0.2500020004
 40
0.4999652744
 40
0.6250267013
 40
0.750088582
 40
1.0
 40
1.0
 40
1.0
 40
1.0
 10
90.8781604708
 20
92.0450108982
 30
0.0
 10
90.1147556562
 20
91.4909938444
 30
0.0
 10
88.5202885992
 20
90.4725290347
 30
0.0
 10
86.3728822952
 20
89.4774874645
 30
0.0
 10
84.5807992235
 20
88.8814244203
 30
0.0
 10
82.7490198079
 20
88.4247061772
 30
0.0
 10
81.3365783865
 20
88.2491938879
 30
0.0
 10
80.394360821
 20
88.2130934355
 30
0.0
  0
SPLINE
  5
491
100
AcDbEntity
  8
0
100
AcDbSpline
 62
7
  6
CONTINUOUS
 70
0
 71
3
 72
10
 73
6
 74
0
 42
0.0000001
 43
0.0000001
 44
0.0000000001
 40
0.0
 40
0.0
 40
0.0
 40
0.0
 40
0.2500718129
 40
0.5001477675
 40
1.0
 40
1.0
 40
1.0
 40
1.0
 10
79.7272837787
 20
165.978406065
 30
0.0
 10
80.1311358159
 20
165.978406065
 30
0.0
 10
80.9392631446
 20
165.9522119817
 30
0.0
 10
82.5461267821
 20
165.7804794593
 30
0.0
 10
83.7342602705
 20
165.5210890225
 30
0.0
 10
84.5102251874
 20
165.2985932794
 30
0.0
  0
SPLINE
  5
492
100
AcDbEntity
  8
0
100
AcDbSpline
 62
7
  6
CONTINUOUS
 70
0
 71
3
 72
20
 73
16
 74
0
 42
0.0000001
 43
0.0000001
 44
0.0000000001
 40
0.0
 40
0.0
 40
0.0
 40
0.0
 40
0.0624783568
 40
0.1249669496
 40
0.1874625512
 40
0.2499652058
 40
0.3124723678
 40
0.3749820255
 40
0.499923119
 40
0.6249005751
 40
0.7498983134
 40
0.8124227103
 40
0.8749477606
 40
0.9374750555
 40
1.0
 40
1.0
 40
1.0
 40
1.0
 10
84.5102251874
 20
165.2985932794
 30
0.0
 10
85.4395361755
 20
165.0321279607
 30
0.0
 10
87.2590922972
 20
164.3512129223
 30
0.0
 10
89.8043434726
 20
162.9420669028
 30
0.0
 10
92.1479677228
 20
161.2197078235
 30
0.0
 10
94.2730963377
 20
159.2360997366
 30
0.0
 10
96.1888509113
 20
157.051108677
 30
0.0
 10
98.4695795565
 20
153.9219913678
 30
0.0
 10
100.8267651148
 20
149.6788201738
 30
0.0
 10
102.955082112
 20
144.2673288759
 30
0.0
 10
104.1827814704
 20
139.5788054805
 30
0.0
 10
104.8629155753
 20
135.7686796304
 30
0.0
 10
105.2273970018
 20
132.8878283048
 30
0.0
 10
105.4445919934
 20
129.992297
 30
0.0
 10
105.4912399834
 20
128.0569217396
 30
0.0
 10
105.4912399834
 20
127.0894420131
 30
0.0
  0
SPLINE
  5
493
100
AcDbEntity
  8
0
100
AcDbSpline
 62
7
  6
CONTINUOUS
 70
0
 71
3
 72
20
 73
16
 74
0
 42
0.0000001
 43
0.0000001
 44
0.0000000001
 40
0.0
 40
0.0
 40
0.0
 40
0.0
 40
0.1249991557
 40
0.1875129788
 40
0.2500269643
 40
0.3750166729
 40
0.4999950205
 40
0.5625038161
 40
0.6250095039
 40
0.6875123213
 40
0.7500140463
 40
0.8125144966
 40
0.875014055
 40
0.9375091012
 40
1.0
 40
1.0
 40
1.0
 40
1.0
 10
53.963327574
 20
127.0894420131
 30
0.0
 10
53.963327574
 20
128.7968040851
 30
0.0
 10
54.073377906
 20
131.3600995946
 30
0.0
 10
54.4521806841
 20
134.7550147036
 30
0.0
 10
54.9814718447
 20
138.1297372988
 30
0.0
 10
55.9318247441
 20
142.2976583762
 30
0.0
 10
57.2962520161
 20
146.350998611
 30
0.0
 10
58.6518719014
 20
149.486767408
 30
0.0
 10
59.8041264501
 20
151.7760426853
 30
0.0
 10
61.0998367418
 20
153.9875311425
 30
0.0
 10
62.5484600748
 20
156.1024094197
 30
0.0
 10
64.1541900586
 20
158.1010265496
 30
0.0
 10
65.9209852014
 20
159.9595726642
 30
0.0
 10
67.8534076725
 20
161.6460497319
 30
0.0
 10
69.2550428444
 20
162.6280291411
 30
0.0
 10
69.9810749588
 20
163.076856827
 30
0.0
  0
SPLINE
  5
494
100
AcDbEntity
  8
0
100
AcDbSpline
 62
7
  6
CONTINUOUS
 70
0
 71
3
 72
14
 73
10
 74
0
 42
0.0000001
 43
0.0000001
 44
0.0000000001
 40
0.0
 40
0.0
 40
0.0
 40
0.0
 40
0.2499128405
 40
0.3749268492
 40
0.4999411635
 40
0.6249574194
 40
0.7499709756
 40
0.8749849211
 40
1.0
 40
1.0
 40
1.0
 40
1.0
 10
69.9810749588
 20
163.076856827
 30
0.0
 10
70.7089630977
 20
163.5268318936
 30
0.0
 10
71.8416109136
 20
164.1402113879
 30
0.0
 10
73.420020919
 20
164.8054266065
 30
0.0
 10
74.6357528398
 20
165.2225091106
 30
0.0
 10
75.8770997809
 20
165.5554380658
 30
0.0
 10
77.139081303
 20
165.799576304
 30
0.0
 10
78.4160977376
 20
165.9470261769
 30
0.0
 10
79.272630378
 20
165.9777716771
 30
0.0
 10
79.7007030588
 20
165.9783869697
 30
0.0
  0
SPLINE
  5
495
100
AcDbEntity
  8
0
100
AcDbSpline
 62
7
  6
CONTINUOUS
 70
0
 71
3
 72
11
 73
7
 74
0
 42
0.0000001
 43
0.0000001
 44
0.0000000001
 40
0.0
 40
0.0
 40
0.0
 40
0.0
 40
0.2499482143
 40
0.4999280391
 40
0.7499431613
 40
1.0
 40
1.0
 40
1.0
 40
1.0
 10
79.0601907526
 20
88.2130942596
 30
0.0
 10
78.0629025097
 20
88.2513024737
 30
0.0
 10
76.0712134693
 20
88.5091142183
 30
0.0
 10
73.1964593431
 20
89.3916105411
 30
0.0
 10
70.4963195452
 20
90.7121598875
 30
0.0
 10
68.8363642998
 20
91.8336302561
 30
0.0
 10
68.044857921
 20
92.4422576329
 30
0.0
  0
SPLINE
  5
496
100
AcDbEntity
  8
0
100
AcDbSpline
 62
7
  6
CONTINUOUS
 70
0
 71
3
 72
16
 73
12
 74
0
 42
0.0000001
 43
0.0000001
 44
0.0000000001
 40
0.0
 40
0.0
 40
0.0
 40
0.0
 40
0.1249028295
 40
0.2498546596
 40
0.3748347944
 40
0.4373589262
 40
0.4998849427
 40
0.6249037826
 40
0.7499313981
 40
0.8749643292
 40
1.0
 40
1.0
 40
1.0
 40
1.0
 10
68.044857921
 20
92.4422576329
 30
0.0
 10
66.7704670651
 20
93.4221981417
 30
0.0
 10
64.4159580739
 20
95.6432700265
 30
0.0
 10
61.4674426448
 20
99.4808843468
 30
0.0
 10
59.4650676436
 20
102.9817078567
 30
0.0
 10
58.1120480512
 20
105.9027804705
 30
0.0
 10
56.9153150508
 20
108.8920875322
 30
0.0
 10
55.7100409141
 20
112.7377573043
 30
0.0
 10
54.6992356452
 20
117.4645228707
 30
0.0
 10
54.0940103721
 20
122.2598160301
 30
0.0
 10
53.963327574
 20
125.4801391835
 30
0.0
 10
53.963327574
 20
127.0894420131
 30
0.0
  0
ELLIPSE
  5
497
100
AcDbEntity
  8
0
100
AcDbEllipse
 62
7
  6
CONTINUOUS
 10
84.7274361067
 20
24.4645943412
 30
0.0
 11
-0.7073221892
 21
0.7073221892
 31
0.0
 40
0.9996954599
 41
2.1823162868
 42
2.3563467834
  0
ELLIPSE
  5
498
100
AcDbEntity
  8
0
100
AcDbEllipse
 62
7
  6
CONTINUOUS
 10
39.7271314507
 20
24.4645943412
 30
0.0
 11
-0.7073221892
 21
-0.7073221892
 31
0.0
 40
0.9996954599
 41
0.7852458701
 42
0.9444065981
  0
ELLIPSE
  5
499
100
AcDbEntity
  8
0
100
AcDbEllipse
 62
7
  6
CONTINUOUS
 10
25.7274361068
 20
24.4645943412
 30
0.0
 11
-0.7073221892
 21
-0.7073221892
 31
0.0
 40
0.9996954599
 41
-0.7852458701
 42
0.7852458701
  0
ELLIPSE
  5
49A
100
AcDbEntity
  8
0
100
AcDbEllipse
 62
7
  6
CONTINUOUS
 10
98.7271314507
 20
24.4645943412
 30
0.0
 11
-0.7073221892
 21
0.7073221892
 31
0.0
 40
0.9996954599
 41
2.3563467834
 42
3.9268385237
  0
ENDSEC
  0
SECTION
  2
OBJECTS
  0
DICTIONARY
  5
C
100
AcDbDictionary
280
0
281
1
  3
ACAD_GROUP
350
D
  3
ACAD_MLINESTYLE
350
17
  3
ACAD_LAYOUT
350
1A
  3
ACAD_PLOTSETTINGS
350
19
  3
ACAD_PLOTSTYLENAME
350
E
  0
DICTIONARY
  5
D
102
{ACAD_REACTORS
330
C
102
}
100
AcDbDictionary
280
0
281
1
  0
ACDBDICTIONARYWDFLT
  5
E
102
{ACAD_REACTORS
330
C
102
}
100
AcDbDictionary
281
1
  3
Normal
350
F
100
AcDbDictionaryWithDefault
340
F
  0
DICTIONARY
  5
17
102
{ACAD_REACTORS
330
C
102
}
100
AcDbDictionary
280
0
281
1
  3
Standard
350
18
  0
DICTIONARY
  5
19
102
{ACAD_REACTORS
330
C
102
}
100
AcDbDictionary
281
1
  0
DICTIONARY
  5
1A
102
{ACAD_REACTORS
330
C
102
}
100
AcDbDictionary
281
1
  3
Model
350
49B
  3
Layout1
350
49C
  0
ACDBPLACEHOLDER
  5
F
102
{ACAD_REACTORS
330
E
102
}
  0
MLINESTYLE
  5
18
102
{ACAD_REACTORS
330
17
102
}
100
AcDbMlineStyle
  2
STANDARD
 70
0
  3

 62
256
 51
90.0
 52
90.0
 71
2
 49
0.5
 62
256
  6
BYLAYER
 49
-0.5
 62
256
  6
BYLAYER
  0
LAYOUT
  5
49B
102
{ACAD_REACTORS
330
1A
102
}
100
AcDbPlotSettings
  1

  2
none_device
  4

  6

 40
0.0
 41
0.0
 42
0.0
 43
0.0
 44
210.0
 45
297.0
 46
0.0
 47
0.0
 48
0.0
 49
0.0
140
0.0
141
0.0
142
1.0
143
1.0
 70
1024
 72
1
 73
0
 74
0
  7

 75
0
147
1.0
148
0.0
149
0.0
100
AcDbLayout
  1
Model
 70
0
 71
0
 10
0.0
 20
0.0
 11
210.0
 21
297.0
 12
0.0
 22
0.0
 32
0.0
 14
0.0
 24
0.0
 34
0.0
 15
0.0
 25
0.0
 35
0.0
146
0.0
 13
0.0
 23
0.0
 33
0.0
 16
1.0
 26
0.0
 36
0.0
 17
0.0
 27
1.0
 37
0.0
 76
0
330
210
345
0
346
0
  0
LAYOUT
  5
49C
102
{ACAD_REACTORS
330
1A
102
}
100
AcDbPlotSettings
  1

  2
none_device
  4

  6

 40
0.0
 41
0.0
 42
0.0
 43
0.0
 44
210.0
 45
297.0
 46
0.0
 47
0.0
 48
0.0
 49
0.0
140
0.0
141
0.0
142
1.0
143
1.0
 70
0
 72
1
 73
0
 74
0
  7

 75
0
147
1.0
148
0.0
149
0.0
100
AcDbLayout
  1
Layout1
 70
0
 71
1
 10
0.0
 20
0.0
 11
210.0
 21
297.0
 12
0.0
 22
0.0
 32
0.0
 14
0.0
 24
0.0
 34
0.0
 15
0.0
 25
0.0
 35
0.0
146
0.0
 13
0.0
 23
0.0
 33
0.0
 16
1.0
 26
0.0
 36
0.0
 17
0.0
 27
1.0
 37
0.0
 76
0
330
211
345
0
346
0
  0
ENDSEC
  0
EOF
