999
DXF file: C:\Users\sesa63760\Dev\_Creo\CAD\MCADFD0002490_3D-CAD\drw0001_7.dxf
999
Pro/ENGINEER 2019471 by Parametric Technology Corporation
  0
SECTION
  2
HEADER
  9
$ACADVER
  1
AC1024
  9
$DWGCODEPAGE
  3
ANSI_1252
  9
$EXTMAX
 10
160.6624008134
 20
227.2225382932
 30
0.0
  9
$EXTMIN
 10
0.0
 20
0.0
 30
0.0
  9
$LIMMIN
 10
0.0
 20
0.0
  9
$LIMMAX
 10
160.6624008134
 20
227.2225382932
  9
$VIEWCTR
 10
80.3312004067
 20
113.6112691466
  9
$VIEWSIZE
 40
227.2225382932
  9
$CLAYER
  8
0
  9
$LTSCALE
 40
14.8115432369
  9
$CELTYPE
  6
BYLAYER
  9
$DIMSCALE
 40
1.0
  9
$DIMASZ
 40
1.9126476287
  9
$DIMEXO
 40
1.0
  9
$DIMDLI
 40
10.2334298728
  9
$DIMEXE
 40
1.0
  9
$DIMCEN
 40
2.4237070751
  9
$DIMLFAC
 40
1.0
  9
$DIMBLK
  1
_FILLED
  9
$DIMALT
 70
0
  9
$DIMALTF
 40
0.0393700787
  9
$DIMTXT
 40
2.6777066802
  9
$DIMTOL
 70
1
  9
$DIMLIM
 70
0
  9
$DIMTFAC
 40
1.0
  9
$DIMTP
 40
0.01
  9
$DIMTM
 40
0.01
  9
$DIMGAP
 40
0.625
  9
$DIMDSEP
 70
46
  9
$AUNITS
 70
0
  9
$PDMODE
 70
3
  9
$PDSIZE
 40
0.3125
  9
$HANDSEED
  5
393
  9
$TILEMODE
 70
1
  9
$MEASUREMENT
 70
1
  9
$INSUNITS
 70
4
  0
ENDSEC
  0
SECTION
  2
CLASSES
  0
CLASS
  1
ACDBDICTIONARYWDFLT
  2
AcDbDictionaryWithDefault
  3
AutoCAD 2000
 90
0
 91
1
280
0
281
0
  0
CLASS
  1
ACDBPLACEHOLDER
  2
AcDbPlaceHolder
  3
AutoCAD 2000
 90
0
 91
1
280
0
281
0
  0
CLASS
  1
LAYOUT
  2
AcDbLayout
  3
AutoCAD 2000
 90
0
 91
0
280
0
281
0
  0
ENDSEC
  0
SECTION
  2
TABLES
  0
TABLE
  2
VPORT
  5
8
100
AcDbSymbolTable
 70
2
  0
VPORT
  5
1F4
100
AcDbSymbolTableRecord
100
AcDbViewportTableRecord
  2
*ACTIVE
 70
0
 10
0.0
 20
0.0
 11
1.0
 21
1.0
 12
80.3312004067
 22
113.6112691466
 13
0.0
 23
0.0
 14
1.0
 24
1.0
 15
0.0
 25
0.0
 16
0.0
 26
0.0
 36
1.0
 17
0.0
 27
0.0
 37
0.0
 40
227.2225382932
 41
0.7070707071
 42
50.0
 43
0.0
 44
0.0
 50
0.0
 51
0.0
 71
0
 72
100
 73
1
 74
1
 75
0
 76
0
 77
0
 78
0
  0
ENDTAB
  0
TABLE
  2
LTYPE
  5
5
100
AcDbSymbolTable
 70
6
  0
LTYPE
  5
14
100
AcDbSymbolTableRecord
100
AcDbLinetypeTableRecord
  2
BYBLOCK
 70
0
  3

 72
65
 73
0
 40
0.0
  0
LTYPE
  5
15
100
AcDbSymbolTableRecord
100
AcDbLinetypeTableRecord
  2
BYLAYER
 70
0
  3

 72
65
 73
0
 40
0.0
  0
LTYPE
  5
16
100
AcDbSymbolTableRecord
100
AcDbLinetypeTableRecord
  2
CONTINUOUS
 70
64
  3
Solid line
 72
65
 73
0
 40
0.0
  0
LTYPE
  5
1F5
100
AcDbSymbolTableRecord
100
AcDbLinetypeTableRecord
  2
CENTER
 70
64
  3
____ _ ____ _ ____ _ ____ _ ____ _ ____ _ ____
 72
65
 73
4
 40
0.6
 49
0.375
 74
0
 49
-0.075
 74
0
 49
0.075
 74
0
 49
-0.075
 74
0
  0
LTYPE
  5
1F6
100
AcDbSymbolTableRecord
100
AcDbLinetypeTableRecord
  2
HIDDEN
 70
64
  3
- - - - - - - - - - - - - - - - - - - -
 72
65
 73
2
 40
0.2
 49
0.1
 74
0
 49
-0.1
 74
0
  0
LTYPE
  5
1F7
100
AcDbSymbolTableRecord
100
AcDbLinetypeTableRecord
  2
PHANTOM
 70
64
  3
_____ _ _ _____ _ _ _____ _ _ _____
 72
65
 73
6
 40
0.8
 49
0.45
 74
0
 49
-0.05
 74
0
 49
0.1
 74
0
 49
-0.05
 74
0
 49
0.1
 74
0
 49
-0.05
 74
0
  0
LTYPE
  5
1F8
100
AcDbSymbolTableRecord
100
AcDbLinetypeTableRecord
  2
DOT
 70
64
  3
. . . . . . . . . . . . . . . . . . . .
 72
65
 73
2
 40
0.2
 49
0.1
 74
0
 49
-0.1
 74
0
  0
LTYPE
  5
1F9
100
AcDbSymbolTableRecord
100
AcDbLinetypeTableRecord
  2
DASHED
 70
64
  3
- - - - - - - - - - - - - - - - - - - -
 72
65
 73
2
 40
0.2
 49
0.1
 74
0
 49
-0.1
 74
0
  0
ENDTAB
  0
TABLE
  2
LAYER
  5
2
100
AcDbSymbolTable
 70
36
  0
LAYER
  5
10
100
AcDbSymbolTableRecord
100
AcDbLayerTableRecord
  2
0
 70
0
 62
7
  6
CONTINUOUS
370
-3
390
F
  0
LAYER
  5
1FA
100
AcDbSymbolTableRecord
100
AcDbLayerTableRecord
  2
DEFAULT_1
 70
0
 62
7
  6
CENTER
370
-3
390
F
  0
LAYER
  5
1FB
100
AcDbSymbolTableRecord
100
AcDbLayerTableRecord
  2
DEFAULT_2
 70
0
 62
8
  6
HIDDEN
370
-3
390
F
  0
LAYER
  5
1FC
100
AcDbSymbolTableRecord
100
AcDbLayerTableRecord
  2
DEFAULT_3
 70
0
 62
7
  6
PHANTOM
370
-3
390
F
  0
LAYER
  5
1FD
100
AcDbSymbolTableRecord
100
AcDbLayerTableRecord
  2
00_COMPONENTS
 70
0
 62
7
  6
CONTINUOUS
370
-3
390
F
  0
LAYER
  5
1FE
100
AcDbSymbolTableRecord
100
AcDbLayerTableRecord
  2
01_1_DEFAULT_DATUMS
 70
0
 62
7
  6
CONTINUOUS
370
-3
390
F
  0
LAYER
  5
1FF
100
AcDbSymbolTableRecord
100
AcDbLayerTableRecord
  2
01_PLANES
 70
0
 62
7
  6
CONTINUOUS
370
-3
390
F
  0
LAYER
  5
200
100
AcDbSymbolTableRecord
100
AcDbLayerTableRecord
  2
02_COORD_SYS
 70
0
 62
7
  6
CONTINUOUS
370
-3
390
F
  0
LAYER
  5
201
100
AcDbSymbolTableRecord
100
AcDbLayerTableRecord
  2
03_AXES
 70
0
 62
7
  6
CONTINUOUS
370
-3
390
F
  0
LAYER
  5
202
100
AcDbSymbolTableRecord
100
AcDbLayerTableRecord
  2
04_POINTS
 70
0
 62
7
  6
CONTINUOUS
370
-3
390
F
  0
LAYER
  5
203
100
AcDbSymbolTableRecord
100
AcDbLayerTableRecord
  2
05_CURVES
 70
0
 62
7
  6
CONTINUOUS
370
-3
390
F
  0
LAYER
  5
204
100
AcDbSymbolTableRecord
100
AcDbLayerTableRecord
  2
06_SURFS
 70
0
 62
7
  6
CONTINUOUS
370
-3
390
F
  0
LAYER
  5
205
100
AcDbSymbolTableRecord
100
AcDbLayerTableRecord
  2
07_COSMETICS
 70
0
 62
7
  6
CONTINUOUS
370
-3
390
F
  0
LAYER
  5
206
100
AcDbSymbolTableRecord
100
AcDbLayerTableRecord
  2
10_NOTES
 70
0
 62
7
  6
CONTINUOUS
370
-3
390
F
  0
LAYER
  5
207
100
AcDbSymbolTableRecord
100
AcDbLayerTableRecord
  2
11_NOTES_PUB
 70
0
 62
7
  6
CONTINUOUS
370
-3
390
F
  0
LAYER
  5
208
100
AcDbSymbolTableRecord
100
AcDbLayerTableRecord
  2
13_REF_GTOL
 70
0
 62
7
  6
CONTINUOUS
370
-3
390
F
  0
LAYER
  5
209
100
AcDbSymbolTableRecord
100
AcDbLayerTableRecord
  2
16_MISC
 70
0
 62
7
  6
CONTINUOUS
370
-3
390
F
  0
LAYER
  5
20A
100
AcDbSymbolTableRecord
100
AcDbLayerTableRecord
  2
17_NO_PRINT
 70
0
 62
7
  6
CONTINUOUS
370
-3
390
F
  0
LAYER
  5
20B
100
AcDbSymbolTableRecord
100
AcDbLayerTableRecord
  2
18_DATUM_CAMS_JOINTS
 70
0
 62
7
  6
CONTINUOUS
370
-3
390
F
  0
LAYER
  5
20C
100
AcDbSymbolTableRecord
100
AcDbLayerTableRecord
  2
19_DATUM_FUNCTIONAL
 70
0
 62
7
  6
CONTINUOUS
370
-3
390
F
  0
LAYER
  5
20D
100
AcDbSymbolTableRecord
100
AcDbLayerTableRecord
  2
20_DATUM_KINEMATIC_SCHEME
 70
0
 62
7
  6
CONTINUOUS
370
-3
390
F
  0
ENDTAB
  0
TABLE
  2
STYLE
  5
3
100
AcDbSymbolTable
 70
1
  0
STYLE
  5
11
100
AcDbSymbolTableRecord
100
AcDbTextStyleTableRecord
  2
STANDARD
 70
0
 40
0.0
 41
0.8
 50
0.0
 71
0
 42
0.2
  3
txt
  4

  0
STYLE
  5
20E
100
AcDbSymbolTableRecord
100
AcDbTextStyleTableRecord
  2
TEXTSTYLE_1
 70
0
 40
0.0
 41
0.8
 50
0.0
 71
0
 42
0.2
  3
gdt
  4

  0
ENDTAB
  0
TABLE
  2
VIEW
  5
6
100
AcDbSymbolTable
 70
0
  0
ENDTAB
  0
TABLE
  2
UCS
  5
7
100
AcDbSymbolTable
 70
0
  0
ENDTAB
  0
TABLE
  2
APPID
  5
9
100
AcDbSymbolTable
 70
1
  0
APPID
  5
20F
100
AcDbSymbolTableRecord
100
AcDbRegAppTableRecord
  2
ACAD
 70
0
  0
ENDTAB
  0
TABLE
  2
BLOCK_RECORD
  5
1
100
AcDbSymbolTable
 70
0
  0
BLOCK_RECORD
  5
210
100
AcDbSymbolTableRecord
100
AcDbBlockTableRecord
  2
*Model_Space
  0
BLOCK_RECORD
  5
211
100
AcDbSymbolTableRecord
100
AcDbBlockTableRecord
  2
*Paper_Space
  0
BLOCK_RECORD
  5
212
100
AcDbSymbolTableRecord
100
AcDbBlockTableRecord
  2
_FILLED
  0
ENDTAB
  0
TABLE
  2
DIMSTYLE
  5
A
100
AcDbSymbolTable
 70
1
100
AcDbDimStyleTable
 71
0
  0
DIMSTYLE
105
213
100
AcDbSymbolTableRecord
100
AcDbDimStyleTableRecord
  2
STANDARD
 70
0
  3

  4

 40
1.0
 41
1.9126476287
 42
1.0
 43
0.38
 44
1.0
 45
0.0
 46
0.0
 47
0.01
 48
0.01
140
2.6777066802
141
0.09
142
0.0
143
25.4
144
1.0
145
0.0
146
1.0
147
0.625
 71
1
 72
0
 73
0
 74
0
 75
0
 76
0
 77
1
 78
8
 79
2
170
0
171
1
172
0
173
0
174
0
175
0
176
0
177
0
178
0
270
2
179
2
271
2
272
2
273
2
274
2
275
0
280
0
281
0
282
0
283
1
284
8
285
0
286
0
287
3
288
0
340
11
278
46
341
212
342
212
343
212
344
212
  0
ENDTAB
  0
ENDSEC
  0
SECTION
  2
BLOCKS
  0
BLOCK
  5
20
100
AcDbEntity
  8
0
100
AcDbBlockBegin
  2
*Model_Space
 70
0
 10
0.0
 20
0.0
 30
0.0
  3
*Model_Space
  1

  0
ENDBLK
  5
21
100
AcDbEntity
  8
0
100
AcDbBlockEnd
  0
BLOCK
  5
1C
100
AcDbEntity
  8
0
100
AcDbBlockBegin
  2
*Paper_Space
 70
0
 10
0.0
 20
0.0
 30
0.0
  3
*Paper_Space
  1

  0
ENDBLK
  5
1D
100
AcDbEntity
  8
0
100
AcDbBlockEnd
  0
BLOCK
  5
214
100
AcDbEntity
  8
0
100
AcDbBlockBegin
  2
_FILLED
 70
64
 10
0.0
 20
0.0
  3
_FILLED
  1

  0
SOLID
  5
215
100
AcDbEntity
  8
0
  6
BYBLOCK
 62
0
100
AcDbTrace
 10
0.0
 20
0.0
 11
-1.0
 21
0.25
 12
-1.0
 22
-0.25
 13
-1.0
 23
-0.25
  0
ENDBLK
  5
216
100
AcDbEntity
  8
0
  6
BYBLOCK
 62
0
100
AcDbBlockEnd
  0
ENDSEC
  0
SECTION
  2
ENTITIES
  0
LINE
  5
217
100
AcDbEntity
  8
0
100
AcDbLine
 62
7
  6
CONTINUOUS
 10
17.0593185686
 20
88.8425054705
 11
17.0593185686
 21
89.8425054705
  0
LINE
  5
218
100
AcDbEntity
  8
0
100
AcDbLine
 62
7
  6
CONTINUOUS
 10
17.0593185686
 20
103.3425054705
 11
17.0593185686
 21
104.3425054694
  0
LINE
  5
219
100
AcDbEntity
  8
0
100
AcDbLine
 62
7
  6
CONTINUOUS
 10
17.0593185686
 20
106.5425054705
 11
17.0593185686
 21
107.5425054705
  0
LINE
  5
21A
100
AcDbEntity
  8
0
100
AcDbLine
 62
7
  6
CONTINUOUS
 10
17.0593185686
 20
121.0425054705
 11
17.0593185686
 21
122.0425054694
  0
LINE
  5
21B
100
AcDbEntity
  8
0
100
AcDbLine
 62
7
  6
CONTINUOUS
 10
17.0593185686
 20
124.2425054705
 11
17.0593185686
 21
125.2425054705
  0
LINE
  5
21C
100
AcDbEntity
  8
0
100
AcDbLine
 62
7
  6
CONTINUOUS
 10
17.0593185686
 20
138.7425054705
 11
17.0593185686
 21
139.7425054694
  0
LINE
  5
21D
100
AcDbEntity
  8
0
100
AcDbLine
 62
7
  6
CONTINUOUS
 10
19.5593185686
 20
139.7425054696
 11
19.5593185686
 21
138.2425054705
  0
LINE
  5
21E
100
AcDbEntity
  8
0
100
AcDbLine
 62
7
  6
CONTINUOUS
 10
19.5593185686
 20
125.7425054705
 11
19.5593185686
 21
124.2425054705
  0
LINE
  5
21F
100
AcDbEntity
  8
0
100
AcDbLine
 62
7
  6
CONTINUOUS
 10
19.5593185686
 20
122.0425054696
 11
19.5593185686
 21
120.5425054705
  0
LINE
  5
220
100
AcDbEntity
  8
0
100
AcDbLine
 62
7
  6
CONTINUOUS
 10
19.5593185686
 20
108.0425054705
 11
19.5593185686
 21
106.5425054705
  0
LINE
  5
221
100
AcDbEntity
  8
0
100
AcDbLine
 62
7
  6
CONTINUOUS
 10
19.5593185686
 20
104.3425054697
 11
19.5593185686
 21
102.8425054705
  0
LINE
  5
222
100
AcDbEntity
  8
0
100
AcDbLine
 62
7
  6
CONTINUOUS
 10
19.5593185686
 20
90.3425054705
 11
19.5593185686
 21
88.8425054705
  0
LINE
  5
223
100
AcDbEntity
  8
0
100
AcDbLine
 62
7
  6
CONTINUOUS
 10
21.2119335737
 20
136.2425054705
 11
21.2119335737
 21
127.7425054705
  0
LINE
  5
224
100
AcDbEntity
  8
0
100
AcDbLine
 62
7
  6
CONTINUOUS
 10
21.2119335737
 20
118.5425054705
 11
21.2119335737
 21
110.0425054705
  0
LINE
  5
225
100
AcDbEntity
  8
0
100
AcDbLine
 62
7
  6
CONTINUOUS
 10
21.2119335737
 20
92.3425054705
 11
21.2119335737
 21
100.8425054705
  0
LINE
  5
226
100
AcDbEntity
  8
0
100
AcDbLine
 62
7
  6
CONTINUOUS
 10
27.2093185686
 20
137.0425054705
 11
27.2093185686
 21
126.9425054705
  0
LINE
  5
227
100
AcDbEntity
  8
0
100
AcDbLine
 62
7
  6
CONTINUOUS
 10
27.2093185686
 20
119.3425054705
 11
27.2093185686
 21
109.2425054705
  0
LINE
  5
228
100
AcDbEntity
  8
0
100
AcDbLine
 62
7
  6
CONTINUOUS
 10
27.2093185686
 20
91.5425054705
 11
27.2093185686
 21
101.6425054705
  0
LINE
  5
229
100
AcDbEntity
  8
0
100
AcDbLine
 62
7
  6
CONTINUOUS
 10
32.4152656734
 20
132.6925054705
 11
32.4152656734
 21
131.2925054705
  0
LINE
  5
22A
100
AcDbEntity
  8
0
100
AcDbLine
 62
7
  6
CONTINUOUS
 10
32.4152656734
 20
114.9925054705
 11
32.4152656734
 21
113.5925054705
  0
LINE
  5
22B
100
AcDbEntity
  8
0
100
AcDbLine
 62
7
  6
CONTINUOUS
 10
32.4152656734
 20
95.8925054705
 11
32.4152656734
 21
97.2925054705
  0
LINE
  5
22C
100
AcDbEntity
  8
0
100
AcDbLine
 62
7
  6
CONTINUOUS
 10
33.4119335737
 20
134.9925054705
 11
33.4119335737
 21
133.0925054705
  0
LINE
  5
22D
100
AcDbEntity
  8
0
100
AcDbLine
 62
7
  6
CONTINUOUS
 10
33.4119335737
 20
130.8925054705
 11
33.4119335737
 21
128.9925054705
  0
LINE
  5
22E
100
AcDbEntity
  8
0
100
AcDbLine
 62
7
  6
CONTINUOUS
 10
33.4119335737
 20
117.2925054705
 11
33.4119335737
 21
115.3925054705
  0
LINE
  5
22F
100
AcDbEntity
  8
0
100
AcDbLine
 62
7
  6
CONTINUOUS
 10
33.4119335737
 20
113.1925054705
 11
33.4119335737
 21
111.2925054705
  0
LINE
  5
230
100
AcDbEntity
  8
0
100
AcDbLine
 62
7
  6
CONTINUOUS
 10
33.4119335737
 20
93.5925054705
 11
33.4119335737
 21
95.4925054705
  0
LINE
  5
231
100
AcDbEntity
  8
0
100
AcDbLine
 62
7
  6
CONTINUOUS
 10
33.4119335737
 20
97.6925054705
 11
33.4119335737
 21
99.5925054705
  0
LINE
  5
232
100
AcDbEntity
  8
0
100
AcDbLine
 62
7
  6
CONTINUOUS
 10
34.8119335737
 20
99.5925054705
 11
34.8119335737
 21
97.6925054705
  0
LINE
  5
233
100
AcDbEntity
  8
0
100
AcDbLine
 62
7
  6
CONTINUOUS
 10
34.8119335737
 20
95.4925054705
 11
34.8119335737
 21
93.5925054705
  0
LINE
  5
234
100
AcDbEntity
  8
0
100
AcDbLine
 62
7
  6
CONTINUOUS
 10
34.8119335737
 20
111.2925054705
 11
34.8119335737
 21
113.1925054705
  0
LINE
  5
235
100
AcDbEntity
  8
0
100
AcDbLine
 62
7
  6
CONTINUOUS
 10
34.8119335737
 20
115.3925054705
 11
34.8119335737
 21
117.2925054705
  0
LINE
  5
236
100
AcDbEntity
  8
0
100
AcDbLine
 62
7
  6
CONTINUOUS
 10
34.8119335737
 20
128.9925054705
 11
34.8119335737
 21
130.8925054705
  0
LINE
  5
237
100
AcDbEntity
  8
0
100
AcDbLine
 62
7
  6
CONTINUOUS
 10
34.8119335737
 20
133.0925054705
 11
34.8119335737
 21
134.9925054705
  0
LINE
  5
238
100
AcDbEntity
  8
0
100
AcDbLine
 62
7
  6
CONTINUOUS
 10
35.808601474
 20
97.2925054705
 11
35.808601474
 21
95.8925054705
  0
LINE
  5
239
100
AcDbEntity
  8
0
100
AcDbLine
 62
7
  6
CONTINUOUS
 10
35.808601474
 20
113.5925054705
 11
35.808601474
 21
114.9925054705
  0
LINE
  5
23A
100
AcDbEntity
  8
0
100
AcDbLine
 62
7
  6
CONTINUOUS
 10
35.808601474
 20
131.2925054705
 11
35.808601474
 21
132.6925054705
  0
LINE
  5
23B
100
AcDbEntity
  8
0
100
AcDbLine
 62
7
  6
CONTINUOUS
 10
53.4093185686
 20
87.7425054705
 11
53.4093185686
 21
87.4925054705
  0
LINE
  5
23C
100
AcDbEntity
  8
0
100
AcDbLine
 62
7
  6
CONTINUOUS
 10
68.7265794061
 20
88.3771949543
 11
67.1521607943
 21
88.5752179548
  0
LINE
  5
23D
100
AcDbEntity
  8
0
100
AcDbLine
 62
7
  6
CONTINUOUS
 10
66.2255423494
 20
88.5352820503
 11
68.1612796691
 21
88.2812038714
  0
LINE
  5
23E
100
AcDbEntity
  8
0
100
AcDbLine
 62
7
  6
CONTINUOUS
 10
64.9203029731
 20
88.2812038714
 11
63.0454477946
 21
88.53528205
  0
LINE
  5
23F
100
AcDbEntity
  8
0
100
AcDbLine
 62
7
  6
CONTINUOUS
 10
61.5189546344
 20
88.5753568148
 11
62.9153561865
 21
88.3771949543
  0
LINE
  5
240
100
AcDbEntity
  8
0
100
AcDbLine
 62
7
  6
CONTINUOUS
 10
53.7093185686
 20
87.7425054705
 11
53.7093185686
 21
87.4925054705
  0
LINE
  5
241
100
AcDbEntity
  8
0
100
AcDbLine
 62
7
  6
CONTINUOUS
 10
55.7093185686
 20
87.7425054705
 11
55.7093185686
 21
87.4925054705
  0
LINE
  5
242
100
AcDbEntity
  8
0
100
AcDbLine
 62
7
  6
CONTINUOUS
 10
58.1093185686
 20
87.7425054705
 11
58.1093185686
 21
140.8425054705
  0
LINE
  5
243
100
AcDbEntity
  8
0
100
AcDbLine
 62
7
  6
CONTINUOUS
 10
53.4093185686
 20
87.4925054705
 11
55.7093185686
 21
87.4925054705
  0
LINE
  5
244
100
AcDbEntity
  8
0
100
AcDbLine
 62
7
  6
CONTINUOUS
 10
71.1093185686
 20
87.4925054705
 11
73.1093185686
 21
87.4925054705
  0
LINE
  5
245
100
AcDbEntity
  8
0
100
AcDbLine
 62
7
  6
CONTINUOUS
 10
83.0093185686
 20
87.4925054705
 11
85.0093185686
 21
87.4925054705
  0
LINE
  5
246
100
AcDbEntity
  8
0
100
AcDbLine
 62
7
  6
CONTINUOUS
 10
105.6093185686
 20
87.4925054705
 11
107.6093185686
 21
87.4925054705
  0
LINE
  5
247
100
AcDbEntity
  8
0
100
AcDbLine
 62
7
  6
CONTINUOUS
 10
113.8093185686
 20
87.4925054705
 11
115.8093185686
 21
87.4925054705
  0
LINE
  5
248
100
AcDbEntity
  8
0
100
AcDbLine
 62
7
  6
CONTINUOUS
 10
38.7093185686
 20
87.7425054705
 11
122.4937013075
 21
87.7425054705
  0
LINE
  5
249
100
AcDbEntity
  8
0
100
AcDbLine
 62
7
  6
CONTINUOUS
 10
64.7493564078
 20
88.2634596917
 11
64.9002972707
 21
88.2634596917
  0
LINE
  5
24A
100
AcDbEntity
  8
0
100
AcDbLine
 62
7
  6
CONTINUOUS
 10
68.4474075476
 20
88.2634596917
 11
68.5983484104
 21
88.2634596917
  0
LINE
  5
24B
100
AcDbEntity
  8
0
100
AcDbLine
 62
7
  6
CONTINUOUS
 10
63.0992865859
 20
88.5784188804
 11
65.5247496077
 21
88.5784188804
  0
LINE
  5
24C
100
AcDbEntity
  8
0
100
AcDbLine
 62
7
  6
CONTINUOUS
 10
17.0593185686
 20
88.8425054705
 11
37.6093185686
 21
88.8425054705
  0
LINE
  5
24D
100
AcDbEntity
  8
0
100
AcDbLine
 62
7
  6
CONTINUOUS
 10
123.2141181552
 20
88.8425054705
 11
144.1593185686
 21
88.8425054705
  0
LINE
  5
24E
100
AcDbEntity
  8
0
100
AcDbLine
 62
7
  6
CONTINUOUS
 10
143.6593185686
 20
90.3425054705
 11
135.2093185689
 21
90.3425054705
  0
LINE
  5
24F
100
AcDbEntity
  8
0
100
AcDbLine
 62
7
  6
CONTINUOUS
 10
17.5593185686
 20
90.3425054705
 11
26.0093185681
 21
90.3425054705
  0
LINE
  5
250
100
AcDbEntity
  8
0
100
AcDbLine
 62
7
  6
CONTINUOUS
 10
78.2141673737
 20
91.5925054705
 11
68.7265794061
 21
91.5925054705
  0
LINE
  5
251
100
AcDbEntity
  8
0
100
AcDbLine
 62
7
  6
CONTINUOUS
 10
62.9153561865
 20
88.3771949543
 11
64.7493564078
 21
88.2634596917
  0
LINE
  5
252
100
AcDbEntity
  8
0
100
AcDbLine
 62
7
  6
CONTINUOUS
 10
68.1612796691
 20
88.2812038714
 11
68.4474075476
 21
88.2634596917
  0
LINE
  5
253
100
AcDbEntity
  8
0
100
AcDbLine
 62
7
  6
CONTINUOUS
 10
67.1521607943
 20
88.5752179548
 11
67.143158101
 21
88.5759507325
  0
LINE
  5
254
100
AcDbEntity
  8
0
100
AcDbLine
 62
7
  6
CONTINUOUS
 10
60.103152708
 20
105.4425054705
 11
60.1031565181
 21
140.8425054705
  0
LINE
  5
255
100
AcDbEntity
  8
0
100
AcDbLine
 62
7
  6
CONTINUOUS
 10
60.1056185896
 20
87.7425054705
 11
60.105618309
 21
105.4425054705
  0
LINE
  5
256
100
AcDbEntity
  8
0
100
AcDbLine
 62
7
  6
CONTINUOUS
 10
60.4688997824
 20
131.4425054705
 11
60.4688997824
 21
97.49250555
  0
LINE
  5
257
100
AcDbEntity
  8
0
100
AcDbLine
 62
7
  6
CONTINUOUS
 10
61.4201507569
 20
140.5925054705
 11
61.4201507569
 21
131.4425054705
  0
LINE
  5
258
100
AcDbEntity
  8
0
100
AcDbLine
 62
7
  6
CONTINUOUS
 10
61.4201507569
 20
97.49250555
 11
61.4201507569
 21
88.6805664228
  0
LINE
  5
259
100
AcDbEntity
  8
0
100
AcDbLine
 62
7
  6
CONTINUOUS
 10
61.5576010701
 20
97.49250555
 11
61.5576010701
 21
88.7899809313
  0
LINE
  5
25A
100
AcDbEntity
  8
0
100
AcDbLine
 62
7
  6
CONTINUOUS
 10
61.5576033249
 20
140.5925054705
 11
61.5576033249
 21
131.4425054705
  0
LINE
  5
25B
100
AcDbEntity
  8
0
100
AcDbLine
 62
7
  6
CONTINUOUS
 10
68.7265794061
 20
92.1925054705
 11
69.6025412974
 21
92.1925054705
  0
LINE
  5
25C
100
AcDbEntity
  8
0
100
AcDbLine
 62
7
  6
CONTINUOUS
 10
34.8119335737
 20
93.5925054705
 11
33.4119335737
 21
93.5925054705
  0
LINE
  5
25D
100
AcDbEntity
  8
0
100
AcDbLine
 62
7
  6
CONTINUOUS
 10
126.9093185686
 20
93.5925054705
 11
128.3093185686
 21
93.5925054705
  0
LINE
  5
25E
100
AcDbEntity
  8
0
100
AcDbLine
 62
7
  6
CONTINUOUS
 10
35.808601474
 20
95.8925054705
 11
35.2119335737
 21
95.8925054705
  0
LINE
  5
25F
100
AcDbEntity
  8
0
100
AcDbLine
 62
7
  6
CONTINUOUS
 10
33.0119335737
 20
95.8925054705
 11
32.4152656734
 21
95.8925054705
  0
LINE
  5
260
100
AcDbEntity
  8
0
100
AcDbLine
 62
7
  6
CONTINUOUS
 10
125.9126506683
 20
95.8925054705
 11
126.5093185686
 21
95.8925054705
  0
LINE
  5
261
100
AcDbEntity
  8
0
100
AcDbLine
 62
7
  6
CONTINUOUS
 10
128.7093185686
 20
95.8925054705
 11
129.3059864689
 21
95.8925054705
  0
LINE
  5
262
100
AcDbEntity
  8
0
100
AcDbLine
 62
7
  6
CONTINUOUS
 10
66.0034871097
 20
88.5567906494
 11
66.0048992261
 21
87.7425054705
  0
LINE
  5
263
100
AcDbEntity
  8
0
100
AcDbLine
 62
7
  6
CONTINUOUS
 10
63.0348944508
 20
97.49250555
 11
63.0348944508
 21
131.4425054705
  0
LINE
  5
264
100
AcDbEntity
  8
0
100
AcDbLine
 62
7
  6
CONTINUOUS
 10
63.0454477946
 20
88.5784188804
 11
63.0454477946
 21
88.53528205
  0
LINE
  5
265
100
AcDbEntity
  8
0
100
AcDbLine
 62
7
  6
CONTINUOUS
 10
63.8934743492
 20
140.5925054705
 11
63.8934743492
 21
131.4425054705
  0
LINE
  5
266
100
AcDbEntity
  8
0
100
AcDbLine
 62
7
  6
CONTINUOUS
 10
63.8934854458
 20
97.49250555
 11
63.8934854458
 21
88.789980696
  0
LINE
  5
267
100
AcDbEntity
  8
0
100
AcDbLine
 62
7
  6
CONTINUOUS
 10
64.9203029731
 20
88.5784188804
 11
64.9203029731
 21
88.2812038714
  0
LINE
  5
268
100
AcDbEntity
  8
0
100
AcDbLine
 62
7
  6
CONTINUOUS
 10
66.1010782411
 20
131.4425054705
 11
66.1010782411
 21
97.49250555
  0
LINE
  5
269
100
AcDbEntity
  8
0
100
AcDbLine
 62
7
  6
CONTINUOUS
 10
67.143158101
 20
88.5759507325
 11
67.1431905727
 21
140.5925054705
  0
LINE
  5
26A
100
AcDbEntity
  8
0
100
AcDbLine
 62
7
  6
CONTINUOUS
 10
67.1517055514
 20
140.5925054705
 11
67.1521607943
 21
88.5752179548
  0
LINE
  5
26B
100
AcDbEntity
  8
0
100
AcDbLine
 62
7
  6
CONTINUOUS
 10
66.0047126443
 20
140.5925041541
 11
66.0050585954
 21
140.8425054705
  0
LINE
  5
26C
100
AcDbEntity
  8
0
100
AcDbLine
 62
7
  6
CONTINUOUS
 10
66.0042052229
 20
140.5925054705
 11
66.0050585954
 21
140.8425054705
  0
LINE
  5
26D
100
AcDbEntity
  8
0
100
AcDbLine
 62
7
  6
CONTINUOUS
 10
129.3059864689
 20
97.2925054705
 11
128.7093185686
 21
97.2925054705
  0
LINE
  5
26E
100
AcDbEntity
  8
0
100
AcDbLine
 62
7
  6
CONTINUOUS
 10
126.5093185686
 20
97.2925054705
 11
125.9126506683
 21
97.2925054705
  0
LINE
  5
26F
100
AcDbEntity
  8
0
100
AcDbLine
 62
7
  6
CONTINUOUS
 10
32.4152656734
 20
97.2925054705
 11
33.0119335737
 21
97.2925054705
  0
LINE
  5
270
100
AcDbEntity
  8
0
100
AcDbLine
 62
7
  6
CONTINUOUS
 10
35.2119335737
 20
97.2925054705
 11
35.808601474
 21
97.2925054705
  0
LINE
  5
271
100
AcDbEntity
  8
0
100
AcDbLine
 62
7
  6
CONTINUOUS
 10
60.4688997824
 20
97.49250555
 11
66.1010782411
 21
97.49250555
  0
LINE
  5
272
100
AcDbEntity
  8
0
100
AcDbLine
 62
7
  6
CONTINUOUS
 10
128.3093185686
 20
99.5925054705
 11
126.9093185686
 21
99.5925054705
  0
LINE
  5
273
100
AcDbEntity
  8
0
100
AcDbLine
 62
7
  6
CONTINUOUS
 10
33.4119335737
 20
99.5925054705
 11
34.8119335737
 21
99.5925054705
  0
LINE
  5
274
100
AcDbEntity
  8
0
100
AcDbLine
 62
7
  6
CONTINUOUS
 10
68.7265794061
 20
140.5925054705
 11
68.7265794061
 21
88.3771949543
  0
LINE
  5
275
100
AcDbEntity
  8
0
100
AcDbLine
 62
7
  6
CONTINUOUS
 10
71.1093185686
 20
87.7425054705
 11
71.1093185686
 21
87.4925054705
  0
LINE
  5
276
100
AcDbEntity
  8
0
100
AcDbLine
 62
7
  6
CONTINUOUS
 10
71.2221207821
 20
101.5925054705
 11
71.2221207821
 21
91.5925054705
  0
LINE
  5
277
100
AcDbEntity
  8
0
100
AcDbLine
 62
7
  6
CONTINUOUS
 10
71.2221207821
 20
109.2925054705
 11
71.2221207821
 21
119.2925054705
  0
LINE
  5
278
100
AcDbEntity
  8
0
100
AcDbLine
 62
7
  6
CONTINUOUS
 10
71.2221207821
 20
126.9925054705
 11
71.2221207821
 21
136.9925054705
  0
LINE
  5
279
100
AcDbEntity
  8
0
100
AcDbLine
 62
7
  6
CONTINUOUS
 10
68.7265794061
 20
101.5925054705
 11
78.2141673736
 21
101.5925054705
  0
LINE
  5
27A
100
AcDbEntity
  8
0
100
AcDbLine
 62
7
  6
CONTINUOUS
 10
17.5600267918
 20
102.8425054705
 11
26.0093185684
 21
102.8425054705
  0
LINE
  5
27B
100
AcDbEntity
  8
0
100
AcDbLine
 62
7
  6
CONTINUOUS
 10
135.2093185691
 20
102.8425054705
 11
143.6593185686
 21
102.8425054705
  0
LINE
  5
27C
100
AcDbEntity
  8
0
100
AcDbLine
 62
7
  6
CONTINUOUS
 10
144.1593185686
 20
104.3425054705
 11
123.6316578513
 21
104.3425054705
  0
LINE
  5
27D
100
AcDbEntity
  8
0
100
AcDbLine
 62
7
  6
CONTINUOUS
 10
17.0593185686
 20
104.3425054694
 11
37.6093185648
 21
104.3425054703
  0
LINE
  5
27E
100
AcDbEntity
  8
0
100
AcDbLine
 62
7
  6
CONTINUOUS
 10
60.4688997824
 20
105.4425054705
 11
38.7093185686
 21
105.4425054705
  0
LINE
  5
27F
100
AcDbEntity
  8
0
100
AcDbLine
 62
7
  6
CONTINUOUS
 10
68.7265794061
 20
105.4425054705
 11
122.5937027014
 21
105.4425054705
  0
LINE
  5
280
100
AcDbEntity
  8
0
100
AcDbLine
 62
7
  6
CONTINUOUS
 10
72.8853903258
 20
101.5925054705
 11
72.8853903258
 21
91.5925054705
  0
LINE
  5
281
100
AcDbEntity
  8
0
100
AcDbLine
 62
7
  6
CONTINUOUS
 10
72.8853903258
 20
109.2925054705
 11
72.8853903258
 21
119.2925054705
  0
LINE
  5
282
100
AcDbEntity
  8
0
100
AcDbLine
 62
7
  6
CONTINUOUS
 10
72.8853903258
 20
126.9925054705
 11
72.8853903258
 21
136.9925054705
  0
LINE
  5
283
100
AcDbEntity
  8
0
100
AcDbLine
 62
7
  6
CONTINUOUS
 10
73.1093185686
 20
87.7425054705
 11
73.1093185686
 21
87.4925054705
  0
LINE
  5
284
100
AcDbEntity
  8
0
100
AcDbLine
 62
7
  6
CONTINUOUS
 10
17.0593185686
 20
106.5425054705
 11
37.6093185686
 21
106.5425054705
  0
LINE
  5
285
100
AcDbEntity
  8
0
100
AcDbLine
 62
7
  6
CONTINUOUS
 10
123.2141181552
 20
106.5425054705
 11
144.1593185686
 21
106.5425054705
  0
LINE
  5
286
100
AcDbEntity
  8
0
100
AcDbLine
 62
7
  6
CONTINUOUS
 10
26.0093185683
 20
108.0425054705
 11
17.5593185686
 21
108.0425054705
  0
LINE
  5
287
100
AcDbEntity
  8
0
100
AcDbLine
 62
7
  6
CONTINUOUS
 10
135.2093185688
 20
108.0425054705
 11
143.6593185686
 21
108.0425054705
  0
LINE
  5
288
100
AcDbEntity
  8
0
100
AcDbLine
 62
7
  6
CONTINUOUS
 10
78.2141057493
 20
109.2925054705
 11
68.7265794061
 21
109.2925054705
  0
LINE
  5
289
100
AcDbEntity
  8
0
100
AcDbLine
 62
7
  6
CONTINUOUS
 10
68.7265794061
 20
109.8925054705
 11
69.6025412974
 21
109.8925054705
  0
LINE
  5
28A
100
AcDbEntity
  8
0
100
AcDbLine
 62
7
  6
CONTINUOUS
 10
77.9549430418
 20
136.9925054705
 11
77.9549430418
 21
126.9925054705
  0
LINE
  5
28B
100
AcDbEntity
  8
0
100
AcDbLine
 62
7
  6
CONTINUOUS
 10
77.9549430418
 20
119.2925054705
 11
77.9549430418
 21
109.2925054705
  0
LINE
  5
28C
100
AcDbEntity
  8
0
100
AcDbLine
 62
7
  6
CONTINUOUS
 10
77.9549430418
 20
101.5925054705
 11
77.9549430418
 21
91.5925054705
  0
LINE
  5
28D
100
AcDbEntity
  8
0
100
AcDbLine
 62
7
  6
CONTINUOUS
 10
78.1920674442
 20
101.5925054705
 11
78.1920674442
 21
91.5925054705
  0
LINE
  5
28E
100
AcDbEntity
  8
0
100
AcDbLine
 62
7
  6
CONTINUOUS
 10
78.1920674442
 20
109.2925054705
 11
78.1920674442
 21
119.2925054705
  0
LINE
  5
28F
100
AcDbEntity
  8
0
100
AcDbLine
 62
7
  6
CONTINUOUS
 10
78.1920674442
 20
126.9925054705
 11
78.1920674442
 21
136.9925054705
  0
LINE
  5
290
100
AcDbEntity
  8
0
100
AcDbLine
 62
7
  6
CONTINUOUS
 10
78.2141822259
 20
101.5925055049
 11
78.2137521528
 21
105.4425054705
  0
LINE
  5
291
100
AcDbEntity
  8
0
100
AcDbLine
 62
7
  6
CONTINUOUS
 10
78.2142002913
 20
136.9925054705
 11
78.2142002912
 21
126.9925054705
  0
LINE
  5
292
100
AcDbEntity
  8
0
100
AcDbLine
 62
7
  6
CONTINUOUS
 10
78.2142002913
 20
119.2925054705
 11
78.2142002912
 21
109.2925054705
  0
LINE
  5
293
100
AcDbEntity
  8
0
100
AcDbLine
 62
7
  6
CONTINUOUS
 10
78.21410813
 20
119.2925054511
 11
78.2137185394
 21
123.1425054705
  0
LINE
  5
294
100
AcDbEntity
  8
0
100
AcDbLine
 62
7
  6
CONTINUOUS
 10
78.21410813
 20
136.9925054511
 11
78.2137185394
 21
140.8425054705
  0
LINE
  5
295
100
AcDbEntity
  8
0
100
AcDbLine
 62
7
  6
CONTINUOUS
 10
78.2137185391
 20
123.1425054705
 11
78.2141081297
 21
126.9925054705
  0
LINE
  5
296
100
AcDbEntity
  8
0
100
AcDbLine
 62
7
  6
CONTINUOUS
 10
78.2137185391
 20
105.4425054705
 11
78.2141081297
 21
109.2925054705
  0
LINE
  5
297
100
AcDbEntity
  8
0
100
AcDbLine
 62
7
  6
CONTINUOUS
 10
78.2137521491
 20
87.7425054705
 11
78.2141822259
 21
101.5925055049
  0
LINE
  5
298
100
AcDbEntity
  8
0
100
AcDbLine
 62
7
  6
CONTINUOUS
 10
128.3093185686
 20
111.2925054705
 11
126.9093185686
 21
111.2925054705
  0
LINE
  5
299
100
AcDbEntity
  8
0
100
AcDbLine
 62
7
  6
CONTINUOUS
 10
33.4119335737
 20
111.2925054705
 11
34.8119335737
 21
111.2925054705
  0
LINE
  5
29A
100
AcDbEntity
  8
0
100
AcDbLine
 62
7
  6
CONTINUOUS
 10
129.3059864689
 20
113.5925054705
 11
128.7093185686
 21
113.5925054705
  0
LINE
  5
29B
100
AcDbEntity
  8
0
100
AcDbLine
 62
7
  6
CONTINUOUS
 10
126.5093185686
 20
113.5925054705
 11
125.9126506683
 21
113.5925054705
  0
LINE
  5
29C
100
AcDbEntity
  8
0
100
AcDbLine
 62
7
  6
CONTINUOUS
 10
32.4152656734
 20
113.5925054705
 11
33.0119335737
 21
113.5925054705
  0
LINE
  5
29D
100
AcDbEntity
  8
0
100
AcDbLine
 62
7
  6
CONTINUOUS
 10
35.2119335737
 20
113.5925054705
 11
35.808601474
 21
113.5925054705
  0
LINE
  5
29E
100
AcDbEntity
  8
0
100
AcDbLine
 62
7
  6
CONTINUOUS
 10
83.0093185686
 20
87.7425054705
 11
83.0093185686
 21
87.4925054705
  0
LINE
  5
29F
100
AcDbEntity
  8
0
100
AcDbLine
 62
7
  6
CONTINUOUS
 10
85.0093185686
 20
87.7425054705
 11
85.0093185686
 21
87.4925054705
  0
LINE
  5
2A0
100
AcDbEntity
  8
0
100
AcDbLine
 62
7
  6
CONTINUOUS
 10
62.9279317796
 20
88.5633385536
 11
62.9321452683
 21
88.5676715046
  0
LINE
  5
2A1
100
AcDbEntity
  8
0
100
AcDbLine
 62
7
  6
CONTINUOUS
 10
35.808601474
 20
114.9925054705
 11
35.2119335737
 21
114.9925054705
  0
LINE
  5
2A2
100
AcDbEntity
  8
0
100
AcDbLine
 62
7
  6
CONTINUOUS
 10
33.0119335737
 20
114.9925054705
 11
32.4152656734
 21
114.9925054705
  0
LINE
  5
2A3
100
AcDbEntity
  8
0
100
AcDbLine
 62
7
  6
CONTINUOUS
 10
125.9126506683
 20
114.9925054705
 11
126.5093185686
 21
114.9925054705
  0
LINE
  5
2A4
100
AcDbEntity
  8
0
100
AcDbLine
 62
7
  6
CONTINUOUS
 10
128.7093185686
 20
114.9925054705
 11
129.3059864689
 21
114.9925054705
  0
LINE
  5
2A5
100
AcDbEntity
  8
0
100
AcDbLine
 62
7
  6
CONTINUOUS
 10
34.8119335737
 20
117.2925054705
 11
33.4119335737
 21
117.2925054705
  0
LINE
  5
2A6
100
AcDbEntity
  8
0
100
AcDbLine
 62
7
  6
CONTINUOUS
 10
126.9093185686
 20
117.2925054705
 11
128.3093185686
 21
117.2925054705
  0
LINE
  5
2A7
100
AcDbEntity
  8
0
100
AcDbLine
 62
7
  6
CONTINUOUS
 10
68.7265794061
 20
119.2925054705
 11
78.2141057489
 21
119.2925054705
  0
LINE
  5
2A8
100
AcDbEntity
  8
0
100
AcDbLine
 62
7
  6
CONTINUOUS
 10
64.9002972707
 20
88.2634596917
 11
64.9203029731
 21
88.2812038714
  0
LINE
  5
2A9
100
AcDbEntity
  8
0
100
AcDbLine
 62
7
  6
CONTINUOUS
 10
17.5604224076
 20
120.5425054705
 11
26.0093185684
 21
120.5425054705
  0
LINE
  5
2AA
100
AcDbEntity
  8
0
100
AcDbLine
 62
7
  6
CONTINUOUS
 10
135.209318569
 20
120.5425054705
 11
143.6593185686
 21
120.5425054705
  0
LINE
  5
2AB
100
AcDbEntity
  8
0
100
AcDbLine
 62
7
  6
CONTINUOUS
 10
37.6093185662
 20
122.0425054705
 11
17.0593185686
 21
122.0425054694
  0
LINE
  5
2AC
100
AcDbEntity
  8
0
100
AcDbLine
 62
7
  6
CONTINUOUS
 10
123.6316578513
 20
122.0425054705
 11
144.1593185686
 21
122.0425054705
  0
LINE
  5
2AD
100
AcDbEntity
  8
0
100
AcDbLine
 62
7
  6
CONTINUOUS
 10
60.4688997824
 20
123.1425054705
 11
38.7093185686
 21
123.1425054705
  0
LINE
  5
2AE
100
AcDbEntity
  8
0
100
AcDbLine
 62
7
  6
CONTINUOUS
 10
68.7265794061
 20
123.1425054705
 11
122.5937027014
 21
123.1425054705
  0
LINE
  5
2AF
100
AcDbEntity
  8
0
100
AcDbLine
 62
7
  6
CONTINUOUS
 10
68.5983484104
 20
88.2634596917
 11
68.7265794061
 21
88.3771949543
  0
LINE
  5
2B0
100
AcDbEntity
  8
0
100
AcDbLine
 62
7
  6
CONTINUOUS
 10
17.0593185686
 20
124.2425054705
 11
37.6093185686
 21
124.2425054705
  0
LINE
  5
2B1
100
AcDbEntity
  8
0
100
AcDbLine
 62
7
  6
CONTINUOUS
 10
123.2141181552
 20
124.2425054705
 11
144.1593185686
 21
124.2425054705
  0
LINE
  5
2B2
100
AcDbEntity
  8
0
100
AcDbLine
 62
7
  6
CONTINUOUS
 10
26.0093185683
 20
125.7425054705
 11
17.5593185686
 21
125.7425054705
  0
LINE
  5
2B3
100
AcDbEntity
  8
0
100
AcDbLine
 62
7
  6
CONTINUOUS
 10
135.2093185688
 20
125.7425054705
 11
143.6593185686
 21
125.7425054705
  0
LINE
  5
2B4
100
AcDbEntity
  8
0
100
AcDbLine
 62
7
  6
CONTINUOUS
 10
78.2141057493
 20
126.9925054705
 11
68.7265794061
 21
126.9925054705
  0
LINE
  5
2B5
100
AcDbEntity
  8
0
100
AcDbLine
 62
7
  6
CONTINUOUS
 10
68.7265794061
 20
127.5925054705
 11
69.6025412974
 21
127.5925054705
  0
LINE
  5
2B6
100
AcDbEntity
  8
0
100
AcDbLine
 62
7
  6
CONTINUOUS
 10
128.3093185686
 20
128.9925054705
 11
126.9093185686
 21
128.9925054705
  0
LINE
  5
2B7
100
AcDbEntity
  8
0
100
AcDbLine
 62
7
  6
CONTINUOUS
 10
33.4119335737
 20
128.9925054705
 11
34.8119335737
 21
128.9925054705
  0
LINE
  5
2B8
100
AcDbEntity
  8
0
100
AcDbLine
 62
7
  6
CONTINUOUS
 10
129.3059864689
 20
131.2925054705
 11
128.7093185686
 21
131.2925054705
  0
LINE
  5
2B9
100
AcDbEntity
  8
0
100
AcDbLine
 62
7
  6
CONTINUOUS
 10
126.5093185686
 20
131.2925054705
 11
125.9126506683
 21
131.2925054705
  0
LINE
  5
2BA
100
AcDbEntity
  8
0
100
AcDbLine
 62
7
  6
CONTINUOUS
 10
32.4152656734
 20
131.2925054705
 11
33.0119335737
 21
131.2925054705
  0
LINE
  5
2BB
100
AcDbEntity
  8
0
100
AcDbLine
 62
7
  6
CONTINUOUS
 10
35.2119335737
 20
131.2925054705
 11
35.808601474
 21
131.2925054705
  0
LINE
  5
2BC
100
AcDbEntity
  8
0
100
AcDbLine
 62
7
  6
CONTINUOUS
 10
66.1010782411
 20
131.4425054705
 11
60.4688997824
 21
131.4425054705
  0
LINE
  5
2BD
100
AcDbEntity
  8
0
100
AcDbLine
 62
7
  6
CONTINUOUS
 10
35.808601474
 20
132.6925054705
 11
35.2119335737
 21
132.6925054705
  0
LINE
  5
2BE
100
AcDbEntity
  8
0
100
AcDbLine
 62
7
  6
CONTINUOUS
 10
33.0119335737
 20
132.6925054705
 11
32.4152656734
 21
132.6925054705
  0
LINE
  5
2BF
100
AcDbEntity
  8
0
100
AcDbLine
 62
7
  6
CONTINUOUS
 10
125.9126506683
 20
132.6925054705
 11
126.5093185686
 21
132.6925054705
  0
LINE
  5
2C0
100
AcDbEntity
  8
0
100
AcDbLine
 62
7
  6
CONTINUOUS
 10
128.7093185686
 20
132.6925054705
 11
129.3059864689
 21
132.6925054705
  0
LINE
  5
2C1
100
AcDbEntity
  8
0
100
AcDbLine
 62
7
  6
CONTINUOUS
 10
101.1130187288
 20
105.4425054705
 11
101.1130190095
 21
87.7425054705
  0
LINE
  5
2C2
100
AcDbEntity
  8
0
100
AcDbLine
 62
7
  6
CONTINUOUS
 10
101.1154933567
 20
140.8425054705
 11
101.1154895328
 21
105.4425054705
  0
LINE
  5
2C3
100
AcDbEntity
  8
0
100
AcDbLine
 62
7
  6
CONTINUOUS
 10
103.1093185686
 20
140.8425054705
 11
103.1093185686
 21
87.7425054705
  0
LINE
  5
2C4
100
AcDbEntity
  8
0
100
AcDbLine
 62
7
  6
CONTINUOUS
 10
34.8119335737
 20
134.9925054705
 11
33.4119335737
 21
134.9925054705
  0
LINE
  5
2C5
100
AcDbEntity
  8
0
100
AcDbLine
 62
7
  6
CONTINUOUS
 10
126.9093185686
 20
134.9925054705
 11
128.3093185686
 21
134.9925054705
  0
LINE
  5
2C6
100
AcDbEntity
  8
0
100
AcDbLine
 62
7
  6
CONTINUOUS
 10
68.7265794061
 20
136.9925054705
 11
78.2141057489
 21
136.9925054705
  0
LINE
  5
2C7
100
AcDbEntity
  8
0
100
AcDbLine
 62
7
  6
CONTINUOUS
 10
105.6093185686
 20
87.7425054705
 11
105.6093185686
 21
87.4925054705
  0
LINE
  5
2C8
100
AcDbEntity
  8
0
100
AcDbLine
 62
7
  6
CONTINUOUS
 10
107.6093185686
 20
87.7425054705
 11
107.6093185686
 21
87.4925054705
  0
LINE
  5
2C9
100
AcDbEntity
  8
0
100
AcDbLine
 62
7
  6
CONTINUOUS
 10
17.5604224076
 20
138.2425054705
 11
26.0093185684
 21
138.2425054705
  0
LINE
  5
2CA
100
AcDbEntity
  8
0
100
AcDbLine
 62
7
  6
CONTINUOUS
 10
135.209318569
 20
138.2425054705
 11
143.6593185686
 21
138.2425054705
  0
LINE
  5
2CB
100
AcDbEntity
  8
0
100
AcDbLine
 62
7
  6
CONTINUOUS
 10
37.6093185662
 20
139.7425054705
 11
17.0593185686
 21
139.7425054694
  0
LINE
  5
2CC
100
AcDbEntity
  8
0
100
AcDbLine
 62
7
  6
CONTINUOUS
 10
123.6316578513
 20
139.7425054705
 11
144.1593185686
 21
139.7425054705
  0
LINE
  5
2CD
100
AcDbEntity
  8
0
100
AcDbLine
 62
7
  6
CONTINUOUS
 10
68.7265794061
 20
140.5925054705
 11
61.4201691357
 21
140.5925054705
  0
LINE
  5
2CE
100
AcDbEntity
  8
0
100
AcDbLine
 62
7
  6
CONTINUOUS
 10
122.5937027014
 20
140.8425054705
 11
38.7093185686
 21
140.8425054705
  0
LINE
  5
2CF
100
AcDbEntity
  8
0
100
AcDbLine
 62
7
  6
CONTINUOUS
 10
113.8093185686
 20
87.7425054705
 11
113.8093185686
 21
87.4925054705
  0
LINE
  5
2D0
100
AcDbEntity
  8
0
100
AcDbLine
 62
7
  6
CONTINUOUS
 10
115.8093185686
 20
87.7425054705
 11
115.8093185686
 21
87.4925054705
  0
LINE
  5
2D1
100
AcDbEntity
  8
0
100
AcDbLine
 62
7
  6
CONTINUOUS
 10
125.9126506683
 20
97.2925054705
 11
125.9126506683
 21
95.8925054705
  0
LINE
  5
2D2
100
AcDbEntity
  8
0
100
AcDbLine
 62
7
  6
CONTINUOUS
 10
125.9126506683
 20
113.5925054705
 11
125.9126506683
 21
114.9925054705
  0
LINE
  5
2D3
100
AcDbEntity
  8
0
100
AcDbLine
 62
7
  6
CONTINUOUS
 10
125.9126506683
 20
131.2925054705
 11
125.9126506683
 21
132.6925054705
  0
LINE
  5
2D4
100
AcDbEntity
  8
0
100
AcDbLine
 62
7
  6
CONTINUOUS
 10
126.9093185686
 20
99.5925054705
 11
126.9093185686
 21
97.6925054705
  0
LINE
  5
2D5
100
AcDbEntity
  8
0
100
AcDbLine
 62
7
  6
CONTINUOUS
 10
126.9093185686
 20
95.4925054705
 11
126.9093185686
 21
93.5925054705
  0
LINE
  5
2D6
100
AcDbEntity
  8
0
100
AcDbLine
 62
7
  6
CONTINUOUS
 10
126.9093185686
 20
111.2925054705
 11
126.9093185686
 21
113.1925054705
  0
LINE
  5
2D7
100
AcDbEntity
  8
0
100
AcDbLine
 62
7
  6
CONTINUOUS
 10
126.9093185686
 20
115.3925054705
 11
126.9093185686
 21
117.2925054705
  0
LINE
  5
2D8
100
AcDbEntity
  8
0
100
AcDbLine
 62
7
  6
CONTINUOUS
 10
126.9093185686
 20
128.9925054705
 11
126.9093185686
 21
130.8925054705
  0
LINE
  5
2D9
100
AcDbEntity
  8
0
100
AcDbLine
 62
7
  6
CONTINUOUS
 10
126.9093185686
 20
133.0925054705
 11
126.9093185686
 21
134.9925054705
  0
LINE
  5
2DA
100
AcDbEntity
  8
0
100
AcDbLine
 62
7
  6
CONTINUOUS
 10
128.3093185686
 20
134.9925054705
 11
128.3093185686
 21
133.0925054705
  0
LINE
  5
2DB
100
AcDbEntity
  8
0
100
AcDbLine
 62
7
  6
CONTINUOUS
 10
128.3093185686
 20
130.8925054705
 11
128.3093185686
 21
128.9925054705
  0
LINE
  5
2DC
100
AcDbEntity
  8
0
100
AcDbLine
 62
7
  6
CONTINUOUS
 10
128.3093185686
 20
117.2925054705
 11
128.3093185686
 21
115.3925054705
  0
LINE
  5
2DD
100
AcDbEntity
  8
0
100
AcDbLine
 62
7
  6
CONTINUOUS
 10
128.3093185686
 20
113.1925054705
 11
128.3093185686
 21
111.2925054705
  0
LINE
  5
2DE
100
AcDbEntity
  8
0
100
AcDbLine
 62
7
  6
CONTINUOUS
 10
128.3093185686
 20
93.5925054705
 11
128.3093185686
 21
95.4925054705
  0
LINE
  5
2DF
100
AcDbEntity
  8
0
100
AcDbLine
 62
7
  6
CONTINUOUS
 10
128.3093185686
 20
97.6925054705
 11
128.3093185686
 21
99.5925054705
  0
LINE
  5
2E0
100
AcDbEntity
  8
0
100
AcDbLine
 62
7
  6
CONTINUOUS
 10
129.3059864689
 20
132.6925054705
 11
129.3059864689
 21
131.2925054705
  0
LINE
  5
2E1
100
AcDbEntity
  8
0
100
AcDbLine
 62
7
  6
CONTINUOUS
 10
129.3059864689
 20
114.9925054705
 11
129.3059864689
 21
113.5925054705
  0
LINE
  5
2E2
100
AcDbEntity
  8
0
100
AcDbLine
 62
7
  6
CONTINUOUS
 10
129.3059864689
 20
95.8925054705
 11
129.3059864689
 21
97.2925054705
  0
LINE
  5
2E3
100
AcDbEntity
  8
0
100
AcDbLine
 62
7
  6
CONTINUOUS
 10
134.0093185686
 20
101.6425054705
 11
134.0093185686
 21
91.5425054705
  0
LINE
  5
2E4
100
AcDbEntity
  8
0
100
AcDbLine
 62
7
  6
CONTINUOUS
 10
134.0093185686
 20
109.2425054705
 11
134.0093185686
 21
119.3425054705
  0
LINE
  5
2E5
100
AcDbEntity
  8
0
100
AcDbLine
 62
7
  6
CONTINUOUS
 10
134.0093185686
 20
126.9425054705
 11
134.0093185686
 21
137.0425054705
  0
LINE
  5
2E6
100
AcDbEntity
  8
0
100
AcDbLine
 62
7
  6
CONTINUOUS
 10
140.5093185686
 20
136.2425054705
 11
140.5093185686
 21
127.7425054705
  0
LINE
  5
2E7
100
AcDbEntity
  8
0
100
AcDbLine
 62
7
  6
CONTINUOUS
 10
140.5093185686
 20
118.5425054705
 11
140.5093185686
 21
110.0425054705
  0
LINE
  5
2E8
100
AcDbEntity
  8
0
100
AcDbLine
 62
7
  6
CONTINUOUS
 10
140.5093185686
 20
92.3425054705
 11
140.5093185686
 21
100.8425054705
  0
LINE
  5
2E9
100
AcDbEntity
  8
0
100
AcDbLine
 62
7
  6
CONTINUOUS
 10
141.6593185686
 20
88.8425054705
 11
141.6593185686
 21
90.3425054705
  0
LINE
  5
2EA
100
AcDbEntity
  8
0
100
AcDbLine
 62
7
  6
CONTINUOUS
 10
141.6593185686
 20
102.8425054705
 11
141.6593185686
 21
104.3425054705
  0
LINE
  5
2EB
100
AcDbEntity
  8
0
100
AcDbLine
 62
7
  6
CONTINUOUS
 10
141.6593185686
 20
106.5425054705
 11
141.6593185686
 21
108.0425054705
  0
LINE
  5
2EC
100
AcDbEntity
  8
0
100
AcDbLine
 62
7
  6
CONTINUOUS
 10
141.6593185686
 20
120.5425054705
 11
141.6593185686
 21
122.0425054705
  0
LINE
  5
2ED
100
AcDbEntity
  8
0
100
AcDbLine
 62
7
  6
CONTINUOUS
 10
141.6593185686
 20
124.2425054705
 11
141.6593185686
 21
125.7425054705
  0
LINE
  5
2EE
100
AcDbEntity
  8
0
100
AcDbLine
 62
7
  6
CONTINUOUS
 10
141.6593185686
 20
138.2425054705
 11
141.6593185686
 21
139.7425054705
  0
LINE
  5
2EF
100
AcDbEntity
  8
0
100
AcDbLine
 62
7
  6
CONTINUOUS
 10
144.1593185686
 20
139.7425054705
 11
144.1593185686
 21
138.7425054705
  0
LINE
  5
2F0
100
AcDbEntity
  8
0
100
AcDbLine
 62
7
  6
CONTINUOUS
 10
144.1593185686
 20
125.2425054705
 11
144.1593185686
 21
124.2425054705
  0
LINE
  5
2F1
100
AcDbEntity
  8
0
100
AcDbLine
 62
7
  6
CONTINUOUS
 10
144.1593185686
 20
122.0425054705
 11
144.1593185686
 21
121.0425054705
  0
LINE
  5
2F2
100
AcDbEntity
  8
0
100
AcDbLine
 62
7
  6
CONTINUOUS
 10
144.1593185686
 20
107.5425054705
 11
144.1593185686
 21
106.5425054705
  0
LINE
  5
2F3
100
AcDbEntity
  8
0
100
AcDbLine
 62
7
  6
CONTINUOUS
 10
144.1593185686
 20
104.3425054705
 11
144.1593185686
 21
103.3425054705
  0
LINE
  5
2F4
100
AcDbEntity
  8
0
100
AcDbLine
 62
7
  6
CONTINUOUS
 10
144.1593185686
 20
89.8425054705
 11
144.1593185686
 21
88.8425054705
  0
ARC
  5
2F5
100
AcDbEntity
  8
0
100
AcDbCircle
 62
7
  6
CONTINUOUS
 10
54.3980422068
 20
-80.1589428816
 40
169.2155498236
100
AcDbArc
 50
85.6804587197
 51
86.7831837344
  0
ARC
  5
2F6
100
AcDbEntity
  8
0
100
AcDbCircle
 62
7
  6
CONTINUOUS
 10
19.2119335737
 20
100.8425054705
 40
2.0
100
AcDbArc
 50
0.0
 51
80.202922832
  0
ARC
  5
2F7
100
AcDbEntity
  8
0
100
AcDbCircle
 62
7
  6
CONTINUOUS
 10
19.2119335737
 20
92.3425054705
 40
2.0
100
AcDbArc
 50
279.7968960173
 51
360.0
  0
ARC
  5
2F8
100
AcDbEntity
  8
0
100
AcDbCircle
 62
7
  6
CONTINUOUS
 10
19.2119335737
 20
110.0425054705
 40
2.0
100
AcDbArc
 50
279.796896019
 51
360.0
  0
ARC
  5
2F9
100
AcDbEntity
  8
0
100
AcDbCircle
 62
7
  6
CONTINUOUS
 10
26.0093185686
 20
101.6425054705
 40
1.2
100
AcDbArc
 50
0.0
 51
90.0000000124
  0
ARC
  5
2FA
100
AcDbEntity
  8
0
100
AcDbCircle
 62
7
  6
CONTINUOUS
 10
26.0093185686
 20
91.5425054705
 40
1.2
100
AcDbArc
 50
269.9999999747
 51
360.0
  0
ARC
  5
2FB
100
AcDbEntity
  8
0
100
AcDbCircle
 62
7
  6
CONTINUOUS
 10
26.0093185686
 20
109.2425054705
 40
1.2
100
AcDbArc
 50
269.9999999747
 51
360.0
  0
ARC
  5
2FC
100
AcDbEntity
  8
0
100
AcDbCircle
 62
7
  6
CONTINUOUS
 10
17.5593185686
 20
103.3425054705
 40
0.5
100
AcDbArc
 50
180.0
 51
270.1500234992
  0
ARC
  5
2FD
100
AcDbEntity
  8
0
100
AcDbCircle
 62
7
  6
CONTINUOUS
 10
17.5593185686
 20
89.8425054705
 40
0.5
100
AcDbArc
 50
90.0
 51
180.0
  0
ARC
  5
2FE
100
AcDbEntity
  8
0
100
AcDbCircle
 62
7
  6
CONTINUOUS
 10
17.5593185686
 20
107.5425054705
 40
0.5
100
AcDbArc
 50
90.0
 51
180.0
  0
ARC
  5
2FF
100
AcDbEntity
  8
0
100
AcDbCircle
 62
7
  6
CONTINUOUS
 10
19.2119335737
 20
118.5425054705
 40
2.0
100
AcDbArc
 50
0.0
 51
80.202922832
  0
ARC
  5
300
100
AcDbEntity
  8
0
100
AcDbCircle
 62
7
  6
CONTINUOUS
 10
19.2119335737
 20
136.2425054705
 40
2.0
100
AcDbArc
 50
0.0
 51
80.202922832
  0
ARC
  5
301
100
AcDbEntity
  8
0
100
AcDbCircle
 62
7
  6
CONTINUOUS
 10
19.2119335737
 20
127.7425054705
 40
2.0
100
AcDbArc
 50
279.796896019
 51
360.0
  0
ARC
  5
302
100
AcDbEntity
  8
0
100
AcDbCircle
 62
7
  6
CONTINUOUS
 10
26.0093185686
 20
119.3425054705
 40
1.2
100
AcDbArc
 50
0.0
 51
90.0000000124
  0
ARC
  5
303
100
AcDbEntity
  8
0
100
AcDbCircle
 62
7
  6
CONTINUOUS
 10
26.0093185686
 20
137.0425054705
 40
1.2
100
AcDbArc
 50
0.0
 51
90.0000000124
  0
ARC
  5
304
100
AcDbEntity
  8
0
100
AcDbCircle
 62
7
  6
CONTINUOUS
 10
26.0093185686
 20
126.9425054705
 40
1.2
100
AcDbArc
 50
269.9999999747
 51
360.0
  0
ARC
  5
305
100
AcDbEntity
  8
0
100
AcDbCircle
 62
7
  6
CONTINUOUS
 10
17.5593185686
 20
121.0425054705
 40
0.5
100
AcDbArc
 50
180.0
 51
270.174336319
  0
ARC
  5
306
100
AcDbEntity
  8
0
100
AcDbCircle
 62
7
  6
CONTINUOUS
 10
17.5593185686
 20
125.2425054705
 40
0.5
100
AcDbArc
 50
90.0
 51
180.0
  0
ARC
  5
307
100
AcDbEntity
  8
0
100
AcDbCircle
 62
7
  6
CONTINUOUS
 10
17.5593185686
 20
138.7425054705
 40
0.5
100
AcDbArc
 50
180.0
 51
270.174336319
  0
CIRCLE
  5
308
100
AcDbEntity
  8
0
100
AcDbCircle
 62
7
  6
CONTINUOUS
 10
34.1119335737
 20
96.5925054705
 40
4.8
  0
ARC
  5
309
100
AcDbEntity
  8
0
100
AcDbCircle
 62
7
  6
CONTINUOUS
 10
34.1119335737
 20
96.5925054705
 40
4.7
100
AcDbArc
 50
320.5662961456
 51
340.7721501487
  0
ARC
  5
30A
100
AcDbEntity
  8
0
100
AcDbCircle
 62
7
  6
CONTINUOUS
 10
34.1119335737
 20
96.5925054705
 40
4.7
100
AcDbArc
 50
294.2194564592
 51
314.2166024262
  0
ARC
  5
30B
100
AcDbEntity
  8
0
100
AcDbCircle
 62
7
  6
CONTINUOUS
 10
34.1119335737
 20
96.5925054705
 40
4.7
100
AcDbArc
 50
251.7762702378
 51
288.0853823144
  0
ARC
  5
30C
100
AcDbEntity
  8
0
100
AcDbCircle
 62
7
  6
CONTINUOUS
 10
34.1119335737
 20
96.5925054705
 40
4.7
100
AcDbArc
 50
225.4736725322
 51
245.6254204418
  0
ARC
  5
30D
100
AcDbEntity
  8
0
100
AcDbCircle
 62
7
  6
CONTINUOUS
 10
34.1119335737
 20
96.5925054705
 40
4.7
100
AcDbArc
 50
198.6270600054
 51
219.4790013254
  0
ARC
  5
30E
100
AcDbEntity
  8
0
100
AcDbCircle
 62
7
  6
CONTINUOUS
 10
34.1119335737
 20
96.5925054705
 40
4.7
100
AcDbArc
 50
167.9792487593
 51
192.1380783642
  0
ARC
  5
30F
100
AcDbEntity
  8
0
100
AcDbCircle
 62
7
  6
CONTINUOUS
 10
34.1119335737
 20
96.5925054705
 40
4.7
100
AcDbArc
 50
140.5662961456
 51
160.7721501488
  0
ARC
  5
310
100
AcDbEntity
  8
0
100
AcDbCircle
 62
7
  6
CONTINUOUS
 10
34.1119335737
 20
96.5925054705
 40
4.7
100
AcDbArc
 50
114.2194564592
 51
134.2166024262
  0
ARC
  5
311
100
AcDbEntity
  8
0
100
AcDbCircle
 62
7
  6
CONTINUOUS
 10
34.1119335737
 20
96.5925054705
 40
4.7
100
AcDbArc
 50
71.7762702378
 51
108.0853823144
  0
ARC
  5
312
100
AcDbEntity
  8
0
100
AcDbCircle
 62
7
  6
CONTINUOUS
 10
34.1119335737
 20
96.5925054705
 40
4.7
100
AcDbArc
 50
45.4736725322
 51
65.6254204418
  0
ARC
  5
313
100
AcDbEntity
  8
0
100
AcDbCircle
 62
7
  6
CONTINUOUS
 10
34.1119335737
 20
96.5925054705
 40
4.7
100
AcDbArc
 50
18.6270600054
 51
39.4790013254
  0
ARC
  5
314
100
AcDbEntity
  8
0
100
AcDbCircle
 62
7
  6
CONTINUOUS
 10
34.1119335737
 20
96.5925054705
 40
4.7
100
AcDbArc
 50
347.9792487593
 51
12.1380783642
  0
ARC
  5
315
100
AcDbEntity
  8
0
100
AcDbCircle
 62
7
  6
CONTINUOUS
 10
37.6093185686
 20
87.7425054705
 40
1.1
100
AcDbArc
 50
0.0
 51
90.0
  0
ARC
  5
316
100
AcDbEntity
  8
0
100
AcDbCircle
 62
7
  6
CONTINUOUS
 10
37.6093185686
 20
105.4425054705
 40
1.1
100
AcDbArc
 50
269.9999997987
 51
90.0
  0
ARC
  5
317
100
AcDbEntity
  8
0
100
AcDbCircle
 62
7
  6
CONTINUOUS
 10
35.2119335737
 20
113.1925054705
 40
0.4
100
AcDbArc
 50
90.0
 51
180.0
  0
ARC
  5
318
100
AcDbEntity
  8
0
100
AcDbCircle
 62
7
  6
CONTINUOUS
 10
33.0119335737
 20
113.1925054705
 40
0.4
100
AcDbArc
 50
0.0
 51
90.0
  0
ARC
  5
319
100
AcDbEntity
  8
0
100
AcDbCircle
 62
7
  6
CONTINUOUS
 10
35.2119335737
 20
97.6925054705
 40
0.4
100
AcDbArc
 50
180.0
 51
270.0
  0
ARC
  5
31A
100
AcDbEntity
  8
0
100
AcDbCircle
 62
7
  6
CONTINUOUS
 10
35.2119335737
 20
95.4925054705
 40
0.4
100
AcDbArc
 50
90.0
 51
180.0
  0
ARC
  5
31B
100
AcDbEntity
  8
0
100
AcDbCircle
 62
7
  6
CONTINUOUS
 10
33.0119335737
 20
95.4925054705
 40
0.4
100
AcDbArc
 50
0.0
 51
90.0
  0
ARC
  5
31C
100
AcDbEntity
  8
0
100
AcDbCircle
 62
7
  6
CONTINUOUS
 10
33.0119335737
 20
97.6925054705
 40
0.4
100
AcDbArc
 50
270.0
 51
360.0
  0
CIRCLE
  5
31D
100
AcDbEntity
  8
0
100
AcDbCircle
 62
7
  6
CONTINUOUS
 10
34.1119335737
 20
114.2925054705
 40
4.8
  0
ARC
  5
31E
100
AcDbEntity
  8
0
100
AcDbCircle
 62
7
  6
CONTINUOUS
 10
34.1119335737
 20
114.2925054705
 40
4.7
100
AcDbArc
 50
320.5662962501
 51
340.7721514415
  0
ARC
  5
31F
100
AcDbEntity
  8
0
100
AcDbCircle
 62
7
  6
CONTINUOUS
 10
34.1119335737
 20
114.2925054705
 40
4.7
100
AcDbArc
 50
294.2194566988
 51
314.2166027172
  0
ARC
  5
320
100
AcDbEntity
  8
0
100
AcDbCircle
 62
7
  6
CONTINUOUS
 10
34.1119335737
 20
114.2925054705
 40
4.7
100
AcDbArc
 50
251.7762705349
 51
288.0853824226
  0
ARC
  5
321
100
AcDbEntity
  8
0
100
AcDbCircle
 62
7
  6
CONTINUOUS
 10
34.1119335737
 20
114.2925054705
 40
4.7
100
AcDbArc
 50
225.4736728211
 51
245.6254201855
  0
ARC
  5
322
100
AcDbEntity
  8
0
100
AcDbCircle
 62
7
  6
CONTINUOUS
 10
34.1119335737
 20
114.2925054705
 40
4.7
100
AcDbArc
 50
198.627059053
 51
219.4790010851
  0
ARC
  5
323
100
AcDbEntity
  8
0
100
AcDbCircle
 62
7
  6
CONTINUOUS
 10
34.1119335737
 20
114.2925054705
 40
4.7
100
AcDbArc
 50
167.9792485403
 51
192.1380785492
  0
ARC
  5
324
100
AcDbEntity
  8
0
100
AcDbCircle
 62
7
  6
CONTINUOUS
 10
34.1119335737
 20
114.2925054705
 40
4.7
100
AcDbArc
 50
140.5662962501
 51
160.7721514415
  0
ARC
  5
325
100
AcDbEntity
  8
0
100
AcDbCircle
 62
7
  6
CONTINUOUS
 10
34.1119335737
 20
114.2925054705
 40
4.7
100
AcDbArc
 50
114.2194566988
 51
134.2166027172
  0
ARC
  5
326
100
AcDbEntity
  8
0
100
AcDbCircle
 62
7
  6
CONTINUOUS
 10
34.1119335737
 20
114.2925054705
 40
4.7
100
AcDbArc
 50
71.7762705349
 51
108.0853824227
  0
ARC
  5
327
100
AcDbEntity
  8
0
100
AcDbCircle
 62
7
  6
CONTINUOUS
 10
34.1119335737
 20
114.2925054705
 40
4.7
100
AcDbArc
 50
45.4736728211
 51
65.6254201856
  0
ARC
  5
328
100
AcDbEntity
  8
0
100
AcDbCircle
 62
7
  6
CONTINUOUS
 10
34.1119335737
 20
114.2925054705
 40
4.7
100
AcDbArc
 50
18.627059053
 51
39.4790010851
  0
ARC
  5
329
100
AcDbEntity
  8
0
100
AcDbCircle
 62
7
  6
CONTINUOUS
 10
34.1119335737
 20
114.2925054705
 40
4.7
100
AcDbArc
 50
347.9792485403
 51
12.1380785491
  0
ARC
  5
32A
100
AcDbEntity
  8
0
100
AcDbCircle
 62
7
  6
CONTINUOUS
 10
35.2119335737
 20
115.3925054705
 40
0.4
100
AcDbArc
 50
180.0
 51
270.0
  0
ARC
  5
32B
100
AcDbEntity
  8
0
100
AcDbCircle
 62
7
  6
CONTINUOUS
 10
33.0119335737
 20
115.3925054705
 40
0.4
100
AcDbArc
 50
270.0
 51
360.0
  0
CIRCLE
  5
32C
100
AcDbEntity
  8
0
100
AcDbCircle
 62
7
  6
CONTINUOUS
 10
34.1119335737
 20
131.9925054705
 40
4.8
  0
ARC
  5
32D
100
AcDbEntity
  8
0
100
AcDbCircle
 62
7
  6
CONTINUOUS
 10
34.1119335737
 20
131.9925054705
 40
4.7
100
AcDbArc
 50
320.5662962501
 51
340.7721514415
  0
ARC
  5
32E
100
AcDbEntity
  8
0
100
AcDbCircle
 62
7
  6
CONTINUOUS
 10
34.1119335737
 20
131.9925054705
 40
4.7
100
AcDbArc
 50
294.2194566988
 51
314.2166027172
  0
ARC
  5
32F
100
AcDbEntity
  8
0
100
AcDbCircle
 62
7
  6
CONTINUOUS
 10
34.1119335737
 20
131.9925054705
 40
4.7
100
AcDbArc
 50
251.7762705349
 51
288.0853824226
  0
ARC
  5
330
100
AcDbEntity
  8
0
100
AcDbCircle
 62
7
  6
CONTINUOUS
 10
34.1119335737
 20
131.9925054705
 40
4.7
100
AcDbArc
 50
225.4736728211
 51
245.6254201855
  0
ARC
  5
331
100
AcDbEntity
  8
0
100
AcDbCircle
 62
7
  6
CONTINUOUS
 10
34.1119335737
 20
131.9925054705
 40
4.7
100
AcDbArc
 50
198.627059053
 51
219.4790010851
  0
ARC
  5
332
100
AcDbEntity
  8
0
100
AcDbCircle
 62
7
  6
CONTINUOUS
 10
34.1119335737
 20
131.9925054705
 40
4.7
100
AcDbArc
 50
167.9792485403
 51
192.1380785492
  0
ARC
  5
333
100
AcDbEntity
  8
0
100
AcDbCircle
 62
7
  6
CONTINUOUS
 10
34.1119335737
 20
131.9925054705
 40
4.7
100
AcDbArc
 50
140.5662962501
 51
160.7721514415
  0
ARC
  5
334
100
AcDbEntity
  8
0
100
AcDbCircle
 62
7
  6
CONTINUOUS
 10
34.1119335737
 20
131.9925054705
 40
4.7
100
AcDbArc
 50
114.2194566988
 51
134.2166027172
  0
ARC
  5
335
100
AcDbEntity
  8
0
100
AcDbCircle
 62
7
  6
CONTINUOUS
 10
34.1119335737
 20
131.9925054705
 40
4.7
100
AcDbArc
 50
71.7762705349
 51
108.0853824227
  0
ARC
  5
336
100
AcDbEntity
  8
0
100
AcDbCircle
 62
7
  6
CONTINUOUS
 10
34.1119335737
 20
131.9925054705
 40
4.7
100
AcDbArc
 50
45.4736728211
 51
65.6254201856
  0
ARC
  5
337
100
AcDbEntity
  8
0
100
AcDbCircle
 62
7
  6
CONTINUOUS
 10
34.1119335737
 20
131.9925054705
 40
4.7
100
AcDbArc
 50
18.627059053
 51
39.4790010851
  0
ARC
  5
338
100
AcDbEntity
  8
0
100
AcDbCircle
 62
7
  6
CONTINUOUS
 10
34.1119335737
 20
131.9925054705
 40
4.7
100
AcDbArc
 50
347.9792485403
 51
12.1380785491
  0
ARC
  5
339
100
AcDbEntity
  8
0
100
AcDbCircle
 62
7
  6
CONTINUOUS
 10
35.2119335737
 20
133.0925054705
 40
0.4
100
AcDbArc
 50
180.0
 51
270.0
  0
ARC
  5
33A
100
AcDbEntity
  8
0
100
AcDbCircle
 62
7
  6
CONTINUOUS
 10
35.2119335737
 20
130.8925054705
 40
0.4
100
AcDbArc
 50
90.0
 51
180.0
  0
ARC
  5
33B
100
AcDbEntity
  8
0
100
AcDbCircle
 62
7
  6
CONTINUOUS
 10
33.0119335737
 20
130.8925054705
 40
0.4
100
AcDbArc
 50
0.0
 51
90.0
  0
ARC
  5
33C
100
AcDbEntity
  8
0
100
AcDbCircle
 62
7
  6
CONTINUOUS
 10
33.0119335737
 20
133.0925054705
 40
0.4
100
AcDbArc
 50
270.0
 51
360.0
  0
ARC
  5
33D
100
AcDbEntity
  8
0
100
AcDbCircle
 62
7
  6
CONTINUOUS
 10
37.6093185686
 20
123.1425054705
 40
1.1
100
AcDbArc
 50
269.9999996391
 51
90.0
  0
ARC
  5
33E
100
AcDbEntity
  8
0
100
AcDbCircle
 62
7
  6
CONTINUOUS
 10
37.6093185686
 20
140.8425054705
 40
1.1
100
AcDbArc
 50
269.9999996391
 51
360.0
  0
CIRCLE
  5
33F
100
AcDbEntity
  8
0
100
AcDbCircle
 62
7
  6
CONTINUOUS
 10
127.6093185686
 20
96.5925054705
 40
4.8
  0
ARC
  5
340
100
AcDbEntity
  8
0
100
AcDbCircle
 62
7
  6
CONTINUOUS
 10
127.6093185686
 20
96.5925054705
 40
4.7
100
AcDbArc
 50
320.5662961456
 51
340.7721501487
  0
ARC
  5
341
100
AcDbEntity
  8
0
100
AcDbCircle
 62
7
  6
CONTINUOUS
 10
127.6093185686
 20
96.5925054705
 40
4.7
100
AcDbArc
 50
294.2194564592
 51
314.2166024262
  0
ARC
  5
342
100
AcDbEntity
  8
0
100
AcDbCircle
 62
7
  6
CONTINUOUS
 10
127.6093185686
 20
96.5925054705
 40
4.7
100
AcDbArc
 50
251.7762702378
 51
288.0853823144
  0
ARC
  5
343
100
AcDbEntity
  8
0
100
AcDbCircle
 62
7
  6
CONTINUOUS
 10
127.6093185686
 20
96.5925054705
 40
4.7
100
AcDbArc
 50
225.4736725322
 51
245.6254204418
  0
ARC
  5
344
100
AcDbEntity
  8
0
100
AcDbCircle
 62
7
  6
CONTINUOUS
 10
127.6093185686
 20
96.5925054705
 40
4.7
100
AcDbArc
 50
198.6270600054
 51
219.4790013253
  0
ARC
  5
345
100
AcDbEntity
  8
0
100
AcDbCircle
 62
7
  6
CONTINUOUS
 10
127.6093185686
 20
96.5925054705
 40
4.7
100
AcDbArc
 50
167.9792487593
 51
192.1380783642
  0
ARC
  5
346
100
AcDbEntity
  8
0
100
AcDbCircle
 62
7
  6
CONTINUOUS
 10
127.6093185686
 20
96.5925054705
 40
4.7
100
AcDbArc
 50
140.5662961456
 51
160.7721501487
  0
ARC
  5
347
100
AcDbEntity
  8
0
100
AcDbCircle
 62
7
  6
CONTINUOUS
 10
127.6093185686
 20
96.5925054705
 40
4.7
100
AcDbArc
 50
114.2194564592
 51
134.2166024262
  0
ARC
  5
348
100
AcDbEntity
  8
0
100
AcDbCircle
 62
7
  6
CONTINUOUS
 10
127.6093185686
 20
96.5925054705
 40
4.7
100
AcDbArc
 50
71.7762702378
 51
108.0853823144
  0
ARC
  5
349
100
AcDbEntity
  8
0
100
AcDbCircle
 62
7
  6
CONTINUOUS
 10
127.6093185686
 20
96.5925054705
 40
4.7
100
AcDbArc
 50
45.4736725322
 51
65.6254204418
  0
ARC
  5
34A
100
AcDbEntity
  8
0
100
AcDbCircle
 62
7
  6
CONTINUOUS
 10
127.6093185686
 20
96.5925054705
 40
4.7
100
AcDbArc
 50
18.6270600054
 51
39.4790013253
  0
ARC
  5
34B
100
AcDbEntity
  8
0
100
AcDbCircle
 62
7
  6
CONTINUOUS
 10
127.6093185686
 20
96.5925054705
 40
4.7
100
AcDbArc
 50
347.9792487593
 51
12.1380783642
  0
ARC
  5
34C
100
AcDbEntity
  8
0
100
AcDbCircle
 62
7
  6
CONTINUOUS
 10
123.6937013075
 20
87.7425054705
 40
1.2
100
AcDbArc
 50
113.5564643091
 51
180.0
  0
ARC
  5
34D
100
AcDbEntity
  8
0
100
AcDbCircle
 62
7
  6
CONTINUOUS
 10
123.6937013075
 20
105.4425054705
 40
1.2
100
AcDbArc
 50
113.5564643091
 51
180.0
  0
ARC
  5
34E
100
AcDbEntity
  8
0
100
AcDbCircle
 62
7
  6
CONTINUOUS
 10
123.6937013075
 20
105.4407543537
 40
1.1
100
AcDbArc
 50
179.9087894164
 51
266.7666220662
  0
ARC
  5
34F
100
AcDbEntity
  8
0
100
AcDbCircle
 62
7
  6
CONTINUOUS
 10
126.5093185686
 20
113.1925054705
 40
0.4
100
AcDbArc
 50
0.0
 51
90.0
  0
ARC
  5
350
100
AcDbEntity
  8
0
100
AcDbCircle
 62
7
  6
CONTINUOUS
 10
128.7093185686
 20
113.1925054705
 40
0.4
100
AcDbArc
 50
90.0
 51
180.0
  0
ARC
  5
351
100
AcDbEntity
  8
0
100
AcDbCircle
 62
7
  6
CONTINUOUS
 10
128.7093185686
 20
97.6925054705
 40
0.4
100
AcDbArc
 50
180.0
 51
270.0
  0
ARC
  5
352
100
AcDbEntity
  8
0
100
AcDbCircle
 62
7
  6
CONTINUOUS
 10
126.5093185686
 20
97.6925054705
 40
0.4
100
AcDbArc
 50
270.0
 51
360.0
  0
ARC
  5
353
100
AcDbEntity
  8
0
100
AcDbCircle
 62
7
  6
CONTINUOUS
 10
126.5093185686
 20
95.4925054705
 40
0.4
100
AcDbArc
 50
0.0
 51
90.0
  0
ARC
  5
354
100
AcDbEntity
  8
0
100
AcDbCircle
 62
7
  6
CONTINUOUS
 10
128.7093185686
 20
95.4925054705
 40
0.4
100
AcDbArc
 50
90.0
 51
180.0
  0
ARC
  5
355
100
AcDbEntity
  8
0
100
AcDbCircle
 62
7
  6
CONTINUOUS
 10
123.6937013075
 20
123.1425054705
 40
1.2
100
AcDbArc
 50
113.5564643091
 51
180.0
  0
ARC
  5
356
100
AcDbEntity
  8
0
100
AcDbCircle
 62
7
  6
CONTINUOUS
 10
123.6937013075
 20
123.1407543537
 40
1.1
100
AcDbArc
 50
179.9087894164
 51
266.7666220662
  0
ARC
  5
357
100
AcDbEntity
  8
0
100
AcDbCircle
 62
7
  6
CONTINUOUS
 10
123.6937013075
 20
140.8407543537
 40
1.1
100
AcDbArc
 50
179.9087894164
 51
266.7666220662
  0
CIRCLE
  5
358
100
AcDbEntity
  8
0
100
AcDbCircle
 62
7
  6
CONTINUOUS
 10
127.6093185686
 20
114.2925054705
 40
4.8
  0
ARC
  5
359
100
AcDbEntity
  8
0
100
AcDbCircle
 62
7
  6
CONTINUOUS
 10
127.6093185686
 20
114.2925054705
 40
4.7
100
AcDbArc
 50
320.5662962501
 51
340.7721514414
  0
ARC
  5
35A
100
AcDbEntity
  8
0
100
AcDbCircle
 62
7
  6
CONTINUOUS
 10
127.6093185686
 20
114.2925054705
 40
4.7
100
AcDbArc
 50
294.2194566988
 51
314.2166027172
  0
ARC
  5
35B
100
AcDbEntity
  8
0
100
AcDbCircle
 62
7
  6
CONTINUOUS
 10
127.6093185686
 20
114.2925054705
 40
4.7
100
AcDbArc
 50
251.7762705349
 51
288.0853824226
  0
ARC
  5
35C
100
AcDbEntity
  8
0
100
AcDbCircle
 62
7
  6
CONTINUOUS
 10
127.6093185686
 20
114.2925054705
 40
4.7
100
AcDbArc
 50
225.4736728211
 51
245.6254201856
  0
ARC
  5
35D
100
AcDbEntity
  8
0
100
AcDbCircle
 62
7
  6
CONTINUOUS
 10
127.6093185686
 20
114.2925054705
 40
4.7
100
AcDbArc
 50
198.627059053
 51
219.4790010851
  0
ARC
  5
35E
100
AcDbEntity
  8
0
100
AcDbCircle
 62
7
  6
CONTINUOUS
 10
127.6093185686
 20
114.2925054705
 40
4.7
100
AcDbArc
 50
167.9792485403
 51
192.1380785491
  0
ARC
  5
35F
100
AcDbEntity
  8
0
100
AcDbCircle
 62
7
  6
CONTINUOUS
 10
127.6093185686
 20
114.2925054705
 40
4.7
100
AcDbArc
 50
140.5662962501
 51
160.7721514414
  0
ARC
  5
360
100
AcDbEntity
  8
0
100
AcDbCircle
 62
7
  6
CONTINUOUS
 10
127.6093185686
 20
114.2925054705
 40
4.7
100
AcDbArc
 50
114.2194566988
 51
134.2166027172
  0
ARC
  5
361
100
AcDbEntity
  8
0
100
AcDbCircle
 62
7
  6
CONTINUOUS
 10
127.6093185686
 20
114.2925054705
 40
4.7
100
AcDbArc
 50
71.7762705349
 51
108.0853824226
  0
ARC
  5
362
100
AcDbEntity
  8
0
100
AcDbCircle
 62
7
  6
CONTINUOUS
 10
127.6093185686
 20
114.2925054705
 40
4.7
100
AcDbArc
 50
45.4736728211
 51
65.6254201856
  0
ARC
  5
363
100
AcDbEntity
  8
0
100
AcDbCircle
 62
7
  6
CONTINUOUS
 10
127.6093185686
 20
114.2925054705
 40
4.7
100
AcDbArc
 50
18.627059053
 51
39.4790010851
  0
ARC
  5
364
100
AcDbEntity
  8
0
100
AcDbCircle
 62
7
  6
CONTINUOUS
 10
127.6093185686
 20
114.2925054705
 40
4.7
100
AcDbArc
 50
347.9792485403
 51
12.1380785492
  0
ARC
  5
365
100
AcDbEntity
  8
0
100
AcDbCircle
 62
7
  6
CONTINUOUS
 10
126.5093185686
 20
115.3925054705
 40
0.4
100
AcDbArc
 50
270.0
 51
360.0
  0
ARC
  5
366
100
AcDbEntity
  8
0
100
AcDbCircle
 62
7
  6
CONTINUOUS
 10
128.7093185686
 20
115.3925054705
 40
0.4
100
AcDbArc
 50
180.0
 51
270.0
  0
CIRCLE
  5
367
100
AcDbEntity
  8
0
100
AcDbCircle
 62
7
  6
CONTINUOUS
 10
127.6093185686
 20
131.9925054705
 40
4.8
  0
ARC
  5
368
100
AcDbEntity
  8
0
100
AcDbCircle
 62
7
  6
CONTINUOUS
 10
127.6093185686
 20
131.9925054705
 40
4.7
100
AcDbArc
 50
320.5662962501
 51
340.7721514414
  0
ARC
  5
369
100
AcDbEntity
  8
0
100
AcDbCircle
 62
7
  6
CONTINUOUS
 10
127.6093185686
 20
131.9925054705
 40
4.7
100
AcDbArc
 50
294.2194566988
 51
314.2166027172
  0
ARC
  5
36A
100
AcDbEntity
  8
0
100
AcDbCircle
 62
7
  6
CONTINUOUS
 10
127.6093185686
 20
131.9925054705
 40
4.7
100
AcDbArc
 50
251.7762705349
 51
288.0853824226
  0
ARC
  5
36B
100
AcDbEntity
  8
0
100
AcDbCircle
 62
7
  6
CONTINUOUS
 10
127.6093185686
 20
131.9925054705
 40
4.7
100
AcDbArc
 50
225.4736728211
 51
245.6254201856
  0
ARC
  5
36C
100
AcDbEntity
  8
0
100
AcDbCircle
 62
7
  6
CONTINUOUS
 10
127.6093185686
 20
131.9925054705
 40
4.7
100
AcDbArc
 50
198.627059053
 51
219.4790010851
  0
ARC
  5
36D
100
AcDbEntity
  8
0
100
AcDbCircle
 62
7
  6
CONTINUOUS
 10
127.6093185686
 20
131.9925054705
 40
4.7
100
AcDbArc
 50
167.9792485403
 51
192.1380785491
  0
ARC
  5
36E
100
AcDbEntity
  8
0
100
AcDbCircle
 62
7
  6
CONTINUOUS
 10
127.6093185686
 20
131.9925054705
 40
4.7
100
AcDbArc
 50
140.5662962501
 51
160.7721514414
  0
ARC
  5
36F
100
AcDbEntity
  8
0
100
AcDbCircle
 62
7
  6
CONTINUOUS
 10
127.6093185686
 20
131.9925054705
 40
4.7
100
AcDbArc
 50
114.2194566988
 51
134.2166027172
  0
ARC
  5
370
100
AcDbEntity
  8
0
100
AcDbCircle
 62
7
  6
CONTINUOUS
 10
127.6093185686
 20
131.9925054705
 40
4.7
100
AcDbArc
 50
71.7762705349
 51
108.0853824226
  0
ARC
  5
371
100
AcDbEntity
  8
0
100
AcDbCircle
 62
7
  6
CONTINUOUS
 10
127.6093185686
 20
131.9925054705
 40
4.7
100
AcDbArc
 50
45.4736728211
 51
65.6254201856
  0
ARC
  5
372
100
AcDbEntity
  8
0
100
AcDbCircle
 62
7
  6
CONTINUOUS
 10
127.6093185686
 20
131.9925054705
 40
4.7
100
AcDbArc
 50
18.627059053
 51
39.4790010851
  0
ARC
  5
373
100
AcDbEntity
  8
0
100
AcDbCircle
 62
7
  6
CONTINUOUS
 10
127.6093185686
 20
131.9925054705
 40
4.7
100
AcDbArc
 50
347.9792485403
 51
12.1380785492
  0
ARC
  5
374
100
AcDbEntity
  8
0
100
AcDbCircle
 62
7
  6
CONTINUOUS
 10
126.5093185686
 20
133.0925054705
 40
0.4
100
AcDbArc
 50
270.0
 51
360.0
  0
ARC
  5
375
100
AcDbEntity
  8
0
100
AcDbCircle
 62
7
  6
CONTINUOUS
 10
126.5093185686
 20
130.8925054705
 40
0.4
100
AcDbArc
 50
0.0
 51
90.0
  0
ARC
  5
376
100
AcDbEntity
  8
0
100
AcDbCircle
 62
7
  6
CONTINUOUS
 10
128.7093185686
 20
130.8925054705
 40
0.4
100
AcDbArc
 50
90.0
 51
180.0
  0
ARC
  5
377
100
AcDbEntity
  8
0
100
AcDbCircle
 62
7
  6
CONTINUOUS
 10
128.7093185686
 20
133.0925054705
 40
0.4
100
AcDbArc
 50
180.0
 51
270.0
  0
ARC
  5
378
100
AcDbEntity
  8
0
100
AcDbCircle
 62
7
  6
CONTINUOUS
 10
142.5093185686
 20
92.3425054705
 40
2.0
100
AcDbArc
 50
180.0
 51
269.9999999897
  0
ARC
  5
379
100
AcDbEntity
  8
0
100
AcDbCircle
 62
7
  6
CONTINUOUS
 10
142.5093185686
 20
100.8425054705
 40
2.0
100
AcDbArc
 50
90.0
 51
180.0
  0
ARC
  5
37A
100
AcDbEntity
  8
0
100
AcDbCircle
 62
7
  6
CONTINUOUS
 10
142.5093185686
 20
110.0425054705
 40
2.0
100
AcDbArc
 50
180.0
 51
269.9999999794
  0
ARC
  5
37B
100
AcDbEntity
  8
0
100
AcDbCircle
 62
7
  6
CONTINUOUS
 10
135.2093185686
 20
101.6425054705
 40
1.2
100
AcDbArc
 50
89.9999999747
 51
180.0
  0
ARC
  5
37C
100
AcDbEntity
  8
0
100
AcDbCircle
 62
7
  6
CONTINUOUS
 10
135.2093185686
 20
91.5425054705
 40
1.2
100
AcDbArc
 50
180.0
 51
270.0000000124
  0
ARC
  5
37D
100
AcDbEntity
  8
0
100
AcDbCircle
 62
7
  6
CONTINUOUS
 10
135.2093185686
 20
109.2425054705
 40
1.2
100
AcDbArc
 50
180.0
 51
270.0000000105
  0
ARC
  5
37E
100
AcDbEntity
  8
0
100
AcDbCircle
 62
7
  6
CONTINUOUS
 10
143.6593185686
 20
103.3425054705
 40
0.5
100
AcDbArc
 50
270.0
 51
360.0
  0
ARC
  5
37F
100
AcDbEntity
  8
0
100
AcDbCircle
 62
7
  6
CONTINUOUS
 10
143.6593185686
 20
89.8425054705
 40
0.5
100
AcDbArc
 50
0.0
 51
90.0
  0
ARC
  5
380
100
AcDbEntity
  8
0
100
AcDbCircle
 62
7
  6
CONTINUOUS
 10
143.6593185686
 20
107.5425054705
 40
0.5
100
AcDbArc
 50
0.0
 51
90.0
  0
ARC
  5
381
100
AcDbEntity
  8
0
100
AcDbCircle
 62
7
  6
CONTINUOUS
 10
142.5093185686
 20
118.5425054705
 40
2.0
100
AcDbArc
 50
90.0
 51
180.0
  0
ARC
  5
382
100
AcDbEntity
  8
0
100
AcDbCircle
 62
7
  6
CONTINUOUS
 10
142.5093185686
 20
127.7425054705
 40
2.0
100
AcDbArc
 50
180.0
 51
269.9999999794
  0
ARC
  5
383
100
AcDbEntity
  8
0
100
AcDbCircle
 62
7
  6
CONTINUOUS
 10
142.5093185686
 20
136.2425054705
 40
2.0
100
AcDbArc
 50
90.0
 51
180.0
  0
ARC
  5
384
100
AcDbEntity
  8
0
100
AcDbCircle
 62
7
  6
CONTINUOUS
 10
135.2093185686
 20
119.3425054705
 40
1.2
100
AcDbArc
 50
89.9999999747
 51
180.0
  0
ARC
  5
385
100
AcDbEntity
  8
0
100
AcDbCircle
 62
7
  6
CONTINUOUS
 10
135.2093185686
 20
137.0425054705
 40
1.2
100
AcDbArc
 50
89.9999999747
 51
180.0
  0
ARC
  5
386
100
AcDbEntity
  8
0
100
AcDbCircle
 62
7
  6
CONTINUOUS
 10
135.2093185686
 20
126.9425054705
 40
1.2
100
AcDbArc
 50
180.0
 51
270.0000000105
  0
ARC
  5
387
100
AcDbEntity
  8
0
100
AcDbCircle
 62
7
  6
CONTINUOUS
 10
143.6593185686
 20
121.0425054705
 40
0.5
100
AcDbArc
 50
270.0
 51
360.0
  0
ARC
  5
388
100
AcDbEntity
  8
0
100
AcDbCircle
 62
7
  6
CONTINUOUS
 10
143.6593185686
 20
125.2425054705
 40
0.5
100
AcDbArc
 50
0.0
 51
90.0
  0
ARC
  5
389
100
AcDbEntity
  8
0
100
AcDbCircle
 62
7
  6
CONTINUOUS
 10
143.6593185686
 20
138.7425054705
 40
0.5
100
AcDbArc
 50
270.0
 51
360.0
  0
SPLINE
  5
38A
100
AcDbEntity
  8
0
100
AcDbSpline
 62
7
  6
CONTINUOUS
 70
0
 71
3
 72
11
 73
7
 74
0
 42
0.0000001
 43
0.0000001
 44
0.0000000001
 40
0.0
 40
0.0
 40
0.0
 40
0.0
 40
0.1738665725
 40
0.3869853647
 40
0.6592329134
 40
1.0
 40
1.0
 40
1.0
 40
1.0
 10
61.4201535531
 20
88.680566263
 30
0.0
 10
61.420151954
 20
88.6718814472
 30
0.0
 10
61.4255449306
 20
88.6524992341
 30
0.0
 10
61.4460141641
 20
88.6261524651
 30
0.0
 10
61.4779462925
 20
88.5997267847
 30
0.0
 10
61.5041048536
 20
88.5836606139
 30
0.0
 10
61.5189629982
 20
88.5753556279
 30
0.0
  0
SPLINE
  5
38B
100
AcDbEntity
  8
0
100
AcDbSpline
 62
7
  6
CONTINUOUS
 70
0
 71
3
 72
11
 73
7
 74
0
 42
0.0000001
 43
0.0000001
 44
0.0000000001
 40
0.0
 40
0.0
 40
0.0
 40
0.0
 40
0.1236308234
 40
0.3355460653
 40
0.6307777438
 40
1.0
 40
1.0
 40
1.0
 40
1.0
 10
62.9321452683
 20
88.5676715046
 30
0.0
 10
62.9385357412
 20
88.5703202913
 30
0.0
 10
62.9573708369
 20
88.5731555837
 30
0.0
 10
62.9923728822
 20
88.5763369389
 30
0.0
 10
63.0414707856
 20
88.5780442531
 30
0.0
 10
63.0786270191
 20
88.5784188804
 30
0.0
 10
63.0992865859
 20
88.5784188804
 30
0.0
  0
SPLINE
  5
38C
100
AcDbEntity
  8
0
100
AcDbSpline
 62
7
  6
CONTINUOUS
 70
0
 71
3
 72
11
 73
7
 74
0
 42
0.0000001
 43
0.0000001
 44
0.0000000001
 40
0.0
 40
0.0
 40
0.0
 40
0.0
 40
0.3457774706
 40
0.617620601
 40
0.8272939432
 40
1.0
 40
1.0
 40
1.0
 40
1.0
 10
61.5315249108
 20
88.7798535715
 30
0.0
 10
61.5148729044
 20
88.772952978
 30
0.0
 10
61.4855973581
 20
88.7593178602
 30
0.0
 10
61.4495316979
 20
88.7352992443
 30
0.0
 10
61.4261326576
 20
88.7096322538
 30
0.0
 10
61.4201552107
 20
88.6895693354
 30
0.0
 10
61.4201535531
 20
88.680566263
 30
0.0
  0
SPLINE
  5
38D
100
AcDbEntity
  8
0
100
AcDbSpline
 62
7
  6
CONTINUOUS
 70
0
 71
3
 72
12
 73
8
 74
0
 42
0.0000001
 43
0.0000001
 44
0.0000000001
 40
0.0
 40
0.0
 40
0.0
 40
0.0
 40
0.4147216428
 40
0.723694295
 40
0.9174301746
 40
0.9709614431
 40
1.0
 40
1.0
 40
1.0
 40
1.0
 10
63.0454477946
 20
88.5352820503
 30
0.0
 10
63.0286123997
 20
88.5375635633
 30
0.0
 10
62.9992182209
 20
88.541909976
 30
0.0
 10
62.9624529645
 20
88.5487781617
 30
0.0
 10
62.9400691189
 20
88.5547876298
 30
0.0
 10
62.9300157734
 20
88.5593357136
 30
0.0
 10
62.9273481887
 20
88.5621824704
 30
0.0
 10
62.927345612
 20
88.5633720471
 30
0.0
  0
SPLINE
  5
38E
100
AcDbEntity
  8
0
100
AcDbSpline
 62
7
  6
CONTINUOUS
 70
0
 71
3
 72
17
 73
13
 74
0
 42
0.0000001
 43
0.0000001
 44
0.0000000001
 40
0.0
 40
0.0
 40
0.0
 40
0.0
 40
0.1785990186
 40
0.3513110004
 40
0.5127727154
 40
0.6580741537
 40
0.7827514839
 40
0.8830426463
 40
0.9230951478
 40
0.9560455769
 40
0.9816993388
 40
1.0
 40
1.0
 40
1.0
 40
1.0
 10
63.8934956488
 20
88.7899803646
 30
0.0
 10
63.7544011749
 20
88.7978280652
 30
0.0
 10
63.4807066796
 20
88.8117095532
 30
0.0
 10
63.0810120563
 20
88.8272609414
 30
0.0
 10
62.7071129223
 20
88.836929957
 30
0.0
 10
62.3705674101
 20
88.8404948901
 30
0.0
 10
62.0817387239
 20
88.8378580713
 30
0.0
 10
61.8750802941
 20
88.8304453818
 30
0.0
 10
61.7402542284
 20
88.8206019176
 30
0.0
 10
61.6636903413
 20
88.8124476556
 30
0.0
 10
61.6044549337
 20
88.8030291664
 30
0.0
 10
61.5709966223
 20
88.7948945674
 30
0.0
 10
61.5575942757
 20
88.7899789174
 30
0.0
  0
SPLINE
  5
38F
100
AcDbEntity
  8
0
100
AcDbSpline
 62
7
  6
CONTINUOUS
 70
0
 71
3
 72
9
 73
5
 74
0
 42
0.0000001
 43
0.0000001
 44
0.0000000001
 40
0.0
 40
0.0
 40
0.0
 40
0.0
 40
0.2578309478
 40
1.0
 40
1.0
 40
1.0
 40
1.0
 10
61.5575942757
 20
88.7899789174
 30
0.0
 10
61.5553376223
 20
88.7891512662
 30
0.0
 10
61.5466017137
 20
88.7858966821
 30
0.0
 10
61.5379167248
 20
88.78250234
 30
0.0
 10
61.5315249108
 20
88.7798535715
 30
0.0
  0
ELLIPSE
  5
390
100
AcDbEntity
  8
0
100
AcDbEllipse
 62
7
  6
CONTINUOUS
 10
65.852782151
 20
88.5346745487
 30
0.0
 11
0.4999964017
 21
-0.0288241728
 31
0.0
 40
0.0658103096
 41
0.7332748805
 42
2.2901832113
  0
ENDSEC
  0
SECTION
  2
OBJECTS
  0
DICTIONARY
  5
C
100
AcDbDictionary
280
0
281
1
  3
ACAD_GROUP
350
D
  3
ACAD_MLINESTYLE
350
17
  3
ACAD_LAYOUT
350
1A
  3
ACAD_PLOTSETTINGS
350
19
  3
ACAD_PLOTSTYLENAME
350
E
  0
DICTIONARY
  5
D
102
{ACAD_REACTORS
330
C
102
}
100
AcDbDictionary
280
0
281
1
  0
ACDBDICTIONARYWDFLT
  5
E
102
{ACAD_REACTORS
330
C
102
}
100
AcDbDictionary
281
1
  3
Normal
350
F
100
AcDbDictionaryWithDefault
340
F
  0
DICTIONARY
  5
17
102
{ACAD_REACTORS
330
C
102
}
100
AcDbDictionary
280
0
281
1
  3
Standard
350
18
  0
DICTIONARY
  5
19
102
{ACAD_REACTORS
330
C
102
}
100
AcDbDictionary
281
1
  0
DICTIONARY
  5
1A
102
{ACAD_REACTORS
330
C
102
}
100
AcDbDictionary
281
1
  3
Model
350
391
  3
Layout1
350
392
  0
ACDBPLACEHOLDER
  5
F
102
{ACAD_REACTORS
330
E
102
}
  0
MLINESTYLE
  5
18
102
{ACAD_REACTORS
330
17
102
}
100
AcDbMlineStyle
  2
STANDARD
 70
0
  3

 62
256
 51
90.0
 52
90.0
 71
2
 49
0.5
 62
256
  6
BYLAYER
 49
-0.5
 62
256
  6
BYLAYER
  0
LAYOUT
  5
391
102
{ACAD_REACTORS
330
1A
102
}
100
AcDbPlotSettings
  1

  2
none_device
  4

  6

 40
0.0
 41
0.0
 42
0.0
 43
0.0
 44
210.0
 45
297.0
 46
0.0
 47
0.0
 48
0.0
 49
0.0
140
0.0
141
0.0
142
1.0
143
1.0
 70
1024
 72
1
 73
0
 74
0
  7

 75
0
147
1.0
148
0.0
149
0.0
100
AcDbLayout
  1
Model
 70
0
 71
0
 10
0.0
 20
0.0
 11
210.0
 21
297.0
 12
0.0
 22
0.0
 32
0.0
 14
0.0
 24
0.0
 34
0.0
 15
0.0
 25
0.0
 35
0.0
146
0.0
 13
0.0
 23
0.0
 33
0.0
 16
1.0
 26
0.0
 36
0.0
 17
0.0
 27
1.0
 37
0.0
 76
0
330
210
345
0
346
0
  0
LAYOUT
  5
392
102
{ACAD_REACTORS
330
1A
102
}
100
AcDbPlotSettings
  1

  2
none_device
  4

  6

 40
0.0
 41
0.0
 42
0.0
 43
0.0
 44
210.0
 45
297.0
 46
0.0
 47
0.0
 48
0.0
 49
0.0
140
0.0
141
0.0
142
1.0
143
1.0
 70
0
 72
1
 73
0
 74
0
  7

 75
0
147
1.0
148
0.0
149
0.0
100
AcDbLayout
  1
Layout1
 70
0
 71
1
 10
0.0
 20
0.0
 11
210.0
 21
297.0
 12
0.0
 22
0.0
 32
0.0
 14
0.0
 24
0.0
 34
0.0
 15
0.0
 25
0.0
 35
0.0
146
0.0
 13
0.0
 23
0.0
 33
0.0
 16
1.0
 26
0.0
 36
0.0
 17
0.0
 27
1.0
 37
0.0
 76
0
330
211
345
0
346
0
  0
ENDSEC
  0
EOF
