999
DXF file: C:\Users\sesa63760\Dev\_Creo\CAD\MCADID0000877_3D-CAD\drw0001_6.dxf
999
Pro/ENGINEER 2019471 by Parametric Technology Corporation
  0
SECTION
  2
HEADER
  9
$ACADVER
  1
AC1024
  9
$DWGCODEPAGE
  3
ANSI_1252
  9
$EXTMAX
 10
233.219614084
 20
329.8391684902
 30
0.0
  9
$EXTMIN
 10
0.0
 20
0.0
 30
0.0
  9
$LIMMIN
 10
0.0
 20
0.0
  9
$LIMMAX
 10
233.219614084
 20
329.8391684902
  9
$VIEWCTR
 10
116.609807042
 20
164.9195842451
  9
$VIEWSIZE
 40
329.8391684902
  9
$CLAYER
  8
0
  9
$LTSCALE
 40
21.5006272794
  9
$CELTYPE
  6
BYLAYER
  9
$DIMSCALE
 40
1.0
  9
$DIMASZ
 40
2.7764239772
  9
$DIMEXO
 40
1.0
  9
$DIMDLI
 40
14.8549788476
  9
$DIMEXE
 40
1.0
  9
$DIMCEN
 40
3.5182844639
  9
$DIMLFAC
 40
1.0
  9
$DIMBLK
  1
_FILLED
  9
$DIMALT
 70
0
  9
$DIMALTF
 40
0.0393700787
  9
$DIMTXT
 40
3.8869935681
  9
$DIMTOL
 70
1
  9
$DIMLIM
 70
0
  9
$DIMTFAC
 40
1.0
  9
$DIMTP
 40
0.01
  9
$DIMTM
 40
0.01
  9
$DIMGAP
 40
0.625
  9
$DIMDSEP
 70
46
  9
$AUNITS
 70
0
  9
$PDMODE
 70
3
  9
$PDSIZE
 40
0.3125
  9
$HANDSEED
  5
5DC
  9
$TILEMODE
 70
1
  9
$MEASUREMENT
 70
1
  9
$INSUNITS
 70
4
  0
ENDSEC
  0
SECTION
  2
CLASSES
  0
CLASS
  1
ACDBDICTIONARYWDFLT
  2
AcDbDictionaryWithDefault
  3
AutoCAD 2000
 90
0
 91
1
280
0
281
0
  0
CLASS
  1
ACDBPLACEHOLDER
  2
AcDbPlaceHolder
  3
AutoCAD 2000
 90
0
 91
1
280
0
281
0
  0
CLASS
  1
LAYOUT
  2
AcDbLayout
  3
AutoCAD 2000
 90
0
 91
0
280
0
281
0
  0
ENDSEC
  0
SECTION
  2
TABLES
  0
TABLE
  2
VPORT
  5
8
100
AcDbSymbolTable
 70
2
  0
VPORT
  5
1F4
100
AcDbSymbolTableRecord
100
AcDbViewportTableRecord
  2
*ACTIVE
 70
0
 10
0.0
 20
0.0
 11
1.0
 21
1.0
 12
116.609807042
 22
164.9195842451
 13
0.0
 23
0.0
 14
1.0
 24
1.0
 15
0.0
 25
0.0
 16
0.0
 26
0.0
 36
1.0
 17
0.0
 27
0.0
 37
0.0
 40
329.8391684902
 41
0.7070707071
 42
50.0
 43
0.0
 44
0.0
 50
0.0
 51
0.0
 71
0
 72
100
 73
1
 74
1
 75
0
 76
0
 77
0
 78
0
  0
ENDTAB
  0
TABLE
  2
LTYPE
  5
5
100
AcDbSymbolTable
 70
6
  0
LTYPE
  5
14
100
AcDbSymbolTableRecord
100
AcDbLinetypeTableRecord
  2
BYBLOCK
 70
0
  3

 72
65
 73
0
 40
0.0
  0
LTYPE
  5
15
100
AcDbSymbolTableRecord
100
AcDbLinetypeTableRecord
  2
BYLAYER
 70
0
  3

 72
65
 73
0
 40
0.0
  0
LTYPE
  5
16
100
AcDbSymbolTableRecord
100
AcDbLinetypeTableRecord
  2
CONTINUOUS
 70
64
  3
Solid line
 72
65
 73
0
 40
0.0
  0
LTYPE
  5
1F5
100
AcDbSymbolTableRecord
100
AcDbLinetypeTableRecord
  2
CENTER
 70
64
  3
____ _ ____ _ ____ _ ____ _ ____ _ ____ _ ____
 72
65
 73
4
 40
0.6
 49
0.375
 74
0
 49
-0.075
 74
0
 49
0.075
 74
0
 49
-0.075
 74
0
  0
LTYPE
  5
1F6
100
AcDbSymbolTableRecord
100
AcDbLinetypeTableRecord
  2
HIDDEN
 70
64
  3
- - - - - - - - - - - - - - - - - - - -
 72
65
 73
2
 40
0.2
 49
0.1
 74
0
 49
-0.1
 74
0
  0
LTYPE
  5
1F7
100
AcDbSymbolTableRecord
100
AcDbLinetypeTableRecord
  2
PHANTOM
 70
64
  3
_____ _ _ _____ _ _ _____ _ _ _____
 72
65
 73
6
 40
0.8
 49
0.45
 74
0
 49
-0.05
 74
0
 49
0.1
 74
0
 49
-0.05
 74
0
 49
0.1
 74
0
 49
-0.05
 74
0
  0
LTYPE
  5
1F8
100
AcDbSymbolTableRecord
100
AcDbLinetypeTableRecord
  2
DOT
 70
64
  3
. . . . . . . . . . . . . . . . . . . .
 72
65
 73
2
 40
0.2
 49
0.1
 74
0
 49
-0.1
 74
0
  0
LTYPE
  5
1F9
100
AcDbSymbolTableRecord
100
AcDbLinetypeTableRecord
  2
DASHED
 70
64
  3
- - - - - - - - - - - - - - - - - - - -
 72
65
 73
2
 40
0.2
 49
0.1
 74
0
 49
-0.1
 74
0
  0
ENDTAB
  0
TABLE
  2
LAYER
  5
2
100
AcDbSymbolTable
 70
36
  0
LAYER
  5
10
100
AcDbSymbolTableRecord
100
AcDbLayerTableRecord
  2
0
 70
0
 62
7
  6
CONTINUOUS
370
-3
390
F
  0
LAYER
  5
1FA
100
AcDbSymbolTableRecord
100
AcDbLayerTableRecord
  2
DEFAULT_1
 70
0
 62
7
  6
CENTER
370
-3
390
F
  0
LAYER
  5
1FB
100
AcDbSymbolTableRecord
100
AcDbLayerTableRecord
  2
DEFAULT_2
 70
0
 62
8
  6
HIDDEN
370
-3
390
F
  0
LAYER
  5
1FC
100
AcDbSymbolTableRecord
100
AcDbLayerTableRecord
  2
DEFAULT_3
 70
0
 62
7
  6
PHANTOM
370
-3
390
F
  0
LAYER
  5
1FD
100
AcDbSymbolTableRecord
100
AcDbLayerTableRecord
  2
00_COMPONENTS
 70
0
 62
7
  6
CONTINUOUS
370
-3
390
F
  0
LAYER
  5
1FE
100
AcDbSymbolTableRecord
100
AcDbLayerTableRecord
  2
01_1_DEFAULT_DATUMS
 70
0
 62
7
  6
CONTINUOUS
370
-3
390
F
  0
LAYER
  5
1FF
100
AcDbSymbolTableRecord
100
AcDbLayerTableRecord
  2
01_PLANES
 70
0
 62
7
  6
CONTINUOUS
370
-3
390
F
  0
LAYER
  5
200
100
AcDbSymbolTableRecord
100
AcDbLayerTableRecord
  2
02_COORD_SYS
 70
0
 62
7
  6
CONTINUOUS
370
-3
390
F
  0
LAYER
  5
201
100
AcDbSymbolTableRecord
100
AcDbLayerTableRecord
  2
03_AXES
 70
0
 62
7
  6
CONTINUOUS
370
-3
390
F
  0
LAYER
  5
202
100
AcDbSymbolTableRecord
100
AcDbLayerTableRecord
  2
04_POINTS
 70
0
 62
7
  6
CONTINUOUS
370
-3
390
F
  0
LAYER
  5
203
100
AcDbSymbolTableRecord
100
AcDbLayerTableRecord
  2
05_CURVES
 70
0
 62
7
  6
CONTINUOUS
370
-3
390
F
  0
LAYER
  5
204
100
AcDbSymbolTableRecord
100
AcDbLayerTableRecord
  2
06_SURFS
 70
0
 62
7
  6
CONTINUOUS
370
-3
390
F
  0
LAYER
  5
205
100
AcDbSymbolTableRecord
100
AcDbLayerTableRecord
  2
07_COSMETICS
 70
0
 62
7
  6
CONTINUOUS
370
-3
390
F
  0
LAYER
  5
206
100
AcDbSymbolTableRecord
100
AcDbLayerTableRecord
  2
10_NOTES
 70
0
 62
7
  6
CONTINUOUS
370
-3
390
F
  0
LAYER
  5
207
100
AcDbSymbolTableRecord
100
AcDbLayerTableRecord
  2
11_NOTES_PUB
 70
0
 62
7
  6
CONTINUOUS
370
-3
390
F
  0
LAYER
  5
208
100
AcDbSymbolTableRecord
100
AcDbLayerTableRecord
  2
13_REF_GTOL
 70
0
 62
7
  6
CONTINUOUS
370
-3
390
F
  0
LAYER
  5
209
100
AcDbSymbolTableRecord
100
AcDbLayerTableRecord
  2
16_MISC
 70
0
 62
7
  6
CONTINUOUS
370
-3
390
F
  0
LAYER
  5
20A
100
AcDbSymbolTableRecord
100
AcDbLayerTableRecord
  2
17_NO_PRINT
 70
0
 62
7
  6
CONTINUOUS
370
-3
390
F
  0
LAYER
  5
20B
100
AcDbSymbolTableRecord
100
AcDbLayerTableRecord
  2
18_DATUM_CAMS_JOINTS
 70
0
 62
7
  6
CONTINUOUS
370
-3
390
F
  0
LAYER
  5
20C
100
AcDbSymbolTableRecord
100
AcDbLayerTableRecord
  2
19_DATUM_FUNCTIONAL
 70
0
 62
7
  6
CONTINUOUS
370
-3
390
F
  0
LAYER
  5
20D
100
AcDbSymbolTableRecord
100
AcDbLayerTableRecord
  2
20_DATUM_KINEMATIC_SCHEME
 70
0
 62
7
  6
CONTINUOUS
370
-3
390
F
  0
ENDTAB
  0
TABLE
  2
STYLE
  5
3
100
AcDbSymbolTable
 70
1
  0
STYLE
  5
11
100
AcDbSymbolTableRecord
100
AcDbTextStyleTableRecord
  2
STANDARD
 70
0
 40
0.0
 41
0.8
 50
0.0
 71
0
 42
0.2
  3
txt
  4

  0
STYLE
  5
20E
100
AcDbSymbolTableRecord
100
AcDbTextStyleTableRecord
  2
TEXTSTYLE_1
 70
0
 40
0.0
 41
0.8
 50
0.0
 71
0
 42
0.2
  3
gdt
  4

  0
ENDTAB
  0
TABLE
  2
VIEW
  5
6
100
AcDbSymbolTable
 70
0
  0
ENDTAB
  0
TABLE
  2
UCS
  5
7
100
AcDbSymbolTable
 70
0
  0
ENDTAB
  0
TABLE
  2
APPID
  5
9
100
AcDbSymbolTable
 70
1
  0
APPID
  5
20F
100
AcDbSymbolTableRecord
100
AcDbRegAppTableRecord
  2
ACAD
 70
0
  0
ENDTAB
  0
TABLE
  2
BLOCK_RECORD
  5
1
100
AcDbSymbolTable
 70
0
  0
BLOCK_RECORD
  5
210
100
AcDbSymbolTableRecord
100
AcDbBlockTableRecord
  2
*Model_Space
  0
BLOCK_RECORD
  5
211
100
AcDbSymbolTableRecord
100
AcDbBlockTableRecord
  2
*Paper_Space
  0
BLOCK_RECORD
  5
212
100
AcDbSymbolTableRecord
100
AcDbBlockTableRecord
  2
_FILLED
  0
ENDTAB
  0
TABLE
  2
DIMSTYLE
  5
A
100
AcDbSymbolTable
 70
1
100
AcDbDimStyleTable
 71
0
  0
DIMSTYLE
105
213
100
AcDbSymbolTableRecord
100
AcDbDimStyleTableRecord
  2
STANDARD
 70
0
  3

  4

 40
1.0
 41
2.7764239772
 42
1.0
 43
0.38
 44
1.0
 45
0.0
 46
0.0
 47
0.01
 48
0.01
140
3.8869935681
141
0.09
142
0.0
143
25.4
144
1.0
145
0.0
146
1.0
147
0.625
 71
1
 72
0
 73
0
 74
0
 75
0
 76
0
 77
1
 78
8
 79
2
170
0
171
1
172
0
173
0
174
0
175
0
176
0
177
0
178
0
270
2
179
2
271
2
272
2
273
2
274
2
275
0
280
0
281
0
282
0
283
1
284
8
285
0
286
0
287
3
288
0
340
11
278
46
341
212
342
212
343
212
344
212
  0
ENDTAB
  0
ENDSEC
  0
SECTION
  2
BLOCKS
  0
BLOCK
  5
20
100
AcDbEntity
  8
0
100
AcDbBlockBegin
  2
*Model_Space
 70
0
 10
0.0
 20
0.0
 30
0.0
  3
*Model_Space
  1

  0
ENDBLK
  5
21
100
AcDbEntity
  8
0
100
AcDbBlockEnd
  0
BLOCK
  5
1C
100
AcDbEntity
  8
0
100
AcDbBlockBegin
  2
*Paper_Space
 70
0
 10
0.0
 20
0.0
 30
0.0
  3
*Paper_Space
  1

  0
ENDBLK
  5
1D
100
AcDbEntity
  8
0
100
AcDbBlockEnd
  0
BLOCK
  5
214
100
AcDbEntity
  8
0
100
AcDbBlockBegin
  2
_FILLED
 70
64
 10
0.0
 20
0.0
  3
_FILLED
  1

  0
SOLID
  5
215
100
AcDbEntity
  8
0
  6
BYBLOCK
 62
0
100
AcDbTrace
 10
0.0
 20
0.0
 11
-1.0
 21
0.25
 12
-1.0
 22
-0.25
 13
-1.0
 23
-0.25
  0
ENDBLK
  5
216
100
AcDbEntity
  8
0
  6
BYBLOCK
 62
0
100
AcDbBlockEnd
  0
ENDSEC
  0
SECTION
  2
ENTITIES
  0
LINE
  5
217
100
AcDbEntity
  8
0
100
AcDbLine
 62
7
  6
CONTINUOUS
 10
40.3784063888
 20
94.9736419764
 11
40.4067186893
 21
94.945317073
  0
LINE
  5
218
100
AcDbEntity
  8
0
100
AcDbLine
 62
7
  6
CONTINUOUS
 10
52.8745680348
 20
233.6157462214
 11
53.0041852747
 21
233.7453634612
  0
LINE
  5
219
100
AcDbEntity
  8
0
100
AcDbLine
 62
7
  6
CONTINUOUS
 10
46.8730321628
 20
231.4088285371
 11
46.7526279341
 21
231.2938061206
  0
LINE
  5
21A
100
AcDbEntity
  8
0
100
AcDbLine
 62
7
  6
CONTINUOUS
 10
52.4470083326
 20
94.8509830627
 11
52.5621417355
 21
94.7358496598
  0
LINE
  5
21B
100
AcDbEntity
  8
0
100
AcDbLine
 62
7
  6
CONTINUOUS
 10
27.5007443869
 20
163.9370371973
 11
27.5007443869
 21
164.9195847909
  0
LINE
  5
21C
100
AcDbEntity
  8
0
100
AcDbLine
 62
7
  6
CONTINUOUS
 10
28.3784066044
 20
164.9195847909
 11
28.3784066044
 21
165.9195847909
  0
LINE
  5
21D
100
AcDbEntity
  8
0
100
AcDbLine
 62
7
  6
CONTINUOUS
 10
28.7784066044
 20
165.9195847909
 11
28.7784066044
 21
167.2195847909
  0
LINE
  5
21E
100
AcDbEntity
  8
0
100
AcDbLine
 62
7
  6
CONTINUOUS
 10
30.8784066044
 20
155.2195847909
 11
30.8784066044
 21
156.9195847909
  0
LINE
  5
21F
100
AcDbEntity
  8
0
100
AcDbLine
 62
7
  6
CONTINUOUS
 10
30.9284066044
 20
170.2668184616
 11
30.9284066044
 21
170.2616033567
  0
LINE
  5
220
100
AcDbEntity
  8
0
100
AcDbLine
 62
7
  6
CONTINUOUS
 10
26.3784066044
 20
156.9195847909
 11
26.5008966918
 21
163.9370371973
  0
LINE
  5
221
100
AcDbEntity
  8
0
100
AcDbLine
 62
7
  6
CONTINUOUS
 10
27.5007443869
 20
163.9370371973
 11
27.3782542995
 21
156.9195847909
  0
LINE
  5
222
100
AcDbEntity
  8
0
100
AcDbLine
 62
7
  6
CONTINUOUS
 10
29.0062711521
 20
168.681083259
 11
28.8784066044
 21
167.2195847909
  0
LINE
  5
223
100
AcDbEntity
  8
0
100
AcDbLine
 62
7
  6
CONTINUOUS
 10
38.4508073779
 20
116.2195847909
 11
38.3784066044
 21
116.5825288318
  0
LINE
  5
224
100
AcDbEntity
  8
0
100
AcDbLine
 62
7
  6
CONTINUOUS
 10
38.4098257213
 20
122.5621051966
 11
38.3784066044
 21
122.7195847909
  0
LINE
  5
225
100
AcDbEntity
  8
0
100
AcDbLine
 62
7
  6
CONTINUOUS
 10
37.7505420567
 20
168.681083259
 11
37.8784066044
 21
167.2195847909
  0
LINE
  5
226
100
AcDbEntity
  8
0
100
AcDbLine
 62
7
  6
CONTINUOUS
 10
38.448690674
 20
160.9021435728
 11
38.3957093413
 21
163.9370371973
  0
LINE
  5
227
100
AcDbEntity
  8
0
100
AcDbLine
 62
7
  6
CONTINUOUS
 10
40.4744094615
 20
89.4195847909
 11
40.3774631008
 21
94.9736380757
  0
LINE
  5
228
100
AcDbEntity
  8
0
100
AcDbLine
 62
7
  6
CONTINUOUS
 10
39.3955570364
 20
163.9370371973
 11
39.448531497
 21
160.9021323845
  0
LINE
  5
229
100
AcDbEntity
  8
0
100
AcDbLine
 62
7
  6
CONTINUOUS
 10
33.0284066044
 20
170.4843246544
 11
33.0284066044
 21
170.2616033567
  0
LINE
  5
22A
100
AcDbEntity
  8
0
100
AcDbLine
 62
7
  6
CONTINUOUS
 10
33.7284066044
 20
170.2616033567
 11
33.7284066044
 21
170.4843246544
  0
LINE
  5
22B
100
AcDbEntity
  8
0
100
AcDbLine
 62
7
  6
CONTINUOUS
 10
35.8284066044
 20
170.2616033567
 11
35.8284066044
 21
170.2668184523
  0
LINE
  5
22C
100
AcDbEntity
  8
0
100
AcDbLine
 62
7
  6
CONTINUOUS
 10
35.8784066044
 20
155.2195847909
 11
35.8784066044
 21
156.9195847909
  0
LINE
  5
22D
100
AcDbEntity
  8
0
100
AcDbLine
 62
7
  6
CONTINUOUS
 10
36.3784066044
 20
116.7109334225
 11
36.3784066044
 21
129.7282361593
  0
LINE
  5
22E
100
AcDbEntity
  8
0
100
AcDbLine
 62
7
  6
CONTINUOUS
 10
36.8696804011
 20
117.2108572684
 11
36.8696804011
 21
129.2283123104
  0
LINE
  5
22F
100
AcDbEntity
  8
0
100
AcDbLine
 62
7
  6
CONTINUOUS
 10
37.9784066044
 20
165.9195847909
 11
37.9784066044
 21
167.2195847909
  0
LINE
  5
230
100
AcDbEntity
  8
0
100
AcDbLine
 62
7
  6
CONTINUOUS
 10
38.339407985
 20
129.2539349307
 11
38.339407985
 21
117.1852346534
  0
LINE
  5
231
100
AcDbEntity
  8
0
100
AcDbLine
 62
7
  6
CONTINUOUS
 10
38.3784066044
 20
129.85664075
 11
38.3784066044
 21
129.2195847909
  0
LINE
  5
232
100
AcDbEntity
  8
0
100
AcDbLine
 62
7
  6
CONTINUOUS
 10
38.3784066044
 20
123.7195847909
 11
38.3784066044
 21
122.7195847909
  0
LINE
  5
233
100
AcDbEntity
  8
0
100
AcDbLine
 62
7
  6
CONTINUOUS
 10
38.3784066044
 20
117.2195847909
 11
38.3784066044
 21
116.5825288318
  0
LINE
  5
234
100
AcDbEntity
  8
0
100
AcDbLine
 62
7
  6
CONTINUOUS
 10
38.3784066044
 20
164.9195847909
 11
38.3784066044
 21
165.9195847909
  0
LINE
  5
235
100
AcDbEntity
  8
0
100
AcDbLine
 62
7
  6
CONTINUOUS
 10
38.3957093413
 20
164.9195847909
 11
38.3957093413
 21
163.9370371973
  0
LINE
  5
236
100
AcDbEntity
  8
0
100
AcDbLine
 62
7
  6
CONTINUOUS
 10
38.4098257213
 20
129.0621051966
 11
38.4098257213
 21
123.8770643853
  0
LINE
  5
237
100
AcDbEntity
  8
0
100
AcDbLine
 62
7
  6
CONTINUOUS
 10
38.4098257213
 20
122.5621051966
 11
38.4098257213
 21
117.3770643853
  0
LINE
  5
238
100
AcDbEntity
  8
0
100
AcDbLine
 62
7
  6
CONTINUOUS
 10
38.4508073779
 20
130.255758681
 11
38.4508073779
 21
130.2195847909
  0
LINE
  5
239
100
AcDbEntity
  8
0
100
AcDbLine
 62
7
  6
CONTINUOUS
 10
38.4508073779
 20
116.1834109008
 11
38.4508073779
 21
116.2195847909
  0
LINE
  5
23A
100
AcDbEntity
  8
0
100
AcDbLine
 62
7
  6
CONTINUOUS
 10
39.3784066044
 20
100.2655209447
 11
39.3784066044
 21
116.2195847909
  0
LINE
  5
23B
100
AcDbEntity
  8
0
100
AcDbLine
 62
7
  6
CONTINUOUS
 10
39.3784066044
 20
130.2195847909
 11
39.3784066044
 21
146.1736486371
  0
LINE
  5
23C
100
AcDbEntity
  8
0
100
AcDbLine
 62
7
  6
CONTINUOUS
 10
39.8348287245
 20
99.7671416931
 11
39.8348287245
 21
116.2195847909
  0
LINE
  5
23D
100
AcDbEntity
  8
0
100
AcDbLine
 62
7
  6
CONTINUOUS
 10
39.8348287245
 20
130.2195847909
 11
39.8348287245
 21
146.6720278887
  0
LINE
  5
23E
100
AcDbEntity
  8
0
100
AcDbLine
 62
7
  6
CONTINUOUS
 10
41.79990267
 20
225.4739806902
 11
41.8784066044
 21
226.9719249924
  0
LINE
  5
23F
100
AcDbEntity
  8
0
100
AcDbLine
 62
7
  6
CONTINUOUS
 10
61.3784066044
 20
224.4195847909
 11
61.1957936758
 21
224.2369718623
  0
LINE
  5
240
100
AcDbEntity
  8
0
100
AcDbLine
 62
7
  6
CONTINUOUS
 10
38.4098257213
 20
129.0621051966
 11
38.3784066044
 21
129.2195847909
  0
LINE
  5
241
100
AcDbEntity
  8
0
100
AcDbLine
 62
7
  6
CONTINUOUS
 10
40.0073078072
 20
183.6383965554
 11
40.1786958041
 21
173.8195847909
  0
LINE
  5
242
100
AcDbEntity
  8
0
100
AcDbLine
 62
7
  6
CONTINUOUS
 10
41.882291248
 20
94.7101240118
 11
41.9746379536
 21
89.4195847909
  0
LINE
  5
243
100
AcDbEntity
  8
0
100
AcDbLine
 62
7
  6
CONTINUOUS
 10
40.3784066044
 20
90.7195847909
 11
40.3784066044
 21
94.7363066092
  0
LINE
  5
244
100
AcDbEntity
  8
0
100
AcDbLine
 62
7
  6
CONTINUOUS
 10
40.3784066044
 20
151.4195847909
 11
40.3784066044
 21
229.1195847909
  0
LINE
  5
245
100
AcDbEntity
  8
0
100
AcDbLine
 62
7
  6
CONTINUOUS
 10
40.3784066044
 20
229.7195847909
 11
40.3784066044
 21
238.6195847909
  0
LINE
  5
246
100
AcDbEntity
  8
0
100
AcDbLine
 62
7
  6
CONTINUOUS
 10
40.3776989228
 20
94.973642191
 11
40.3784066044
 21
151.4195847909
  0
LINE
  5
247
100
AcDbEntity
  8
0
100
AcDbLine
 62
7
  6
CONTINUOUS
 10
41.1784066044
 20
237.1995777209
 11
41.1784066044
 21
239.4195847909
  0
LINE
  5
248
100
AcDbEntity
  8
0
100
AcDbLine
 62
7
  6
CONTINUOUS
 10
41.79990267
 20
151.4195847909
 11
41.7999026701
 21
223.9760363927
  0
LINE
  5
249
100
AcDbEntity
  8
0
100
AcDbLine
 62
7
  6
CONTINUOUS
 10
41.8784066044
 20
226.9719249924
 11
41.8784042571
 21
237.1247455596
  0
LINE
  5
24A
100
AcDbEntity
  8
0
100
AcDbLine
 62
7
  6
CONTINUOUS
 10
46.3085863447
 20
229.4195847909
 11
46.3085863447
 21
229.0006190151
  0
LINE
  5
24B
100
AcDbEntity
  8
0
100
AcDbLine
 62
7
  6
CONTINUOUS
 10
46.7526279341
 20
231.2938061206
 11
46.7526279341
 21
233.7453634612
  0
LINE
  5
24C
100
AcDbEntity
  8
0
100
AcDbLine
 62
7
  6
CONTINUOUS
 10
46.8784066044
 20
94.87596042
 11
46.8784066045
 21
94.7886319053
  0
LINE
  5
24D
100
AcDbEntity
  8
0
100
AcDbLine
 62
7
  6
CONTINUOUS
 10
46.8784069405
 20
231.419585127
 11
46.8784048989
 21
231.4087310805
  0
LINE
  5
24E
100
AcDbEntity
  8
0
100
AcDbLine
 62
7
  6
CONTINUOUS
 10
40.4067186893
 20
94.945317073
 11
40.4239292632
 21
151.4195847909
  0
LINE
  5
24F
100
AcDbEntity
  8
0
100
AcDbLine
 62
7
  6
CONTINUOUS
 10
41.9237009451
 20
151.4195847909
 11
41.9064891868
 21
94.9195847909
  0
LINE
  5
250
100
AcDbEntity
  8
0
100
AcDbLine
 62
7
  6
CONTINUOUS
 10
46.8822451739
 20
233.6157462214
 11
46.8803391968
 21
231.532212812
  0
LINE
  5
251
100
AcDbEntity
  8
0
100
AcDbLine
 62
7
  6
CONTINUOUS
 10
46.8803391968
 20
231.532212812
 11
46.8784069405
 21
231.419585127
  0
LINE
  5
252
100
AcDbEntity
  8
0
100
AcDbLine
 62
7
  6
CONTINUOUS
 10
47.3784066044
 20
233.4195847909
 11
47.3434964745
 21
231.4195847909
  0
LINE
  5
253
100
AcDbEntity
  8
0
100
AcDbLine
 62
7
  6
CONTINUOUS
 10
51.0354144731
 20
226.4920265451
 11
50.9569105388
 21
224.994082243
  0
LINE
  5
254
100
AcDbEntity
  8
0
100
AcDbLine
 62
7
  6
CONTINUOUS
 10
38.3784066044
 20
129.85664075
 11
38.4508073779
 21
130.2195847909
  0
LINE
  5
255
100
AcDbEntity
  8
0
100
AcDbLine
 62
7
  6
CONTINUOUS
 10
38.4098257213
 20
123.8770643853
 11
38.3784066044
 21
123.7195847909
  0
LINE
  5
256
100
AcDbEntity
  8
0
100
AcDbLine
 62
7
  6
CONTINUOUS
 10
71.3814655163
 20
226.4226437028
 11
71.561019533
 21
226.6021977195
  0
LINE
  5
257
100
AcDbEntity
  8
0
100
AcDbLine
 62
7
  6
CONTINUOUS
 10
40.4744094615
 20
89.4195847909
 11
55.3784066044
 21
89.4195847909
  0
LINE
  5
258
100
AcDbEntity
  8
0
100
AcDbLine
 62
7
  6
CONTINUOUS
 10
195.3784066044
 20
89.4195847909
 11
210.2824037473
 21
89.4195847909
  0
LINE
  5
259
100
AcDbEntity
  8
0
100
AcDbLine
 62
7
  6
CONTINUOUS
 10
195.3609515395
 20
90.4195847909
 11
55.3958616693
 21
90.4195847909
  0
LINE
  5
25A
100
AcDbEntity
  8
0
100
AcDbLine
 62
7
  6
CONTINUOUS
 10
40.4429903446
 20
91.2195847909
 11
40.3784066044
 21
91.2195847909
  0
LINE
  5
25B
100
AcDbEntity
  8
0
100
AcDbLine
 62
7
  6
CONTINUOUS
 10
39.834828733
 20
99.7671416924
 11
40.3784066044
 21
99.7195847909
  0
LINE
  5
25C
100
AcDbEntity
  8
0
100
AcDbLine
 62
7
  6
CONTINUOUS
 10
52.3784066044
 20
233.4195847909
 11
52.4133167342
 21
231.4195847909
  0
LINE
  5
25D
100
AcDbEntity
  8
0
100
AcDbLine
 62
7
  6
CONTINUOUS
 10
52.8784062682
 20
231.419585127
 11
52.876474012
 21
231.532212812
  0
LINE
  5
25E
100
AcDbEntity
  8
0
100
AcDbLine
 62
7
  6
CONTINUOUS
 10
52.876474012
 20
231.5322128123
 11
52.8745680348
 21
233.6157462214
  0
LINE
  5
25F
100
AcDbEntity
  8
0
100
AcDbLine
 62
7
  6
CONTINUOUS
 10
48.4476175519
 20
151.4195847909
 11
48.4476175519
 21
94.9195847909
  0
LINE
  5
260
100
AcDbEntity
  8
0
100
AcDbLine
 62
7
  6
CONTINUOUS
 10
48.5877504215
 20
223.6203003613
 11
48.5877504294
 21
151.4195847909
  0
LINE
  5
261
100
AcDbEntity
  8
0
100
AcDbLine
 62
7
  6
CONTINUOUS
 10
52.3784066044
 20
223.4961379408
 11
52.3784066044
 21
151.4195847909
  0
LINE
  5
262
100
AcDbEntity
  8
0
100
AcDbLine
 62
7
  6
CONTINUOUS
 10
52.4470083326
 20
94.8509830627
 11
52.4470083326
 21
151.4195847909
  0
LINE
  5
263
100
AcDbEntity
  8
0
100
AcDbLine
 62
7
  6
CONTINUOUS
 10
52.5621417355
 20
151.4195847909
 11
52.5621417355
 21
94.7358496598
  0
LINE
  5
264
100
AcDbEntity
  8
0
100
AcDbLine
 62
7
  6
CONTINUOUS
 10
53.0041852747
 20
231.2938061206
 11
53.0041852747
 21
233.7453634612
  0
LINE
  5
265
100
AcDbEntity
  8
0
100
AcDbLine
 62
7
  6
CONTINUOUS
 10
53.4482268641
 20
229.0006190151
 11
53.4482268641
 21
229.4195847909
  0
LINE
  5
266
100
AcDbEntity
  8
0
100
AcDbLine
 62
7
  6
CONTINUOUS
 10
53.8784066044
 20
151.4195847909
 11
53.8784066044
 21
223.4961379408
  0
LINE
  5
267
100
AcDbEntity
  8
0
100
AcDbLine
 62
7
  6
CONTINUOUS
 10
54.0619132782
 20
94.7101240118
 11
54.0619132782
 21
151.4195847909
  0
LINE
  5
268
100
AcDbEntity
  8
0
100
AcDbLine
 62
7
  6
CONTINUOUS
 10
38.4098257213
 20
117.3770643853
 11
38.3784066044
 21
117.2195847909
  0
LINE
  5
269
100
AcDbEntity
  8
0
100
AcDbLine
 62
7
  6
CONTINUOUS
 10
41.882291248
 20
94.7101240118
 11
54.0619132782
 21
94.7101240118
  0
LINE
  5
26A
100
AcDbEntity
  8
0
100
AcDbLine
 62
7
  6
CONTINUOUS
 10
196.6948999306
 20
94.7101240118
 11
208.8745219608
 21
94.7101240118
  0
LINE
  5
26B
100
AcDbEntity
  8
0
100
AcDbLine
 62
7
  6
CONTINUOUS
 10
46.8786442968
 20
94.7886319053
 11
40.3806923955
 21
94.7886319053
  0
LINE
  5
26C
100
AcDbEntity
  8
0
100
AcDbLine
 62
7
  6
CONTINUOUS
 10
46.8784066044
 20
94.87596042
 11
40.3791680706
 21
94.87596042
  0
LINE
  5
26D
100
AcDbEntity
  8
0
100
AcDbLine
 62
7
  6
CONTINUOUS
 10
208.8503240218
 20
94.9195847909
 11
202.3090447195
 21
94.9195847909
  0
LINE
  5
26E
100
AcDbEntity
  8
0
100
AcDbLine
 62
7
  6
CONTINUOUS
 10
41.9064891868
 20
94.9195847909
 11
48.4476175519
 21
94.9195847909
  0
LINE
  5
26F
100
AcDbEntity
  8
0
100
AcDbLine
 62
7
  6
CONTINUOUS
 10
61.3784066044
 20
224.4195847909
 11
61.3753476925
 21
226.4226437028
  0
LINE
  5
270
100
AcDbEntity
  8
0
100
AcDbLine
 62
7
  6
CONTINUOUS
 10
63.8753476925
 20
226.4226437028
 11
63.876421348
 21
225.7195847909
  0
LINE
  5
271
100
AcDbEntity
  8
0
100
AcDbLine
 62
7
  6
CONTINUOUS
 10
56.3784066044
 20
192.4195847909
 11
56.3784066044
 21
221.4195847909
  0
LINE
  5
272
100
AcDbEntity
  8
0
100
AcDbLine
 62
7
  6
CONTINUOUS
 10
60.3784066044
 20
161.4195847909
 11
60.3784066044
 21
176.4195847909
  0
LINE
  5
273
100
AcDbEntity
  8
0
100
AcDbLine
 62
7
  6
CONTINUOUS
 10
61.1957936758
 20
224.2369718623
 11
61.1957936758
 21
226.6021977195
  0
LINE
  5
274
100
AcDbEntity
  8
0
100
AcDbLine
 62
7
  6
CONTINUOUS
 10
61.4784066044
 20
178.6981964598
 11
61.4784066044
 21
178.7244003495
  0
LINE
  5
275
100
AcDbEntity
  8
0
100
AcDbLine
 62
7
  6
CONTINUOUS
 10
61.4784066044
 20
181.3147692323
 11
61.4784066044
 21
181.340973122
  0
LINE
  5
276
100
AcDbEntity
  8
0
100
AcDbLine
 62
7
  6
CONTINUOUS
 10
61.4784066044
 20
183.6981964598
 11
61.4784066044
 21
183.7244003495
  0
LINE
  5
277
100
AcDbEntity
  8
0
100
AcDbLine
 62
7
  6
CONTINUOUS
 10
61.4784066044
 20
186.3147692323
 11
61.4784066044
 21
186.340973122
  0
LINE
  5
278
100
AcDbEntity
  8
0
100
AcDbLine
 62
7
  6
CONTINUOUS
 10
61.4784066044
 20
188.6981964598
 11
61.4784066044
 21
188.7244003495
  0
LINE
  5
279
100
AcDbEntity
  8
0
100
AcDbLine
 62
7
  6
CONTINUOUS
 10
55.3958616693
 20
90.4195847909
 11
55.3784066044
 21
89.4195847909
  0
LINE
  5
27A
100
AcDbEntity
  8
0
100
AcDbLine
 62
7
  6
CONTINUOUS
 10
65.9427632279
 20
224.4195847909
 11
65.9200716434
 21
225.7195847909
  0
LINE
  5
27B
100
AcDbEntity
  8
0
100
AcDbLine
 62
7
  6
CONTINUOUS
 10
67.6898266687
 20
160.3457542923
 11
67.6965018551
 21
155.9739944549
  0
LINE
  5
27C
100
AcDbEntity
  8
0
100
AcDbLine
 62
7
  6
CONTINUOUS
 10
67.8365144486
 20
149.3776926351
 11
67.8365144486
 21
151.4195847909
  0
LINE
  5
27D
100
AcDbEntity
  8
0
100
AcDbLine
 62
7
  6
CONTINUOUS
 10
67.8749155914
 20
149.4160937779
 11
67.8749155914
 21
151.4195847909
  0
LINE
  5
27E
100
AcDbEntity
  8
0
100
AcDbLine
 62
7
  6
CONTINUOUS
 10
67.8784066044
 20
156.1195847909
 11
67.8784066044
 21
160.1195847909
  0
LINE
  5
27F
100
AcDbEntity
  8
0
100
AcDbLine
 62
7
  6
CONTINUOUS
 10
68.9053595333
 20
157.2124780097
 11
68.9053595333
 21
157.5660314003
  0
LINE
  5
280
100
AcDbEntity
  8
0
100
AcDbLine
 62
7
  6
CONTINUOUS
 10
68.9837667862
 20
159.7731381815
 11
68.9837667862
 21
159.9195847909
  0
LINE
  5
281
100
AcDbEntity
  8
0
100
AcDbLine
 62
7
  6
CONTINUOUS
 10
71.561019533
 20
226.6021977195
 11
71.561019533
 21
224.2369718623
  0
LINE
  5
282
100
AcDbEntity
  8
0
100
AcDbLine
 62
7
  6
CONTINUOUS
 10
70.8803918608
 20
225.7195847909
 11
70.8814655163
 21
226.4226437028
  0
LINE
  5
283
100
AcDbEntity
  8
0
100
AcDbLine
 62
7
  6
CONTINUOUS
 10
71.3814655163
 20
226.4226437028
 11
71.3784066044
 21
224.4195847909
  0
LINE
  5
284
100
AcDbEntity
  8
0
100
AcDbLine
 62
7
  6
CONTINUOUS
 10
68.3784066044
 20
156.4492530855
 11
68.4056641198
 21
157.2299251004
  0
LINE
  5
285
100
AcDbEntity
  8
0
100
AcDbLine
 62
7
  6
CONTINUOUS
 10
68.3678100785
 20
156.1195847909
 11
68.3784061095
 21
156.4230616393
  0
LINE
  5
286
100
AcDbEntity
  8
0
100
AcDbLine
 62
7
  6
CONTINUOUS
 10
68.8790161023
 20
156.4579859337
 11
68.9053595333
 21
157.2124780097
  0
LINE
  5
287
100
AcDbEntity
  8
0
100
AcDbLine
 62
7
  6
CONTINUOUS
 10
68.4056641198
 20
157.2299251004
 11
68.4840713727
 21
159.4370318816
  0
LINE
  5
288
100
AcDbEntity
  8
0
100
AcDbLine
 62
7
  6
CONTINUOUS
 10
68.9837667862
 20
159.7731381815
 11
68.9053595333
 21
157.5660314003
  0
LINE
  5
289
100
AcDbEntity
  8
0
100
AcDbLine
 62
7
  6
CONTINUOUS
 10
38.4508073779
 20
116.2195847909
 11
40.3779652903
 21
116.2195847909
  0
LINE
  5
28A
100
AcDbEntity
  8
0
100
AcDbLine
 62
7
  6
CONTINUOUS
 10
36.8696804011
 20
117.2108573479
 11
36.3784066044
 21
117.2108573479
  0
LINE
  5
28B
100
AcDbEntity
  8
0
100
AcDbLine
 62
7
  6
CONTINUOUS
 10
38.3784066044
 20
117.2195847909
 11
40.3779778276
 21
117.2195847909
  0
LINE
  5
28C
100
AcDbEntity
  8
0
100
AcDbLine
 62
7
  6
CONTINUOUS
 10
38.3784066044
 20
116.5825288318
 11
40.3779698023
 21
116.5794757233
  0
LINE
  5
28D
100
AcDbEntity
  8
0
100
AcDbLine
 62
7
  6
CONTINUOUS
 10
40.3779812433
 20
117.4920285368
 11
38.4098257213
 21
117.4950341471
  0
LINE
  5
28E
100
AcDbEntity
  8
0
100
AcDbLine
 62
7
  6
CONTINUOUS
 10
38.4508073779
 20
116.1834109008
 11
36.8696804011
 21
116.2110095749
  0
LINE
  5
28F
100
AcDbEntity
  8
0
100
AcDbLine
 62
7
  6
CONTINUOUS
 10
36.8696804011
 20
117.2108572684
 11
38.339407985
 21
117.1852030796
  0
LINE
  5
290
100
AcDbEntity
  8
0
100
AcDbLine
 62
7
  6
CONTINUOUS
 10
75.8514536755
 20
157.5660314003
 11
75.7730464226
 21
159.7731381815
  0
LINE
  5
291
100
AcDbEntity
  8
0
100
AcDbLine
 62
7
  6
CONTINUOUS
 10
76.2727418361
 20
159.4370318816
 11
76.351149089
 21
157.2299251004
  0
LINE
  5
292
100
AcDbEntity
  8
0
100
AcDbLine
 62
7
  6
CONTINUOUS
 10
75.8777971065
 20
156.4579859337
 11
75.8514536755
 21
157.2124780097
  0
LINE
  5
293
100
AcDbEntity
  8
0
100
AcDbLine
 62
7
  6
CONTINUOUS
 10
76.3894340756
 20
156.1195847909
 11
76.3788129054
 21
156.4230758082
  0
LINE
  5
294
100
AcDbEntity
  8
0
100
AcDbLine
 62
7
  6
CONTINUOUS
 10
76.3784066044
 20
156.4492530855
 11
76.351149089
 21
157.2299251004
  0
LINE
  5
295
100
AcDbEntity
  8
0
100
AcDbLine
 62
7
  6
CONTINUOUS
 10
75.7730464226
 20
159.9195847909
 11
75.7730464226
 21
159.7731381815
  0
LINE
  5
296
100
AcDbEntity
  8
0
100
AcDbLine
 62
7
  6
CONTINUOUS
 10
75.8514536755
 20
157.5660314003
 11
75.8514536755
 21
157.2124780097
  0
LINE
  5
297
100
AcDbEntity
  8
0
100
AcDbLine
 62
7
  6
CONTINUOUS
 10
76.8784066044
 20
160.1195847909
 11
76.8784066044
 21
156.1195847909
  0
LINE
  5
298
100
AcDbEntity
  8
0
100
AcDbLine
 62
7
  6
CONTINUOUS
 10
76.8818976174
 20
151.4195847909
 11
76.8818976174
 21
149.4160937779
  0
LINE
  5
299
100
AcDbEntity
  8
0
100
AcDbLine
 62
7
  6
CONTINUOUS
 10
76.9202987602
 20
149.3776926351
 11
76.9202987602
 21
151.4195847909
  0
LINE
  5
29A
100
AcDbEntity
  8
0
100
AcDbLine
 62
7
  6
CONTINUOUS
 10
77.0669865401
 20
160.3457542923
 11
77.0603113537
 21
155.9739944549
  0
LINE
  5
29B
100
AcDbEntity
  8
0
100
AcDbLine
 62
7
  6
CONTINUOUS
 10
80.2784066044
 20
173.9195847909
 11
79.4450733207
 21
171.3663933079
  0
LINE
  5
29C
100
AcDbEntity
  8
0
100
AcDbLine
 62
7
  6
CONTINUOUS
 10
79.2367398881
 20
170.5153295796
 11
77.3617400371
 21
164.7706485192
  0
LINE
  5
29D
100
AcDbEntity
  8
0
100
AcDbLine
 62
7
  6
CONTINUOUS
 10
38.4098257213
 20
122.4441354347
 11
40.3780433672
 21
122.4471411399
  0
LINE
  5
29E
100
AcDbEntity
  8
0
100
AcDbLine
 62
7
  6
CONTINUOUS
 10
38.3784066044
 20
122.7195847909
 11
40.3780467829
 21
122.7195847909
  0
LINE
  5
29F
100
AcDbEntity
  8
0
100
AcDbLine
 62
7
  6
CONTINUOUS
 10
38.3784066044
 20
123.7195847909
 11
40.3780593203
 21
123.7195847909
  0
LINE
  5
2A0
100
AcDbEntity
  8
0
100
AcDbLine
 62
7
  6
CONTINUOUS
 10
40.378062736
 20
123.9920284124
 11
38.4098257213
 21
123.9950341471
  0
LINE
  5
2A1
100
AcDbEntity
  8
0
100
AcDbLine
 62
7
  6
CONTINUOUS
 10
67.8784066044
 20
160.1195847909
 11
67.6898266687
 21
160.3457542923
  0
LINE
  5
2A2
100
AcDbEntity
  8
0
100
AcDbLine
 62
7
  6
CONTINUOUS
 10
73.1950734697
 20
173.9195847909
 11
76.5284066044
 21
163.9195847909
  0
LINE
  5
2A3
100
AcDbEntity
  8
0
100
AcDbLine
 62
7
  6
CONTINUOUS
 10
77.3617400371
 20
164.7706485192
 11
75.486739739
 21
170.5153295796
  0
LINE
  5
2A4
100
AcDbEntity
  8
0
100
AcDbLine
 62
7
  6
CONTINUOUS
 10
75.2784066044
 20
171.3663933079
 11
74.4450734697
 21
173.9195847909
  0
LINE
  5
2A5
100
AcDbEntity
  8
0
100
AcDbLine
 62
7
  6
CONTINUOUS
 10
82.6284066044
 20
238.7109070107
 11
82.6284066044
 21
239.6195816572
  0
LINE
  5
2A6
100
AcDbEntity
  8
0
100
AcDbLine
 62
7
  6
CONTINUOUS
 10
87.2784066044
 20
188.7244003495
 11
87.2784066044
 21
188.6981964598
  0
LINE
  5
2A7
100
AcDbEntity
  8
0
100
AcDbLine
 62
7
  6
CONTINUOUS
 10
87.2784066044
 20
183.7244003495
 11
87.2784066044
 21
183.6981964598
  0
LINE
  5
2A8
100
AcDbEntity
  8
0
100
AcDbLine
 62
7
  6
CONTINUOUS
 10
87.2784066044
 20
178.7244003495
 11
87.2784066044
 21
178.6981964598
  0
LINE
  5
2A9
100
AcDbEntity
  8
0
100
AcDbLine
 62
7
  6
CONTINUOUS
 10
78.1950731717
 20
163.9195847909
 11
81.5284066044
 21
173.9195847909
  0
LINE
  5
2AA
100
AcDbEntity
  8
0
100
AcDbLine
 62
7
  6
CONTINUOUS
 10
38.339407985
 20
129.2539665022
 11
36.8696804011
 21
129.2283123104
  0
LINE
  5
2AB
100
AcDbEntity
  8
0
100
AcDbLine
 62
7
  6
CONTINUOUS
 10
36.8696804011
 20
130.2281600069
 11
38.4508073779
 21
130.255758681
  0
LINE
  5
2AC
100
AcDbEntity
  8
0
100
AcDbLine
 62
7
  6
CONTINUOUS
 10
38.4098257213
 20
128.9441354347
 11
40.3781248599
 21
128.9471412643
  0
LINE
  5
2AD
100
AcDbEntity
  8
0
100
AcDbLine
 62
7
  6
CONTINUOUS
 10
38.3784066044
 20
129.85664075
 11
40.3781363009
 21
129.8596941127
  0
LINE
  5
2AE
100
AcDbEntity
  8
0
100
AcDbLine
 62
7
  6
CONTINUOUS
 10
38.3784066044
 20
129.2195847909
 11
40.3781282756
 21
129.2195847909
  0
LINE
  5
2AF
100
AcDbEntity
  8
0
100
AcDbLine
 62
7
  6
CONTINUOUS
 10
36.3784066044
 20
129.2283123099
 11
36.8696804011
 21
129.2283123099
  0
LINE
  5
2B0
100
AcDbEntity
  8
0
100
AcDbLine
 62
7
  6
CONTINUOUS
 10
38.4508073779
 20
130.2195847909
 11
40.3781408129
 21
130.2195847909
  0
LINE
  5
2B1
100
AcDbEntity
  8
0
100
AcDbLine
 62
7
  6
CONTINUOUS
 10
76.8784066044
 20
156.1195847909
 11
77.0603113537
 21
155.9739944549
  0
LINE
  5
2B2
100
AcDbEntity
  8
0
100
AcDbLine
 62
7
  6
CONTINUOUS
 10
94.3784066044
 20
176.4195847909
 11
94.3784066044
 21
161.4195847909
  0
LINE
  5
2B3
100
AcDbEntity
  8
0
100
AcDbLine
 62
7
  6
CONTINUOUS
 10
76.8784066044
 20
160.1195847909
 11
77.0669865401
 21
160.3457542923
  0
LINE
  5
2B4
100
AcDbEntity
  8
0
100
AcDbLine
 62
7
  6
CONTINUOUS
 10
145.3784066044
 20
234.8195847909
 11
145.8784066044
 21
235.3195847909
  0
LINE
  5
2B5
100
AcDbEntity
  8
0
100
AcDbLine
 62
7
  6
CONTINUOUS
 10
142.1784066044
 20
231.2924303634
 11
142.2055610319
 21
231.3195847909
  0
LINE
  5
2B6
100
AcDbEntity
  8
0
100
AcDbLine
 62
7
  6
CONTINUOUS
 10
67.8784066044
 20
156.1195847909
 11
67.6965018551
 21
155.9739944549
  0
LINE
  5
2B7
100
AcDbEntity
  8
0
100
AcDbLine
 62
7
  6
CONTINUOUS
 10
101.3784066044
 20
191.9195847909
 11
101.3784066044
 21
192.4195847909
  0
LINE
  5
2B8
100
AcDbEntity
  8
0
100
AcDbLine
 62
7
  6
CONTINUOUS
 10
182.9202987602
 20
149.3776926351
 11
173.8365144486
 21
149.3776926351
  0
LINE
  5
2B9
100
AcDbEntity
  8
0
100
AcDbLine
 62
7
  6
CONTINUOUS
 10
76.9202987602
 20
149.3776926351
 11
67.8365144486
 21
149.3776926351
  0
LINE
  5
2BA
100
AcDbEntity
  8
0
100
AcDbLine
 62
7
  6
CONTINUOUS
 10
67.8749155914
 20
149.4160937779
 11
76.8818976174
 21
149.4160937779
  0
LINE
  5
2BB
100
AcDbEntity
  8
0
100
AcDbLine
 62
7
  6
CONTINUOUS
 10
173.8749155914
 20
149.4160937779
 11
182.8818976174
 21
149.4160937779
  0
LINE
  5
2BC
100
AcDbEntity
  8
0
100
AcDbLine
 62
7
  6
CONTINUOUS
 10
105.1284066044
 20
239.6195816572
 11
105.1284066044
 21
238.7109070107
  0
LINE
  5
2BD
100
AcDbEntity
  8
0
100
AcDbLine
 62
7
  6
CONTINUOUS
 10
105.6284066044
 20
238.7109070107
 11
105.6284066044
 21
238.9105526718
  0
LINE
  5
2BE
100
AcDbEntity
  8
0
100
AcDbLine
 62
7
  6
CONTINUOUS
 10
39.834828733
 20
146.6720278894
 11
40.3784066044
 21
146.7195847909
  0
LINE
  5
2BF
100
AcDbEntity
  8
0
100
AcDbLine
 62
7
  6
CONTINUOUS
 10
181.8514536755
 20
157.2124780097
 11
182.351149089
 21
157.2299251004
  0
LINE
  5
2C0
100
AcDbEntity
  8
0
100
AcDbLine
 62
7
  6
CONTINUOUS
 10
210.3784066044
 20
151.4195847909
 11
40.3784066044
 21
151.4195847909
  0
LINE
  5
2C1
100
AcDbEntity
  8
0
100
AcDbLine
 62
7
  6
CONTINUOUS
 10
35.8784032226
 20
155.2195847909
 11
30.8784099862
 21
155.2195847909
  0
LINE
  5
2C2
100
AcDbEntity
  8
0
100
AcDbLine
 62
7
  6
CONTINUOUS
 10
183.0603113537
 20
155.9739944549
 11
173.6965018551
 21
155.9739944549
  0
LINE
  5
2C3
100
AcDbEntity
  8
0
100
AcDbLine
 62
7
  6
CONTINUOUS
 10
77.0603113537
 20
155.9739944549
 11
67.6965018551
 21
155.9739944549
  0
LINE
  5
2C4
100
AcDbEntity
  8
0
100
AcDbLine
 62
7
  6
CONTINUOUS
 10
76.8784066044
 20
156.1195847909
 11
67.8784066044
 21
156.1195847909
  0
LINE
  5
2C5
100
AcDbEntity
  8
0
100
AcDbLine
 62
7
  6
CONTINUOUS
 10
173.8784066044
 20
156.1195847909
 11
182.8784066044
 21
156.1195847909
  0
LINE
  5
2C6
100
AcDbEntity
  8
0
100
AcDbLine
 62
7
  6
CONTINUOUS
 10
68.3780003034
 20
156.4230758082
 11
76.3788129054
 21
156.4230758082
  0
LINE
  5
2C7
100
AcDbEntity
  8
0
100
AcDbLine
 62
7
  6
CONTINUOUS
 10
174.3780003034
 20
156.4230758082
 11
182.3788129054
 21
156.4230758082
  0
LINE
  5
2C8
100
AcDbEntity
  8
0
100
AcDbLine
 62
7
  6
CONTINUOUS
 10
181.8777971065
 20
156.4579859337
 11
174.8790161023
 21
156.4579859337
  0
LINE
  5
2C9
100
AcDbEntity
  8
0
100
AcDbLine
 62
7
  6
CONTINUOUS
 10
75.8777971065
 20
156.4579859337
 11
68.8790161023
 21
156.4579859337
  0
LINE
  5
2CA
100
AcDbEntity
  8
0
100
AcDbLine
 62
7
  6
CONTINUOUS
 10
26.3784066044
 20
156.9195847909
 11
40.3784066044
 21
156.9195847909
  0
LINE
  5
2CB
100
AcDbEntity
  8
0
100
AcDbLine
 62
7
  6
CONTINUOUS
 10
68.9053595333
 20
157.2124780097
 11
75.8514536755
 21
157.2124780097
  0
LINE
  5
2CC
100
AcDbEntity
  8
0
100
AcDbLine
 62
7
  6
CONTINUOUS
 10
174.9053595333
 20
157.2124780097
 11
181.8514536755
 21
157.2124780097
  0
LINE
  5
2CD
100
AcDbEntity
  8
0
100
AcDbLine
 62
7
  6
CONTINUOUS
 10
181.8514536755
 20
157.5660314003
 11
174.9053595333
 21
157.5660314003
  0
LINE
  5
2CE
100
AcDbEntity
  8
0
100
AcDbLine
 62
7
  6
CONTINUOUS
 10
75.8514536755
 20
157.5660314003
 11
68.9053595333
 21
157.5660314003
  0
LINE
  5
2CF
100
AcDbEntity
  8
0
100
AcDbLine
 62
7
  6
CONTINUOUS
 10
76.3295815855
 20
157.8370345393
 11
76.8784066044
 21
157.837036523
  0
LINE
  5
2D0
100
AcDbEntity
  8
0
100
AcDbLine
 62
7
  6
CONTINUOUS
 10
68.4056641198
 20
157.2299251004
 11
68.9053595333
 21
157.2124780097
  0
LINE
  5
2D1
100
AcDbEntity
  8
0
100
AcDbLine
 62
7
  6
CONTINUOUS
 10
75.8514536755
 20
157.2124780097
 11
76.351149089
 21
157.2299251004
  0
LINE
  5
2D2
100
AcDbEntity
  8
0
100
AcDbLine
 62
7
  6
CONTINUOUS
 10
76.3124390349
 20
158.3195847909
 11
76.8784066044
 21
158.3195847909
  0
LINE
  5
2D3
100
AcDbEntity
  8
0
100
AcDbLine
 62
7
  6
CONTINUOUS
 10
68.4677349712
 20
158.9544842876
 11
67.8784066044
 21
158.9544842876
  0
LINE
  5
2D4
100
AcDbEntity
  8
0
100
AcDbLine
 62
7
  6
CONTINUOUS
 10
68.9837667862
 20
159.7731381815
 11
75.7730464226
 21
159.7731381815
  0
LINE
  5
2D5
100
AcDbEntity
  8
0
100
AcDbLine
 62
7
  6
CONTINUOUS
 10
174.9837667862
 20
159.7731381815
 11
181.7730464226
 21
159.7731381815
  0
LINE
  5
2D6
100
AcDbEntity
  8
0
100
AcDbLine
 62
7
  6
CONTINUOUS
 10
181.7730464226
 20
159.9195847909
 11
174.9837667862
 21
159.9195847909
  0
LINE
  5
2D7
100
AcDbEntity
  8
0
100
AcDbLine
 62
7
  6
CONTINUOUS
 10
67.8784066044
 20
159.9195847909
 11
75.7730464226
 21
159.9195847909
  0
LINE
  5
2D8
100
AcDbEntity
  8
0
100
AcDbLine
 62
7
  6
CONTINUOUS
 10
67.8784066044
 20
160.1195847909
 11
76.8784066044
 21
160.1195847909
  0
LINE
  5
2D9
100
AcDbEntity
  8
0
100
AcDbLine
 62
7
  6
CONTINUOUS
 10
173.8784066044
 20
160.1195847909
 11
182.8784066044
 21
160.1195847909
  0
LINE
  5
2DA
100
AcDbEntity
  8
0
100
AcDbLine
 62
7
  6
CONTINUOUS
 10
67.6898266687
 20
160.3457542923
 11
77.0669865401
 21
160.3457542923
  0
LINE
  5
2DB
100
AcDbEntity
  8
0
100
AcDbLine
 62
7
  6
CONTINUOUS
 10
173.6898266687
 20
160.3457542923
 11
183.0669865401
 21
160.3457542923
  0
LINE
  5
2DC
100
AcDbEntity
  8
0
100
AcDbLine
 62
7
  6
CONTINUOUS
 10
94.3784066044
 20
161.4195847909
 11
60.3784066044
 21
161.4195847909
  0
LINE
  5
2DD
100
AcDbEntity
  8
0
100
AcDbLine
 62
7
  6
CONTINUOUS
 10
78.1950731717
 20
163.9195847909
 11
76.5284066044
 21
163.9195847909
  0
LINE
  5
2DE
100
AcDbEntity
  8
0
100
AcDbLine
 62
7
  6
CONTINUOUS
 10
27.5007443869
 20
163.9370371973
 11
38.3957093413
 21
163.9370371973
  0
LINE
  5
2DF
100
AcDbEntity
  8
0
100
AcDbLine
 62
7
  6
CONTINUOUS
 10
38.3957093413
 20
164.9195847909
 11
27.5007443869
 21
164.9195847909
  0
LINE
  5
2E0
100
AcDbEntity
  8
0
100
AcDbLine
 62
7
  6
CONTINUOUS
 10
28.3784709334
 20
165.9195847909
 11
38.3783422754
 21
165.9195847909
  0
LINE
  5
2E1
100
AcDbEntity
  8
0
100
AcDbLine
 62
7
  6
CONTINUOUS
 10
174.4056641198
 20
157.2299251004
 11
174.9053595333
 21
157.2124780097
  0
LINE
  5
2E2
100
AcDbEntity
  8
0
100
AcDbLine
 62
7
  6
CONTINUOUS
 10
46.7526279341
 20
233.7453634612
 11
46.8822451739
 21
233.6157462214
  0
LINE
  5
2E3
100
AcDbEntity
  8
0
100
AcDbLine
 62
7
  6
CONTINUOUS
 10
52.8784062682
 20
231.419585127
 11
52.8891481071
 21
231.4088248619
  0
LINE
  5
2E4
100
AcDbEntity
  8
0
100
AcDbLine
 62
7
  6
CONTINUOUS
 10
120.6284066044
 20
239.7155117818
 11
120.6284066044
 21
239.6195847909
  0
LINE
  5
2E5
100
AcDbEntity
  8
0
100
AcDbLine
 62
7
  6
CONTINUOUS
 10
121.2784066044
 20
188.7244003495
 11
121.2784066044
 21
188.6981964598
  0
LINE
  5
2E6
100
AcDbEntity
  8
0
100
AcDbLine
 62
7
  6
CONTINUOUS
 10
121.2784066044
 20
186.340973122
 11
121.2784066044
 21
186.3147692323
  0
LINE
  5
2E7
100
AcDbEntity
  8
0
100
AcDbLine
 62
7
  6
CONTINUOUS
 10
121.2784066044
 20
183.7244003495
 11
121.2784066044
 21
183.6981964598
  0
LINE
  5
2E8
100
AcDbEntity
  8
0
100
AcDbLine
 62
7
  6
CONTINUOUS
 10
121.2784066044
 20
181.340973122
 11
121.2784066044
 21
181.3147692323
  0
LINE
  5
2E9
100
AcDbEntity
  8
0
100
AcDbLine
 62
7
  6
CONTINUOUS
 10
121.2784066044
 20
178.7244003495
 11
121.2784066044
 21
178.6981964598
  0
LINE
  5
2EA
100
AcDbEntity
  8
0
100
AcDbLine
 62
7
  6
CONTINUOUS
 10
121.2784066044
 20
176.340973122
 11
121.2784066044
 21
176.3147692323
  0
LINE
  5
2EB
100
AcDbEntity
  8
0
100
AcDbLine
 62
7
  6
CONTINUOUS
 10
125.1284066044
 20
238.9105526718
 11
125.1284066044
 21
238.7109070107
  0
LINE
  5
2EC
100
AcDbEntity
  8
0
100
AcDbLine
 62
7
  6
CONTINUOUS
 10
125.6284066044
 20
238.7403450642
 11
125.6284066044
 21
239.7195847909
  0
LINE
  5
2ED
100
AcDbEntity
  8
0
100
AcDbLine
 62
7
  6
CONTINUOUS
 10
126.1284066044
 20
239.7195847909
 11
126.1284066044
 21
239.0994566884
  0
LINE
  5
2EE
100
AcDbEntity
  8
0
100
AcDbLine
 62
7
  6
CONTINUOUS
 10
126.3784066044
 20
192.4195847909
 11
126.3784066044
 21
221.4195847909
  0
LINE
  5
2EF
100
AcDbEntity
  8
0
100
AcDbLine
 62
7
  6
CONTINUOUS
 10
126.8784066044
 20
202.4195847909
 11
126.8784066044
 21
191.9195847909
  0
LINE
  5
2F0
100
AcDbEntity
  8
0
100
AcDbLine
 62
7
  6
CONTINUOUS
 10
197.8730321627
 20
231.4088285371
 11
197.7526279341
 21
231.2938061206
  0
LINE
  5
2F1
100
AcDbEntity
  8
0
100
AcDbLine
 62
7
  6
CONTINUOUS
 10
28.7784672542
 20
167.2195847909
 11
37.9783459546
 21
167.2195847909
  0
LINE
  5
2F2
100
AcDbEntity
  8
0
100
AcDbLine
 62
7
  6
CONTINUOUS
 10
29.0062711521
 20
168.681083259
 11
37.7505420567
 21
168.681083259
  0
LINE
  5
2F3
100
AcDbEntity
  8
0
100
AcDbLine
 62
7
  6
CONTINUOUS
 10
30.1727539826
 20
170.0834851393
 11
36.5840593619
 21
170.0834851017
  0
LINE
  5
2F4
100
AcDbEntity
  8
0
100
AcDbLine
 62
7
  6
CONTINUOUS
 10
79.2367398881
 20
170.5153295796
 11
75.486739739
 21
170.5153295796
  0
LINE
  5
2F5
100
AcDbEntity
  8
0
100
AcDbLine
 62
7
  6
CONTINUOUS
 10
75.2784066044
 20
171.3663933079
 11
79.4450733207
 21
171.3663933079
  0
LINE
  5
2F6
100
AcDbEntity
  8
0
100
AcDbLine
 62
7
  6
CONTINUOUS
 10
73.1950734697
 20
173.9195847909
 11
74.4450734697
 21
173.9195847909
  0
LINE
  5
2F7
100
AcDbEntity
  8
0
100
AcDbLine
 62
7
  6
CONTINUOUS
 10
80.2784066044
 20
173.9195847909
 11
81.5284066044
 21
173.9195847909
  0
LINE
  5
2F8
100
AcDbEntity
  8
0
100
AcDbLine
 62
7
  6
CONTINUOUS
 10
53.0041852747
 20
231.2938061206
 11
52.883781046
 21
231.4088285371
  0
LINE
  5
2F9
100
AcDbEntity
  8
0
100
AcDbLine
 62
7
  6
CONTINUOUS
 10
61.3753476925
 20
226.4226437028
 11
61.1957936758
 21
226.6021977195
  0
LINE
  5
2FA
100
AcDbEntity
  8
0
100
AcDbLine
 62
7
  6
CONTINUOUS
 10
71.3784066044
 20
224.4195847909
 11
71.5610195329
 21
224.2369718623
  0
LINE
  5
2FB
100
AcDbEntity
  8
0
100
AcDbLine
 62
7
  6
CONTINUOUS
 10
132.7784066044
 20
237.6531814399
 11
132.7784066044
 21
237.4694528979
  0
LINE
  5
2FC
100
AcDbEntity
  8
0
100
AcDbLine
 62
7
  6
CONTINUOUS
 10
132.8784066044
 20
237.4595293945
 11
132.8784066044
 21
237.6625979123
  0
LINE
  5
2FD
100
AcDbEntity
  8
0
100
AcDbLine
 62
7
  6
CONTINUOUS
 10
134.1784066044
 20
237.6625979123
 11
134.1784066044
 21
237.489223799
  0
LINE
  5
2FE
100
AcDbEntity
  8
0
100
AcDbLine
 62
7
  6
CONTINUOUS
 10
134.2784066044
 20
237.489223799
 11
134.2784066044
 21
237.6342724909
  0
LINE
  5
2FF
100
AcDbEntity
  8
0
100
AcDbLine
 62
7
  6
CONTINUOUS
 10
135.0784066044
 20
237.5624611557
 11
135.0784066044
 21
237.5074339499
  0
LINE
  5
300
100
AcDbEntity
  8
0
100
AcDbLine
 62
7
  6
CONTINUOUS
 10
203.8745680349
 20
233.6157462214
 11
204.0041852747
 21
233.7453634612
  0
LINE
  5
301
100
AcDbEntity
  8
0
100
AcDbLine
 62
7
  6
CONTINUOUS
 10
40.3784066044
 20
173.8230707559
 11
40.1786958041
 21
173.8195847909
  0
LINE
  5
302
100
AcDbEntity
  8
0
100
AcDbLine
 62
7
  6
CONTINUOUS
 10
210.8784066044
 20
174.4195847909
 11
210.3784066044
 21
174.4195847909
  0
LINE
  5
303
100
AcDbEntity
  8
0
100
AcDbLine
 62
7
  6
CONTINUOUS
 10
189.2784066044
 20
176.3147692323
 11
163.4784066044
 21
176.3147692323
  0
LINE
  5
304
100
AcDbEntity
  8
0
100
AcDbLine
 62
7
  6
CONTINUOUS
 10
155.2784066044
 20
176.3147692323
 11
129.4784066044
 21
176.3147692323
  0
LINE
  5
305
100
AcDbEntity
  8
0
100
AcDbLine
 62
7
  6
CONTINUOUS
 10
121.2784066044
 20
176.3147692323
 11
95.4784066044
 21
176.3147692323
  0
LINE
  5
306
100
AcDbEntity
  8
0
100
AcDbLine
 62
7
  6
CONTINUOUS
 10
189.2784066044
 20
176.340973122
 11
163.4784066044
 21
176.340973122
  0
LINE
  5
307
100
AcDbEntity
  8
0
100
AcDbLine
 62
7
  6
CONTINUOUS
 10
155.2784066044
 20
176.340973122
 11
129.4784066044
 21
176.340973122
  0
LINE
  5
308
100
AcDbEntity
  8
0
100
AcDbLine
 62
7
  6
CONTINUOUS
 10
121.2784066044
 20
176.340973122
 11
95.4784066044
 21
176.340973122
  0
LINE
  5
309
100
AcDbEntity
  8
0
100
AcDbLine
 62
7
  6
CONTINUOUS
 10
60.3784066044
 20
176.4195847909
 11
94.3784066044
 21
176.4195847909
  0
LINE
  5
30A
100
AcDbEntity
  8
0
100
AcDbLine
 62
7
  6
CONTINUOUS
 10
61.4784066044
 20
178.6981964598
 11
87.2784066044
 21
178.6981964598
  0
LINE
  5
30B
100
AcDbEntity
  8
0
100
AcDbLine
 62
7
  6
CONTINUOUS
 10
95.4784066044
 20
178.6981964598
 11
121.2784066044
 21
178.6981964598
  0
LINE
  5
30C
100
AcDbEntity
  8
0
100
AcDbLine
 62
7
  6
CONTINUOUS
 10
129.4784066044
 20
178.6981964598
 11
155.2784066044
 21
178.6981964598
  0
LINE
  5
30D
100
AcDbEntity
  8
0
100
AcDbLine
 62
7
  6
CONTINUOUS
 10
163.4784066044
 20
178.6981964598
 11
189.2784066044
 21
178.6981964598
  0
LINE
  5
30E
100
AcDbEntity
  8
0
100
AcDbLine
 62
7
  6
CONTINUOUS
 10
61.4784066044
 20
178.7244003495
 11
87.2784066044
 21
178.7244003495
  0
LINE
  5
30F
100
AcDbEntity
  8
0
100
AcDbLine
 62
7
  6
CONTINUOUS
 10
95.4784066044
 20
178.7244003495
 11
121.2784066044
 21
178.7244003495
  0
LINE
  5
310
100
AcDbEntity
  8
0
100
AcDbLine
 62
7
  6
CONTINUOUS
 10
129.4784066044
 20
178.7244003495
 11
155.2784066044
 21
178.7244003495
  0
LINE
  5
311
100
AcDbEntity
  8
0
100
AcDbLine
 62
7
  6
CONTINUOUS
 10
163.4784066044
 20
178.7244003495
 11
189.2784066044
 21
178.7244003495
  0
LINE
  5
312
100
AcDbEntity
  8
0
100
AcDbLine
 62
7
  6
CONTINUOUS
 10
189.2784066044
 20
181.3147692323
 11
163.4784066044
 21
181.3147692323
  0
LINE
  5
313
100
AcDbEntity
  8
0
100
AcDbLine
 62
7
  6
CONTINUOUS
 10
155.2784066044
 20
181.3147692323
 11
129.4784066044
 21
181.3147692323
  0
LINE
  5
314
100
AcDbEntity
  8
0
100
AcDbLine
 62
7
  6
CONTINUOUS
 10
121.2784066044
 20
181.3147692323
 11
95.4784066044
 21
181.3147692323
  0
LINE
  5
315
100
AcDbEntity
  8
0
100
AcDbLine
 62
7
  6
CONTINUOUS
 10
87.2784066044
 20
181.3147692323
 11
61.4784066044
 21
181.3147692323
  0
LINE
  5
316
100
AcDbEntity
  8
0
100
AcDbLine
 62
7
  6
CONTINUOUS
 10
189.2784066044
 20
181.340973122
 11
163.4784066044
 21
181.340973122
  0
LINE
  5
317
100
AcDbEntity
  8
0
100
AcDbLine
 62
7
  6
CONTINUOUS
 10
155.2784066044
 20
181.340973122
 11
129.4784066044
 21
181.340973122
  0
LINE
  5
318
100
AcDbEntity
  8
0
100
AcDbLine
 62
7
  6
CONTINUOUS
 10
121.2784066044
 20
181.340973122
 11
95.4784066044
 21
181.340973122
  0
LINE
  5
319
100
AcDbEntity
  8
0
100
AcDbLine
 62
7
  6
CONTINUOUS
 10
87.2784066044
 20
181.340973122
 11
61.4784066044
 21
181.340973122
  0
LINE
  5
31A
100
AcDbEntity
  8
0
100
AcDbLine
 62
7
  6
CONTINUOUS
 10
136.3784066044
 20
234.8195847909
 11
136.347205645
 21
235.1580316322
  0
LINE
  5
31B
100
AcDbEntity
  8
0
100
AcDbLine
 62
7
  6
CONTINUOUS
 10
136.8784066044
 20
234.7195847909
 11
136.9036463741
 21
234.4195847909
  0
LINE
  5
31C
100
AcDbEntity
  8
0
100
AcDbLine
 62
7
  6
CONTINUOUS
 10
136.9595714802
 20
235.1580316322
 11
136.8981860594
 21
236.329335238
  0
LINE
  5
31D
100
AcDbEntity
  8
0
100
AcDbLine
 62
7
  6
CONTINUOUS
 10
137.4622749614
 20
234.8195847909
 11
137.4607148877
 21
234.8493527695
  0
LINE
  5
31E
100
AcDbEntity
  8
0
100
AcDbLine
 62
7
  6
CONTINUOUS
 10
137.7634689934
 20
235.1046113872
 11
137.7618590323
 21
235.1353312762
  0
LINE
  5
31F
100
AcDbEntity
  8
0
100
AcDbLine
 62
7
  6
CONTINUOUS
 10
137.7603039043
 20
235.1650048866
 11
137.6745864778
 21
236.8005908178
  0
LINE
  5
320
100
AcDbEntity
  8
0
100
AcDbLine
 62
7
  6
CONTINUOUS
 10
136.8756565299
 20
237.555318464
 11
136.8981860569
 21
237.1247455596
  0
LINE
  5
321
100
AcDbEntity
  8
0
100
AcDbLine
 62
7
  6
CONTINUOUS
 10
140.8784066044
 20
234.8195847909
 11
140.8801521109
 21
234.7195847909
  0
LINE
  5
322
100
AcDbEntity
  8
0
100
AcDbLine
 62
7
  6
CONTINUOUS
 10
136.8981860594
 20
237.1247455596
 11
136.8981860594
 21
236.329335238
  0
LINE
  5
323
100
AcDbEntity
  8
0
100
AcDbLine
 62
7
  6
CONTINUOUS
 10
136.9595714809
 20
235.1580316322
 11
136.9595714809
 21
234.8580773236
  0
LINE
  5
324
100
AcDbEntity
  8
0
100
AcDbLine
 62
7
  6
CONTINUOUS
 10
137.8784066044
 20
237.5195847909
 11
137.8784066044
 21
235.3195847909
  0
LINE
  5
325
100
AcDbEntity
  8
0
100
AcDbLine
 62
7
  6
CONTINUOUS
 10
139.8784066044
 20
234.8195847909
 11
139.8784066044
 21
237.8195847909
  0
LINE
  5
326
100
AcDbEntity
  8
0
100
AcDbLine
 62
7
  6
CONTINUOUS
 10
140.1784066044
 20
232.5639939489
 11
140.1784066044
 21
232.0789820617
  0
LINE
  5
327
100
AcDbEntity
  8
0
100
AcDbLine
 62
7
  6
CONTINUOUS
 10
140.2784066044
 20
232.3195847909
 11
140.2784066044
 21
232.8041455812
  0
LINE
  5
328
100
AcDbEntity
  8
0
100
AcDbLine
 62
7
  6
CONTINUOUS
 10
141.1784066042
 20
231.0409139579
 11
141.1784066044
 21
231.2195847909
  0
LINE
  5
329
100
AcDbEntity
  8
0
100
AcDbLine
 62
7
  6
CONTINUOUS
 10
141.1784066044
 20
233.4195847909
 11
141.1784066044
 21
233.8343106325
  0
LINE
  5
32A
100
AcDbEntity
  8
0
100
AcDbLine
 62
7
  6
CONTINUOUS
 10
141.1784032907
 20
231.0409139579
 11
141.1784106711
 21
230.7425573893
  0
LINE
  5
32B
100
AcDbEntity
  8
0
100
AcDbLine
 62
7
  6
CONTINUOUS
 10
141.8784066047
 20
237.8195847909
 11
141.8784066044
 21
234.8195847909
  0
LINE
  5
32C
100
AcDbEntity
  8
0
100
AcDbLine
 62
7
  6
CONTINUOUS
 10
143.1784066044
 20
233.3805776186
 11
143.1784066044
 21
233.3195847909
  0
LINE
  5
32D
100
AcDbEntity
  8
0
100
AcDbLine
 62
7
  6
CONTINUOUS
 10
143.4784066044
 20
232.3195847909
 11
143.4784066044
 21
233.3195847909
  0
LINE
  5
32E
100
AcDbEntity
  8
0
100
AcDbLine
 62
7
  6
CONTINUOUS
 10
142.8784066044
 20
234.8195847909
 11
142.8766610979
 21
234.7195847909
  0
LINE
  5
32F
100
AcDbEntity
  8
0
100
AcDbLine
 62
7
  6
CONTINUOUS
 10
145.9949541765
 20
235.1353312762
 11
145.9933442153
 21
235.1046113872
  0
LINE
  5
330
100
AcDbEntity
  8
0
100
AcDbLine
 62
7
  6
CONTINUOUS
 10
145.9965093045
 20
235.1650048866
 11
146.082226731
 21
236.8005908178
  0
LINE
  5
331
100
AcDbEntity
  8
0
100
AcDbLine
 62
7
  6
CONTINUOUS
 10
146.2960983094
 20
234.8493525465
 11
146.2945382474
 21
234.8195847909
  0
LINE
  5
332
100
AcDbEntity
  8
0
100
AcDbLine
 62
7
  6
CONTINUOUS
 10
146.8586271516
 20
237.1247455596
 11
146.8811566584
 21
237.5553182131
  0
LINE
  5
333
100
AcDbEntity
  8
0
100
AcDbLine
 62
7
  6
CONTINUOUS
 10
146.8586271494
 20
236.329335238
 11
146.7972417285
 21
235.1580316322
  0
LINE
  5
334
100
AcDbEntity
  8
0
100
AcDbLine
 62
7
  6
CONTINUOUS
 10
146.8784066044
 20
234.7195847909
 11
146.8531668347
 21
234.4195847909
  0
LINE
  5
335
100
AcDbEntity
  8
0
100
AcDbLine
 62
7
  6
CONTINUOUS
 10
147.3784066044
 20
234.8195847909
 11
147.4096075637
 21
235.1580316322
  0
LINE
  5
336
100
AcDbEntity
  8
0
100
AcDbLine
 62
7
  6
CONTINUOUS
 10
159.4006914969
 20
229.1195847909
 11
159.4983449841
 21
229.4195847909
  0
LINE
  5
337
100
AcDbEntity
  8
0
100
AcDbLine
 62
7
  6
CONTINUOUS
 10
61.4784066044
 20
183.6981964598
 11
87.2784066044
 21
183.6981964598
  0
LINE
  5
338
100
AcDbEntity
  8
0
100
AcDbLine
 62
7
  6
CONTINUOUS
 10
95.4784066044
 20
183.6981964598
 11
121.2784066044
 21
183.6981964598
  0
LINE
  5
339
100
AcDbEntity
  8
0
100
AcDbLine
 62
7
  6
CONTINUOUS
 10
129.4784066044
 20
183.6981964598
 11
155.2784066044
 21
183.6981964598
  0
LINE
  5
33A
100
AcDbEntity
  8
0
100
AcDbLine
 62
7
  6
CONTINUOUS
 10
163.4784066044
 20
183.6981964598
 11
189.2784066044
 21
183.6981964598
  0
LINE
  5
33B
100
AcDbEntity
  8
0
100
AcDbLine
 62
7
  6
CONTINUOUS
 10
61.4784066044
 20
183.7244003495
 11
87.2784066044
 21
183.7244003495
  0
LINE
  5
33C
100
AcDbEntity
  8
0
100
AcDbLine
 62
7
  6
CONTINUOUS
 10
95.4784066044
 20
183.7244003495
 11
121.2784066044
 21
183.7244003495
  0
LINE
  5
33D
100
AcDbEntity
  8
0
100
AcDbLine
 62
7
  6
CONTINUOUS
 10
129.4784066044
 20
183.7244003495
 11
155.2784066044
 21
183.7244003495
  0
LINE
  5
33E
100
AcDbEntity
  8
0
100
AcDbLine
 62
7
  6
CONTINUOUS
 10
163.4784066044
 20
183.7244003495
 11
189.2784066044
 21
183.7244003495
  0
LINE
  5
33F
100
AcDbEntity
  8
0
100
AcDbLine
 62
7
  6
CONTINUOUS
 10
189.2784066044
 20
186.3147692323
 11
163.4784066044
 21
186.3147692323
  0
LINE
  5
340
100
AcDbEntity
  8
0
100
AcDbLine
 62
7
  6
CONTINUOUS
 10
155.2784066044
 20
186.3147692323
 11
129.4784066044
 21
186.3147692323
  0
LINE
  5
341
100
AcDbEntity
  8
0
100
AcDbLine
 62
7
  6
CONTINUOUS
 10
121.2784066044
 20
186.3147692323
 11
95.4784066044
 21
186.3147692323
  0
LINE
  5
342
100
AcDbEntity
  8
0
100
AcDbLine
 62
7
  6
CONTINUOUS
 10
87.2784066044
 20
186.3147692323
 11
61.4784066044
 21
186.3147692323
  0
LINE
  5
343
100
AcDbEntity
  8
0
100
AcDbLine
 62
7
  6
CONTINUOUS
 10
189.2784066044
 20
186.340973122
 11
163.4784066044
 21
186.340973122
  0
LINE
  5
344
100
AcDbEntity
  8
0
100
AcDbLine
 62
7
  6
CONTINUOUS
 10
155.2784066044
 20
186.340973122
 11
129.4784066044
 21
186.340973122
  0
LINE
  5
345
100
AcDbEntity
  8
0
100
AcDbLine
 62
7
  6
CONTINUOUS
 10
121.2784066044
 20
186.340973122
 11
95.4784066044
 21
186.340973122
  0
LINE
  5
346
100
AcDbEntity
  8
0
100
AcDbLine
 62
7
  6
CONTINUOUS
 10
87.2784066044
 20
186.340973122
 11
61.4784066044
 21
186.340973122
  0
LINE
  5
347
100
AcDbEntity
  8
0
100
AcDbLine
 62
7
  6
CONTINUOUS
 10
61.4784066044
 20
188.6981964598
 11
87.2784066044
 21
188.6981964598
  0
LINE
  5
348
100
AcDbEntity
  8
0
100
AcDbLine
 62
7
  6
CONTINUOUS
 10
95.4784066044
 20
188.6981964598
 11
121.2784066044
 21
188.6981964598
  0
LINE
  5
349
100
AcDbEntity
  8
0
100
AcDbLine
 62
7
  6
CONTINUOUS
 10
129.4784066044
 20
188.6981964598
 11
155.2784066044
 21
188.6981964598
  0
LINE
  5
34A
100
AcDbEntity
  8
0
100
AcDbLine
 62
7
  6
CONTINUOUS
 10
163.4784066044
 20
188.6981964598
 11
189.2784066044
 21
188.6981964598
  0
LINE
  5
34B
100
AcDbEntity
  8
0
100
AcDbLine
 62
7
  6
CONTINUOUS
 10
61.4784066044
 20
188.7244003495
 11
87.2784066044
 21
188.7244003495
  0
LINE
  5
34C
100
AcDbEntity
  8
0
100
AcDbLine
 62
7
  6
CONTINUOUS
 10
95.4784066044
 20
188.7244003495
 11
121.2784066044
 21
188.7244003495
  0
LINE
  5
34D
100
AcDbEntity
  8
0
100
AcDbLine
 62
7
  6
CONTINUOUS
 10
129.4784066044
 20
188.7244003495
 11
155.2784066044
 21
188.7244003495
  0
LINE
  5
34E
100
AcDbEntity
  8
0
100
AcDbLine
 62
7
  6
CONTINUOUS
 10
163.4784066044
 20
188.7244003495
 11
189.2784066044
 21
188.7244003495
  0
LINE
  5
34F
100
AcDbEntity
  8
0
100
AcDbLine
 62
7
  6
CONTINUOUS
 10
144.8225503966
 20
233.4195847909
 11
144.8225503966
 21
233.3301353552
  0
LINE
  5
350
100
AcDbEntity
  8
0
100
AcDbLine
 62
7
  6
CONTINUOUS
 10
145.6784066048
 20
233.5350414174
 11
145.6784066044
 21
233.4195847909
  0
LINE
  5
351
100
AcDbEntity
  8
0
100
AcDbLine
 62
7
  6
CONTINUOUS
 10
145.6784066044
 20
231.2195847909
 11
145.6784066044
 21
230.7425573893
  0
LINE
  5
352
100
AcDbEntity
  8
0
100
AcDbLine
 62
7
  6
CONTINUOUS
 10
145.6784074852
 20
233.5350414174
 11
145.6784057359
 21
233.8343106325
  0
LINE
  5
353
100
AcDbEntity
  8
0
100
AcDbLine
 62
7
  6
CONTINUOUS
 10
145.8784066044
 20
237.5195847909
 11
145.8784066044
 21
235.3195847909
  0
LINE
  5
354
100
AcDbEntity
  8
0
100
AcDbLine
 62
7
  6
CONTINUOUS
 10
146.7972417286
 20
234.8580773236
 11
146.7972417286
 21
235.1580316322
  0
LINE
  5
355
100
AcDbEntity
  8
0
100
AcDbLine
 62
7
  6
CONTINUOUS
 10
146.8586271494
 20
236.329335238
 11
146.8586271494
 21
237.1247455596
  0
LINE
  5
356
100
AcDbEntity
  8
0
100
AcDbLine
 62
7
  6
CONTINUOUS
 10
148.3784066044
 20
237.6531814399
 11
148.3784066044
 21
237.4694528979
  0
LINE
  5
357
100
AcDbEntity
  8
0
100
AcDbLine
 62
7
  6
CONTINUOUS
 10
148.4784066044
 20
237.4595293945
 11
148.4784066044
 21
237.6625979123
  0
LINE
  5
358
100
AcDbEntity
  8
0
100
AcDbLine
 62
7
  6
CONTINUOUS
 10
149.7784066044
 20
237.6625979123
 11
149.7784066044
 21
237.4595293945
  0
LINE
  5
359
100
AcDbEntity
  8
0
100
AcDbLine
 62
7
  6
CONTINUOUS
 10
149.8784066044
 20
237.4694528979
 11
149.8784066044
 21
237.6342724909
  0
LINE
  5
35A
100
AcDbEntity
  8
0
100
AcDbLine
 62
7
  6
CONTINUOUS
 10
150.6784066044
 20
237.6766751233
 11
150.6784066044
 21
237.6233688035
  0
LINE
  5
35B
100
AcDbEntity
  8
0
100
AcDbLine
 62
7
  6
CONTINUOUS
 10
144.841470327
 20
231.3035068793
 11
144.8400054615
 21
231.2195847909
  0
LINE
  5
35C
100
AcDbEntity
  8
0
100
AcDbLine
 62
7
  6
CONTINUOUS
 10
189.2784066044
 20
191.3147692323
 11
163.4784066044
 21
191.3147692323
  0
LINE
  5
35D
100
AcDbEntity
  8
0
100
AcDbLine
 62
7
  6
CONTINUOUS
 10
155.2784066044
 20
191.3147692323
 11
129.4784066044
 21
191.3147692323
  0
LINE
  5
35E
100
AcDbEntity
  8
0
100
AcDbLine
 62
7
  6
CONTINUOUS
 10
189.2784066044
 20
191.340973122
 11
163.4784066044
 21
191.340973122
  0
LINE
  5
35F
100
AcDbEntity
  8
0
100
AcDbLine
 62
7
  6
CONTINUOUS
 10
155.2784066044
 20
191.340973122
 11
129.4784066044
 21
191.340973122
  0
LINE
  5
360
100
AcDbEntity
  8
0
100
AcDbLine
 62
7
  6
CONTINUOUS
 10
126.8784066044
 20
191.9195847909
 11
101.3784066044
 21
191.9195847909
  0
LINE
  5
361
100
AcDbEntity
  8
0
100
AcDbLine
 62
7
  6
CONTINUOUS
 10
56.3784066044
 20
192.4195847909
 11
126.3784066044
 21
192.4195847909
  0
LINE
  5
362
100
AcDbEntity
  8
0
100
AcDbLine
 62
7
  6
CONTINUOUS
 10
129.4784066044
 20
193.6981964598
 11
155.2784066044
 21
193.6981964598
  0
LINE
  5
363
100
AcDbEntity
  8
0
100
AcDbLine
 62
7
  6
CONTINUOUS
 10
163.4784066044
 20
193.6981964598
 11
189.2784066044
 21
193.6981964598
  0
LINE
  5
364
100
AcDbEntity
  8
0
100
AcDbLine
 62
7
  6
CONTINUOUS
 10
129.4784066044
 20
193.7244003495
 11
155.2784066044
 21
193.7244003495
  0
LINE
  5
365
100
AcDbEntity
  8
0
100
AcDbLine
 62
7
  6
CONTINUOUS
 10
163.4784066044
 20
193.7244003495
 11
189.2784066044
 21
193.7244003495
  0
LINE
  5
366
100
AcDbEntity
  8
0
100
AcDbLine
 62
7
  6
CONTINUOUS
 10
189.2784066044
 20
196.3147692323
 11
163.4784066044
 21
196.3147692323
  0
LINE
  5
367
100
AcDbEntity
  8
0
100
AcDbLine
 62
7
  6
CONTINUOUS
 10
155.2784066044
 20
196.3147692323
 11
129.4784066044
 21
196.3147692323
  0
LINE
  5
368
100
AcDbEntity
  8
0
100
AcDbLine
 62
7
  6
CONTINUOUS
 10
189.2784066044
 20
196.340973122
 11
163.4784066044
 21
196.340973122
  0
LINE
  5
369
100
AcDbEntity
  8
0
100
AcDbLine
 62
7
  6
CONTINUOUS
 10
155.2784066044
 20
196.340973122
 11
129.4784066044
 21
196.340973122
  0
LINE
  5
36A
100
AcDbEntity
  8
0
100
AcDbLine
 62
7
  6
CONTINUOUS
 10
124.3561217119
 20
229.1195847909
 11
124.2584682247
 21
229.4195847909
  0
LINE
  5
36B
100
AcDbEntity
  8
0
100
AcDbLine
 62
7
  6
CONTINUOUS
 10
124.2709631542
 20
229.381123034
 11
124.2584682247
 21
229.4195847909
  0
LINE
  5
36C
100
AcDbEntity
  8
0
100
AcDbLine
 62
7
  6
CONTINUOUS
 10
155.4973550688
 20
231.8621713193
 11
155.4938521619
 21
232.0500347291
  0
LINE
  5
36D
100
AcDbEntity
  8
0
100
AcDbLine
 62
7
  6
CONTINUOUS
 10
155.4976081479
 20
231.8621760342
 11
155.4940774971
 21
232.0500389929
  0
LINE
  5
36E
100
AcDbEntity
  8
0
100
AcDbLine
 62
7
  6
CONTINUOUS
 10
153.4670911071
 20
233.000098237
 11
153.4684964745
 21
232.9195847909
  0
LINE
  5
36F
100
AcDbEntity
  8
0
100
AcDbLine
 62
7
  6
CONTINUOUS
 10
156.5543722307
 20
231.2287621774
 11
156.5510414096
 21
231.4195847909
  0
LINE
  5
370
100
AcDbEntity
  8
0
100
AcDbLine
 62
7
  6
CONTINUOUS
 10
155.2784066044
 20
208.7244003495
 11
155.2784066044
 21
208.6981964598
  0
LINE
  5
371
100
AcDbEntity
  8
0
100
AcDbLine
 62
7
  6
CONTINUOUS
 10
155.2784066044
 20
206.340973122
 11
155.2784066044
 21
206.3147692323
  0
LINE
  5
372
100
AcDbEntity
  8
0
100
AcDbLine
 62
7
  6
CONTINUOUS
 10
155.2784066044
 20
203.7244003495
 11
155.2784066044
 21
203.6981964598
  0
LINE
  5
373
100
AcDbEntity
  8
0
100
AcDbLine
 62
7
  6
CONTINUOUS
 10
155.2784066044
 20
201.340973122
 11
155.2784066044
 21
201.3147692323
  0
LINE
  5
374
100
AcDbEntity
  8
0
100
AcDbLine
 62
7
  6
CONTINUOUS
 10
155.2784066044
 20
198.7244003495
 11
155.2784066044
 21
198.6981964598
  0
LINE
  5
375
100
AcDbEntity
  8
0
100
AcDbLine
 62
7
  6
CONTINUOUS
 10
155.2784066044
 20
196.340973122
 11
155.2784066044
 21
196.3147692323
  0
LINE
  5
376
100
AcDbEntity
  8
0
100
AcDbLine
 62
7
  6
CONTINUOUS
 10
155.2784066044
 20
193.7244003495
 11
155.2784066044
 21
193.6981964598
  0
LINE
  5
377
100
AcDbEntity
  8
0
100
AcDbLine
 62
7
  6
CONTINUOUS
 10
155.2784066044
 20
191.340973122
 11
155.2784066044
 21
191.3147692323
  0
LINE
  5
378
100
AcDbEntity
  8
0
100
AcDbLine
 62
7
  6
CONTINUOUS
 10
155.2784066044
 20
188.7244003495
 11
155.2784066044
 21
188.6981964598
  0
LINE
  5
379
100
AcDbEntity
  8
0
100
AcDbLine
 62
7
  6
CONTINUOUS
 10
155.2784066044
 20
186.340973122
 11
155.2784066044
 21
186.3147692323
  0
LINE
  5
37A
100
AcDbEntity
  8
0
100
AcDbLine
 62
7
  6
CONTINUOUS
 10
155.2784066044
 20
183.7244003495
 11
155.2784066044
 21
183.6981964598
  0
LINE
  5
37B
100
AcDbEntity
  8
0
100
AcDbLine
 62
7
  6
CONTINUOUS
 10
155.2784066044
 20
181.340973122
 11
155.2784066044
 21
181.3147692323
  0
LINE
  5
37C
100
AcDbEntity
  8
0
100
AcDbLine
 62
7
  6
CONTINUOUS
 10
155.2784066044
 20
178.7244003495
 11
155.2784066044
 21
178.6981964598
  0
LINE
  5
37D
100
AcDbEntity
  8
0
100
AcDbLine
 62
7
  6
CONTINUOUS
 10
155.2784066044
 20
176.340973122
 11
155.2784066044
 21
176.3147692323
  0
LINE
  5
37E
100
AcDbEntity
  8
0
100
AcDbLine
 62
7
  6
CONTINUOUS
 10
157.7534066044
 20
230.7825472121
 11
157.7534066044
 21
230.4919123299
  0
LINE
  5
37F
100
AcDbEntity
  8
0
100
AcDbLine
 62
7
  6
CONTINUOUS
 10
155.0269975219
 20
232.2711075472
 11
155.0233343742
 21
232.0612459586
  0
LINE
  5
380
100
AcDbEntity
  8
0
100
AcDbLine
 62
7
  6
CONTINUOUS
 10
208.9569105387
 20
207.9760363927
 11
202.1690627872
 21
207.6203003613
  0
LINE
  5
381
100
AcDbEntity
  8
0
100
AcDbLine
 62
7
  6
CONTINUOUS
 10
199.79990267
 20
208.994082243
 11
208.9569105388
 21
209.4739806902
  0
LINE
  5
382
100
AcDbEntity
  8
0
100
AcDbLine
 62
7
  6
CONTINUOUS
 10
202.1690627794
 20
207.6203020534
 11
198.3784065232
 21
207.4961346923
  0
LINE
  5
383
100
AcDbEntity
  8
0
100
AcDbLine
 62
7
  6
CONTINUOUS
 10
129.4784066044
 20
198.6981964598
 11
155.2784066044
 21
198.6981964598
  0
LINE
  5
384
100
AcDbEntity
  8
0
100
AcDbLine
 62
7
  6
CONTINUOUS
 10
163.4784066044
 20
198.6981964598
 11
189.2784066044
 21
198.6981964598
  0
LINE
  5
385
100
AcDbEntity
  8
0
100
AcDbLine
 62
7
  6
CONTINUOUS
 10
129.4784066044
 20
198.7244003495
 11
155.2784066044
 21
198.7244003495
  0
LINE
  5
386
100
AcDbEntity
  8
0
100
AcDbLine
 62
7
  6
CONTINUOUS
 10
163.4784066044
 20
198.7244003495
 11
189.2784066044
 21
198.7244003495
  0
LINE
  5
387
100
AcDbEntity
  8
0
100
AcDbLine
 62
7
  6
CONTINUOUS
 10
189.2784066044
 20
201.3147692323
 11
163.4784066044
 21
201.3147692323
  0
LINE
  5
388
100
AcDbEntity
  8
0
100
AcDbLine
 62
7
  6
CONTINUOUS
 10
155.2784066044
 20
201.3147692323
 11
129.4784066044
 21
201.3147692323
  0
LINE
  5
389
100
AcDbEntity
  8
0
100
AcDbLine
 62
7
  6
CONTINUOUS
 10
189.2784066044
 20
201.340973122
 11
163.4784066044
 21
201.340973122
  0
LINE
  5
38A
100
AcDbEntity
  8
0
100
AcDbLine
 62
7
  6
CONTINUOUS
 10
155.2784066044
 20
201.340973122
 11
129.4784066044
 21
201.340973122
  0
LINE
  5
38B
100
AcDbEntity
  8
0
100
AcDbLine
 62
7
  6
CONTINUOUS
 10
126.3784066044
 20
202.4195847909
 11
126.8784066044
 21
202.4195847909
  0
LINE
  5
38C
100
AcDbEntity
  8
0
100
AcDbLine
 62
7
  6
CONTINUOUS
 10
129.4784066044
 20
203.6981964598
 11
155.2784066044
 21
203.6981964598
  0
LINE
  5
38D
100
AcDbEntity
  8
0
100
AcDbLine
 62
7
  6
CONTINUOUS
 10
163.4784066044
 20
203.6981964598
 11
189.2784066044
 21
203.6981964598
  0
LINE
  5
38E
100
AcDbEntity
  8
0
100
AcDbLine
 62
7
  6
CONTINUOUS
 10
129.4784066044
 20
203.7244003495
 11
155.2784066044
 21
203.7244003495
  0
LINE
  5
38F
100
AcDbEntity
  8
0
100
AcDbLine
 62
7
  6
CONTINUOUS
 10
163.4784066044
 20
203.7244003495
 11
189.2784066044
 21
203.7244003495
  0
LINE
  5
390
100
AcDbEntity
  8
0
100
AcDbLine
 62
7
  6
CONTINUOUS
 10
182.8784066044
 20
156.1195847909
 11
183.0603113537
 21
155.9739944549
  0
LINE
  5
391
100
AcDbEntity
  8
0
100
AcDbLine
 62
7
  6
CONTINUOUS
 10
173.8784066044
 20
160.1195847909
 11
173.6898266687
 21
160.3457542923
  0
LINE
  5
392
100
AcDbEntity
  8
0
100
AcDbLine
 62
7
  6
CONTINUOUS
 10
173.8784066044
 20
156.1195847909
 11
173.6965018551
 21
155.9739944549
  0
LINE
  5
393
100
AcDbEntity
  8
0
100
AcDbLine
 62
7
  6
CONTINUOUS
 10
199.7213987357
 20
210.4920265451
 11
208.8784066044
 21
210.9719249924
  0
LINE
  5
394
100
AcDbEntity
  8
0
100
AcDbLine
 62
7
  6
CONTINUOUS
 10
189.2784066044
 20
206.3147692323
 11
163.4784066044
 21
206.3147692323
  0
LINE
  5
395
100
AcDbEntity
  8
0
100
AcDbLine
 62
7
  6
CONTINUOUS
 10
155.2784066044
 20
206.3147692323
 11
129.4784066044
 21
206.3147692323
  0
LINE
  5
396
100
AcDbEntity
  8
0
100
AcDbLine
 62
7
  6
CONTINUOUS
 10
189.2784066044
 20
206.340973122
 11
163.4784066044
 21
206.340973122
  0
LINE
  5
397
100
AcDbEntity
  8
0
100
AcDbLine
 62
7
  6
CONTINUOUS
 10
155.2784066044
 20
206.340973122
 11
129.4784066044
 21
206.340973122
  0
LINE
  5
398
100
AcDbEntity
  8
0
100
AcDbLine
 62
7
  6
CONTINUOUS
 10
196.8784066044
 20
207.4961379408
 11
198.3784066044
 21
207.4961379408
  0
LINE
  5
399
100
AcDbEntity
  8
0
100
AcDbLine
 62
7
  6
CONTINUOUS
 10
208.9569105387
 20
207.9760363968
 11
210.3784066044
 21
207.9760363968
  0
LINE
  5
39A
100
AcDbEntity
  8
0
100
AcDbLine
 62
7
  6
CONTINUOUS
 10
129.4784066044
 20
208.6981964598
 11
155.2784066044
 21
208.6981964598
  0
LINE
  5
39B
100
AcDbEntity
  8
0
100
AcDbLine
 62
7
  6
CONTINUOUS
 10
163.4784066044
 20
208.6981964598
 11
189.2784066044
 21
208.6981964598
  0
LINE
  5
39C
100
AcDbEntity
  8
0
100
AcDbLine
 62
7
  6
CONTINUOUS
 10
129.4784066044
 20
208.7244003495
 11
155.2784066044
 21
208.7244003495
  0
LINE
  5
39D
100
AcDbEntity
  8
0
100
AcDbLine
 62
7
  6
CONTINUOUS
 10
163.4784066044
 20
208.7244003495
 11
189.2784066044
 21
208.7244003495
  0
LINE
  5
39E
100
AcDbEntity
  8
0
100
AcDbLine
 62
7
  6
CONTINUOUS
 10
210.3784066044
 20
210.9719249924
 11
208.8784066044
 21
210.9719249924
  0
LINE
  5
39F
100
AcDbEntity
  8
0
100
AcDbLine
 62
7
  6
CONTINUOUS
 10
173.6898266687
 20
160.3457542923
 11
173.6965018551
 21
155.9739944549
  0
LINE
  5
3A0
100
AcDbEntity
  8
0
100
AcDbLine
 62
7
  6
CONTINUOUS
 10
171.0033879814
 20
238.1763165812
 11
171.003296394
 21
238.9995825117
  0
LINE
  5
3A1
100
AcDbEntity
  8
0
100
AcDbLine
 62
7
  6
CONTINUOUS
 10
173.8365144486
 20
149.3776926351
 11
173.8365144486
 21
151.4195847909
  0
LINE
  5
3A2
100
AcDbEntity
  8
0
100
AcDbLine
 62
7
  6
CONTINUOUS
 10
173.8749155914
 20
149.4160937779
 11
173.8749155914
 21
151.4195847909
  0
LINE
  5
3A3
100
AcDbEntity
  8
0
100
AcDbLine
 62
7
  6
CONTINUOUS
 10
173.8784066044
 20
156.1195847909
 11
173.8784066044
 21
160.1195847909
  0
LINE
  5
3A4
100
AcDbEntity
  8
0
100
AcDbLine
 62
7
  6
CONTINUOUS
 10
174.9053595333
 20
157.2124780097
 11
174.9053595333
 21
157.5660314003
  0
LINE
  5
3A5
100
AcDbEntity
  8
0
100
AcDbLine
 62
7
  6
CONTINUOUS
 10
174.9837667862
 20
159.7731381815
 11
174.9837667862
 21
159.9195847909
  0
LINE
  5
3A6
100
AcDbEntity
  8
0
100
AcDbLine
 62
7
  6
CONTINUOUS
 10
174.3784066044
 20
156.4492530855
 11
174.4056641198
 21
157.2299251004
  0
LINE
  5
3A7
100
AcDbEntity
  8
0
100
AcDbLine
 62
7
  6
CONTINUOUS
 10
174.3678100785
 20
156.1195847909
 11
174.3784061095
 21
156.4230616393
  0
LINE
  5
3A8
100
AcDbEntity
  8
0
100
AcDbLine
 62
7
  6
CONTINUOUS
 10
174.8790161023
 20
156.4579859337
 11
174.9053595333
 21
157.2124780097
  0
LINE
  5
3A9
100
AcDbEntity
  8
0
100
AcDbLine
 62
7
  6
CONTINUOUS
 10
174.4056641198
 20
157.2299251004
 11
174.4840713727
 21
159.4370318816
  0
LINE
  5
3AA
100
AcDbEntity
  8
0
100
AcDbLine
 62
7
  6
CONTINUOUS
 10
174.9837667862
 20
159.7731381815
 11
174.9053595333
 21
157.5660314003
  0
LINE
  5
3AB
100
AcDbEntity
  8
0
100
AcDbLine
 62
7
  6
CONTINUOUS
 10
182.8784066044
 20
160.1195847909
 11
183.0669865401
 21
160.3457542923
  0
LINE
  5
3AC
100
AcDbEntity
  8
0
100
AcDbLine
 62
7
  6
CONTINUOUS
 10
210.8784066044
 20
214.4195847909
 11
210.3784066044
 21
214.4195847909
  0
LINE
  5
3AD
100
AcDbEntity
  8
0
100
AcDbLine
 62
7
  6
CONTINUOUS
 10
56.3784066044
 20
221.4195847909
 11
126.3784066044
 21
221.4195847909
  0
LINE
  5
3AE
100
AcDbEntity
  8
0
100
AcDbLine
 62
7
  6
CONTINUOUS
 10
52.3784066044
 20
223.4961335251
 11
48.5877504254
 21
223.6203005218
  0
LINE
  5
3AF
100
AcDbEntity
  8
0
100
AcDbLine
 62
7
  6
CONTINUOUS
 10
48.5877504215
 20
223.6203003613
 11
41.7999026701
 21
223.9760363927
  0
LINE
  5
3B0
100
AcDbEntity
  8
0
100
AcDbLine
 62
7
  6
CONTINUOUS
 10
41.79990267
 20
225.4739806902
 11
50.9569105388
 21
224.994082243
  0
LINE
  5
3B1
100
AcDbEntity
  8
0
100
AcDbLine
 62
7
  6
CONTINUOUS
 10
181.1109088717
 20
160.1195847909
 11
181.1284066044
 21
159.9195847909
  0
LINE
  5
3B2
100
AcDbEntity
  8
0
100
AcDbLine
 62
7
  6
CONTINUOUS
 10
181.8514536755
 20
157.5660314003
 11
181.7730464226
 21
159.7731381815
  0
LINE
  5
3B3
100
AcDbEntity
  8
0
100
AcDbLine
 62
7
  6
CONTINUOUS
 10
182.2727418361
 20
159.4370318816
 11
182.351149089
 21
157.2299251004
  0
LINE
  5
3B4
100
AcDbEntity
  8
0
100
AcDbLine
 62
7
  6
CONTINUOUS
 10
181.8777971065
 20
156.4579859337
 11
181.8514536755
 21
157.2124780097
  0
LINE
  5
3B5
100
AcDbEntity
  8
0
100
AcDbLine
 62
7
  6
CONTINUOUS
 10
182.3894340755
 20
156.1195847909
 11
182.3788129054
 21
156.4230758082
  0
LINE
  5
3B6
100
AcDbEntity
  8
0
100
AcDbLine
 62
7
  6
CONTINUOUS
 10
182.3784066044
 20
156.4492530855
 11
182.351149089
 21
157.2299251004
  0
LINE
  5
3B7
100
AcDbEntity
  8
0
100
AcDbLine
 62
7
  6
CONTINUOUS
 10
181.7730464226
 20
159.9195847909
 11
181.7730464226
 21
159.7731381815
  0
LINE
  5
3B8
100
AcDbEntity
  8
0
100
AcDbLine
 62
7
  6
CONTINUOUS
 10
181.8514536755
 20
157.5660314003
 11
181.8514536755
 21
157.2124780097
  0
LINE
  5
3B9
100
AcDbEntity
  8
0
100
AcDbLine
 62
7
  6
CONTINUOUS
 10
182.8784066044
 20
160.1195847909
 11
182.8784066044
 21
156.1195847909
  0
LINE
  5
3BA
100
AcDbEntity
  8
0
100
AcDbLine
 62
7
  6
CONTINUOUS
 10
182.8818976174
 20
151.4195847909
 11
182.8818976174
 21
149.4160937779
  0
LINE
  5
3BB
100
AcDbEntity
  8
0
100
AcDbLine
 62
7
  6
CONTINUOUS
 10
182.9202987602
 20
149.3776926351
 11
182.9202987602
 21
151.4195847909
  0
LINE
  5
3BC
100
AcDbEntity
  8
0
100
AcDbLine
 62
7
  6
CONTINUOUS
 10
183.0669865401
 20
160.3457542923
 11
183.0603113537
 21
155.9739944549
  0
LINE
  5
3BD
100
AcDbEntity
  8
0
100
AcDbLine
 62
7
  6
CONTINUOUS
 10
175.6459043371
 20
160.1195847909
 11
175.6284066044
 21
159.9195847909
  0
LINE
  5
3BE
100
AcDbEntity
  8
0
100
AcDbLine
 62
7
  6
CONTINUOUS
 10
208.8784066044
 20
229.1195847909
 11
204.4482268641
 21
229.1119966829
  0
LINE
  5
3BF
100
AcDbEntity
  8
0
100
AcDbLine
 62
7
  6
CONTINUOUS
 10
52.3784066044
 20
223.4961379408
 11
53.8784066044
 21
223.4961379408
  0
LINE
  5
3C0
100
AcDbEntity
  8
0
100
AcDbLine
 62
7
  6
CONTINUOUS
 10
40.3784066044
 20
223.9760364001
 11
41.79990267
 21
223.9760364001
  0
LINE
  5
3C1
100
AcDbEntity
  8
0
100
AcDbLine
 62
7
  6
CONTINUOUS
 10
71.561019533
 20
224.2369718623
 11
61.1957936758
 21
224.2369718623
  0
LINE
  5
3C2
100
AcDbEntity
  8
0
100
AcDbLine
 62
7
  6
CONTINUOUS
 10
61.3784066044
 20
224.4195847909
 11
71.3784066044
 21
224.4195847909
  0
LINE
  5
3C3
100
AcDbEntity
  8
0
100
AcDbLine
 62
7
  6
CONTINUOUS
 10
65.9286468595
 20
225.2283109941
 11
71.3796416266
 21
225.2283109941
  0
LINE
  5
3C4
100
AcDbEntity
  8
0
100
AcDbLine
 62
7
  6
CONTINUOUS
 10
71.3803918608
 20
225.7195847909
 11
61.376421348
 21
225.7195847909
  0
LINE
  5
3C5
100
AcDbEntity
  8
0
100
AcDbLine
 62
7
  6
CONTINUOUS
 10
61.3753476925
 20
226.4226437028
 11
71.3814655163
 21
226.4226437028
  0
LINE
  5
3C6
100
AcDbEntity
  8
0
100
AcDbLine
 62
7
  6
CONTINUOUS
 10
61.1957936758
 20
226.6021977195
 11
71.561019533
 21
226.6021977195
  0
LINE
  5
3C7
100
AcDbEntity
  8
0
100
AcDbLine
 62
7
  6
CONTINUOUS
 10
41.8784066044
 20
226.9719249924
 11
40.3784066044
 21
226.9719249924
  0
LINE
  5
3C8
100
AcDbEntity
  8
0
100
AcDbLine
 62
7
  6
CONTINUOUS
 10
46.3085863447
 20
229.0006190151
 11
53.4482268641
 21
229.0006190151
  0
LINE
  5
3C9
100
AcDbEntity
  8
0
100
AcDbLine
 62
7
  6
CONTINUOUS
 10
197.3085863447
 20
229.0006190151
 11
204.4482268641
 21
229.0006190151
  0
LINE
  5
3CA
100
AcDbEntity
  8
0
100
AcDbLine
 62
7
  6
CONTINUOUS
 10
124.3561217119
 20
229.1195847909
 11
53.4482268641
 21
229.1119966829
  0
LINE
  5
3CB
100
AcDbEntity
  8
0
100
AcDbLine
 62
7
  6
CONTINUOUS
 10
40.3784066044
 20
229.1195847909
 11
41.8784066044
 21
229.1195847909
  0
LINE
  5
3CC
100
AcDbEntity
  8
0
100
AcDbLine
 62
7
  6
CONTINUOUS
 10
208.8784066044
 20
229.1195847909
 11
210.3784066044
 21
229.1195847909
  0
LINE
  5
3CD
100
AcDbEntity
  8
0
100
AcDbLine
 62
7
  6
CONTINUOUS
 10
204.4482268641
 20
229.3201804663
 11
197.3085863447
 21
229.3201804663
  0
LINE
  5
3CE
100
AcDbEntity
  8
0
100
AcDbLine
 62
7
  6
CONTINUOUS
 10
53.4482268641
 20
229.3201804663
 11
46.3085863447
 21
229.3201804663
  0
LINE
  5
3CF
100
AcDbEntity
  8
0
100
AcDbLine
 62
7
  6
CONTINUOUS
 10
40.6784066044
 20
229.4195847909
 11
124.2584682247
 21
229.4195847909
  0
LINE
  5
3D0
100
AcDbEntity
  8
0
100
AcDbLine
 62
7
  6
CONTINUOUS
 10
159.4983449841
 20
229.4195847909
 11
210.0784066044
 21
229.4195847909
  0
LINE
  5
3D1
100
AcDbEntity
  8
0
100
AcDbLine
 62
7
  6
CONTINUOUS
 10
159.6122987792
 20
229.5195847909
 11
159.3356206003
 21
229.5195847909
  0
LINE
  5
3D2
100
AcDbEntity
  8
0
100
AcDbLine
 62
7
  6
CONTINUOUS
 10
197.3085863447
 20
229.1119966829
 11
159.4006914969
 21
229.1195847909
  0
LINE
  5
3D3
100
AcDbEntity
  8
0
100
AcDbLine
 62
7
  6
CONTINUOUS
 10
46.3085863447
 20
229.1119966829
 11
41.8784066044
 21
229.1195847909
  0
LINE
  5
3D4
100
AcDbEntity
  8
0
100
AcDbLine
 62
7
  6
CONTINUOUS
 10
41.8784066044
 20
226.9719249924
 11
51.0354144731
 21
226.4920265451
  0
LINE
  5
3D5
100
AcDbEntity
  8
0
100
AcDbLine
 62
7
  6
CONTINUOUS
 10
137.8784066044
 20
235.3195847909
 11
138.3784066044
 21
234.8195847909
  0
LINE
  5
3D6
100
AcDbEntity
  8
0
100
AcDbLine
 62
7
  6
CONTINUOUS
 10
184.2534066044
 20
239.4195853209
 11
184.2534066044
 21
239.2881589651
  0
LINE
  5
3D7
100
AcDbEntity
  8
0
100
AcDbLine
 62
7
  6
CONTINUOUS
 10
189.2784066044
 20
208.7244003495
 11
189.2784066044
 21
208.6981964598
  0
LINE
  5
3D8
100
AcDbEntity
  8
0
100
AcDbLine
 62
7
  6
CONTINUOUS
 10
189.2784066044
 20
206.340973122
 11
189.2784066044
 21
206.3147692323
  0
LINE
  5
3D9
100
AcDbEntity
  8
0
100
AcDbLine
 62
7
  6
CONTINUOUS
 10
189.2784066044
 20
203.7244003495
 11
189.2784066044
 21
203.6981964598
  0
LINE
  5
3DA
100
AcDbEntity
  8
0
100
AcDbLine
 62
7
  6
CONTINUOUS
 10
189.2784066044
 20
201.340973122
 11
189.2784066044
 21
201.3147692323
  0
LINE
  5
3DB
100
AcDbEntity
  8
0
100
AcDbLine
 62
7
  6
CONTINUOUS
 10
189.2784066044
 20
198.7244003495
 11
189.2784066044
 21
198.6981964598
  0
LINE
  5
3DC
100
AcDbEntity
  8
0
100
AcDbLine
 62
7
  6
CONTINUOUS
 10
189.2784066044
 20
196.340973122
 11
189.2784066044
 21
196.3147692323
  0
LINE
  5
3DD
100
AcDbEntity
  8
0
100
AcDbLine
 62
7
  6
CONTINUOUS
 10
189.2784066044
 20
193.7244003495
 11
189.2784066044
 21
193.6981964598
  0
LINE
  5
3DE
100
AcDbEntity
  8
0
100
AcDbLine
 62
7
  6
CONTINUOUS
 10
189.2784066044
 20
191.340973122
 11
189.2784066044
 21
191.3147692323
  0
LINE
  5
3DF
100
AcDbEntity
  8
0
100
AcDbLine
 62
7
  6
CONTINUOUS
 10
189.2784066044
 20
188.7244003495
 11
189.2784066044
 21
188.6981964598
  0
LINE
  5
3E0
100
AcDbEntity
  8
0
100
AcDbLine
 62
7
  6
CONTINUOUS
 10
189.2784066044
 20
186.340973122
 11
189.2784066044
 21
186.3147692323
  0
LINE
  5
3E1
100
AcDbEntity
  8
0
100
AcDbLine
 62
7
  6
CONTINUOUS
 10
189.2784066044
 20
183.7244003495
 11
189.2784066044
 21
183.6981964598
  0
LINE
  5
3E2
100
AcDbEntity
  8
0
100
AcDbLine
 62
7
  6
CONTINUOUS
 10
189.2784066044
 20
181.340973122
 11
189.2784066044
 21
181.3147692323
  0
LINE
  5
3E3
100
AcDbEntity
  8
0
100
AcDbLine
 62
7
  6
CONTINUOUS
 10
189.2784066044
 20
178.7244003495
 11
189.2784066044
 21
178.6981964598
  0
LINE
  5
3E4
100
AcDbEntity
  8
0
100
AcDbLine
 62
7
  6
CONTINUOUS
 10
189.2784066044
 20
176.340973122
 11
189.2784066044
 21
176.3147692323
  0
LINE
  5
3E5
100
AcDbEntity
  8
0
100
AcDbLine
 62
7
  6
CONTINUOUS
 10
209.5945796278
 20
238.5984514675
 11
209.5750102381
 21
238.597204189
  0
LINE
  5
3E6
100
AcDbEntity
  8
0
100
AcDbLine
 62
7
  6
CONTINUOUS
 10
136.8981860594
 20
236.329335238
 11
137.6970896872
 21
236.371204003
  0
LINE
  5
3E7
100
AcDbEntity
  8
0
100
AcDbLine
 62
7
  6
CONTINUOUS
 10
209.9216664778
 20
239.4171709299
 11
210.0334204593
 21
239.4195645199
  0
LINE
  5
3E8
100
AcDbEntity
  8
0
100
AcDbLine
 62
7
  6
CONTINUOUS
 10
209.3239183107
 20
239.4045111685
 11
210.0334213338
 21
239.4195847909
  0
LINE
  5
3E9
100
AcDbEntity
  8
0
100
AcDbLine
 62
7
  6
CONTINUOUS
 10
209.3239183107
 20
239.4044909931
 11
209.7557714034
 21
239.4136350931
  0
LWPOLYLINE
  5
3EA
100
AcDbEntity
  8
0
100
AcDbPolyline
 62
7
  6
CONTINUOUS
 90
4
 70
0
 10
209.8923706563
 20
239.4195847909
 10
209.1752362299
 20
239.4044918928
 10
207.8436155192
 20
239.377198159
 10
206.5288172477
 20
239.3514429028
  0
LWPOLYLINE
  5
3EB
100
AcDbEntity
  8
0
100
AcDbPolyline
 62
7
  6
CONTINUOUS
 90
3
 70
0
 10
210.3333756424
 20
239.1248205128
 10
209.4455498979
 20
239.1063116742
 10
206.5936479562
 20
239.0495553245
  0
LINE
  5
3EC
100
AcDbEntity
  8
0
100
AcDbLine
 62
7
  6
CONTINUOUS
 10
210.0852278551
 20
239.1196116106
 11
206.5936479562
 21
239.0495553245
  0
LINE
  5
3ED
100
AcDbEntity
  8
0
100
AcDbLine
 62
7
  6
CONTINUOUS
 10
210.3784066044
 20
229.7195847909
 11
159.9193296307
 21
229.7195847909
  0
LINE
  5
3EE
100
AcDbEntity
  8
0
100
AcDbLine
 62
7
  6
CONTINUOUS
 10
123.8374835781
 20
229.7195847909
 11
40.3784066044
 21
229.7195847909
  0
LINE
  5
3EF
100
AcDbEntity
  8
0
100
AcDbLine
 62
7
  6
CONTINUOUS
 10
125.8857120623
 20
230.4195847909
 11
125.5387518488
 21
230.4195847909
  0
LINE
  5
3F0
100
AcDbEntity
  8
0
100
AcDbLine
 62
7
  6
CONTINUOUS
 10
141.1774113747
 20
230.7425573895
 11
145.6793840861
 21
230.7425573893
  0
LINE
  5
3F1
100
AcDbEntity
  8
0
100
AcDbLine
 62
7
  6
CONTINUOUS
 10
126.3090474409
 20
230.9195847909
 11
126.6993339812
 21
230.9195847909
  0
LINE
  5
3F2
100
AcDbEntity
  8
0
100
AcDbLine
 62
7
  6
CONTINUOUS
 10
145.6784066044
 20
231.0409139579
 11
141.1784066042
 21
231.0409139579
  0
LINE
  5
3F3
100
AcDbEntity
  8
0
100
AcDbLine
 62
7
  6
CONTINUOUS
 10
145.6784066044
 20
231.2195847909
 11
141.1784066044
 21
231.2195847909
  0
LINE
  5
3F4
100
AcDbEntity
  8
0
100
AcDbLine
 62
7
  6
CONTINUOUS
 10
46.7526279341
 20
231.2938061206
 11
53.0041852747
 21
231.2938061206
  0
LINE
  5
3F5
100
AcDbEntity
  8
0
100
AcDbLine
 62
7
  6
CONTINUOUS
 10
197.7526279341
 20
231.2938061206
 11
204.0041852746
 21
231.2938061206
  0
LINE
  5
3F6
100
AcDbEntity
  8
0
100
AcDbLine
 62
7
  6
CONTINUOUS
 10
142.4784047852
 20
231.3195847909
 11
141.2784084235
 21
231.3195847909
  0
LINE
  5
3F7
100
AcDbEntity
  8
0
100
AcDbLine
 62
7
  6
CONTINUOUS
 10
203.883781046
 20
231.4088285371
 11
197.8730321627
 21
231.4088285371
  0
LINE
  5
3F8
100
AcDbEntity
  8
0
100
AcDbLine
 62
7
  6
CONTINUOUS
 10
52.883781046
 20
231.4088285371
 11
46.8730321628
 21
231.4088285371
  0
LINE
  5
3F9
100
AcDbEntity
  8
0
100
AcDbLine
 62
7
  6
CONTINUOUS
 10
47.3434964745
 20
231.4195847909
 11
52.4133167342
 21
231.4195847909
  0
LINE
  5
3FA
100
AcDbEntity
  8
0
100
AcDbLine
 62
7
  6
CONTINUOUS
 10
198.3434964745
 20
231.4195847909
 11
203.4133167342
 21
231.4195847909
  0
LINE
  5
3FB
100
AcDbEntity
  8
0
100
AcDbLine
 62
7
  6
CONTINUOUS
 10
143.4784066044
 20
232.3195847909
 11
142.878398303
 21
232.3195846879
  0
LINE
  5
3FC
100
AcDbEntity
  8
0
100
AcDbLine
 62
7
  6
CONTINUOUS
 10
140.8784086931
 20
232.3195847708
 11
140.2784066044
 21
232.3195847909
  0
LINE
  5
3FD
100
AcDbEntity
  8
0
100
AcDbLine
 62
7
  6
CONTINUOUS
 10
153.6575094591
 20
232.9195847909
 11
153.4684964745
 21
232.9195847909
  0
LINE
  5
3FE
100
AcDbEntity
  8
0
100
AcDbLine
 62
7
  6
CONTINUOUS
 10
140.9370291215
 20
233.3195847909
 11
143.4783949026
 21
233.3195847909
  0
LINE
  5
3FF
100
AcDbEntity
  8
0
100
AcDbLine
 62
7
  6
CONTINUOUS
 10
203.3784066044
 20
233.4195847909
 11
198.3784066044
 21
233.4195847909
  0
LINE
  5
400
100
AcDbEntity
  8
0
100
AcDbLine
 62
7
  6
CONTINUOUS
 10
52.3784066044
 20
233.4195847909
 11
47.3784066044
 21
233.4195847909
  0
LINE
  5
401
100
AcDbEntity
  8
0
100
AcDbLine
 62
7
  6
CONTINUOUS
 10
141.1784066044
 20
233.4195847909
 11
145.6784066044
 21
233.4195847909
  0
LINE
  5
402
100
AcDbEntity
  8
0
100
AcDbLine
 62
7
  6
CONTINUOUS
 10
141.1784066044
 20
233.5350414174
 11
145.6784066048
 21
233.5350414174
  0
LINE
  5
403
100
AcDbEntity
  8
0
100
AcDbLine
 62
7
  6
CONTINUOUS
 10
46.8822451739
 20
233.6157462214
 11
52.8745680348
 21
233.6157462214
  0
LINE
  5
404
100
AcDbEntity
  8
0
100
AcDbLine
 62
7
  6
CONTINUOUS
 10
197.8822451739
 20
233.6157462214
 11
203.8745680349
 21
233.6157462214
  0
LINE
  5
405
100
AcDbEntity
  8
0
100
AcDbLine
 62
7
  6
CONTINUOUS
 10
204.0041852747
 20
233.7453634612
 11
197.7526279341
 21
233.7453634612
  0
LINE
  5
406
100
AcDbEntity
  8
0
100
AcDbLine
 62
7
  6
CONTINUOUS
 10
53.0041852747
 20
233.7453634612
 11
46.7526279341
 21
233.7453634612
  0
LINE
  5
407
100
AcDbEntity
  8
0
100
AcDbLine
 62
7
  6
CONTINUOUS
 10
145.679266707
 20
233.8343106319
 11
141.1773802132
 21
233.8343106325
  0
LINE
  5
408
100
AcDbEntity
  8
0
100
AcDbLine
 62
7
  6
CONTINUOUS
 10
136.9036463741
 20
234.4195847909
 11
146.8531668347
 21
234.4195847909
  0
LINE
  5
409
100
AcDbEntity
  8
0
100
AcDbLine
 62
7
  6
CONTINUOUS
 10
146.8784066044
 20
234.7195847909
 11
136.8784066044
 21
234.7195847909
  0
LINE
  5
40A
100
AcDbEntity
  8
0
100
AcDbLine
 62
7
  6
CONTINUOUS
 10
136.3784066044
 20
234.8195847909
 11
137.4622749614
 21
234.8195847909
  0
LINE
  5
40B
100
AcDbEntity
  8
0
100
AcDbLine
 62
7
  6
CONTINUOUS
 10
138.0630959744
 20
234.8195847909
 11
145.6937172344
 21
234.8195847909
  0
LINE
  5
40C
100
AcDbEntity
  8
0
100
AcDbLine
 62
7
  6
CONTINUOUS
 10
146.2945382474
 20
234.8195847909
 11
147.3784066044
 21
234.8195847909
  0
LINE
  5
40D
100
AcDbEntity
  8
0
100
AcDbLine
 62
7
  6
CONTINUOUS
 10
136.3748491147
 20
234.8580773236
 11
136.959427326
 21
234.8580773236
  0
LINE
  5
40E
100
AcDbEntity
  8
0
100
AcDbLine
 62
7
  6
CONTINUOUS
 10
146.7973655528
 20
234.8580773236
 11
147.3819640941
 21
234.8580773236
  0
LINE
  5
40F
100
AcDbEntity
  8
0
100
AcDbLine
 62
7
  6
CONTINUOUS
 10
145.9933060948
 20
235.103884004
 11
145.6627058175
 21
235.103884004
  0
LINE
  5
410
100
AcDbEntity
  8
0
100
AcDbLine
 62
7
  6
CONTINUOUS
 10
138.0941073913
 20
235.103884004
 11
137.784122864
 21
235.103884004
  0
LINE
  5
411
100
AcDbEntity
  8
0
100
AcDbLine
 62
7
  6
CONTINUOUS
 10
147.4096075637
 20
235.1580316322
 11
146.7972417285
 21
235.1580316322
  0
LINE
  5
412
100
AcDbEntity
  8
0
100
AcDbLine
 62
7
  6
CONTINUOUS
 10
136.9595714802
 20
235.1580316322
 11
136.347205645
 21
235.1580316322
  0
LINE
  5
413
100
AcDbEntity
  8
0
100
AcDbLine
 62
7
  6
CONTINUOUS
 10
137.8784066044
 20
235.3195847909
 11
145.8784066044
 21
235.3195847909
  0
LINE
  5
414
100
AcDbEntity
  8
0
100
AcDbLine
 62
7
  6
CONTINUOUS
 10
41.8784066021
 20
236.329335238
 11
136.8981860594
 21
236.329335238
  0
LINE
  5
415
100
AcDbEntity
  8
0
100
AcDbLine
 62
7
  6
CONTINUOUS
 10
146.8586271494
 20
236.329335238
 11
208.8784066044
 21
236.329335238
  0
LINE
  5
416
100
AcDbEntity
  8
0
100
AcDbLine
 62
7
  6
CONTINUOUS
 10
208.8784066045
 20
237.1247455596
 11
146.8586271494
 21
237.1247455596
  0
LINE
  5
417
100
AcDbEntity
  8
0
100
AcDbLine
 62
7
  6
CONTINUOUS
 10
136.8981860594
 20
237.1247455596
 11
41.8784042571
 21
237.1247455596
  0
LINE
  5
418
100
AcDbEntity
  8
0
100
AcDbLine
 62
7
  6
CONTINUOUS
 10
149.7784066044
 20
237.4595293945
 11
148.4784066044
 21
237.4595293945
  0
LINE
  5
419
100
AcDbEntity
  8
0
100
AcDbLine
 62
7
  6
CONTINUOUS
 10
134.1784066044
 20
237.4595293945
 11
132.8784066044
 21
237.4595293945
  0
LINE
  5
41A
100
AcDbEntity
  8
0
100
AcDbLine
 62
7
  6
CONTINUOUS
 10
134.6284066044
 20
237.489223799
 11
134.2784066044
 21
237.489223799
  0
LINE
  5
41B
100
AcDbEntity
  8
0
100
AcDbLine
 62
7
  6
CONTINUOUS
 10
195.3609515395
 20
90.4195847909
 11
195.3784066044
 21
89.4195847909
  0
LINE
  5
41C
100
AcDbEntity
  8
0
100
AcDbLine
 62
7
  6
CONTINUOUS
 10
195.2534066044
 20
239.2881613115
 11
195.2534066044
 21
239.4195853209
  0
LINE
  5
41D
100
AcDbEntity
  8
0
100
AcDbLine
 62
7
  6
CONTINUOUS
 10
196.6948999306
 20
151.4195847909
 11
196.6948999306
 21
94.7101240118
  0
LINE
  5
41E
100
AcDbEntity
  8
0
100
AcDbLine
 62
7
  6
CONTINUOUS
 10
196.8784066044
 20
207.4961379408
 11
196.8784066044
 21
151.4195847909
  0
LINE
  5
41F
100
AcDbEntity
  8
0
100
AcDbLine
 62
7
  6
CONTINUOUS
 10
197.3085863447
 20
229.4195847909
 11
197.3085863447
 21
229.0006190151
  0
LINE
  5
420
100
AcDbEntity
  8
0
100
AcDbLine
 62
7
  6
CONTINUOUS
 10
197.7526279341
 20
231.2938061206
 11
197.7526279341
 21
233.7453634612
  0
LINE
  5
421
100
AcDbEntity
  8
0
100
AcDbLine
 62
7
  6
CONTINUOUS
 10
198.1946714733
 20
94.7358496598
 11
198.1946714733
 21
151.4195847909
  0
LINE
  5
422
100
AcDbEntity
  8
0
100
AcDbLine
 62
7
  6
CONTINUOUS
 10
198.3098048762
 20
151.4195847909
 11
198.3098048762
 21
94.8509830627
  0
LINE
  5
423
100
AcDbEntity
  8
0
100
AcDbLine
 62
7
  6
CONTINUOUS
 10
198.3784066044
 20
151.4195847909
 11
198.3784066044
 21
207.4961379408
  0
LINE
  5
424
100
AcDbEntity
  8
0
100
AcDbLine
 62
7
  6
CONTINUOUS
 10
197.8784069405
 20
231.419585127
 11
197.8784048989
 21
231.4087310805
  0
LINE
  5
425
100
AcDbEntity
  8
0
100
AcDbLine
 62
7
  6
CONTINUOUS
 10
197.882245174
 20
233.6157462214
 11
197.8803391968
 21
231.532212812
  0
LINE
  5
426
100
AcDbEntity
  8
0
100
AcDbLine
 62
7
  6
CONTINUOUS
 10
197.8803391968
 20
231.532212812
 11
197.8784069405
 21
231.419585127
  0
LINE
  5
427
100
AcDbEntity
  8
0
100
AcDbLine
 62
7
  6
CONTINUOUS
 10
198.3784066044
 20
233.4195847909
 11
198.3434964745
 21
231.4195847909
  0
LINE
  5
428
100
AcDbEntity
  8
0
100
AcDbLine
 62
7
  6
CONTINUOUS
 10
206.5288721296
 20
239.3477812078
 11
209.3239183107
 21
239.4044909931
  0
LINE
  5
429
100
AcDbEntity
  8
0
100
AcDbLine
 62
7
  6
CONTINUOUS
 10
209.7315150774
 20
239.4161678471
 11
206.5987170967
 21
239.3525281646
  0
LWPOLYLINE
  5
42A
100
AcDbEntity
  8
0
100
AcDbPolyline
 62
7
  6
CONTINUOUS
 90
3
 70
0
 10
206.5288885848
 20
239.3478011638
 10
207.9979921493
 20
239.3770731074
 10
209.3239183107
 20
239.4045111685
  0
LINE
  5
42B
100
AcDbEntity
  8
0
100
AcDbLine
 62
7
  6
CONTINUOUS
 10
209.5400846691
 20
238.5999791572
 11
209.4563141545
 21
238.5995341105
  0
LWPOLYLINE
  5
42C
100
AcDbEntity
  8
0
100
AcDbPolyline
 62
7
  6
CONTINUOUS
 90
3
 70
0
 10
181.9115262038
 20
239.4190837999
 10
181.6508022359
 20
239.4176975683
 10
180.8096293373
 20
239.4138615021
  0
LINE
  5
42D
100
AcDbEntity
  8
0
100
AcDbLine
 62
7
  6
CONTINUOUS
 10
181.9115262038
 20
239.4190837999
 11
180.8398311812
 21
239.413915779
  0
LINE
  5
42E
100
AcDbEntity
  8
0
100
AcDbLine
 62
7
  6
CONTINUOUS
 10
182.0034079533
 20
239.418968034
 11
182.9034066056
 21
239.4195229002
  0
LINE
  5
42F
100
AcDbEntity
  8
0
100
AcDbLine
 62
7
  6
CONTINUOUS
 10
132.9289931481
 20
239.4192624844
 11
133.5783788922
 21
239.4195524068
  0
LINE
  5
430
100
AcDbEntity
  8
0
100
AcDbLine
 62
7
  6
CONTINUOUS
 10
134.2784066044
 20
237.5186899142
 11
134.6284066044
 21
237.5186899142
  0
LINE
  5
431
100
AcDbEntity
  8
0
100
AcDbLine
 62
7
  6
CONTINUOUS
 10
137.8784066044
 20
237.5195847909
 11
145.8784066044
 21
237.5195847909
  0
LINE
  5
432
100
AcDbEntity
  8
0
100
AcDbLine
 62
7
  6
CONTINUOUS
 10
150.2284066044
 20
237.6057190297
 11
149.8784066044
 21
237.6057190297
  0
LINE
  5
433
100
AcDbEntity
  8
0
100
AcDbLine
 62
7
  6
CONTINUOUS
 10
134.6284066044
 20
237.6057190297
 11
134.2784066044
 21
237.6057190297
  0
LINE
  5
434
100
AcDbEntity
  8
0
100
AcDbLine
 62
7
  6
CONTINUOUS
 10
134.2784066044
 20
237.6342724909
 11
134.6284066044
 21
237.6342724909
  0
LINE
  5
435
100
AcDbEntity
  8
0
100
AcDbLine
 62
7
  6
CONTINUOUS
 10
149.8784066044
 20
237.6342724909
 11
150.2284066044
 21
237.6342724909
  0
LINE
  5
436
100
AcDbEntity
  8
0
100
AcDbLine
 62
7
  6
CONTINUOUS
 10
132.8784066044
 20
237.6625979123
 11
134.1784066044
 21
237.6625979123
  0
LINE
  5
437
100
AcDbEntity
  8
0
100
AcDbLine
 62
7
  6
CONTINUOUS
 10
148.4784066044
 20
237.6625979123
 11
149.7784066044
 21
237.6625979123
  0
LINE
  5
438
100
AcDbEntity
  8
0
100
AcDbLine
 62
7
  6
CONTINUOUS
 10
150.2284066044
 20
237.7185648298
 11
149.8784066044
 21
237.7185648298
  0
LINE
  5
439
100
AcDbEntity
  8
0
100
AcDbLine
 62
7
  6
CONTINUOUS
 10
149.8784066044
 20
237.7462064219
 11
150.2284066044
 21
237.7462064219
  0
LINE
  5
43A
100
AcDbEntity
  8
0
100
AcDbLine
 62
7
  6
CONTINUOUS
 10
138.1784066044
 20
237.8195847909
 11
145.5784044226
 21
237.8195847909
  0
LINE
  5
43B
100
AcDbEntity
  8
0
100
AcDbLine
 62
7
  6
CONTINUOUS
 10
125.1284066044
 20
238.7109070107
 11
105.6284066044
 21
238.7109070107
  0
LINE
  5
43C
100
AcDbEntity
  8
0
100
AcDbLine
 62
7
  6
CONTINUOUS
 10
105.1284066044
 20
238.7109070107
 11
82.6284066044
 21
238.7109070107
  0
LINE
  5
43D
100
AcDbEntity
  8
0
100
AcDbLine
 62
7
  6
CONTINUOUS
 10
82.6284066044
 20
238.9105526718
 11
105.1284066044
 21
238.9105526718
  0
LINE
  5
43E
100
AcDbEntity
  8
0
100
AcDbLine
 62
7
  6
CONTINUOUS
 10
105.6284066044
 20
238.9105526718
 11
125.1284066044
 21
238.9105526718
  0
LINE
  5
43F
100
AcDbEntity
  8
0
100
AcDbLine
 62
7
  6
CONTINUOUS
 10
126.1284066044
 20
239.0994566884
 11
125.6284066044
 21
239.0994566884
  0
LINE
  5
440
100
AcDbEntity
  8
0
100
AcDbLine
 62
7
  6
CONTINUOUS
 10
185.2528741357
 20
239.2694128152
 11
194.254133411
 21
239.2694122357
  0
LINE
  5
441
100
AcDbEntity
  8
0
100
AcDbLine
 62
7
  6
CONTINUOUS
 10
184.2534066044
 20
239.3195847909
 11
195.2534066044
 21
239.3195847909
  0
LINE
  5
442
100
AcDbEntity
  8
0
100
AcDbLine
 62
7
  6
CONTINUOUS
 10
125.6284066044
 20
239.3996967965
 11
126.1284066044
 21
239.3996967965
  0
LINE
  5
443
100
AcDbEntity
  8
0
100
AcDbLine
 62
7
  6
CONTINUOUS
 10
210.0334213338
 20
239.4195847909
 11
209.8923706564
 21
239.4195847909
  0
LINE
  5
444
100
AcDbEntity
  8
0
100
AcDbLine
 62
7
  6
CONTINUOUS
 10
132.1147725615
 20
239.4195847909
 11
131.9493983807
 21
239.4195847909
  0
LINE
  5
445
100
AcDbEntity
  8
0
100
AcDbLine
 62
7
  6
CONTINUOUS
 10
128.5811930089
 20
239.4195847909
 11
126.1284066044
 21
239.4195847909
  0
LINE
  5
446
100
AcDbEntity
  8
0
100
AcDbLine
 62
7
  6
CONTINUOUS
 10
82.6284066044
 20
239.4195847909
 11
41.1784066044
 21
239.4195847909
  0
LINE
  5
447
100
AcDbEntity
  8
0
100
AcDbLine
 62
7
  6
CONTINUOUS
 10
133.5784066044
 20
239.4195847909
 11
142.5072461475
 21
239.4195847909
  0
LINE
  5
448
100
AcDbEntity
  8
0
100
AcDbLine
 62
7
  6
CONTINUOUS
 10
155.2463771952
 20
239.4195847909
 11
161.217496299
 21
239.4195847909
  0
LINE
  5
449
100
AcDbEntity
  8
0
100
AcDbLine
 62
7
  6
CONTINUOUS
 10
168.787844589
 20
239.4195847909
 11
173.0037701552
 21
239.4195847909
  0
LINE
  5
44A
100
AcDbEntity
  8
0
100
AcDbLine
 62
7
  6
CONTINUOUS
 10
182.9034066044
 20
239.4195847909
 11
184.2534066044
 21
239.4195847909
  0
LINE
  5
44B
100
AcDbEntity
  8
0
100
AcDbLine
 62
7
  6
CONTINUOUS
 10
195.2534066044
 20
239.4195847909
 11
209.6784051693
 21
239.4195847909
  0
LINE
  5
44C
100
AcDbEntity
  8
0
100
AcDbLine
 62
7
  6
CONTINUOUS
 10
82.6284066044
 20
239.6195847909
 11
125.6284066044
 21
239.6195847909
  0
LINE
  5
44D
100
AcDbEntity
  8
0
100
AcDbLine
 62
7
  6
CONTINUOUS
 10
120.6284066044
 20
239.7155117818
 11
125.6284066044
 21
239.7155117818
  0
LINE
  5
44E
100
AcDbEntity
  8
0
100
AcDbLine
 62
7
  6
CONTINUOUS
 10
126.1284066044
 20
239.7195847909
 11
125.6284066044
 21
239.7195847909
  0
LINE
  5
44F
100
AcDbEntity
  8
0
100
AcDbLine
 62
7
  6
CONTINUOUS
 10
182.0034104762
 20
239.4190785407
 11
181.9115262038
 21
239.4190837999
  0
LWPOLYLINE
  5
450
100
AcDbEntity
  8
0
100
AcDbPolyline
 62
7
  6
CONTINUOUS
 90
4
 70
0
 10
131.7866083428
 20
239.3663756946
 10
131.2098168454
 20
239.372047775
 10
129.8561805282
 20
239.3859118777
 10
129.0867396756
 20
239.3940365619
  0
LINE
  5
451
100
AcDbEntity
  8
0
100
AcDbLine
 62
7
  6
CONTINUOUS
 10
131.8264522758
 20
239.3870976835
 11
129.9677475427
 21
239.4054417304
  0
LINE
  5
452
100
AcDbEntity
  8
0
100
AcDbLine
 62
7
  6
CONTINUOUS
 10
131.6229411823
 20
239.3890678542
 11
128.9092196896
 21
239.4161837519
  0
LINE
  5
453
100
AcDbEntity
  8
0
100
AcDbLine
 62
7
  6
CONTINUOUS
 10
131.7466484805
 20
239.3666781951
 11
129.04943228
 21
239.3944228594
  0
LINE
  5
454
100
AcDbEntity
  8
0
100
AcDbLine
 62
7
  6
CONTINUOUS
 10
129.9677475427
 20
239.4054417304
 11
128.5811929368
 21
239.4195847899
  0
LINE
  5
455
100
AcDbEntity
  8
0
100
AcDbLine
 62
7
  6
CONTINUOUS
 10
133.9895863708
 20
239.3769175291
 11
134.4401511154
 21
239.3678122771
  0
LINE
  5
456
100
AcDbEntity
  8
0
100
AcDbLine
 62
7
  6
CONTINUOUS
 10
134.4401555511
 20
239.3717708242
 11
134.0626386266
 21
239.3792194646
  0
LINE
  5
457
100
AcDbEntity
  8
0
100
AcDbLine
 62
7
  6
CONTINUOUS
 10
134.4031688264
 20
239.3723756226
 11
134.0785593411
 21
239.3789248255
  0
LINE
  5
458
100
AcDbEntity
  8
0
100
AcDbLine
 62
7
  6
CONTINUOUS
 10
134.0785593411
 20
239.3789248255
 11
132.8263134602
 21
239.4046134832
  0
LINE
  5
459
100
AcDbEntity
  8
0
100
AcDbLine
 62
7
  6
CONTINUOUS
 10
134.0626386266
 20
239.3792194646
 11
133.3528903966
 21
239.3936961963
  0
LINE
  5
45A
100
AcDbEntity
  8
0
100
AcDbLine
 62
7
  6
CONTINUOUS
 10
133.3554525522
 20
239.3899235659
 11
133.9895863708
 21
239.3769175291
  0
LINE
  5
45B
100
AcDbEntity
  8
0
100
AcDbLine
 62
7
  6
CONTINUOUS
 10
132.6640983839
 20
239.4043900006
 11
133.9895863708
 21
239.3769447666
  0
LINE
  5
45C
100
AcDbEntity
  8
0
100
AcDbLine
 62
7
  6
CONTINUOUS
 10
133.3528903966
 20
239.3936961963
 11
132.907673525
 21
239.4029184612
  0
LINE
  5
45D
100
AcDbEntity
  8
0
100
AcDbLine
 62
7
  6
CONTINUOUS
 10
132.8798777803
 20
239.3998282068
 11
133.3554525522
 21
239.3899235659
  0
LINE
  5
45E
100
AcDbEntity
  8
0
100
AcDbLine
 62
7
  6
CONTINUOUS
 10
132.2620134994
 20
239.4128756345
 11
132.6640983839
 21
239.4043627632
  0
LINE
  5
45F
100
AcDbEntity
  8
0
100
AcDbLine
 62
7
  6
CONTINUOUS
 10
132.1146999895
 20
239.4160600585
 11
132.6640983839
 21
239.4043900006
  0
LINE
  5
460
100
AcDbEntity
  8
0
100
AcDbLine
 62
7
  6
CONTINUOUS
 10
131.9493983807
 20
239.4195847909
 11
132.2620134994
 21
239.4128756345
  0
LINE
  5
461
100
AcDbEntity
  8
0
100
AcDbLine
 62
7
  6
CONTINUOUS
 10
132.8263134602
 20
239.4046134832
 11
132.1147588909
 21
239.4195844095
  0
LINE
  5
462
100
AcDbEntity
  8
0
100
AcDbLine
 62
7
  6
CONTINUOUS
 10
209.5947206185
 20
238.5986482191
 11
209.5400846691
 21
238.5999791572
  0
LINE
  5
463
100
AcDbEntity
  8
0
100
AcDbLine
 62
7
  6
CONTINUOUS
 10
209.5947500445
 20
238.5984471394
 11
209.5945796278
 21
238.5984514675
  0
LINE
  5
464
100
AcDbEntity
  8
0
100
AcDbLine
 62
7
  6
CONTINUOUS
 10
133.3424488062
 20
239.1891476998
 11
133.3852171773
 21
239.1871807473
  0
LINE
  5
465
100
AcDbEntity
  8
0
100
AcDbLine
 62
7
  6
CONTINUOUS
 10
132.1068240558
 20
239.2470800896
 11
132.1230244986
 21
239.2463334053
  0
LINE
  5
466
100
AcDbEntity
  8
0
100
AcDbLine
 62
7
  6
CONTINUOUS
 10
133.4238569861
 20
239.1863775628
 11
133.4657870088
 21
239.1844449928
  0
LINE
  5
467
100
AcDbEntity
  8
0
100
AcDbLine
 62
7
  6
CONTINUOUS
 10
132.0765228452
 20
239.2481750834
 11
132.0911050862
 21
239.2474861075
  0
LINE
  5
468
100
AcDbEntity
  8
0
100
AcDbLine
 62
7
  6
CONTINUOUS
 10
128.9095382017
 20
239.4028670398
 11
131.6275896135
 21
239.2694927758
  0
LWPOLYLINE
  5
469
100
AcDbEntity
  8
0
100
AcDbPolyline
 62
7
  6
CONTINUOUS
 90
3
 70
0
 10
128.9095382017
 20
239.4028670398
 10
129.9701171546
 20
239.3500152272
 10
131.6563976059
 20
239.26828139
  0
LINE
  5
46A
100
AcDbEntity
  8
0
100
AcDbLine
 62
7
  6
CONTINUOUS
 10
128.5811930089
 20
239.4195847909
 11
128.9095382017
 21
239.4028670398
  0
LINE
  5
46B
100
AcDbEntity
  8
0
100
AcDbLine
 62
7
  6
CONTINUOUS
 10
146.0597235216
 20
236.371204003
 11
146.8586271494
 21
236.329335238
  0
LINE
  5
46C
100
AcDbEntity
  8
0
100
AcDbLine
 62
7
  6
CONTINUOUS
 10
209.4622405871
 20
238.5992119939
 11
209.4563197119
 21
238.5995341358
  0
LWPOLYLINE
  5
46D
100
AcDbEntity
  8
0
100
AcDbPolyline
 62
7
  6
CONTINUOUS
 90
3
 70
0
 10
155.499569575
 20
239.3817160335
 10
148.9969676064
 20
240.3542787008
 10
142.5072461475
 20
239.3817163192
  0
LINE
  5
46E
100
AcDbEntity
  8
0
100
AcDbLine
 62
7
  6
CONTINUOUS
 10
199.7999026701
 20
208.994082243
 11
199.7213987357
 21
210.4920265451
  0
LINE
  5
46F
100
AcDbEntity
  8
0
100
AcDbLine
 62
7
  6
CONTINUOUS
 10
203.3784066044
 20
233.4195847909
 11
203.4133167342
 21
231.4195847909
  0
LINE
  5
470
100
AcDbEntity
  8
0
100
AcDbLine
 62
7
  6
CONTINUOUS
 10
203.8784062682
 20
231.419585127
 11
203.876474012
 21
231.532212812
  0
LINE
  5
471
100
AcDbEntity
  8
0
100
AcDbLine
 62
7
  6
CONTINUOUS
 10
203.8764740121
 20
231.5322128074
 11
203.8745680349
 21
233.6157462214
  0
LINE
  5
472
100
AcDbEntity
  8
0
100
AcDbLine
 62
7
  6
CONTINUOUS
 10
202.1690627872
 20
207.6203003613
 11
202.1690627794
 21
151.4195847909
  0
LINE
  5
473
100
AcDbEntity
  8
0
100
AcDbLine
 62
7
  6
CONTINUOUS
 10
202.3091956569
 20
94.9195847909
 11
202.3091956569
 21
151.4195847909
  0
LINE
  5
474
100
AcDbEntity
  8
0
100
AcDbLine
 62
7
  6
CONTINUOUS
 10
204.0041852747
 20
231.2938061206
 11
204.0041852747
 21
233.7453634612
  0
LINE
  5
475
100
AcDbEntity
  8
0
100
AcDbLine
 62
7
  6
CONTINUOUS
 10
204.4482268641
 20
229.0006190151
 11
204.4482268641
 21
229.4195847909
  0
LINE
  5
476
100
AcDbEntity
  8
0
100
AcDbLine
 62
7
  6
CONTINUOUS
 10
203.4906036894
 20
231.4185104081
 11
203.5024986339
 21
232.2728993048
  0
LINE
  5
477
100
AcDbEntity
  8
0
100
AcDbLine
 62
7
  6
CONTINUOUS
 10
203.5024986339
 20
232.2728993048
 11
203.504859568
 21
232.4427637434
  0
LINE
  5
478
100
AcDbEntity
  8
0
100
AcDbLine
 62
7
  6
CONTINUOUS
 10
203.490640589
 20
231.4185116133
 11
203.5024986339
 21
232.2728993048
  0
LINE
  5
479
100
AcDbEntity
  8
0
100
AcDbLine
 62
7
  6
CONTINUOUS
 10
203.504859568
 20
232.4427637434
 11
203.5183743655
 21
233.4176457067
  0
LINE
  5
47A
100
AcDbEntity
  8
0
100
AcDbLine
 62
7
  6
CONTINUOUS
 10
203.5024986339
 20
232.2728993048
 11
203.5211076467
 21
233.6157462214
  0
LINE
  5
47B
100
AcDbEntity
  8
0
100
AcDbLine
 62
7
  6
CONTINUOUS
 10
203.5183743655
 20
233.4176457067
 11
203.5211165366
 21
233.6157465236
  0
LWPOLYLINE
  5
47C
100
AcDbEntity
  8
0
100
AcDbPolyline
 62
7
  6
CONTINUOUS
 90
4
 70
0
 10
181.1034335303
 20
239.7794733637
 10
178.3991034284
 20
240.3799600759
 10
176.6016938494
 20
240.3794260112
 10
173.0037645666
 20
239.4195847607
  0
LWPOLYLINE
  5
47D
100
AcDbEntity
  8
0
100
AcDbPolyline
 62
7
  6
CONTINUOUS
 90
4
 70
0
 10
169.4976145942
 20
239.2331140227
 10
165.8972704151
 20
240.1789964073
 10
164.0983470733
 20
240.1780132826
 10
160.5092005903
 20
239.2331149984
  0
LWPOLYLINE
  5
47E
100
AcDbEntity
  8
0
100
AcDbPolyline
 62
7
  6
CONTINUOUS
 90
4
 70
0
 10
181.4976145942
 20
239.2331140227
 10
177.8972704151
 20
240.1789964073
 10
176.0983470733
 20
240.1780132826
 10
172.5092005903
 20
239.2331149984
  0
LINE
  5
47F
100
AcDbEntity
  8
0
100
AcDbLine
 62
7
  6
CONTINUOUS
 10
208.8784066044
 20
210.9719249924
 11
208.9569105388
 21
209.4739806902
  0
LINE
  5
480
100
AcDbEntity
  8
0
100
AcDbLine
 62
7
  6
CONTINUOUS
 10
210.375373421
 20
238.5127206529
 11
210.37835344
 21
238.4494367858
  0
LINE
  5
481
100
AcDbEntity
  8
0
100
AcDbLine
 62
7
  6
CONTINUOUS
 10
210.3541485546
 20
237.9347411713
 11
210.3333756424
 21
239.1248205128
  0
LINE
  5
482
100
AcDbEntity
  8
0
100
AcDbLine
 62
7
  6
CONTINUOUS
 10
208.8503240218
 20
94.9195847909
 11
208.8331122636
 21
151.4195847909
  0
LINE
  5
483
100
AcDbEntity
  8
0
100
AcDbLine
 62
7
  6
CONTINUOUS
 10
210.3500878668
 20
94.9453105086
 11
210.3328839456
 21
151.4195847909
  0
LINE
  5
484
100
AcDbEntity
  8
0
100
AcDbLine
 62
7
  6
CONTINUOUS
 10
208.8784066045
 20
237.1247455596
 11
208.8784066044
 21
210.9719249924
  0
LINE
  5
485
100
AcDbEntity
  8
0
100
AcDbLine
 62
7
  6
CONTINUOUS
 10
208.9569105387
 20
207.9760363927
 11
208.9569105388
 21
151.4195847909
  0
LINE
  5
486
100
AcDbEntity
  8
0
100
AcDbLine
 62
7
  6
CONTINUOUS
 10
209.5784066044
 20
238.5970685574
 11
209.5784066044
 21
237.1995777209
  0
LINE
  5
487
100
AcDbEntity
  8
0
100
AcDbLine
 62
7
  6
CONTINUOUS
 10
210.3784066044
 20
238.4516511781
 11
210.3784066044
 21
237.8396150551
  0
LINE
  5
488
100
AcDbEntity
  8
0
100
AcDbLine
 62
7
  6
CONTINUOUS
 10
210.3784066044
 20
237.7961518753
 11
210.3784066044
 21
229.7195847909
  0
LINE
  5
489
100
AcDbEntity
  8
0
100
AcDbLine
 62
7
  6
CONTINUOUS
 10
210.3784066762
 20
94.9736421201
 11
210.3784066044
 21
229.1195847909
  0
LINE
  5
48A
100
AcDbEntity
  8
0
100
AcDbLine
 62
7
  6
CONTINUOUS
 10
210.8784066044
 20
174.4195847909
 11
210.8784066044
 21
214.4195847909
  0
LINE
  5
48B
100
AcDbEntity
  8
0
100
AcDbLine
 62
7
  6
CONTINUOUS
 10
208.7821752552
 20
89.4195847909
 11
208.8745219608
 21
94.7101240118
  0
LINE
  5
48C
100
AcDbEntity
  8
0
100
AcDbLine
 62
7
  6
CONTINUOUS
 10
210.2824037473
 20
89.4195847909
 11
210.3793499643
 21
94.9736298431
  0
LINE
  5
48D
100
AcDbEntity
  8
0
100
AcDbLine
 62
7
  6
CONTINUOUS
 10
181.1308465251
 20
239.7673533718
 11
181.1034335257
 21
239.7793473543
  0
LINE
  5
48E
100
AcDbEntity
  8
0
100
AcDbLine
 62
7
  6
CONTINUOUS
 10
181.1429276546
 20
239.7619671452
 11
181.1034484419
 21
239.7794673294
  0
LINE
  5
48F
100
AcDbEntity
  8
0
100
AcDbLine
 62
7
  6
CONTINUOUS
 10
181.1034066044
 20
239.7793689785
 11
181.1485497468
 21
239.7590035359
  0
LINE
  5
490
100
AcDbEntity
  8
0
100
AcDbLine
 62
7
  6
CONTINUOUS
 10
198.3098022414
 20
94.8509804279
 11
198.1946714733
 21
94.7358496598
  0
LINE
  5
491
100
AcDbEntity
  8
0
100
AcDbLine
 62
7
  6
CONTINUOUS
 10
210.3786424982
 20
94.973642192
 11
210.3500878668
 21
94.9453105086
  0
LINE
  5
492
100
AcDbEntity
  8
0
100
AcDbLine
 62
7
  6
CONTINUOUS
 10
204.0041852746
 20
231.2938061206
 11
203.883781046
 21
231.4088285371
  0
LINE
  5
493
100
AcDbEntity
  8
0
100
AcDbLine
 62
7
  6
CONTINUOUS
 10
197.7526279341
 20
233.7453634612
 11
197.8822451739
 21
233.6157462214
  0
LINE
  5
494
100
AcDbEntity
  8
0
100
AcDbLine
 62
7
  6
CONTINUOUS
 10
203.8784062682
 20
231.419585127
 11
203.8891481071
 21
231.4088248619
  0
ARC
  5
495
100
AcDbEntity
  8
0
100
AcDbCircle
 62
7
  6
CONTINUOUS
 10
33.3784066044
 20
158.5195847909
 40
12.0
100
AcDbArc
 50
74.5060325289
 51
78.2192791258
  0
ARC
  5
496
100
AcDbEntity
  8
0
100
AcDbCircle
 62
7
  6
CONTINUOUS
 10
33.3784066044
 20
158.5195847909
 40
12.0
100
AcDbArc
 50
101.7807208651
 51
105.4939674805
  0
ARC
  5
497
100
AcDbEntity
  8
0
100
AcDbCircle
 62
7
  6
CONTINUOUS
 10
33.3784066044
 20
158.5195847909
 40
11.9948947473
100
AcDbArc
 50
94.0635842247
 51
101.7858068825
  0
ARC
  5
498
100
AcDbEntity
  8
0
100
AcDbCircle
 62
7
  6
CONTINUOUS
 10
33.3784066044
 20
158.5195847909
 40
11.9948947473
100
AcDbArc
 50
78.2141931175
 51
85.9364157753
  0
ARC
  5
499
100
AcDbEntity
  8
0
100
AcDbCircle
 62
7
  6
CONTINUOUS
 10
33.3784066044
 20
158.5195847909
 40
11.7472337169
100
AcDbArc
 50
88.2926626465
 51
91.7073373535
  0
ARC
  5
49A
100
AcDbEntity
  8
0
100
AcDbCircle
 62
7
  6
CONTINUOUS
 10
30.6001826691
 20
168.5416340706
 40
1.6
100
AcDbArc
 50
105.4939675005
 51
175.0
  0
ARC
  5
49B
100
AcDbEntity
  8
0
100
AcDbCircle
 62
7
  6
CONTINUOUS
 10
36.1566305397
 20
168.5416340706
 40
1.6
100
AcDbArc
 50
5.0
 51
74.5060324995
  0
ARC
  5
49C
100
AcDbEntity
  8
0
100
AcDbCircle
 62
7
  6
CONTINUOUS
 10
40.4483791922
 20
160.9195847909
 40
1.0
100
AcDbArc
 50
181.0
 51
265.5362604779
  0
ARC
  5
49D
100
AcDbEntity
  8
0
100
AcDbCircle
 62
7
  6
CONTINUOUS
 10
38.3957093413
 20
163.9195847909
 40
1.0
100
AcDbArc
 50
1.0
 51
90.0
  0
ARC
  5
49E
100
AcDbEntity
  8
0
100
AcDbCircle
 62
7
  6
CONTINUOUS
 10
27.5007443869
 20
163.9195847909
 40
1.0
100
AcDbArc
 50
90.0
 51
179.0
  0
ARC
  5
49F
100
AcDbEntity
  8
0
100
AcDbCircle
 62
7
  6
CONTINUOUS
 10
40.8784066044
 20
90.7195847909
 40
0.5
100
AcDbArc
 50
180.0
 51
203.5180889969
  0
ARC
  5
4A0
100
AcDbEntity
  8
0
100
AcDbCircle
 62
7
  6
CONTINUOUS
 10
39.8784066044
 20
100.2652390414
 40
0.5
100
AcDbArc
 50
180.0
 51
264.9999990226
  0
ARC
  5
4A1
100
AcDbEntity
  8
0
100
AcDbCircle
 62
7
  6
CONTINUOUS
 10
39.8784066044
 20
146.1739305404
 40
0.5
100
AcDbArc
 50
95.0000009774
 51
180.0
  0
ARC
  5
4A2
100
AcDbEntity
  8
0
100
AcDbCircle
 62
7
  6
CONTINUOUS
 10
36.8784114102
 20
116.7108455066
 40
0.4998596565
100
AcDbArc
 50
179.9899256788
 51
268.9992734278
  0
ARC
  5
4A3
100
AcDbEntity
  8
0
100
AcDbCircle
 62
7
  6
CONTINUOUS
 10
36.8784111405
 20
129.7283248182
 40
0.4998595628
100
AcDbArc
 50
91.0006971617
 51
180.0101594613
  0
ARC
  5
4A4
100
AcDbEntity
  8
0
100
AcDbCircle
 62
7
  6
CONTINUOUS
 10
45.5064701306
 20
183.7343847909
 40
5.5
100
AcDbArc
 50
159.062953988
 51
181.000000001
  0
ARC
  5
4A5
100
AcDbEntity
  8
0
100
AcDbCircle
 62
7
  6
CONTINUOUS
 10
50.8784066044
 20
223.4961379408
 40
3.0
100
AcDbArc
 50
0.0
 51
86.9999999995
  0
ARC
  5
4A6
100
AcDbEntity
  8
0
100
AcDbCircle
 62
7
  6
CONTINUOUS
 10
50.8784066044
 20
223.4961379408
 40
1.5
100
AcDbArc
 50
0.0
 51
86.9999999999
  0
ARC
  5
4A7
100
AcDbEntity
  8
0
100
AcDbCircle
 62
7
  6
CONTINUOUS
 10
41.8784066044
 20
226.9719249924
 40
1.5
100
AcDbArc
 50
180.0000000199
 51
267.0
  0
ARC
  5
4A8
100
AcDbEntity
  8
0
100
AcDbCircle
 62
7
  6
CONTINUOUS
 10
61.4784066044
 20
177.5195847909
 40
1.2048155586
100
AcDbArc
 50
89.9999999991
 51
256.2895778709
  0
ARC
  5
4A9
100
AcDbEntity
  8
0
100
AcDbCircle
 62
7
  6
CONTINUOUS
 10
61.4784066044
 20
182.5195847909
 40
1.2048155586
100
AcDbArc
 50
89.9999999991
 51
270.0000000009
  0
ARC
  5
4AA
100
AcDbEntity
  8
0
100
AcDbCircle
 62
7
  6
CONTINUOUS
 10
61.4784066044
 20
187.5195847909
 40
1.2048155586
100
AcDbArc
 50
89.9999999991
 51
270.0000000009
  0
ARC
  5
4AB
100
AcDbEntity
  8
0
100
AcDbCircle
 62
7
  6
CONTINUOUS
 10
61.4784066044
 20
177.5195847909
 40
1.1786116689
100
AcDbArc
 50
90.0000000012
 51
259.4094997164
  0
ARC
  5
4AC
100
AcDbEntity
  8
0
100
AcDbCircle
 62
7
  6
CONTINUOUS
 10
61.4784066044
 20
182.5195847909
 40
1.1786116689
100
AcDbArc
 50
90.0000000012
 51
269.9999999988
  0
ARC
  5
4AD
100
AcDbEntity
  8
0
100
AcDbCircle
 62
7
  6
CONTINUOUS
 10
61.4784066044
 20
187.5195847909
 40
1.1786116689
100
AcDbArc
 50
90.0000000012
 51
269.9999999988
  0
ARC
  5
4AE
100
AcDbEntity
  8
0
100
AcDbCircle
 62
7
  6
CONTINUOUS
 10
41.1784066044
 20
238.6195847909
 40
0.8
100
AcDbArc
 50
90.0
 51
180.0
  0
ARC
  5
4AF
100
AcDbEntity
  8
0
100
AcDbCircle
 62
7
  6
CONTINUOUS
 10
40.6784066044
 20
229.7195847909
 40
0.3
100
AcDbArc
 50
180.0
 51
270.0
  0
ARC
  5
4B0
100
AcDbEntity
  8
0
100
AcDbCircle
 62
7
  6
CONTINUOUS
 10
40.6784066044
 20
229.1195847909
 40
0.3
100
AcDbArc
 50
90.0
 51
180.0
  0
ARC
  5
4B1
100
AcDbEntity
  8
0
100
AcDbCircle
 62
7
  6
CONTINUOUS
 10
70.0536199961
 20
160.9195847909
 40
1.0
100
AcDbArc
 50
238.6453741801
 51
270.0
  0
ARC
  5
4B2
100
AcDbEntity
  8
0
100
AcDbCircle
 62
7
  6
CONTINUOUS
 10
68.9837667862
 20
159.4195847909
 40
0.5
100
AcDbArc
 50
90.0000000048
 51
178.0003036479
  0
ARC
  5
4B3
100
AcDbEntity
  8
0
100
AcDbCircle
 62
7
  6
CONTINUOUS
 10
75.7730464226
 20
159.4195847909
 40
0.5
100
AcDbArc
 50
1.9996956377
 51
89.9999999929
  0
ARC
  5
4B4
100
AcDbEntity
  8
0
100
AcDbCircle
 62
7
  6
CONTINUOUS
 10
94.3880243892
 20
251.2761752869
 40
68.9857852058
100
AcDbArc
 50
341.6581154614
 51
341.7913261109
  0
ARC
  5
4B5
100
AcDbEntity
  8
0
100
AcDbCircle
 62
7
  6
CONTINUOUS
 10
87.2784066044
 20
177.5195847909
 40
1.2048155586
100
AcDbArc
 50
283.7104221291
 51
90.0000000009
  0
ARC
  5
4B6
100
AcDbEntity
  8
0
100
AcDbCircle
 62
7
  6
CONTINUOUS
 10
95.4784066044
 20
177.5195847909
 40
1.2048155586
100
AcDbArc
 50
89.9999999991
 51
270.0000000009
  0
ARC
  5
4B7
100
AcDbEntity
  8
0
100
AcDbCircle
 62
7
  6
CONTINUOUS
 10
87.2784066044
 20
182.5195847909
 40
1.2048155586
100
AcDbArc
 50
269.9999999991
 51
90.0000000009
  0
ARC
  5
4B8
100
AcDbEntity
  8
0
100
AcDbCircle
 62
7
  6
CONTINUOUS
 10
95.4784066044
 20
182.5195847909
 40
1.2048155586
100
AcDbArc
 50
89.9999999991
 51
270.0000000009
  0
ARC
  5
4B9
100
AcDbEntity
  8
0
100
AcDbCircle
 62
7
  6
CONTINUOUS
 10
87.2784066044
 20
187.5195847909
 40
1.2048155586
100
AcDbArc
 50
269.9999999991
 51
90.0000000009
  0
ARC
  5
4BA
100
AcDbEntity
  8
0
100
AcDbCircle
 62
7
  6
CONTINUOUS
 10
95.4784066044
 20
187.5195847909
 40
1.2048155586
100
AcDbArc
 50
89.9999999991
 51
270.0000000009
  0
ARC
  5
4BB
100
AcDbEntity
  8
0
100
AcDbCircle
 62
7
  6
CONTINUOUS
 10
87.2784066044
 20
177.5195847909
 40
1.1786116689
100
AcDbArc
 50
280.5905002836
 51
89.9999999988
  0
ARC
  5
4BC
100
AcDbEntity
  8
0
100
AcDbCircle
 62
7
  6
CONTINUOUS
 10
95.4784066044
 20
177.5195847909
 40
1.1786116689
100
AcDbArc
 50
90.0000000012
 51
269.9999999988
  0
ARC
  5
4BD
100
AcDbEntity
  8
0
100
AcDbCircle
 62
7
  6
CONTINUOUS
 10
87.2784066044
 20
182.5195847909
 40
1.1786116689
100
AcDbArc
 50
270.0000000012
 51
89.9999999988
  0
ARC
  5
4BE
100
AcDbEntity
  8
0
100
AcDbCircle
 62
7
  6
CONTINUOUS
 10
95.4784066044
 20
182.5195847909
 40
1.1786116689
100
AcDbArc
 50
90.0000000012
 51
269.9999999988
  0
ARC
  5
4BF
100
AcDbEntity
  8
0
100
AcDbCircle
 62
7
  6
CONTINUOUS
 10
87.2784066044
 20
187.5195847909
 40
1.1786116689
100
AcDbArc
 50
270.0000000012
 51
89.9999999988
  0
ARC
  5
4C0
100
AcDbEntity
  8
0
100
AcDbCircle
 62
7
  6
CONTINUOUS
 10
95.4784066044
 20
187.5195847909
 40
1.1786116689
100
AcDbArc
 50
90.0000000012
 51
269.9999999988
  0
ARC
  5
4C1
100
AcDbEntity
  8
0
100
AcDbCircle
 62
7
  6
CONTINUOUS
 10
141.879709979
 20
135.4278664268
 40
95.8650294722
100
AcDbArc
 50
89.8214771864
 51
90.0007789893
  0
ARC
  5
4C2
100
AcDbEntity
  8
0
100
AcDbCircle
 62
7
  6
CONTINUOUS
 10
141.8736682708
 20
139.8328724183
 40
91.4600235946
100
AcDbArc
 50
89.997031637
 51
90.4546114551
  0
ARC
  5
4C3
100
AcDbEntity
  8
0
100
AcDbCircle
 62
7
  6
CONTINUOUS
 10
141.696323768
 20
165.021095628
 40
66.2711899577
100
AcDbArc
 50
90.4740763689
 51
90.6067468764
  0
ARC
  5
4C4
100
AcDbEntity
  8
0
100
AcDbCircle
 62
7
  6
CONTINUOUS
 10
141.5861259389
 20
175.4400663833
 40
55.8516364578
100
AcDbArc
 50
90.6068908885
 51
90.7260463439
  0
ARC
  5
4C5
100
AcDbEntity
  8
0
100
AcDbCircle
 62
7
  6
CONTINUOUS
 10
121.2784066044
 20
177.5195847909
 40
1.2048155586
100
AcDbArc
 50
269.9999999991
 51
90.0000000009
  0
ARC
  5
4C6
100
AcDbEntity
  8
0
100
AcDbCircle
 62
7
  6
CONTINUOUS
 10
129.4784066044
 20
177.5195847909
 40
1.2048155586
100
AcDbArc
 50
89.9999999991
 51
270.0000000009
  0
ARC
  5
4C7
100
AcDbEntity
  8
0
100
AcDbCircle
 62
7
  6
CONTINUOUS
 10
121.2784066044
 20
182.5195847909
 40
1.2048155586
100
AcDbArc
 50
269.9999999991
 51
90.0000000009
  0
ARC
  5
4C8
100
AcDbEntity
  8
0
100
AcDbCircle
 62
7
  6
CONTINUOUS
 10
129.4784066044
 20
182.5195847909
 40
1.2048155586
100
AcDbArc
 50
89.9999999991
 51
270.0000000009
  0
ARC
  5
4C9
100
AcDbEntity
  8
0
100
AcDbCircle
 62
7
  6
CONTINUOUS
 10
121.2784066044
 20
187.5195847909
 40
1.2048155586
100
AcDbArc
 50
269.9999999991
 51
90.0000000009
  0
ARC
  5
4CA
100
AcDbEntity
  8
0
100
AcDbCircle
 62
7
  6
CONTINUOUS
 10
129.4784066044
 20
187.5195847909
 40
1.2048155586
100
AcDbArc
 50
89.9999999991
 51
270.0000000009
  0
ARC
  5
4CB
100
AcDbEntity
  8
0
100
AcDbCircle
 62
7
  6
CONTINUOUS
 10
129.4784066044
 20
192.5195847909
 40
1.2048155586
100
AcDbArc
 50
89.9999999991
 51
270.0000000009
  0
ARC
  5
4CC
100
AcDbEntity
  8
0
100
AcDbCircle
 62
7
  6
CONTINUOUS
 10
121.2784066044
 20
177.5195847909
 40
1.1786116689
100
AcDbArc
 50
270.0000000012
 51
89.9999999988
  0
ARC
  5
4CD
100
AcDbEntity
  8
0
100
AcDbCircle
 62
7
  6
CONTINUOUS
 10
129.4784066044
 20
177.5195847909
 40
1.1786116689
100
AcDbArc
 50
90.0000000012
 51
269.9999999988
  0
ARC
  5
4CE
100
AcDbEntity
  8
0
100
AcDbCircle
 62
7
  6
CONTINUOUS
 10
121.2784066044
 20
182.5195847909
 40
1.1786116689
100
AcDbArc
 50
270.0000000012
 51
89.9999999988
  0
ARC
  5
4CF
100
AcDbEntity
  8
0
100
AcDbCircle
 62
7
  6
CONTINUOUS
 10
129.4784066044
 20
182.5195847909
 40
1.1786116689
100
AcDbArc
 50
90.0000000012
 51
269.9999999988
  0
ARC
  5
4D0
100
AcDbEntity
  8
0
100
AcDbCircle
 62
7
  6
CONTINUOUS
 10
121.2784066044
 20
187.5195847909
 40
1.1786116689
100
AcDbArc
 50
270.0000000012
 51
89.9999999988
  0
ARC
  5
4D1
100
AcDbEntity
  8
0
100
AcDbCircle
 62
7
  6
CONTINUOUS
 10
129.4784066044
 20
187.5195847909
 40
1.1786116689
100
AcDbArc
 50
90.0000000012
 51
269.9999999988
  0
ARC
  5
4D2
100
AcDbEntity
  8
0
100
AcDbCircle
 62
7
  6
CONTINUOUS
 10
129.4784066044
 20
192.5195847909
 40
1.1786116689
100
AcDbArc
 50
90.0000000012
 51
269.9999999988
  0
ARC
  5
4D3
100
AcDbEntity
  8
0
100
AcDbCircle
 62
7
  6
CONTINUOUS
 10
155.2784066044
 20
177.5195847909
 40
1.2048155586
100
AcDbArc
 50
269.9999999991
 51
90.0000000009
  0
ARC
  5
4D4
100
AcDbEntity
  8
0
100
AcDbCircle
 62
7
  6
CONTINUOUS
 10
163.4784066044
 20
177.5195847909
 40
1.2048155586
100
AcDbArc
 50
89.9999999991
 51
270.0000000009
  0
ARC
  5
4D5
100
AcDbEntity
  8
0
100
AcDbCircle
 62
7
  6
CONTINUOUS
 10
155.2784066044
 20
182.5195847909
 40
1.2048155586
100
AcDbArc
 50
269.9999999991
 51
90.0000000009
  0
ARC
  5
4D6
100
AcDbEntity
  8
0
100
AcDbCircle
 62
7
  6
CONTINUOUS
 10
163.4784066044
 20
182.5195847909
 40
1.2048155586
100
AcDbArc
 50
89.9999999991
 51
270.0000000009
  0
ARC
  5
4D7
100
AcDbEntity
  8
0
100
AcDbCircle
 62
7
  6
CONTINUOUS
 10
155.2784066044
 20
187.5195847909
 40
1.2048155586
100
AcDbArc
 50
269.9999999991
 51
90.0000000009
  0
ARC
  5
4D8
100
AcDbEntity
  8
0
100
AcDbCircle
 62
7
  6
CONTINUOUS
 10
163.4784066044
 20
187.5195847909
 40
1.2048155586
100
AcDbArc
 50
89.9999999991
 51
270.0000000009
  0
ARC
  5
4D9
100
AcDbEntity
  8
0
100
AcDbCircle
 62
7
  6
CONTINUOUS
 10
155.2784066044
 20
192.5195847909
 40
1.2048155586
100
AcDbArc
 50
269.9999999991
 51
90.0000000009
  0
ARC
  5
4DA
100
AcDbEntity
  8
0
100
AcDbCircle
 62
7
  6
CONTINUOUS
 10
163.4784066044
 20
192.5195847909
 40
1.2048155586
100
AcDbArc
 50
89.9999999991
 51
270.0000000009
  0
ARC
  5
4DB
100
AcDbEntity
  8
0
100
AcDbCircle
 62
7
  6
CONTINUOUS
 10
155.2784066044
 20
177.5195847909
 40
1.1786116689
100
AcDbArc
 50
270.0000000012
 51
89.9999999988
  0
ARC
  5
4DC
100
AcDbEntity
  8
0
100
AcDbCircle
 62
7
  6
CONTINUOUS
 10
163.4784066044
 20
177.5195847909
 40
1.1786116689
100
AcDbArc
 50
90.0000000012
 51
269.9999999988
  0
ARC
  5
4DD
100
AcDbEntity
  8
0
100
AcDbCircle
 62
7
  6
CONTINUOUS
 10
155.2784066044
 20
182.5195847909
 40
1.1786116689
100
AcDbArc
 50
270.0000000012
 51
89.9999999988
  0
ARC
  5
4DE
100
AcDbEntity
  8
0
100
AcDbCircle
 62
7
  6
CONTINUOUS
 10
163.4784066044
 20
182.5195847909
 40
1.1786116689
100
AcDbArc
 50
90.0000000012
 51
269.9999999988
  0
ARC
  5
4DF
100
AcDbEntity
  8
0
100
AcDbCircle
 62
7
  6
CONTINUOUS
 10
155.2784066044
 20
187.5195847909
 40
1.1786116689
100
AcDbArc
 50
270.0000000012
 51
89.9999999988
  0
ARC
  5
4E0
100
AcDbEntity
  8
0
100
AcDbCircle
 62
7
  6
CONTINUOUS
 10
163.4784066044
 20
187.5195847909
 40
1.1786116689
100
AcDbArc
 50
90.0000000012
 51
269.9999999988
  0
ARC
  5
4E1
100
AcDbEntity
  8
0
100
AcDbCircle
 62
7
  6
CONTINUOUS
 10
155.2784066044
 20
192.5195847909
 40
1.1786116689
100
AcDbArc
 50
270.0000000012
 51
89.9999999988
  0
ARC
  5
4E2
100
AcDbEntity
  8
0
100
AcDbCircle
 62
7
  6
CONTINUOUS
 10
163.4784066044
 20
192.5195847909
 40
1.1786116689
100
AcDbArc
 50
90.0000000012
 51
269.9999999988
  0
ARC
  5
4E3
100
AcDbEntity
  8
0
100
AcDbCircle
 62
7
  6
CONTINUOUS
 10
141.6595235854
 20
205.0239305401
 40
30.3764121546
100
AcDbArc
 50
53.4282908072
 51
53.8334813901
  0
ARC
  5
4E4
100
AcDbEntity
  8
0
100
AcDbCircle
 62
7
  6
CONTINUOUS
 10
141.8784066044
 20
205.3280605848
 40
30.3384468413
100
AcDbArc
 50
100.5047214569
 51
126.4880744366
  0
ARC
  5
4E5
100
AcDbEntity
  8
0
100
AcDbCircle
 62
7
  6
CONTINUOUS
 10
141.8784066044
 20
205.3280605848
 40
30.3384468413
100
AcDbArc
 50
53.5119255634
 51
79.4952785431
  0
ARC
  5
4E6
100
AcDbEntity
  8
0
100
AcDbCircle
 62
7
  6
CONTINUOUS
 10
141.8675230995
 20
205.2870120569
 40
30.0427216412
100
AcDbArc
 50
67.2878021013
 51
74.9271091067
  0
ARC
  5
4E7
100
AcDbEntity
  8
0
100
AcDbCircle
 62
7
  6
CONTINUOUS
 10
141.8784066044
 20
205.3280605848
 40
30.0384925327
100
AcDbArc
 50
100.5571876389
 51
126.6763994252
  0
ARC
  5
4E8
100
AcDbEntity
  8
0
100
AcDbCircle
 62
7
  6
CONTINUOUS
 10
141.8784066044
 20
205.3280605848
 40
30.0384925327
100
AcDbArc
 50
53.3236005748
 51
79.4428123611
  0
ARC
  5
4E9
100
AcDbEntity
  8
0
100
AcDbCircle
 62
7
  6
CONTINUOUS
 10
141.8793739661
 20
205.3163669387
 40
30.0116728216
100
AcDbArc
 50
100.5617002623
 51
105.069249095
  0
ARC
  5
4EA
100
AcDbEntity
  8
0
100
AcDbCircle
 62
7
  6
CONTINUOUS
 10
141.8774392427
 20
205.3163669384
 40
30.0116728218
100
AcDbArc
 50
74.9307509051
 51
79.4382997377
  0
ARC
  5
4EB
100
AcDbEntity
  8
0
100
AcDbCircle
 62
7
  6
CONTINUOUS
 10
141.8783862175
 20
205.318871666
 40
30.0091383658
100
AcDbArc
 50
66.8886548635
 51
67.2834529553
  0
ARC
  5
4EC
100
AcDbEntity
  8
0
100
AcDbCircle
 62
7
  6
CONTINUOUS
 10
141.8784066044
 20
205.1391858754
 40
30.0
100
AcDbArc
 50
99.5940682269
 51
125.9678555127
  0
ARC
  5
4ED
100
AcDbEntity
  8
0
100
AcDbCircle
 62
7
  6
CONTINUOUS
 10
141.8784066044
 20
205.1391858754
 40
30.0
100
AcDbArc
 50
54.0321444873
 51
80.4059317731
  0
ARC
  5
4EE
100
AcDbEntity
  8
0
100
AcDbCircle
 62
7
  6
CONTINUOUS
 10
141.8350487226
 20
205.3773346407
 40
29.9363385849
100
AcDbArc
 50
126.1543787329
 51
126.5716315711
  0
ARC
  5
4EF
100
AcDbEntity
  8
0
100
AcDbCircle
 62
7
  6
CONTINUOUS
 10
141.8784066044
 20
205.1391858754
 40
29.7
100
AcDbArc
 50
99.6425154825
 51
126.1552995935
  0
ARC
  5
4F0
100
AcDbEntity
  8
0
100
AcDbCircle
 62
7
  6
CONTINUOUS
 10
141.8784066044
 20
205.1391858754
 40
29.7
100
AcDbArc
 50
53.8447004065
 51
80.3574845175
  0
ARC
  5
4F1
100
AcDbEntity
  8
0
100
AcDbCircle
 62
7
  6
CONTINUOUS
 10
129.4784066044
 20
197.5195847909
 40
1.2048155586
100
AcDbArc
 50
89.9999999991
 51
270.0000000009
  0
ARC
  5
4F2
100
AcDbEntity
  8
0
100
AcDbCircle
 62
7
  6
CONTINUOUS
 10
129.4784066044
 20
202.5195847909
 40
1.2048155586
100
AcDbArc
 50
89.9999999991
 51
270.000000001
  0
ARC
  5
4F3
100
AcDbEntity
  8
0
100
AcDbCircle
 62
7
  6
CONTINUOUS
 10
129.4784066044
 20
207.5195847909
 40
1.2048155586
100
AcDbArc
 50
89.9999999991
 51
270.000000001
  0
ARC
  5
4F4
100
AcDbEntity
  8
0
100
AcDbCircle
 62
7
  6
CONTINUOUS
 10
129.4784066044
 20
197.5195847909
 40
1.1786116689
100
AcDbArc
 50
90.0000000012
 51
269.9999999988
  0
ARC
  5
4F5
100
AcDbEntity
  8
0
100
AcDbCircle
 62
7
  6
CONTINUOUS
 10
129.4784066044
 20
202.5195847909
 40
1.1786116689
100
AcDbArc
 50
90.0000000012
 51
269.9999999988
  0
ARC
  5
4F6
100
AcDbEntity
  8
0
100
AcDbCircle
 62
7
  6
CONTINUOUS
 10
129.4784066044
 20
207.5195847909
 40
1.1786116689
100
AcDbArc
 50
90.0000000012
 51
269.9999999988
  0
ARC
  5
4F7
100
AcDbEntity
  8
0
100
AcDbCircle
 62
7
  6
CONTINUOUS
 10
134.8509674824
 20
234.3691136014
 40
3.2588413443
100
AcDbArc
 50
84.6192140645
 51
85.6579863005
  0
ARC
  5
4F8
100
AcDbEntity
  8
0
100
AcDbCircle
 62
7
  6
CONTINUOUS
 10
138.0630959744
 20
235.1195847909
 40
0.3
100
AcDbArc
 50
182.8611603191
 51
270.0
  0
ARC
  5
4F9
100
AcDbEntity
  8
0
100
AcDbCircle
 62
7
  6
CONTINUOUS
 10
134.8456111304
 20
240.7223547996
 40
3.226762592
100
AcDbArc
 50
274.4480089456
 51
275.5258189623
  0
ARC
  5
4FA
100
AcDbEntity
  8
0
100
AcDbCircle
 62
7
  6
CONTINUOUS
 10
138.1784066044
 20
237.5195847909
 40
0.3
100
AcDbArc
 50
90.0
 51
180.0
  0
ARC
  5
4FB
100
AcDbEntity
  8
0
100
AcDbCircle
 62
7
  6
CONTINUOUS
 10
137.730318109
 20
236.8035158426
 40
0.0558083371
100
AcDbArc
 50
175.0993869076
 51
183.0043611578
  0
ARC
  5
4FC
100
AcDbEntity
  8
0
100
AcDbCircle
 62
7
  6
CONTINUOUS
 10
136.9227636532
 20
237.5574567365
 40
0.0471452247
100
AcDbArc
 50
173.8251189216
 51
182.5995374273
  0
ARC
  5
4FD
100
AcDbEntity
  8
0
100
AcDbCircle
 62
7
  6
CONTINUOUS
 10
141.8784117929
 20
232.721669979
 40
1.4020851881
100
AcDbArc
 50
269.1729106707
 51
269.9997970987
  0
ARC
  5
4FE
100
AcDbEntity
  8
0
100
AcDbCircle
 62
7
  6
CONTINUOUS
 10
141.8779814851
 20
232.6917358204
 40
1.3721479368
100
AcDbArc
 50
268.3563413141
 51
269.1728340653
  0
ARC
  5
4FF
100
AcDbEntity
  8
0
100
AcDbCircle
 62
7
  6
CONTINUOUS
 10
141.1784200802
 20
232.3195858502
 40
1.0999884262
100
AcDbArc
 50
90.0049736005
 51
269.995049596
  0
ARC
  5
500
100
AcDbEntity
  8
0
100
AcDbCircle
 62
7
  6
CONTINUOUS
 10
145.67839313
 20
232.3195837329
 40
1.099988426
100
AcDbArc
 50
270.0049740222
 51
89.9950491769
  0
ARC
  5
501
100
AcDbEntity
  8
0
100
AcDbCircle
 62
7
  6
CONTINUOUS
 10
141.2784066044
 20
232.3195847909
 40
1.0
100
AcDbArc
 50
180.0
 51
270.0
  0
ARC
  5
502
100
AcDbEntity
  8
0
100
AcDbCircle
 62
7
  6
CONTINUOUS
 10
142.4784066044
 20
232.3195847909
 40
1.0
100
AcDbArc
 50
270.0
 51
360.0
  0
CIRCLE
  5
503
100
AcDbEntity
  8
0
100
AcDbCircle
 62
7
  6
CONTINUOUS
 10
141.8784066044
 20
232.3195847909
 40
1.0
  0
CIRCLE
  5
504
100
AcDbEntity
  8
0
100
AcDbCircle
 62
7
  6
CONTINUOUS
 10
141.8784066044
 20
232.3195847909
 40
0.6999998982
  0
ARC
  5
505
100
AcDbEntity
  8
0
100
AcDbCircle
 62
7
  6
CONTINUOUS
 10
145.6937172344
 20
235.1195847909
 40
0.3
100
AcDbArc
 50
270.0
 51
357.138839681
  0
ARC
  5
506
100
AcDbEntity
  8
0
100
AcDbCircle
 62
7
  6
CONTINUOUS
 10
145.5784066044
 20
237.5195847909
 40
0.3
100
AcDbArc
 50
0.0
 51
90.0
  0
ARC
  5
507
100
AcDbEntity
  8
0
100
AcDbCircle
 62
7
  6
CONTINUOUS
 10
146.0264953959
 20
236.8035158475
 40
0.0558080416
100
AcDbArc
 50
356.995617584
 51
4.900632478
  0
ARC
  5
508
100
AcDbEntity
  8
0
100
AcDbCircle
 62
7
  6
CONTINUOUS
 10
155.2784066044
 20
197.5195847909
 40
1.2048155586
100
AcDbArc
 50
269.9999999991
 51
90.0000000009
  0
ARC
  5
509
100
AcDbEntity
  8
0
100
AcDbCircle
 62
7
  6
CONTINUOUS
 10
163.4784066044
 20
197.5195847909
 40
1.2048155586
100
AcDbArc
 50
89.9999999991
 51
270.0000000009
  0
ARC
  5
50A
100
AcDbEntity
  8
0
100
AcDbCircle
 62
7
  6
CONTINUOUS
 10
155.2784066044
 20
202.5195847909
 40
1.2048155586
100
AcDbArc
 50
269.999999999
 51
90.0000000009
  0
ARC
  5
50B
100
AcDbEntity
  8
0
100
AcDbCircle
 62
7
  6
CONTINUOUS
 10
163.4784066044
 20
202.5195847909
 40
1.2048155586
100
AcDbArc
 50
89.9999999991
 51
270.000000001
  0
ARC
  5
50C
100
AcDbEntity
  8
0
100
AcDbCircle
 62
7
  6
CONTINUOUS
 10
155.2784066044
 20
207.5195847909
 40
1.2048155586
100
AcDbArc
 50
269.999999999
 51
90.0000000009
  0
ARC
  5
50D
100
AcDbEntity
  8
0
100
AcDbCircle
 62
7
  6
CONTINUOUS
 10
163.4784066044
 20
207.5195847909
 40
1.2048155586
100
AcDbArc
 50
89.9999999991
 51
270.000000001
  0
ARC
  5
50E
100
AcDbEntity
  8
0
100
AcDbCircle
 62
7
  6
CONTINUOUS
 10
155.2784066044
 20
197.5195847909
 40
1.1786116689
100
AcDbArc
 50
270.0000000012
 51
89.9999999988
  0
ARC
  5
50F
100
AcDbEntity
  8
0
100
AcDbCircle
 62
7
  6
CONTINUOUS
 10
163.4784066044
 20
197.5195847909
 40
1.1786116689
100
AcDbArc
 50
90.0000000012
 51
269.9999999988
  0
ARC
  5
510
100
AcDbEntity
  8
0
100
AcDbCircle
 62
7
  6
CONTINUOUS
 10
155.2784066044
 20
202.5195847909
 40
1.1786116689
100
AcDbArc
 50
270.0000000012
 51
89.9999999988
  0
ARC
  5
511
100
AcDbEntity
  8
0
100
AcDbCircle
 62
7
  6
CONTINUOUS
 10
163.4784066044
 20
202.5195847909
 40
1.1786116689
100
AcDbArc
 50
90.0000000012
 51
269.9999999988
  0
ARC
  5
512
100
AcDbEntity
  8
0
100
AcDbCircle
 62
7
  6
CONTINUOUS
 10
155.2784066044
 20
207.5195847909
 40
1.1786116689
100
AcDbArc
 50
270.0000000012
 51
89.9999999988
  0
ARC
  5
513
100
AcDbEntity
  8
0
100
AcDbCircle
 62
7
  6
CONTINUOUS
 10
163.4784066044
 20
207.5195847909
 40
1.1786116689
100
AcDbArc
 50
90.0000000012
 51
269.9999999988
  0
ARC
  5
514
100
AcDbEntity
  8
0
100
AcDbCircle
 62
7
  6
CONTINUOUS
 10
150.4457415407
 20
240.9395659894
 40
3.3276705889
100
AcDbArc
 50
274.3107917146
 51
275.3566391575
  0
ARC
  5
515
100
AcDbEntity
  8
0
100
AcDbCircle
 62
7
  6
CONTINUOUS
 10
146.8340508581
 20
237.5574571472
 40
0.0471438915
100
AcDbArc
 50
357.3995820309
 51
6.1736496337
  0
ARC
  5
516
100
AcDbEntity
  8
0
100
AcDbCircle
 62
7
  6
CONTINUOUS
 10
189.2784066044
 20
177.5195847909
 40
1.2048155586
100
AcDbArc
 50
269.9999999991
 51
90.0000000009
  0
ARC
  5
517
100
AcDbEntity
  8
0
100
AcDbCircle
 62
7
  6
CONTINUOUS
 10
189.2784066044
 20
182.5195847909
 40
1.2048155586
100
AcDbArc
 50
269.9999999991
 51
90.0000000009
  0
ARC
  5
518
100
AcDbEntity
  8
0
100
AcDbCircle
 62
7
  6
CONTINUOUS
 10
189.2784066044
 20
187.5195847909
 40
1.2048155586
100
AcDbArc
 50
269.9999999991
 51
90.0000000009
  0
ARC
  5
519
100
AcDbEntity
  8
0
100
AcDbCircle
 62
7
  6
CONTINUOUS
 10
189.2784066044
 20
192.5195847909
 40
1.2048155586
100
AcDbArc
 50
269.9999999991
 51
90.0000000009
  0
ARC
  5
51A
100
AcDbEntity
  8
0
100
AcDbCircle
 62
7
  6
CONTINUOUS
 10
189.2784066044
 20
177.5195847909
 40
1.1786116689
100
AcDbArc
 50
270.0000000012
 51
89.9999999988
  0
ARC
  5
51B
100
AcDbEntity
  8
0
100
AcDbCircle
 62
7
  6
CONTINUOUS
 10
189.2784066044
 20
182.5195847909
 40
1.1786116689
100
AcDbArc
 50
270.0000000012
 51
89.9999999988
  0
ARC
  5
51C
100
AcDbEntity
  8
0
100
AcDbCircle
 62
7
  6
CONTINUOUS
 10
189.2784066044
 20
187.5195847909
 40
1.1786116689
100
AcDbArc
 50
270.0000000012
 51
89.9999999988
  0
ARC
  5
51D
100
AcDbEntity
  8
0
100
AcDbCircle
 62
7
  6
CONTINUOUS
 10
189.2784066044
 20
192.5195847909
 40
1.1786116689
100
AcDbArc
 50
270.0000000012
 51
89.9999999988
  0
ARC
  5
51E
100
AcDbEntity
  8
0
100
AcDbCircle
 62
7
  6
CONTINUOUS
 10
174.9837667862
 20
159.4195847909
 40
0.5
100
AcDbArc
 50
90.0
 51
178.0003043624
  0
ARC
  5
51F
100
AcDbEntity
  8
0
100
AcDbCircle
 62
7
  6
CONTINUOUS
 10
181.7730464226
 20
159.4195847909
 40
0.5
100
AcDbArc
 50
1.9996956376
 51
89.9999999991
  0
ARC
  5
520
100
AcDbEntity
  8
0
100
AcDbCircle
 62
7
  6
CONTINUOUS
 10
191.453460476
 20
251.9561457128
 40
71.178542929
100
AcDbArc
 50
198.2042507958
 51
198.3332984703
  0
ARC
  5
521
100
AcDbEntity
  8
0
100
AcDbCircle
 62
7
  6
CONTINUOUS
 10
199.8784066044
 20
207.4961379408
 40
3.0
100
AcDbArc
 50
93.0000000001
 51
180.0
  0
ARC
  5
522
100
AcDbEntity
  8
0
100
AcDbCircle
 62
7
  6
CONTINUOUS
 10
208.8784066044
 20
210.9719249924
 40
1.5
100
AcDbArc
 50
273.0
 51
359.9999999802
  0
ARC
  5
523
100
AcDbEntity
  8
0
100
AcDbCircle
 62
7
  6
CONTINUOUS
 10
199.8784066044
 20
207.4961379408
 40
1.5
100
AcDbArc
 50
93.0000000014
 51
180.0
  0
ARC
  5
524
100
AcDbEntity
  8
0
100
AcDbCircle
 62
7
  6
CONTINUOUS
 10
189.2784066044
 20
197.5195847909
 40
1.2048155586
100
AcDbArc
 50
269.9999999991
 51
90.0000000009
  0
ARC
  5
525
100
AcDbEntity
  8
0
100
AcDbCircle
 62
7
  6
CONTINUOUS
 10
189.2784066044
 20
202.5195847909
 40
1.2048155586
100
AcDbArc
 50
269.999999999
 51
90.0000000009
  0
ARC
  5
526
100
AcDbEntity
  8
0
100
AcDbCircle
 62
7
  6
CONTINUOUS
 10
189.2784066044
 20
207.5195847909
 40
1.2048155586
100
AcDbArc
 50
269.999999999
 51
90.0000000009
  0
ARC
  5
527
100
AcDbEntity
  8
0
100
AcDbCircle
 62
7
  6
CONTINUOUS
 10
189.2784066044
 20
197.5195847909
 40
1.1786116689
100
AcDbArc
 50
270.0000000012
 51
89.9999999988
  0
ARC
  5
528
100
AcDbEntity
  8
0
100
AcDbCircle
 62
7
  6
CONTINUOUS
 10
189.2784066044
 20
202.5195847909
 40
1.1786116689
100
AcDbArc
 50
270.0000000012
 51
89.9999999988
  0
ARC
  5
529
100
AcDbEntity
  8
0
100
AcDbCircle
 62
7
  6
CONTINUOUS
 10
189.2784066044
 20
207.5195847909
 40
1.1786116689
100
AcDbArc
 50
270.0000000012
 51
89.9999999988
  0
ARC
  5
52A
100
AcDbEntity
  8
0
100
AcDbCircle
 62
7
  6
CONTINUOUS
 10
209.568794838
 20
238.4427051453
 40
0.8096117664
100
AcDbArc
 50
4.9611562005
 51
17.2500210487
  0
ARC
  5
52B
100
AcDbEntity
  8
0
100
AcDbCircle
 62
7
  6
CONTINUOUS
 10
209.5700585248
 20
237.7954693692
 40
0.8017501112
100
AcDbArc
 50
83.6724195699
 51
89.6461315384
  0
ARC
  5
52C
100
AcDbEntity
  8
0
100
AcDbCircle
 62
7
  6
CONTINUOUS
 10
209.6155857461
 20
238.4458481504
 40
0.7627250952
100
AcDbArc
 50
5.0233883803
 51
19.2363765435
  0
ARC
  5
52D
100
AcDbEntity
  8
0
100
AcDbCircle
 62
7
  6
CONTINUOUS
 10
210.0784066044
 20
229.7195847909
 40
0.3
100
AcDbArc
 50
270.0
 51
360.0
  0
ARC
  5
52E
100
AcDbEntity
  8
0
100
AcDbCircle
 62
7
  6
CONTINUOUS
 10
210.0784066044
 20
229.1195847909
 40
0.3
100
AcDbArc
 50
0.0
 51
90.0
  0
ARC
  5
52F
100
AcDbEntity
  8
0
100
AcDbCircle
 62
7
  6
CONTINUOUS
 10
170.9481720277
 20
2107.537233085
 40
1868.8322379516
100
AcDbArc
 50
270.0016928667
 51
270.1168946842
  0
ARC
  5
530
100
AcDbEntity
  8
0
100
AcDbCircle
 62
7
  6
CONTINUOUS
 10
170.6525587017
 20
2084.3760302853
 40
1845.3736490272
100
AcDbArc
 50
270.7646763017
 51
271.1016968685
  0
ARC
  5
531
100
AcDbEntity
  8
0
100
AcDbCircle
 62
7
  6
CONTINUOUS
 10
170.8435880491
 20
2064.2055425833
 40
1825.2066427537
100
AcDbArc
 50
270.7672413753
 51
271.1202821665
  0
ARC
  5
532
100
AcDbEntity
  8
0
100
AcDbCircle
 62
7
  6
CONTINUOUS
 10
170.9562082716
 20
2062.7000066438
 40
1823.6955034451
100
AcDbArc
 50
270.2558460995
 51
270.7642257661
  0
ARC
  5
533
100
AcDbEntity
  8
0
100
AcDbCircle
 62
7
  6
CONTINUOUS
 10
171.0250790277
 20
2042.9410403212
 40
1803.9364266856
100
AcDbArc
 50
269.9993116507
 51
270.2564610177
  0
ARC
  5
534
100
AcDbEntity
  8
0
100
AcDbCircle
 62
7
  6
CONTINUOUS
 10
179.4140665756
 20
1240.2776864778
 40
1002.1482175813
100
AcDbArc
 50
267.7213660806
 51
268.0083121433
  0
ARC
  5
535
100
AcDbEntity
  8
0
100
AcDbCircle
 62
7
  6
CONTINUOUS
 10
179.1633710778
 20
1233.4113428027
 40
995.277309277
100
AcDbArc
 50
268.0089976378
 51
269.5295649164
  0
ARC
  5
536
100
AcDbEntity
  8
0
100
AcDbCircle
 62
7
  6
CONTINUOUS
 10
179.0383097417
 20
1231.0100303201
 40
992.872949682
100
AcDbArc
 50
267.4234266276
 51
267.7217691814
  0
SPLINE
  5
537
100
AcDbEntity
  8
0
100
AcDbSpline
 62
7
  6
CONTINUOUS
 70
0
 71
3
 72
17
 73
13
 74
0
 42
0.0000001
 43
0.0000001
 44
0.0000000001
 40
0.0
 40
0.0
 40
0.0
 40
0.0
 40
0.1938653442
 40
0.3804570717
 40
0.552357126
 40
0.7031771172
 40
0.8271101856
 40
0.919512404
 40
0.9528249707
 40
0.9771676165
 40
0.992559379
 40
1.0
 40
1.0
 40
1.0
 40
1.0
 10
125.1284066044
 20
238.7108935306
 30
0.0
 10
125.1609117647
 20
238.7108935306
 30
0.0
 10
125.2247027126
 20
238.7112827149
 30
0.0
 10
125.3173049724
 20
238.7129294153
 30
0.0
 10
125.4026574497
 20
238.7155601791
 30
0.0
 10
125.4774858847
 20
238.7190766051
 30
0.0
 10
125.5388617284
 20
238.7232799027
 30
0.0
 10
125.580618249
 20
238.7275552912
 30
0.0
 10
125.6053606332
 20
238.7313454359
 30
0.0
 10
125.6175418204
 20
238.7341793296
 30
0.0
 10
125.6246536739
 20
238.7363441484
 30
0.0
 10
125.6284066044
 20
238.7390975046
 30
0.0
 10
125.6284066044
 20
238.7403450642
 30
0.0
  0
SPLINE
  5
538
100
AcDbEntity
  8
0
100
AcDbSpline
 62
7
  6
CONTINUOUS
 70
0
 71
3
 72
18
 73
14
 74
0
 42
0.0000001
 43
0.0000001
 44
0.0000000001
 40
0.0
 40
0.0
 40
0.0
 40
0.0
 40
0.0105100184
 40
0.0291963386
 40
0.0563951309
 40
0.0919818198
 40
0.1356830485
 40
0.1871651991
 40
0.3115371645
 40
0.4607026767
 40
0.6292546118
 40
0.8113067346
 40
1.0
 40
1.0
 40
1.0
 40
1.0
 10
105.128950501
 20
238.7390035113
 30
0.0
 10
105.1300489621
 20
238.7376316758
 30
0.0
 10
105.1347669719
 20
238.7355437821
 30
0.0
 10
105.1436851375
 20
238.7329834165
 30
0.0
 10
105.157160601
 20
238.7304423227
 30
0.0
 10
105.1747581916
 20
238.7279250114
 30
0.0
 10
105.1965041274
 20
238.7254971036
 30
0.0
 10
105.2330653858
 20
238.722202612
 30
0.0
 10
105.2873086304
 20
238.718666201
 30
0.0
 10
105.3611582962
 20
238.7153263358
 30
0.0
 10
105.4446932595
 20
238.7128360366
 30
0.0
 10
105.5348597804
 20
238.711276455
 30
0.0
 10
105.5968543638
 20
238.7109070107
 30
0.0
 10
105.6284066044
 20
238.7109070107
 30
0.0
  0
SPLINE
  5
539
100
AcDbEntity
  8
0
100
AcDbSpline
 62
7
  6
CONTINUOUS
 70
0
 71
3
 72
17
 73
13
 74
0
 42
0.0000001
 43
0.0000001
 44
0.0000000001
 40
0.0
 40
0.0
 40
0.0
 40
0.0
 40
0.0074396842
 40
0.0228304685
 40
0.0471725777
 40
0.0804849715
 40
0.1728872677
 40
0.2968206416
 40
0.4476411103
 40
0.6195417211
 40
0.8061340691
 40
1.0
 40
1.0
 40
1.0
 40
1.0
 10
125.6284066044
 20
238.9400043545
 30
0.0
 10
125.6284066044
 20
238.9387569556
 30
0.0
 10
125.624653464
 20
238.9360041871
 30
0.0
 10
125.6175416672
 20
238.9338410324
 30
0.0
 10
125.6053605107
 20
238.9310082904
 30
0.0
 10
125.5806181858
 20
238.9272192467
 30
0.0
 10
125.5388616925
 20
238.9229443439
 30
0.0
 10
125.4774858614
 20
238.9187415262
 30
0.0
 10
125.4026574514
 20
238.9152244541
 30
0.0
 10
125.3173049656
 20
238.9125930415
 30
0.0
 10
125.2247027302
 20
238.9109440272
 30
0.0
 10
125.1609117689
 20
238.9105526718
 30
0.0
 10
125.1284066044
 20
238.9105526718
 30
0.0
  0
SPLINE
  5
53A
100
AcDbEntity
  8
0
100
AcDbSpline
 62
7
  6
CONTINUOUS
 70
0
 71
3
 72
18
 73
14
 74
0
 42
0.0000001
 43
0.0000001
 44
0.0000000001
 40
0.0
 40
0.0
 40
0.0
 40
0.0
 40
0.1886934562
 40
0.370745646
 40
0.5392975428
 40
0.6884628516
 40
0.812834476
 40
0.8643164105
 40
0.9080173978
 40
0.9436038853
 40
0.9708026598
 40
0.9894893272
 40
1.0
 40
1.0
 40
1.0
 40
1.0
 10
105.6284066044
 20
238.9105391984
 30
0.0
 10
105.5968542326
 20
238.9105391984
 30
0.0
 10
105.5348594076
 20
238.9109065817
 30
0.0
 10
105.4446925152
 20
238.912463789
 30
0.0
 10
105.3611572975
 20
238.9149534692
 30
0.0
 10
105.2873074675
 20
238.9182927363
 30
0.0
 10
105.2330641908
 20
238.9218294392
 30
0.0
 10
105.196502998
 20
238.9251244789
 30
0.0
 10
105.1747571527
 20
238.9275528164
 30
0.0
 10
105.1571596603
 20
238.9300707457
 30
0.0
 10
105.1436843309
 20
238.932612898
 30
0.0
 10
105.1347663048
 20
238.9351746833
 30
0.0
 10
105.1300486252
 20
238.9372637341
 30
0.0
 10
105.128950347
 20
238.9386358633
 30
0.0
  0
SPLINE
  5
53B
100
AcDbEntity
  8
0
100
AcDbSpline
 62
7
  6
CONTINUOUS
 70
0
 71
3
 72
8
 73
4
 74
0
 42
0.0000001
 43
0.0000001
 44
0.0000000001
 40
0.0
 40
0.0
 40
0.0
 40
0.0
 40
1.0
 40
1.0
 40
1.0
 40
1.0
 10
105.128950347
 20
238.9386358633
 30
0.0
 10
105.1286462224
 20
238.93901582
 30
0.0
 10
105.1284066044
 20
238.9395041998
 30
0.0
 10
105.1284066044
 20
238.9399908812
 30
0.0
  0
SPLINE
  5
53C
100
AcDbEntity
  8
0
100
AcDbSpline
 62
7
  6
CONTINUOUS
 70
0
 71
3
 72
12
 73
8
 74
0
 42
0.0000001
 43
0.0000001
 44
0.0000000001
 40
0.0
 40
0.0
 40
0.0
 40
0.0
 40
0.245110453
 40
0.367597569
 40
0.4909252681
 40
0.7421127656
 40
1.0
 40
1.0
 40
1.0
 40
1.0
 10
142.4680362929
 20
233.3195847909
 30
0.0
 10
142.5430880596
 20
233.263576505
 30
0.0
 10
142.6450232928
 20
233.1641211707
 30
0.0
 10
142.7535287513
 20
233.0107946208
 30
0.0
 10
142.8448034557
 20
232.8438270282
 30
0.0
 10
142.9237158066
 20
232.6132645587
 30
0.0
 10
142.9450730658
 20
232.418112929
 30
0.0
 10
142.9450732704
 20
232.3195847909
 30
0.0
  0
SPLINE
  5
53D
100
AcDbEntity
  8
0
100
AcDbSpline
 62
7
  6
CONTINUOUS
 70
0
 71
3
 72
13
 73
9
 74
0
 42
0.0000001
 43
0.0000001
 44
0.0000000001
 40
0.0
 40
0.0
 40
0.0
 40
0.0
 40
0.2577667608
 40
0.5088492307
 40
0.6320918944
 40
0.7545016351
 40
0.8769095195
 40
1.0
 40
1.0
 40
1.0
 40
1.0
 10
140.8117399382
 20
232.3195847909
 30
0.0
 10
140.8117264459
 20
232.4181161286
 30
0.0
 10
140.8331476929
 20
232.6132623419
 30
0.0
 10
140.9119755178
 20
232.8438783348
 30
0.0
 10
141.0032670475
 20
233.0107814729
 30
0.0
 10
141.0847640844
 20
233.1258817738
 30
0.0
 10
141.1795012795
 20
233.2302707977
 30
0.0
 10
141.2510749828
 20
233.2914467298
 30
0.0
 10
141.2887854256
 20
233.3195847909
 30
0.0
  0
SPLINE
  5
53E
100
AcDbEntity
  8
0
100
AcDbSpline
 62
7
  6
CONTINUOUS
 70
0
 71
3
 72
16
 73
12
 74
0
 42
0.0000001
 43
0.0000001
 44
0.0000000001
 40
0.0
 40
0.0
 40
0.0
 40
0.0
 40
0.1345825858
 40
0.2015931958
 40
0.2681596909
 40
0.3993296358
 40
0.5274916587
 40
0.652072208
 40
0.7726952845
 40
0.8889830994
 40
1.0
 40
1.0
 40
1.0
 40
1.0
 10
142.9450710188
 20
232.3195847917
 30
0.0
 10
142.9450599296
 20
232.2465482075
 30
0.0
 10
142.9326893434
 20
232.136630536
 30
0.0
 10
142.8923451789
 20
231.9965824309
 30
0.0
 10
142.8375210764
 20
231.8634928773
 30
0.0
 10
142.7435430991
 20
231.7118817195
 30
0.0
 10
142.5976520028
 20
231.5610440179
 30
0.0
 10
142.4289142464
 20
231.4464121746
 30
0.0
 10
142.2472963293
 20
231.3692153962
 30
0.0
 10
142.0622333431
 20
231.3274568324
 30
0.0
 10
141.9386544042
 20
231.3195865237
 30
0.0
 10
141.8784066741
 20
231.3195847909
 30
0.0
  0
SPLINE
  5
53F
100
AcDbEntity
  8
0
100
AcDbSpline
 62
7
  6
CONTINUOUS
 70
0
 71
3
 72
16
 73
12
 74
0
 42
0.0000001
 43
0.0000001
 44
0.0000000001
 40
0.0
 40
0.0
 40
0.0
 40
0.0
 40
0.1118443819
 40
0.228525354
 40
0.349323804
 40
0.4739113983
 40
0.601915779
 40
0.7327747556
 40
0.7991339751
 40
0.8659138574
 40
1.0
 40
1.0
 40
1.0
 40
1.0
 10
141.838623725
 20
231.3201524553
 30
0.0
 10
141.7794292536
 20
231.3218525476
 30
0.0
 10
141.6584883014
 20
231.3333195561
 30
0.0
 10
141.4786051194
 20
231.379939172
 30
0.0
 10
141.3034481378
 20
231.4605256939
 30
0.0
 10
141.1417559444
 20
231.5764959372
 30
0.0
 10
141.0027102449
 20
231.7263435013
 30
0.0
 10
140.9135098163
 20
231.8752671138
 30
0.0
 10
140.8615855788
 20
232.0053072265
 30
0.0
 10
140.823437148
 20
232.1417626208
 30
0.0
 10
140.8117530425
 20
232.2485894412
 30
0.0
 10
140.8117424899
 20
232.3195847917
 30
0.0
  0
SPLINE
  5
540
100
AcDbEntity
  8
0
100
AcDbSpline
 62
7
  6
CONTINUOUS
 70
0
 71
3
 72
18
 73
14
 74
0
 42
0.0000001
 43
0.0000001
 44
0.0000000001
 40
0.0
 40
0.0
 40
0.0
 40
0.0
 40
0.0081232762
 40
0.0148010767
 40
0.0235878734
 40
0.047788993
 40
0.0808916648
 40
0.1729183973
 40
0.2966138816
 40
0.4473552757
 40
0.6193344645
 40
0.8059712748
 40
1.0
 40
1.0
 40
1.0
 40
1.0
 10
33.0284066044
 20
170.4843230871
 30
0.0
 10
33.0284066044
 20
170.4856854739
 30
0.0
 10
33.0262124723
 20
170.4877502385
 30
0.0
 10
33.0227304358
 20
170.4893234318
 30
0.0
 10
33.0163426433
 20
170.4914401449
 30
0.0
 10
33.0054623525
 20
170.4934857221
 30
0.0
 10
32.9805717122
 20
170.4964995165
 30
0.0
 10
32.9388672582
 20
170.4985706127
 30
0.0
 10
32.8774059023
 20
170.499338369
 30
0.0
 10
32.8025355852
 20
170.4982345647
 30
0.0
 10
32.7171547124
 20
170.4953431337
 30
0.0
 10
32.6245802464
 20
170.4907202728
 30
0.0
 10
32.5608661011
 20
170.4866303068
 30
0.0
 10
32.5284066044
 20
170.4843240133
 30
0.0
  0
SPLINE
  5
541
100
AcDbEntity
  8
0
100
AcDbSpline
 62
7
  6
CONTINUOUS
 70
0
 71
3
 72
18
 73
14
 74
0
 42
0.0000001
 43
0.0000001
 44
0.0000000001
 40
0.0
 40
0.0
 40
0.0
 40
0.0
 40
0.19402883
 40
0.3806657197
 40
0.5526450546
 40
0.7033865867
 40
0.8270822203
 40
0.9191091001
 40
0.9522118469
 40
0.9764129077
 40
0.9851995667
 40
0.9918771563
 40
1.0
 40
1.0
 40
1.0
 40
1.0
 10
34.2284066044
 20
170.484323087
 30
0.0
 10
34.1959471165
 20
170.4866293794
 30
0.0
 10
34.1322330648
 20
170.4907204599
 30
0.0
 10
34.0396586045
 20
170.4953431832
 30
0.0
 10
33.9542777394
 20
170.4982345217
 30
0.0
 10
33.879407411
 20
170.499338364
 30
0.0
 10
33.8179460317
 20
170.4985706515
 30
0.0
 10
33.7762415484
 20
170.496499529
 30
0.0
 10
33.7513509151
 20
170.4934855558
 30
0.0
 10
33.7404706467
 20
170.4914401505
 30
0.0
 10
33.7340828148
 20
170.4893237913
 30
0.0
 10
33.7306007854
 20
170.4877509382
 30
0.0
 10
33.7284066044
 20
170.4856863265
 30
0.0
 10
33.7284066044
 20
170.4843240133
 30
0.0
  0
SPLINE
  5
542
100
AcDbEntity
  8
0
100
AcDbSpline
 62
7
  6
CONTINUOUS
 70
0
 71
3
 72
9
 73
5
 74
0
 42
0.0000001
 43
0.0000001
 44
0.0000000001
 40
0.0
 40
0.0
 40
0.0
 40
0.0
 40
0.1576737294
 40
1.0
 40
1.0
 40
1.0
 40
1.0
 10
181.1485497468
 20
239.7590035359
 30
0.0
 10
181.1885750952
 20
239.7410051377
 30
0.0
 10
181.4425898869
 20
239.6272241507
 30
0.0
 10
181.6968883948
 20
239.514077136
 30
0.0
 10
181.9112291668
 20
239.4190838285
 30
0.0
  0
SPLINE
  5
543
100
AcDbEntity
  8
0
100
AcDbSpline
 62
7
  6
CONTINUOUS
 70
0
 71
3
 72
21
 73
17
 74
0
 42
0.0000001
 43
0.0000001
 44
0.0000000001
 40
0.0
 40
0.0
 40
0.0
 40
0.0
 40
0.194771404
 40
0.3824075332
 40
0.5551043976
 40
0.7064660451
 40
0.772343354
 40
0.8307789764
 40
0.8812010565
 40
0.9231761593
 40
0.9562823762
 40
0.9801808251
 40
0.9886284345
 40
0.9947256341
 40
0.9984769458
 40
1.0
 40
1.0
 40
1.0
 40
1.0
 10
194.2541332165
 20
239.2693854876
 30
0.0
 10
194.3190580488
 20
239.2693864018
 30
0.0
 10
194.4465293433
 20
239.2696623204
 30
0.0
 10
194.6315643124
 20
239.2707609092
 30
0.0
 10
194.8021237887
 20
239.2724508344
 30
0.0
 10
194.9320913636
 20
239.2744011038
 30
0.0
 10
195.0239642682
 20
239.2762821715
 30
0.0
 10
195.0821950176
 20
239.2777290518
 30
0.0
 10
195.1324426532
 20
239.2792635439
 30
0.0
 10
195.1742695229
 20
239.2808646522
 30
0.0
 10
195.2071661048
 20
239.28251669
 30
0.0
 10
195.2290534881
 20
239.2840243665
 30
0.0
 10
195.2416435064
 20
239.2853223576
 30
0.0
 10
195.2479517197
 20
239.2861912105
 30
0.0
 10
195.2511733592
 20
239.2869334956
 30
0.0
 10
195.253391556
 20
239.2876505563
 30
0.0
 10
195.2534064626
 20
239.2881580302
 30
0.0
  0
SPLINE
  5
544
100
AcDbEntity
  8
0
100
AcDbSpline
 62
7
  6
CONTINUOUS
 70
0
 71
3
 72
21
 73
17
 74
0
 42
0.0000001
 43
0.0000001
 44
0.0000000001
 40
0.0
 40
0.0
 40
0.0
 40
0.0
 40
0.0015303196
 40
0.005289953
 40
0.0113951839
 40
0.01985039
 40
0.0437625419
 40
0.0768802699
 40
0.1188645292
 40
0.1692932998
 40
0.2277330553
 40
0.2936118995
 40
0.4449688026
 40
0.6176506467
 40
0.8052620231
 40
1.0
 40
1.0
 40
1.0
 40
1.0
 10
184.2534068685
 20
239.2881813485
 30
0.0
 10
184.2534273085
 20
239.2876715462
 30
0.0
 10
184.2556480606
 20
239.2869615047
 30
0.0
 10
184.2588823521
 20
239.2862138031
 30
0.0
 10
184.2651975674
 20
239.2853491106
 30
0.0
 10
184.277801598
 20
239.2840512467
 30
0.0
 10
184.2997030916
 20
239.2825473212
 30
0.0
 10
184.3326181027
 20
239.2808964326
 30
0.0
 10
184.3744619007
 20
239.2792967198
 30
0.0
 10
184.4247258925
 20
239.2777628361
 30
0.0
 10
184.4829718583
 20
239.2763164657
 30
0.0
 10
184.5748626182
 20
239.2744358919
 30
0.0
 10
184.7048488968
 20
239.2724857556
 30
0.0
 10
184.8754260487
 20
239.2707951406
 30
0.0
 10
185.0604718642
 20
239.2696919772
 30
0.0
 10
185.1879480686
 20
239.2694133452
 30
0.0
 10
185.2528741365
 20
239.2694126753
 30
0.0
  0
SPLINE
  5
545
100
AcDbEntity
  8
0
100
AcDbSpline
 62
7
  6
CONTINUOUS
 70
0
 71
3
 72
25
 73
21
 74
0
 42
0.0000001
 43
0.0000001
 44
0.0000000001
 40
0.0
 40
0.0
 40
0.0
 40
0.0
 40
0.0016184171
 40
0.0033320397
 40
0.0073090735
 40
0.0137052008
 40
0.0225286603
 40
0.0337663392
 40
0.0473990099
 40
0.0634050474
 40
0.0817616156
 40
0.1024368883
 40
0.1505505702
 40
0.2073504276
 40
0.2724372451
 40
0.3453676801
 40
0.4253274622
 40
0.6023234037
 40
0.7954343087
 40
1.0
 40
1.0
 40
1.0
 40
1.0
 10
181.4976231024
 20
239.2331102949
 30
0.0
 10
181.4998536094
 20
239.2321358274
 30
0.0
 10
181.5061887003
 20
239.2278768925
 30
0.0
 10
181.4926009688
 20
239.2206530436
 30
0.0
 10
181.4772194161
 20
239.2177823431
 30
0.0
 10
181.4475023532
 20
239.2122149901
 30
0.0
 10
181.4085350005
 20
239.2076856518
 30
0.0
 10
181.3578964849
 20
239.2025869486
 30
0.0
 10
181.2966926024
 20
239.1976455651
 30
0.0
 10
181.2246550929
 20
239.1926354751
 30
0.0
 10
181.142035571
 20
239.187666791
 30
0.0
 10
181.0111491338
 20
239.1807294001
 30
0.0
 10
180.8224461751
 20
239.1724256943
 30
0.0
 10
180.5669306713
 20
239.1632251027
 30
0.0
 10
180.2740558864
 20
239.1545214384
 30
0.0
 10
179.9463184288
 20
239.1464759601
 30
0.0
 10
179.4502743498
 20
239.1364152698
 30
0.0
 10
178.7734470702
 20
239.1264543533
 30
0.0
 10
177.9091743741
 20
239.118941329
 30
0.0
 10
177.3110715505
 20
239.1172970511
 30
0.0
 10
177.0034071218
 20
239.1172972808
 30
0.0
  0
SPLINE
  5
546
100
AcDbEntity
  8
0
100
AcDbSpline
 62
7
  6
CONTINUOUS
 70
0
 71
3
 72
27
 73
23
 74
0
 42
0.0000001
 43
0.0000001
 44
0.0000000001
 40
0.0
 40
0.0
 40
0.0
 40
0.0
 40
0.2019098746
 40
0.3932035836
 40
0.5678688987
 40
0.7195721608
 40
0.784920138
 40
0.8424824467
 40
0.8917407986
 40
0.9321778103
 40
0.9489436402
 40
0.9633596191
 40
0.9753947662
 40
0.9850184879
 40
0.9889167755
 40
0.9922012521
 40
0.9948686911
 40
0.9969165194
 40
0.9983439694
 40
0.9991576506
 40
0.9994438388
 40
1.0
 40
1.0
 40
1.0
 40
1.0
 10
149.0034066586
 20
239.2883096225
 30
0.0
 10
148.565556819
 20
239.288310101
 30
0.0
 10
147.7128778997
 20
239.2898609875
 30
0.0
 10
146.4814465698
 20
239.296613868
 30
0.0
 10
145.3589209106
 20
239.3070856774
 30
0.0
 10
144.5095402019
 20
239.3184607361
 30
0.0
 10
143.9141192556
 20
239.3288415512
 30
0.0
 10
143.5408420707
 20
239.3364912108
 30
0.0
 10
143.2216011779
 20
239.3442413027
 30
0.0
 10
142.9908322445
 20
239.350985906
 30
0.0
 10
142.8356205174
 20
239.3564693212
 30
0.0
 10
142.7419780171
 20
239.3602530805
 30
0.0
 10
142.663837172
 20
239.3639630031
 30
0.0
 10
142.6085000605
 20
239.3671200447
 30
0.0
 10
142.572151248
 20
239.3697121489
 30
0.0
 10
142.5508478516
 20
239.3714211957
 30
0.0
 10
142.5336240283
 20
239.3732693863
 30
0.0
 10
142.5203043802
 20
239.3745994951
 30
0.0
 10
142.5113528315
 20
239.3769017469
 30
0.0
 10
142.5056770481
 20
239.3771142953
 30
0.0
 10
142.5030889708
 20
239.3809079357
 30
0.0
 10
142.5061004029
 20
239.3813750837
 30
0.0
 10
142.5072562814
 20
239.3817193531
 30
0.0
  0
SPLINE
  5
547
100
AcDbEntity
  8
0
100
AcDbSpline
 62
7
  6
CONTINUOUS
 70
0
 71
3
 72
25
 73
21
 74
0
 42
0.0000001
 43
0.0000001
 44
0.0000000001
 40
0.0
 40
0.0
 40
0.0
 40
0.0
 40
0.0016184171
 40
0.0033320397
 40
0.0073090735
 40
0.0137052008
 40
0.0225286603
 40
0.0337663392
 40
0.0473990099
 40
0.0634050474
 40
0.0817616156
 40
0.1024368883
 40
0.1505505702
 40
0.2073504276
 40
0.2724372451
 40
0.3453676801
 40
0.4253274622
 40
0.6023234037
 40
0.7954343087
 40
1.0
 40
1.0
 40
1.0
 40
1.0
 10
169.4976231024
 20
239.2331102949
 30
0.0
 10
169.4998536094
 20
239.2321358274
 30
0.0
 10
169.5061887003
 20
239.2278768925
 30
0.0
 10
169.4926009688
 20
239.2206530436
 30
0.0
 10
169.4772194161
 20
239.2177823431
 30
0.0
 10
169.4475023532
 20
239.2122149901
 30
0.0
 10
169.4085350005
 20
239.2076856518
 30
0.0
 10
169.3578964849
 20
239.2025869486
 30
0.0
 10
169.2966926024
 20
239.1976455651
 30
0.0
 10
169.2246550929
 20
239.1926354751
 30
0.0
 10
169.142035571
 20
239.187666791
 30
0.0
 10
169.0111491338
 20
239.1807294001
 30
0.0
 10
168.8224461751
 20
239.1724256943
 30
0.0
 10
168.5669306713
 20
239.1632251027
 30
0.0
 10
168.2740558864
 20
239.1545214384
 30
0.0
 10
167.9463184288
 20
239.1464759601
 30
0.0
 10
167.4502743498
 20
239.1364152698
 30
0.0
 10
166.7734470702
 20
239.1264543533
 30
0.0
 10
165.9091743741
 20
239.118941329
 30
0.0
 10
165.3110715505
 20
239.1172970511
 30
0.0
 10
165.0034071218
 20
239.1172972808
 30
0.0
  0
SPLINE
  5
548
100
AcDbEntity
  8
0
100
AcDbSpline
 62
7
  6
CONTINUOUS
 70
0
 71
3
 72
25
 73
21
 74
0
 42
0.0000001
 43
0.0000001
 44
0.0000000001
 40
0.0
 40
0.0
 40
0.0
 40
0.0
 40
0.2044176935
 40
0.3974776149
 40
0.5744968651
 40
0.6544840504
 40
0.7274459019
 40
0.7925641497
 40
0.8493930034
 40
0.8975309597
 40
0.9182158843
 40
0.9365801052
 40
0.9525918825
 40
0.9662286366
 40
0.9774690001
 40
0.9862940032
 40
0.9926907922
 40
0.9966678706
 40
0.9983812517
 40
1.0
 40
1.0
 40
1.0
 40
1.0
 10
165.0034071215
 20
239.1172972808
 30
0.0
 10
164.6959652283
 20
239.1172971439
 30
0.0
 10
164.0981615735
 20
239.1189394954
 30
0.0
 10
163.2341529081
 20
239.126446922
 30
0.0
 10
162.5573258617
 20
239.1364032657
 30
0.0
 10
162.0611581143
 20
239.1464619881
 30
0.0
 10
161.7332848335
 20
239.1545078116
 30
0.0
 10
161.4402718587
 20
239.1632132307
 30
0.0
 10
161.1846289304
 20
239.1724163527
 30
0.0
 10
160.9958313227
 20
239.1807225513
 30
0.0
 10
160.8648823512
 20
239.1876620406
 30
0.0
 10
160.7822281763
 20
239.1926320672
 30
0.0
 10
160.7101643912
 20
239.197643423
 30
0.0
 10
160.6489417134
 20
239.2025858366
 30
0.0
 10
160.5982907365
 20
239.2076856574
 30
0.0
 10
160.5593159679
 20
239.2122153324
 30
0.0
 10
160.5295958907
 20
239.2177841641
 30
0.0
 10
160.5142128079
 20
239.2206536929
 30
0.0
 10
160.5006266762
 20
239.227880303
 30
0.0
 10
160.5069635369
 20
239.2321378488
 30
0.0
 10
160.5091945686
 20
239.2331123602
 30
0.0
  0
SPLINE
  5
549
100
AcDbEntity
  8
0
100
AcDbSpline
 62
7
  6
CONTINUOUS
 70
0
 71
3
 72
25
 73
21
 74
0
 42
0.0000001
 43
0.0000001
 44
0.0000000001
 40
0.0
 40
0.0
 40
0.0
 40
0.0
 40
0.2044176935
 40
0.3974776149
 40
0.5744968651
 40
0.6544840504
 40
0.7274459019
 40
0.7925641497
 40
0.8493930034
 40
0.8975309597
 40
0.9182158843
 40
0.9365801052
 40
0.9525918825
 40
0.9662286366
 40
0.9774690001
 40
0.9862940032
 40
0.9926907922
 40
0.9966678706
 40
0.9983812517
 40
1.0
 40
1.0
 40
1.0
 40
1.0
 10
177.0034071215
 20
239.1172972808
 30
0.0
 10
176.6959652283
 20
239.1172971439
 30
0.0
 10
176.0981615735
 20
239.1189394954
 30
0.0
 10
175.2341529081
 20
239.126446922
 30
0.0
 10
174.5573258617
 20
239.1364032657
 30
0.0
 10
174.0611581143
 20
239.1464619881
 30
0.0
 10
173.7332848335
 20
239.1545078116
 30
0.0
 10
173.4402718587
 20
239.1632132307
 30
0.0
 10
173.1846289304
 20
239.1724163527
 30
0.0
 10
172.9958313227
 20
239.1807225513
 30
0.0
 10
172.8648823512
 20
239.1876620406
 30
0.0
 10
172.7822281763
 20
239.1926320672
 30
0.0
 10
172.7101643912
 20
239.197643423
 30
0.0
 10
172.6489417134
 20
239.2025858366
 30
0.0
 10
172.5982907365
 20
239.2076856574
 30
0.0
 10
172.5593159679
 20
239.2122153324
 30
0.0
 10
172.5295958907
 20
239.2177841641
 30
0.0
 10
172.5142128079
 20
239.2206536929
 30
0.0
 10
172.5006266762
 20
239.227880303
 30
0.0
 10
172.5069635369
 20
239.2321378488
 30
0.0
 10
172.5091945686
 20
239.2331123602
 30
0.0
  0
SPLINE
  5
54A
100
AcDbEntity
  8
0
100
AcDbSpline
 62
7
  6
CONTINUOUS
 70
0
 71
3
 72
27
 73
23
 74
0
 42
0.0000001
 43
0.0000001
 44
0.0000000001
 40
0.0
 40
0.0
 40
0.0
 40
0.0
 40
0.000555849
 40
0.0008420145
 40
0.0016554233
 40
0.0030823164
 40
0.0051293367
 40
0.0077957517
 40
0.0110790241
 40
0.0149759628
 40
0.0245966951
 40
0.0366287016
 40
0.0510416737
 40
0.0678049154
 40
0.1082387789
 40
0.1574967073
 40
0.2150613899
 40
0.2804146269
 40
0.4321349124
 40
0.6068159092
 40
0.7981116971
 40
1.0
 40
1.0
 40
1.0
 40
1.0
 10
155.4995601251
 20
239.3817188627
 30
0.0
 10
155.5007153242
 20
239.3813746843
 30
0.0
 10
155.503725262
 20
239.3809069652
 30
0.0
 10
155.5011368612
 20
239.3771152903
 30
0.0
 10
155.4954639694
 20
239.3769019643
 30
0.0
 10
155.4865153481
 20
239.3746006339
 30
0.0
 10
155.4732011766
 20
239.3732705189
 30
0.0
 10
155.45598383
 20
239.3714227373
 30
0.0
 10
155.4346882395
 20
239.3697139317
 30
0.0
 10
155.3983514407
 20
239.3671221979
 30
0.0
 10
155.3430305753
 20
239.3639655261
 30
0.0
 10
155.2649095604
 20
239.3602559853
 30
0.0
 10
155.1712860299
 20
239.3564724974
 30
0.0
 10
155.0160933054
 20
239.3509891492
 30
0.0
 10
154.78533779
 20
239.3442443942
 30
0.0
 10
154.4660995766
 20
239.3364938181
 30
0.0
 10
154.0928068492
 20
239.3288434099
 30
0.0
 10
153.4973325767
 20
239.3184613119
 30
0.0
 10
152.6478697295
 20
239.3070852606
 30
0.0
 10
151.5252688859
 20
239.2966129221
 30
0.0
 10
150.2938460851
 20
239.2898606968
 30
0.0
 10
149.4412096229
 20
239.2883100797
 30
0.0
 10
149.0034066578
 20
239.2883096225
 30
0.0
  0
SPLINE
  5
54B
100
AcDbEntity
  8
0
100
AcDbSpline
 62
7
  6
CONTINUOUS
 70
0
 71
3
 72
21
 73
17
 74
0
 42
0.0000001
 43
0.0000001
 44
0.0000000001
 40
0.0
 40
0.0
 40
0.0
 40
0.0
 40
0.0012858845
 40
0.0049352717
 40
0.0109673075
 40
0.0193685241
 40
0.0432082369
 40
0.0762846522
 40
0.1182513526
 40
0.1686822837
 40
0.2271414495
 40
0.2930548155
 40
0.4445163516
 40
0.6173357431
 40
0.8051058551
 40
1.0
 40
1.0
 40
1.0
 40
1.0
 10
36.8696804568
 20
116.2110095739
 30
0.0
 10
36.8692518517
 20
116.2110133021
 30
0.0
 10
36.8693205527
 20
116.2134970112
 30
0.0
 10
36.8686482406
 20
116.2163333395
 30
0.0
 10
36.8684930555
 20
116.2228011218
 30
0.0
 10
36.8678756294
 20
116.2352780415
 30
0.0
 10
36.8674525357
 20
116.2572451541
 30
0.0
 10
36.8669240034
 20
116.2901065896
 30
0.0
 10
36.8665535544
 20
116.3319655817
 30
0.0
 10
36.8662662637
 20
116.3822367417
 30
0.0
 10
36.8661001838
 20
116.4405077555
 30
0.0
 10
36.8660266623
 20
116.5324492531
 30
0.0
 10
36.8662605224
 20
116.6625129787
 30
0.0
 10
36.8669736327
 20
116.833192198
 30
0.0
 10
36.8681065602
 20
117.0183472446
 30
0.0
 10
36.8691103068
 20
117.1458960826
 30
0.0
 10
36.8696804092
 20
117.2108572699
 30
0.0
  0
SPLINE
  5
54C
100
AcDbEntity
  8
0
100
AcDbSpline
 62
7
  6
CONTINUOUS
 70
0
 71
3
 72
21
 73
17
 74
0
 42
0.0000001
 43
0.0000001
 44
0.0000000001
 40
0.0
 40
0.0
 40
0.0
 40
0.0
 40
0.1948935839
 40
0.3826624969
 40
0.5554816035
 40
0.7069434628
 40
0.772857084
 40
0.8313163638
 40
0.8817475986
 40
0.9237146738
 40
0.9567912926
 40
0.9806311808
 40
0.9890324989
 40
0.9950646274
 40
0.9987140843
 40
1.0
 40
1.0
 40
1.0
 40
1.0
 10
36.8696804568
 20
129.2283123121
 30
0.0
 10
36.8691103354
 20
129.2932733118
 30
0.0
 10
36.8681065811
 20
129.4208215623
 30
0.0
 10
36.8669736517
 20
129.6059759261
 30
0.0
 10
36.8662605158
 20
129.7766547573
 30
0.0
 10
36.8660266615
 20
129.9067185799
 30
0.0
 10
36.8661001836
 20
129.9986603079
 30
0.0
 10
36.8662662673
 20
130.0569315455
 30
0.0
 10
36.8665535533
 20
130.1072029696
 30
0.0
 10
36.8669239898
 20
130.1490622549
 30
0.0
 10
36.8674525166
 20
130.1819239434
 30
0.0
 10
36.8678755995
 20
130.2038912125
 30
0.0
 10
36.8684930266
 20
130.2163682596
 30
0.0
 10
36.8686481932
 20
130.2228361263
 30
0.0
 10
36.8693205292
 20
130.2256725229
 30
0.0
 10
36.8692517937
 20
130.2281562667
 30
0.0
 10
36.8696804092
 20
130.2281600071
 30
0.0
  0
SPLINE
  5
54D
100
AcDbEntity
  8
0
100
AcDbSpline
 62
7
  6
CONTINUOUS
 70
0
 71
3
 72
21
 73
17
 74
0
 42
0.0000001
 43
0.0000001
 44
0.0000000001
 40
0.0
 40
0.0
 40
0.0
 40
0.0
 40
0.1947384967
 40
0.3823698105
 40
0.5550847479
 40
0.7064792623
 40
0.7723746879
 40
0.8308272064
 40
0.8812630319
 40
0.9232471526
 40
0.9563558513
 40
0.9802475928
 40
0.9886873053
 40
0.9947726995
 40
0.9985066055
 40
1.0
 40
1.0
 40
1.0
 40
1.0
 10
38.339407985
 20
129.2539349307
 30
0.0
 10
38.339407985
 20
129.3189031691
 30
0.0
 10
38.3396246929
 20
129.4464686483
 30
0.0
 10
38.3405815468
 20
129.6316528499
 30
0.0
 10
38.3421366969
 20
129.8023718299
 30
0.0
 10
38.3439407702
 20
129.9324733677
 30
0.0
 10
38.3456900798
 20
130.0244484266
 30
0.0
 10
38.3470417256
 20
130.0827466789
 30
0.0
 10
38.3484810351
 20
130.1330519826
 30
0.0
 10
38.349983482
 20
130.1749272982
 30
0.0
 10
38.351533135
 20
130.2078544311
 30
0.0
 10
38.3529393576
 20
130.2297698981
 30
0.0
 10
38.3541602892
 20
130.2423593636
 30
0.0
 10
38.3549739842
 20
130.2486836184
 30
0.0
 10
38.3556853864
 20
130.2518678028
 30
0.0
 10
38.3563563777
 20
130.2541100326
 30
0.0
 10
38.3568545249
 20
130.2541187278
 30
0.0
  0
SPLINE
  5
54E
100
AcDbEntity
  8
0
100
AcDbSpline
 62
7
  6
CONTINUOUS
 70
0
 71
3
 72
21
 73
17
 74
0
 42
0.0000001
 43
0.0000001
 44
0.0000000001
 40
0.0
 40
0.0
 40
0.0
 40
0.0
 40
0.0014933945
 40
0.0052273004
 40
0.0113126946
 40
0.0197524071
 40
0.0436441487
 40
0.0767528477
 40
0.1187369684
 40
0.169172794
 40
0.2276253127
 40
0.2935207387
 40
0.4449152539
 40
0.6176301917
 40
0.8052615044
 40
1.0
 40
1.0
 40
1.0
 40
1.0
 10
38.3568545248
 20
116.185050854
 30
0.0
 10
38.3563563777
 20
116.1850595492
 30
0.0
 10
38.3556853863
 20
116.187301779
 30
0.0
 10
38.3549739842
 20
116.1904859634
 30
0.0
 10
38.3541602892
 20
116.1968102182
 30
0.0
 10
38.3529393576
 20
116.2093996837
 30
0.0
 10
38.351533135
 20
116.2313151509
 30
0.0
 10
38.349983482
 20
116.2642422839
 30
0.0
 10
38.3484810351
 20
116.3061175998
 30
0.0
 10
38.3470417256
 20
116.3564229037
 30
0.0
 10
38.3456900798
 20
116.4147211564
 30
0.0
 10
38.3439407702
 20
116.506696216
 30
0.0
 10
38.3421366969
 20
116.6367977546
 30
0.0
 10
38.3405815467
 20
116.807516735
 30
0.0
 10
38.3396246929
 20
116.9927009364
 30
0.0
 10
38.339407985
 20
117.1202664151
 30
0.0
 10
38.339407985
 20
117.1852346534
 30
0.0
  0
SPLINE
  5
54F
100
AcDbEntity
  8
0
100
AcDbSpline
 62
7
  6
CONTINUOUS
 70
0
 71
3
 72
9
 73
5
 74
0
 42
0.0000001
 43
0.0000001
 44
0.0000000001
 40
0.0
 40
0.0
 40
0.0
 40
0.0
 40
0.2614915414
 40
1.0
 40
1.0
 40
1.0
 40
1.0
 10
131.949396816
 20
239.4195571326
 30
0.0
 10
131.935901592
 20
239.4195131047
 30
0.0
 10
131.884373413
 20
239.4157383179
 30
0.0
 10
131.8337433185
 20
239.3991263577
 30
0.0
 10
131.800617172
 20
239.3802767768
 30
0.0
  0
SPLINE
  5
550
100
AcDbEntity
  8
0
100
AcDbSpline
 62
7
  6
CONTINUOUS
 70
0
 71
3
 72
8
 73
4
 74
0
 42
0.0000001
 43
0.0000001
 44
0.0000000001
 40
0.0
 40
0.0
 40
0.0
 40
0.0
 40
1.0
 40
1.0
 40
1.0
 40
1.0
 10
131.800617172
 20
239.3802767768
 30
0.0
 10
131.7543892168
 20
239.3539719489
 30
0.0
 10
131.7140849583
 20
239.313559722
 30
0.0
 10
131.688067413
 20
239.2671694737
 30
0.0
  0
SPLINE
  5
551
100
AcDbEntity
  8
0
100
AcDbSpline
 62
7
  6
CONTINUOUS
 70
0
 71
3
 72
9
 73
5
 74
0
 42
0.0000001
 43
0.0000001
 44
0.0000000001
 40
0.0
 40
0.0
 40
0.0
 40
0.0
 40
0.2613945214
 40
1.0
 40
1.0
 40
1.0
 40
1.0
 10
210.0334246934
 20
239.4195672243
 30
0.0
 10
210.0469189682
 20
239.4195309039
 30
0.0
 10
210.098465287
 20
239.415754687
 30
0.0
 10
210.1490975627
 20
239.3991039153
 30
0.0
 10
210.1822384322
 20
239.3802470311
 30
0.0
  0
SPLINE
  5
552
100
AcDbEntity
  8
0
100
AcDbSpline
 62
7
  6
CONTINUOUS
 70
0
 71
3
 72
9
 73
5
 74
0
 42
0.0000001
 43
0.0000001
 44
0.0000000001
 40
0.0
 40
0.0
 40
0.0
 40
0.0
 40
0.4762728056
 40
1.0
 40
1.0
 40
1.0
 40
1.0
 10
210.1822384322
 20
239.3802470311
 30
0.0
 10
210.2246003154
 20
239.3561434652
 30
0.0
 10
210.3021764659
 20
239.2823291958
 30
0.0
 10
210.3323086298
 20
239.1784069909
 30
0.0
 10
210.3333456831
 20
239.124821582
 30
0.0
  0
SPLINE
  5
553
100
AcDbEntity
  8
0
100
AcDbSpline
 62
7
  6
CONTINUOUS
 70
0
 71
3
 72
9
 73
5
 74
0
 42
0.0000001
 43
0.0000001
 44
0.0000000001
 40
0.0
 40
0.0
 40
0.0
 40
0.0
 40
0.2866951576
 40
1.0
 40
1.0
 40
1.0
 40
1.0
 10
171.0034066044
 20
239.0046137657
 30
0.0
 10
167.5054903989
 20
239.0046137657
 30
0.0
 10
155.3046798491
 20
239.039888217
 30
0.0
 10
143.1043326298
 20
239.1983221788
 30
0.0
 10
134.4031688264
 20
239.3723756226
 30
0.0
  0
LINE
  5
554
100
AcDbEntity
  8
0
100
AcDbLine
 62
7
  6
CONTINUOUS
 10
206.5987170967
 20
239.3525281646
 11
206.1336554279
 21
239.3435112497
  0
SPLINE
  5
555
100
AcDbEntity
  8
0
100
AcDbSpline
 62
7
  6
CONTINUOUS
 70
0
 71
3
 72
9
 73
5
 74
0
 42
0.0000001
 43
0.0000001
 44
0.0000000001
 40
0.0
 40
0.0
 40
0.0
 40
0.0
 40
0.4999989451
 40
1.0
 40
1.0
 40
1.0
 40
1.0
 10
159.5856775324
 20
229.5469690968
 30
0.0
 10
158.6664858687
 20
230.2188899962
 30
0.0
 10
156.7506218183
 20
231.460092344
 30
0.0
 10
154.7047267745
 20
232.4726892761
 30
0.0
 10
153.6575097308
 20
232.9196103129
 30
0.0
  0
SPLINE
  5
556
100
AcDbEntity
  8
0
100
AcDbSpline
 62
7
  6
CONTINUOUS
 70
0
 71
3
 72
9
 73
5
 74
0
 42
0.0000001
 43
0.0000001
 44
0.0000000001
 40
0.0
 40
0.0
 40
0.0
 40
0.0
 40
0.2472633132
 40
1.0
 40
1.0
 40
1.0
 40
1.0
 10
209.4622253613
 20
238.5992086393
 30
0.0
 10
209.2221863152
 20
238.591736519
 30
0.0
 10
208.2513885092
 20
238.5619902788
 30
0.0
 10
207.2805362219
 20
238.5340318793
 30
0.0
 10
206.5497175112
 20
238.5138249516
 30
0.0
  0
SPLINE
  5
557
100
AcDbEntity
  8
0
100
AcDbSpline
 62
7
  6
CONTINUOUS
 70
0
 71
3
 72
9
 73
5
 74
0
 42
0.0000001
 43
0.0000001
 44
0.0000000001
 40
0.0
 40
0.0
 40
0.0
 40
0.0
 40
0.2417605811
 40
1.0
 40
1.0
 40
1.0
 40
1.0
 10
206.5497175112
 20
238.5138249516
 30
0.0
 10
204.3363395582
 20
238.4526256863
 30
0.0
 10
195.1802660651
 20
238.2302537112
 30
0.0
 10
186.0210999436
 20
238.1356097512
 30
0.0
 10
179.0765774552
 20
238.1344639568
 30
0.0
  0
LINE
  5
558
100
AcDbEntity
  8
0
100
AcDbLine
 62
7
  6
CONTINUOUS
 10
131.6275896135
 20
239.2694927758
 11
131.8417204137
 21
239.2592988129
  0
LINE
  5
559
100
AcDbEntity
  8
0
100
AcDbLine
 62
7
  6
CONTINUOUS
 10
131.8417204137
 20
239.2592988129
 11
131.9295050133
 21
239.2551334175
  0
LINE
  5
55A
100
AcDbEntity
  8
0
100
AcDbLine
 62
7
  6
CONTINUOUS
 10
131.9295050133
 20
239.2551334175
 11
132.0765228452
 21
239.2481750834
  0
LINE
  5
55B
100
AcDbEntity
  8
0
100
AcDbLine
 62
7
  6
CONTINUOUS
 10
132.0911050862
 20
239.2474861075
 11
132.2818104656
 21
239.2384954983
  0
LINE
  5
55C
100
AcDbEntity
  8
0
100
AcDbLine
 62
7
  6
CONTINUOUS
 10
132.2818104656
 20
239.2384954983
 11
132.8452997135
 21
239.2121416424
  0
LINE
  5
55D
100
AcDbEntity
  8
0
100
AcDbLine
 62
7
  6
CONTINUOUS
 10
132.8452997135
 20
239.2121416424
 11
133.3424488062
 21
239.1891476998
  0
LINE
  5
55E
100
AcDbEntity
  8
0
100
AcDbLine
 62
7
  6
CONTINUOUS
 10
133.3852171773
 20
239.1871807473
 11
134.0146434785
 21
239.1584373395
  0
LINE
  5
55F
100
AcDbEntity
  8
0
100
AcDbLine
 62
7
  6
CONTINUOUS
 10
134.0146434785
 20
239.1584373395
 11
134.4041694946
 21
239.140841498
  0
SPLINE
  5
560
100
AcDbEntity
  8
0
100
AcDbSpline
 62
7
  6
CONTINUOUS
 70
0
 71
3
 72
9
 73
5
 74
0
 42
0.0000001
 43
0.0000001
 44
0.0000000001
 40
0.0
 40
0.0
 40
0.0
 40
0.0
 40
0.2494163197
 40
1.0
 40
1.0
 40
1.0
 40
1.0
 10
170.9915980879
 20
238.1675814618
 30
0.0
 10
171.6637573853
 20
238.1620600892
 30
0.0
 10
174.3587083863
 20
238.1426594646
 30
0.0
 10
177.0537394119
 20
238.1345073031
 30
0.0
 10
179.0765774552
 20
238.1344639568
 30
0.0
  0
SPLINE
  5
561
100
AcDbEntity
  8
0
100
AcDbSpline
 62
7
  6
CONTINUOUS
 70
0
 71
3
 72
9
 73
5
 74
0
 42
0.0000001
 43
0.0000001
 44
0.0000000001
 40
0.0
 40
0.0
 40
0.0
 40
0.0
 40
0.2192078435
 40
1.0
 40
1.0
 40
1.0
 40
1.0
 10
144.5887891415
 20
231.3136947864
 30
0.0
 10
144.4390809566
 20
231.3161452467
 30
0.0
 10
143.756104463
 20
231.3257595901
 30
0.0
 10
143.0730600191
 20
231.3299362146
 30
0.0
 10
142.5397480807
 20
231.3314552618
 30
0.0
  0
SPLINE
  5
562
100
AcDbEntity
  8
0
100
AcDbSpline
 62
7
  6
CONTINUOUS
 70
0
 71
3
 72
14
 73
10
 74
0
 42
0.0000001
 43
0.0000001
 44
0.0000000001
 40
0.0
 40
0.0
 40
0.0
 40
0.0
 40
0.4228440876
 40
0.5951512103
 40
0.7384656205
 40
0.8515113773
 40
0.9331292989
 40
0.9826277832
 40
1.0
 40
1.0
 40
1.0
 40
1.0
 10
144.5887891415
 20
231.3136947864
 30
0.0
 10
144.6244633407
 20
231.3131108623
 30
0.0
 10
144.674728334
 20
231.3121752476
 30
0.0
 10
144.7368918164
 20
231.3104310937
 30
0.0
 10
144.7733067362
 20
231.3092985955
 30
0.0
 10
144.8010991244
 20
231.3077278087
 30
0.0
 10
144.8232652951
 20
231.3071134123
 30
0.0
 10
144.8328817577
 20
231.3047161135
 30
0.0
 10
144.8414959271
 20
231.3049721576
 30
0.0
 10
144.8414703211
 20
231.3035065385
 30
0.0
  0
SPLINE
  5
563
100
AcDbEntity
  8
0
100
AcDbSpline
 62
7
  6
CONTINUOUS
 70
0
 71
3
 72
11
 73
7
 74
0
 42
0.0000001
 43
0.0000001
 44
0.0000000001
 40
0.0
 40
0.0
 40
0.0
 40
0.0
 40
0.0838585031
 40
0.2996329544
 40
0.6214997626
 40
1.0
 40
1.0
 40
1.0
 40
1.0
 10
148.3784066044
 20
237.4694528979
 30
0.0
 10
148.3784066044
 20
237.4666239298
 30
0.0
 10
148.392871739
 20
237.4649196713
 30
0.0
 10
148.4097264285
 20
237.4615453415
 30
0.0
 10
148.4425687728
 20
237.4600863412
 30
0.0
 10
148.4656378922
 20
237.4595293945
 30
0.0
 10
148.4784066044
 20
237.4595293945
 30
0.0
  0
SPLINE
  5
564
100
AcDbEntity
  8
0
100
AcDbSpline
 62
7
  6
CONTINUOUS
 70
0
 71
3
 72
11
 73
7
 74
0
 42
0.0000001
 43
0.0000001
 44
0.0000000001
 40
0.0
 40
0.0
 40
0.0
 40
0.0
 40
0.378565712
 40
0.700475229
 40
0.9161644578
 40
1.0
 40
1.0
 40
1.0
 40
1.0
 10
149.7784066044
 20
237.4595293945
 30
0.0
 10
149.7911781272
 20
237.4595293945
 30
0.0
 10
149.8142528672
 20
237.4600824233
 30
0.0
 10
149.8470945112
 20
237.4615354282
 30
0.0
 10
149.8639571836
 20
237.4648987888
 30
0.0
 10
149.8784066044
 20
237.4666245711
 30
0.0
 10
149.8784066044
 20
237.4694528979
 30
0.0
  0
SPLINE
  5
565
100
AcDbEntity
  8
0
100
AcDbSpline
 62
7
  6
CONTINUOUS
 70
0
 71
3
 72
9
 73
5
 74
0
 42
0.0000001
 43
0.0000001
 44
0.0000000001
 40
0.0
 40
0.0
 40
0.0
 40
0.0
 40
0.2679224219
 40
1.0
 40
1.0
 40
1.0
 40
1.0
 10
150.2284066044
 20
237.6057190297
 30
0.0
 10
150.2701827534
 20
237.6057190297
 30
0.0
 10
150.4260963023
 20
237.6070332683
 30
0.0
 10
150.5820476853
 20
237.6126782343
 30
0.0
 10
150.695871046
 20
237.6213094022
 30
0.0
  0
SPLINE
  5
566
100
AcDbEntity
  8
0
100
AcDbSpline
 62
7
  6
CONTINUOUS
 70
0
 71
3
 72
11
 73
7
 74
0
 42
0.0000001
 43
0.0000001
 44
0.0000000001
 40
0.0
 40
0.0
 40
0.0
 40
0.0
 40
0.4103245506
 40
0.7181293463
 40
0.9131068805
 40
1.0
 40
1.0
 40
1.0
 40
1.0
 10
150.7563957481
 20
237.6264276719
 30
0.0
 10
150.7878794803
 20
237.6293939373
 30
0.0
 10
150.842234078
 20
237.6351344727
 30
0.0
 10
150.9138888824
 20
237.6474601925
 30
0.0
 10
150.9538967255
 20
237.6572021766
 30
0.0
 10
150.9784081233
 20
237.6699774206
 30
0.0
 10
150.9784065927
 20
237.6766741556
 30
0.0
  0
SPLINE
  5
567
100
AcDbEntity
  8
0
100
AcDbSpline
 62
7
  6
CONTINUOUS
 70
0
 71
3
 72
9
 73
5
 74
0
 42
0.0000001
 43
0.0000001
 44
0.0000000001
 40
0.0
 40
0.0
 40
0.0
 40
0.0
 40
0.2566145959
 40
1.0
 40
1.0
 40
1.0
 40
1.0
 10
150.2284066044
 20
237.7185648298
 30
0.0
 10
150.2450228974
 20
237.7185648298
 30
0.0
 10
150.3097737567
 20
237.7182181256
 30
0.0
 10
150.3745226956
 20
237.7166161318
 30
0.0
 10
150.4226113587
 20
237.7144898634
 30
0.0
  0
SPLINE
  5
568
100
AcDbEntity
  8
0
100
AcDbSpline
 62
7
  6
CONTINUOUS
 70
0
 71
3
 72
10
 73
6
 74
0
 42
0.0000001
 43
0.0000001
 44
0.0000000001
 40
0.0
 40
0.0
 40
0.0
 40
0.0
 40
0.6423498829
 40
0.8619067033
 40
1.0
 40
1.0
 40
1.0
 40
1.0
 10
150.4226113587
 20
237.7144898634
 30
0.0
 10
150.4755759245
 20
237.7121480041
 30
0.0
 10
150.5468098652
 20
237.708026043
 30
0.0
 10
150.6283561369
 20
237.6964200706
 30
0.0
 10
150.6574911801
 20
237.6901515156
 30
0.0
 10
150.6679769679
 20
237.6856847735
 30
0.0
  0
SPLINE
  5
569
100
AcDbEntity
  8
0
100
AcDbSpline
 62
7
  6
CONTINUOUS
 70
0
 71
3
 72
9
 73
5
 74
0
 42
0.0000001
 43
0.0000001
 44
0.0000000001
 40
0.0
 40
0.0
 40
0.0
 40
0.0
 40
0.361284705
 40
1.0
 40
1.0
 40
1.0
 40
1.0
 10
150.6679769679
 20
237.6856847735
 30
0.0
 10
150.6695301964
 20
237.6850231283
 30
0.0
 10
150.6735201405
 20
237.683147454
 30
0.0
 10
150.6783713353
 20
237.6796576518
 30
0.0
 10
150.6783695315
 20
237.6766729398
 30
0.0
  0
SPLINE
  5
56A
100
AcDbEntity
  8
0
100
AcDbSpline
 62
7
  6
CONTINUOUS
 70
0
 71
3
 72
9
 73
5
 74
0
 42
0.0000001
 43
0.0000001
 44
0.0000000001
 40
0.0
 40
0.0
 40
0.0
 40
0.0
 40
0.2679205572
 40
1.0
 40
1.0
 40
1.0
 40
1.0
 10
134.6284066044
 20
237.489223799
 30
0.0
 10
134.6701833756
 20
237.489223799
 30
0.0
 10
134.8260995134
 20
237.4905798228
 30
0.0
 10
134.9820558882
 20
237.4964054251
 30
0.0
 10
135.0958609147
 20
237.5053108349
 30
0.0
  0
SPLINE
  5
56B
100
AcDbEntity
  8
0
100
AcDbSpline
 62
7
  6
CONTINUOUS
 70
0
 71
3
 72
11
 73
7
 74
0
 42
0.0000001
 43
0.0000001
 44
0.0000000001
 40
0.0
 40
0.0
 40
0.0
 40
0.0
 40
0.4095494191
 40
0.7169247271
 40
0.9119866903
 40
1.0
 40
1.0
 40
1.0
 40
1.0
 10
135.1563299564
 20
237.5105872743
 30
0.0
 10
135.1878287783
 20
237.513649229
 30
0.0
 10
135.2422599561
 20
237.5195706035
 30
0.0
 10
135.3138229048
 20
237.5323190421
 30
0.0
 10
135.3541605608
 20
237.5423603314
 30
0.0
 10
135.3784081703
 20
237.5556590581
 30
0.0
 10
135.3784065913
 20
237.5624601499
 30
0.0
  0
SPLINE
  5
56C
100
AcDbEntity
  8
0
100
AcDbSpline
 62
7
  6
CONTINUOUS
 70
0
 71
3
 72
11
 73
7
 74
0
 42
0.0000001
 43
0.0000001
 44
0.0000000001
 40
0.0
 40
0.0
 40
0.0
 40
0.0
 40
0.0838585031
 40
0.2996329544
 40
0.6214997626
 40
1.0
 40
1.0
 40
1.0
 40
1.0
 10
132.7784066044
 20
237.4694528979
 30
0.0
 10
132.7784066044
 20
237.4666239298
 30
0.0
 10
132.792871739
 20
237.4649196713
 30
0.0
 10
132.8097264285
 20
237.4615453415
 30
0.0
 10
132.8425687728
 20
237.4600863412
 30
0.0
 10
132.8656378922
 20
237.4595293945
 30
0.0
 10
132.8784066044
 20
237.4595293945
 30
0.0
  0
SPLINE
  5
56D
100
AcDbEntity
  8
0
100
AcDbSpline
 62
7
  6
CONTINUOUS
 70
0
 71
3
 72
11
 73
7
 74
0
 42
0.0000001
 43
0.0000001
 44
0.0000000001
 40
0.0
 40
0.0
 40
0.0
 40
0.0
 40
0.378565712
 40
0.700475229
 40
0.9161644578
 40
1.0
 40
1.0
 40
1.0
 40
1.0
 10
134.1784066044
 20
237.4595293945
 30
0.0
 10
134.1911781272
 20
237.4595293945
 30
0.0
 10
134.2142528672
 20
237.4600824233
 30
0.0
 10
134.2470945112
 20
237.4615354282
 30
0.0
 10
134.2639571836
 20
237.4648987888
 30
0.0
 10
134.2784066044
 20
237.4666245711
 30
0.0
 10
134.2784066044
 20
237.4694528979
 30
0.0
  0
SPLINE
  5
56E
100
AcDbEntity
  8
0
100
AcDbSpline
 62
7
  6
CONTINUOUS
 70
0
 71
3
 72
9
 73
5
 74
0
 42
0.0000001
 43
0.0000001
 44
0.0000000001
 40
0.0
 40
0.0
 40
0.0
 40
0.0
 40
0.2566120492
 40
1.0
 40
1.0
 40
1.0
 40
1.0
 10
134.6284066044
 20
237.6057190297
 30
0.0
 10
134.6450208743
 20
237.6057190297
 30
0.0
 10
134.7097644217
 20
237.6053610043
 30
0.0
 10
134.7745059128
 20
237.6037067093
 30
0.0
 10
134.8225862503
 20
237.6015114044
 30
0.0
  0
SPLINE
  5
56F
100
AcDbEntity
  8
0
100
AcDbSpline
 62
7
  6
CONTINUOUS
 70
0
 71
3
 72
10
 73
6
 74
0
 42
0.0000001
 43
0.0000001
 44
0.0000000001
 40
0.0
 40
0.0
 40
0.0
 40
0.0
 40
0.6420760541
 40
0.8616573064
 40
1.0
 40
1.0
 40
1.0
 40
1.0
 10
134.8225862503
 20
237.6015114044
 30
0.0
 10
134.8755584118
 20
237.5990927432
 30
0.0
 10
134.9468197733
 20
237.5948270697
 30
0.0
 10
135.0283592852
 20
237.5828535796
 30
0.0
 10
135.0575037769
 20
237.5763671818
 30
0.0
 10
135.0679633237
 20
237.571769726
 30
0.0
  0
SPLINE
  5
570
100
AcDbEntity
  8
0
100
AcDbSpline
 62
7
  6
CONTINUOUS
 70
0
 71
3
 72
9
 73
5
 74
0
 42
0.0000001
 43
0.0000001
 44
0.0000000001
 40
0.0
 40
0.0
 40
0.0
 40
0.0
 40
0.3585200411
 40
1.0
 40
1.0
 40
1.0
 40
1.0
 10
135.0679633237
 20
237.571769726
 30
0.0
 10
135.069520582
 20
237.5710852389
 30
0.0
 10
135.0735637843
 20
237.5691296231
 30
0.0
 10
135.0783714221
 20
237.5655025313
 30
0.0
 10
135.0783696784
 20
237.5624589352
 30
0.0
  0
SPLINE
  5
571
100
AcDbEntity
  8
0
100
AcDbSpline
 62
7
  6
CONTINUOUS
 70
0
 71
3
 72
9
 73
5
 74
0
 42
0.0000001
 43
0.0000001
 44
0.0000000001
 40
0.0
 40
0.0
 40
0.0
 40
0.0
 40
0.6377852384
 40
1.0
 40
1.0
 40
1.0
 40
1.0
 10
142.8535032202
 20
233.3928708686
 30
0.0
 10
142.9328622848
 20
233.3914771613
 30
0.0
 10
143.0572315545
 20
233.3883860866
 30
0.0
 10
143.1817152321
 20
233.3845771283
 30
0.0
 10
143.226620888
 20
233.3806503369
 30
0.0
  0
SPLINE
  5
572
100
AcDbEntity
  8
0
100
AcDbSpline
 62
7
  6
CONTINUOUS
 70
0
 71
3
 72
9
 73
5
 74
0
 42
0.0000001
 43
0.0000001
 44
0.0000000001
 40
0.0
 40
0.0
 40
0.0
 40
0.0
 40
0.7413990075
 40
1.0
 40
1.0
 40
1.0
 40
1.0
 10
143.226620888
 20
233.3806503369
 30
0.0
 10
143.2332891237
 20
233.3800672306
 30
0.0
 10
143.239290387
 20
233.3780476836
 30
0.0
 10
143.2532552135
 20
233.3782799081
 30
0.0
 10
143.2531587109
 20
233.3759471378
 30
0.0
  0
SPLINE
  5
573
100
AcDbEntity
  8
0
100
AcDbSpline
 62
7
  6
CONTINUOUS
 70
0
 71
3
 72
9
 73
5
 74
0
 42
0.0000001
 43
0.0000001
 44
0.0000000001
 40
0.0
 40
0.0
 40
0.0
 40
0.0
 40
0.4999996503
 40
1.0
 40
1.0
 40
1.0
 40
1.0
 10
124.1737182388
 20
229.5488421116
 30
0.0
 10
125.6578770171
 20
230.6332695834
 30
0.0
 10
128.8325677253
 20
232.5329934686
 30
0.0
 10
132.3018255969
 20
233.8182647863
 30
0.0
 10
134.0767502643
 20
234.2961372554
 30
0.0
  0
SPLINE
  5
574
100
AcDbEntity
  8
0
100
AcDbSpline
 62
7
  6
CONTINUOUS
 70
0
 71
3
 72
13
 73
9
 74
0
 42
0.0000001
 43
0.0000001
 44
0.0000000001
 40
0.0
 40
0.0
 40
0.0
 40
0.0
 40
0.0264308606
 40
0.0852256543
 40
0.1775455006
 40
0.300761657
 40
0.6217738568
 40
1.0
 40
1.0
 40
1.0
 40
1.0
 10
135.0783696784
 20
237.5624589352
 30
0.0
 10
135.0783673761
 20
237.5584401424
 30
0.0
 10
135.0641306099
 20
237.5504435186
 30
0.0
 10
135.0401680843
 20
237.5445810038
 30
0.0
 10
134.9979087445
 20
237.5369380429
 30
0.0
 10
134.917432511
 20
237.5280898847
 30
0.0
 10
134.7921072146
 20
237.520581017
 30
0.0
 10
134.6859156195
 20
237.5186899142
 30
0.0
 10
134.6284066044
 20
237.5186899142
 30
0.0
  0
SPLINE
  5
575
100
AcDbEntity
  8
0
100
AcDbSpline
 62
7
  6
CONTINUOUS
 70
0
 71
3
 72
11
 73
7
 74
0
 42
0.0000001
 43
0.0000001
 44
0.0000000001
 40
0.0
 40
0.0
 40
0.0
 40
0.0
 40
0.0878948412
 40
0.2828588987
 40
0.590279699
 40
1.0
 40
1.0
 40
1.0
 40
1.0
 10
135.3784065913
 20
237.5624601499
 30
0.0
 10
135.3784050171
 20
237.5692405972
 30
0.0
 10
135.3541841833
 20
237.5824764129
 30
0.0
 10
135.3138897095
 20
237.5923359993
 30
0.0
 10
135.242401273
 20
237.6048580037
 30
0.0
 10
135.1880298783
 20
237.6106169099
 30
0.0
 10
135.1565635294
 20
237.6135947561
 30
0.0
  0
SPLINE
  5
576
100
AcDbEntity
  8
0
100
AcDbSpline
 62
7
  6
CONTINUOUS
 70
0
 71
3
 72
9
 73
5
 74
0
 42
0.0000001
 43
0.0000001
 44
0.0000000001
 40
0.0
 40
0.0
 40
0.0
 40
0.0
 40
0.2240494452
 40
1.0
 40
1.0
 40
1.0
 40
1.0
 10
135.0976940996
 20
237.618601697
 30
0.0
 10
135.0627238321
 20
237.6212724633
 30
0.0
 10
134.9064782419
 20
237.6310253708
 30
0.0
 10
134.7498718458
 20
237.6342724909
 30
0.0
 10
134.6284066044
 20
237.6342724909
 30
0.0
  0
SPLINE
  5
577
100
AcDbEntity
  8
0
100
AcDbSpline
 62
7
  6
CONTINUOUS
 70
0
 71
3
 72
13
 73
9
 74
0
 42
0.0000001
 43
0.0000001
 44
0.0000000001
 40
0.0
 40
0.0
 40
0.0
 40
0.0
 40
0.0260488584
 40
0.084733828
 40
0.1770503306
 40
0.3003218354
 40
0.6215352912
 40
1.0
 40
1.0
 40
1.0
 40
1.0
 10
150.6783695315
 20
237.6766729398
 30
0.0
 10
150.6783671397
 20
237.6727152702
 30
0.0
 10
150.6639641191
 20
237.6650272534
 30
0.0
 10
150.6401887739
 20
237.6593435033
 30
0.0
 10
150.5978562378
 20
237.6519505527
 30
0.0
 10
150.5174179745
 20
237.6433753708
 30
0.0
 10
150.3920749719
 20
237.6361052585
 30
0.0
 10
150.2859077253
 20
237.6342724909
 30
0.0
 10
150.2284066044
 20
237.6342724909
 30
0.0
  0
SPLINE
  5
578
100
AcDbEntity
  8
0
100
AcDbSpline
 62
7
  6
CONTINUOUS
 70
0
 71
3
 72
9
 73
5
 74
0
 42
0.0000001
 43
0.0000001
 44
0.0000000001
 40
0.0
 40
0.0
 40
0.0
 40
0.0
 40
0.2586568429
 40
1.0
 40
1.0
 40
1.0
 40
1.0
 10
171.003296411
 20
238.9995825117
 30
0.0
 10
173.0968088981
 20
238.9996034838
 30
0.0
 10
181.1905871698
 20
239.0137338578
 30
0.0
 10
189.2842628075
 20
239.0821777631
 30
0.0
 10
195.2839956235
 20
239.1625416571
 30
0.0
  0
SPLINE
  5
579
100
AcDbEntity
  8
0
100
AcDbSpline
 62
7
  6
CONTINUOUS
 70
0
 71
3
 72
11
 73
7
 74
0
 42
0.0000001
 43
0.0000001
 44
0.0000000001
 40
0.0
 40
0.0
 40
0.0
 40
0.0
 40
0.0838839323
 40
0.2804826207
 40
0.5904619379
 40
1.0
 40
1.0
 40
1.0
 40
1.0
 10
150.9784065927
 20
237.6766741556
 30
0.0
 10
150.9784047403
 20
237.6847786721
 30
0.0
 10
150.945772858
 20
237.6984878664
 30
0.0
 10
150.8963726876
 20
237.7093151211
 30
0.0
 10
150.8052470139
 20
237.7222905701
 30
0.0
 10
150.7370389833
 20
237.7281291988
 30
0.0
 10
150.6975787356
 20
237.7310454905
 30
0.0
  0
SPLINE
  5
57A
100
AcDbEntity
  8
0
100
AcDbSpline
 62
7
  6
CONTINUOUS
 70
0
 71
3
 72
9
 73
5
 74
0
 42
0.0000001
 43
0.0000001
 44
0.0000000001
 40
0.0
 40
0.0
 40
0.0
 40
0.0
 40
0.2240579199
 40
1.0
 40
1.0
 40
1.0
 40
1.0
 10
150.6975787356
 20
237.7310454905
 30
0.0
 10
150.6626108293
 20
237.7336297777
 30
0.0
 10
150.5063919844
 20
237.7430656597
 30
0.0
 10
150.3498353308
 20
237.7462064219
 30
0.0
 10
150.2284066044
 20
237.7462064219
 30
0.0
  0
SPLINE
  5
57B
100
AcDbEntity
  8
0
100
AcDbSpline
 62
7
  6
CONTINUOUS
 70
0
 71
3
 72
9
 73
5
 74
0
 42
0.0000001
 43
0.0000001
 44
0.0000000001
 40
0.0
 40
0.0
 40
0.0
 40
0.0
 40
0.5000997072
 40
1.0
 40
1.0
 40
1.0
 40
1.0
 10
210.3783669053
 20
237.7964314679
 30
0.0
 10
210.3775922723
 20
237.9007861578
 30
0.0
 10
210.3347251836
 20
238.1112178174
 30
0.0
 10
210.2142223215
 20
238.2889678433
 30
0.0
 10
210.1401800149
 20
238.3624495061
 30
0.0
  0
SPLINE
  5
57C
100
AcDbEntity
  8
0
100
AcDbSpline
 62
7
  6
CONTINUOUS
 70
0
 71
3
 72
9
 73
5
 74
0
 42
0.0000001
 43
0.0000001
 44
0.0000000001
 40
0.0
 40
0.0
 40
0.0
 40
0.0
 40
0.4995001665
 40
1.0
 40
1.0
 40
1.0
 40
1.0
 10
210.1401800149
 20
238.3624495061
 30
0.0
 10
210.0761934445
 20
238.4259515741
 30
0.0
 10
209.9255973093
 20
238.5323142225
 30
0.0
 10
209.748202604
 20
238.5823989468
 30
0.0
 10
209.6584216179
 20
238.5923352328
 30
0.0
  0
SPLINE
  5
57D
100
AcDbEntity
  8
0
100
AcDbSpline
 62
7
  6
CONTINUOUS
 70
0
 71
3
 72
11
 73
7
 74
0
 42
0.0000001
 43
0.0000001
 44
0.0000000001
 40
0.0
 40
0.0
 40
0.0
 40
0.0
 40
0.2407303024
 40
0.5009100011
 40
0.7605142587
 40
1.0
 40
1.0
 40
1.0
 40
1.0
 10
209.5784066044
 20
237.1995779995
 30
0.0
 10
209.6783166877
 20
237.199578396
 30
0.0
 10
209.8882103178
 20
237.1600401394
 30
0.0
 10
210.1597231536
 20
236.9826441804
 30
0.0
 10
210.3385096608
 20
236.7125768926
 30
0.0
 10
210.3784180893
 20
236.5034107086
 30
0.0
 10
210.3784180879
 20
236.4040171544
 30
0.0
  0
SPLINE
  5
57E
100
AcDbEntity
  8
0
100
AcDbSpline
 62
7
  6
CONTINUOUS
 70
0
 71
3
 72
13
 73
9
 74
0
 42
0.0000001
 43
0.0000001
 44
0.0000000001
 40
0.0
 40
0.0
 40
0.0
 40
0.0
 40
0.3599110181
 40
0.6970425267
 40
0.8265597942
 40
0.9199458029
 40
0.9751972863
 40
1.0
 40
1.0
 40
1.0
 40
1.0
 10
208.8784066021
 20
237.1247456829
 30
0.0
 10
208.9637655552
 20
237.1247634596
 30
0.0
 10
209.1289513857
 20
237.1278843888
 30
0.0
 10
209.325188188
 20
237.1404121718
 30
0.0
 10
209.4563722593
 20
237.1564175759
 30
0.0
 10
209.5223386165
 20
237.1699691948
 30
0.0
 10
209.5597519505
 20
237.1801507497
 30
0.0
 10
209.578357395
 20
237.1936955771
 30
0.0
 10
209.5784094521
 20
237.1995777277
 30
0.0
  0
SPLINE
  5
57F
100
AcDbEntity
  8
0
100
AcDbSpline
 62
7
  6
CONTINUOUS
 70
0
 71
3
 72
12
 73
8
 74
0
 42
0.0000001
 43
0.0000001
 44
0.0000000001
 40
0.0
 40
0.0
 40
0.0
 40
0.0
 40
0.1000309959
 40
0.1848664085
 40
0.2956798614
 40
0.5965566476
 40
1.0
 40
1.0
 40
1.0
 40
1.0
 10
136.875891752
 20
237.562527842
 30
0.0
 10
136.8793355954
 20
237.5944260704
 30
0.0
 10
136.9371049175
 20
237.6362244738
 30
0.0
 10
137.0203246012
 20
237.6730670635
 30
0.0
 10
137.1737488746
 20
237.7229042403
 30
0.0
 10
137.4289314156
 20
237.7759322625
 30
0.0
 10
137.6528733763
 20
237.8089275682
 30
0.0
 10
137.7812240216
 20
237.8253658884
 30
0.0
  0
SPLINE
  5
580
100
AcDbEntity
  8
0
100
AcDbSpline
 62
7
  6
CONTINUOUS
 70
0
 71
3
 72
9
 73
5
 74
0
 42
0.0000001
 43
0.0000001
 44
0.0000000001
 40
0.0
 40
0.0
 40
0.0
 40
0.0
 40
0.2390059301
 40
1.0
 40
1.0
 40
1.0
 40
1.0
 10
137.7812240216
 20
237.8253658884
 30
0.0
 10
137.8035994679
 20
237.8282315908
 30
0.0
 10
137.89725763
 20
237.8399137372
 30
0.0
 10
137.9910590178
 20
237.8504349056
 30
0.0
 10
138.0624928135
 20
237.8579236632
 30
0.0
  0
SPLINE
  5
581
100
AcDbEntity
  8
0
100
AcDbSpline
 62
7
  6
CONTINUOUS
 70
0
 71
3
 72
11
 73
7
 74
0
 42
0.0000001
 43
0.0000001
 44
0.0000000001
 40
0.0
 40
0.0
 40
0.0
 40
0.0
 40
0.2245476933
 40
0.5000088681
 40
0.775465376
 40
1.0
 40
1.0
 40
1.0
 40
1.0
 10
138.0624928135
 20
237.8579236632
 30
0.0
 10
138.631249692
 20
237.9175492563
 30
0.0
 10
139.9037530113
 20
237.9885547175
 30
0.0
 10
141.8785871353
 20
238.0232088186
 30
0.0
 10
143.853387613
 20
237.9885428313
 30
0.0
 10
145.1258455316
 20
237.9175294429
 30
0.0
 10
145.6945682957
 20
237.8578976777
 30
0.0
  0
SPLINE
  5
582
100
AcDbEntity
  8
0
100
AcDbSpline
 62
7
  6
CONTINUOUS
 70
0
 71
3
 72
9
 73
5
 74
0
 42
0.0000001
 43
0.0000001
 44
0.0000000001
 40
0.0
 40
0.0
 40
0.0
 40
0.0
 40
0.2609388797
 40
1.0
 40
1.0
 40
1.0
 40
1.0
 10
145.6945682957
 20
237.8578976777
 30
0.0
 10
145.7191575764
 20
237.8553194405
 30
0.0
 10
145.8133660256
 20
237.8452000195
 30
0.0
 10
145.9074708195
 20
237.8340992308
 30
0.0
 10
145.9769286852
 20
237.8251942554
 30
0.0
  0
SPLINE
  5
583
100
AcDbEntity
  8
0
100
AcDbSpline
 62
7
  6
CONTINUOUS
 70
0
 71
3
 72
12
 73
8
 74
0
 42
0.0000001
 43
0.0000001
 44
0.0000000001
 40
0.0
 40
0.0
 40
0.0
 40
0.0
 40
0.4034273328
 40
0.7042870899
 40
0.8150979221
 40
0.8999365926
 40
1.0
 40
1.0
 40
1.0
 40
1.0
 10
145.9769286852
 20
237.8251942554
 30
0.0
 10
146.1050927332
 20
237.8087627442
 30
0.0
 10
146.3287059812
 20
237.775783785
 30
0.0
 10
146.5835137526
 20
237.7227855331
 30
0.0
 10
146.7367039738
 20
237.6729827305
 30
0.0
 10
146.8198118763
 20
237.6361627479
 30
0.0
 10
146.8774819086
 20
237.5943911336
 30
0.0
 10
146.8809215366
 20
237.5625271019
 30
0.0
  0
SPLINE
  5
584
100
AcDbEntity
  8
0
100
AcDbSpline
 62
7
  6
CONTINUOUS
 70
0
 71
3
 72
13
 73
9
 74
0
 42
0.0000001
 43
0.0000001
 44
0.0000000001
 40
0.0
 40
0.0
 40
0.0
 40
0.0
 40
0.0248364986
 40
0.0800370279
 40
0.1734099497
 40
0.3029483674
 40
0.6400881948
 40
1.0
 40
1.0
 40
1.0
 40
1.0
 10
41.178407964
 20
237.1995777211
 30
0.0
 10
41.1785156327
 20
237.1936884402
 30
0.0
 10
41.1970514182
 20
237.1801858518
 30
0.0
 10
41.2345026012
 20
237.169943295
 30
0.0
 10
41.3004319461
 20
237.1564236406
 30
0.0
 10
41.4316323952
 20
237.140406549
 30
0.0
 10
41.6278619827
 20
237.1278907216
 30
0.0
 10
41.7930493236
 20
237.1247539246
 30
0.0
 10
41.8784066015
 20
237.124745236
 30
0.0
  0
SPLINE
  5
585
100
AcDbEntity
  8
0
100
AcDbSpline
 62
7
  6
CONTINUOUS
 70
0
 71
3
 72
9
 73
5
 74
0
 42
0.0000001
 43
0.0000001
 44
0.0000000001
 40
0.0
 40
0.0
 40
0.0
 40
0.0
 40
0.2683992584
 40
1.0
 40
1.0
 40
1.0
 40
1.0
 10
209.4622253613
 20
238.5992086393
 30
0.0
 10
209.4726190029
 20
238.5995133977
 30
0.0
 10
209.5113623826
 20
238.6000203032
 30
0.0
 10
209.5501080231
 20
238.5986563182
 30
0.0
 10
209.5784066044
 20
238.5970685574
 30
0.0
  0
SPLINE
  5
586
100
AcDbEntity
  8
0
100
AcDbSpline
 62
7
  6
CONTINUOUS
 70
0
 71
3
 72
11
 73
7
 74
0
 42
0.0000001
 43
0.0000001
 44
0.0000000001
 40
0.0
 40
0.0
 40
0.0
 40
0.0
 40
0.2412454873
 40
0.5007232991
 40
0.7597510809
 40
1.0
 40
1.0
 40
1.0
 40
1.0
 10
136.8759107789
 20
237.5627010735
 30
0.0
 10
136.9727398723
 20
237.5626007053
 30
0.0
 10
137.175495662
 20
237.5253468518
 30
0.0
 10
137.4403088794
 20
237.3590368979
 30
0.0
 10
137.6213551796
 20
237.104501001
 30
0.0
 10
137.6695198244
 20
236.9045725961
 30
0.0
 10
137.6747137871
 20
236.8082834279
 30
0.0
  0
SPLINE
  5
587
100
AcDbEntity
  8
0
100
AcDbSpline
 62
7
  6
CONTINUOUS
 70
0
 71
3
 72
11
 73
7
 74
0
 42
0.0000001
 43
0.0000001
 44
0.0000000001
 40
0.0
 40
0.0
 40
0.0
 40
0.0
 40
0.2412922795
 40
0.5007476876
 40
0.7597375577
 40
1.0
 40
1.0
 40
1.0
 40
1.0
 10
136.8756828495
 20
237.5549928689
 30
0.0
 10
136.9725786096
 20
237.5550401015
 30
0.0
 10
137.1755111139
 20
237.5180516533
 30
0.0
 10
137.4405907149
 20
237.3518083305
 30
0.0
 10
137.6216198251
 20
237.0970409076
 30
0.0
 10
137.6695369885
 20
236.896940812
 30
0.0
 10
137.6745864778
 20
236.8005908178
 30
0.0
  0
SPLINE
  5
588
100
AcDbEntity
  8
0
100
AcDbSpline
 62
7
  6
CONTINUOUS
 70
0
 71
3
 72
11
 73
7
 74
0
 42
0.0000001
 43
0.0000001
 44
0.0000000001
 40
0.0
 40
0.0
 40
0.0
 40
0.0
 40
0.2506454733
 40
0.5008873583
 40
0.750599958
 40
1.0
 40
1.0
 40
1.0
 40
1.0
 10
136.8981860569
 20
237.1247455596
 30
0.0
 10
136.9987879319
 20
237.1248209121
 30
0.0
 10
137.2019113274
 20
237.0863802614
 30
0.0
 10
137.4619605268
 20
236.9207460314
 30
0.0
 10
137.6423694531
 20
236.6712634991
 30
0.0
 10
137.6918493072
 20
236.4711687637
 30
0.0
 10
137.6970896872
 20
236.371204003
 30
0.0
  0
SPLINE
  5
589
100
AcDbEntity
  8
0
100
AcDbSpline
 62
7
  6
CONTINUOUS
 70
0
 71
3
 72
9
 73
5
 74
0
 42
0.0000001
 43
0.0000001
 44
0.0000000001
 40
0.0
 40
0.0
 40
0.0
 40
0.0
 40
0.2977690908
 40
1.0
 40
1.0
 40
1.0
 40
1.0
 10
148.4784066044
 20
237.6625979123
 30
0.0
 10
148.469786622
 20
237.6625979123
 30
0.0
 10
148.4408662447
 20
237.6621211371
 30
0.0
 10
148.4117796175
 20
237.6611876853
 30
0.0
 10
148.3917210748
 20
237.6578853544
 30
0.0
  0
SPLINE
  5
58A
100
AcDbEntity
  8
0
100
AcDbSpline
 62
7
  6
CONTINUOUS
 70
0
 71
3
 72
9
 73
5
 74
0
 42
0.0000001
 43
0.0000001
 44
0.0000000001
 40
0.0
 40
0.0
 40
0.0
 40
0.0
 40
0.7084604207
 40
1.0
 40
1.0
 40
1.0
 40
1.0
 10
148.3917210748
 20
237.6578853544
 30
0.0
 10
148.3883777691
 20
237.6573349305
 30
0.0
 10
148.3846056619
 20
237.6565033486
 30
0.0
 10
148.3784066044
 20
237.6545757692
 30
0.0
 10
148.3784066044
 20
237.6531814399
 30
0.0
  0
SPLINE
  5
58B
100
AcDbEntity
  8
0
100
AcDbSpline
 62
7
  6
CONTINUOUS
 70
0
 71
3
 72
8
 73
4
 74
0
 42
0.0000001
 43
0.0000001
 44
0.0000000001
 40
0.0
 40
0.0
 40
0.0
 40
0.0
 40
1.0
 40
1.0
 40
1.0
 40
1.0
 10
171.0033877663
 20
238.7049959659
 30
0.0
 10
169.8696660367
 20
238.7049794109
 30
0.0
 10
168.7359437617
 20
238.7059964492
 30
0.0
 10
167.6022240032
 20
238.7081106159
 30
0.0
  0
LINE
  5
58C
100
AcDbEntity
  8
0
100
AcDbLine
 62
7
  6
CONTINUOUS
 10
167.6022240032
 20
238.7081106159
 11
167.2533206742
 21
238.7087958206
  0
SPLINE
  5
58D
100
AcDbEntity
  8
0
100
AcDbSpline
 62
7
  6
CONTINUOUS
 70
0
 71
3
 72
9
 73
5
 74
0
 42
0.0000001
 43
0.0000001
 44
0.0000000001
 40
0.0
 40
0.0
 40
0.0
 40
0.0
 40
0.2746599343
 40
1.0
 40
1.0
 40
1.0
 40
1.0
 10
167.2533206742
 20
238.7087958206
 30
0.0
 10
164.5121055748
 20
238.7144499072
 30
0.0
 10
154.5317572678
 20
238.7564883306
 30
0.0
 10
144.5518133283
 20
238.8817159111
 30
0.0
 10
137.3138159951
 20
239.0135022818
 30
0.0
  0
SPLINE
  5
58E
100
AcDbEntity
  8
0
100
AcDbSpline
 62
7
  6
CONTINUOUS
 70
0
 71
3
 72
10
 73
6
 74
0
 42
0.0000001
 43
0.0000001
 44
0.0000000001
 40
0.0
 40
0.0
 40
0.0
 40
0.0
 40
0.0819649283
 40
0.2814554177
 40
1.0
 40
1.0
 40
1.0
 40
1.0
 10
149.8784066044
 20
237.6531814399
 30
0.0
 10
149.8784066044
 20
237.6545875418
 30
0.0
 10
149.8721856804
 20
237.6565028135
 30
0.0
 10
149.8574908724
 20
237.6595644148
 30
0.0
 10
149.8404406988
 20
237.6606853492
 30
0.0
 10
149.8281319163
 20
237.6613474244
 30
0.0
  0
SPLINE
  5
58F
100
AcDbEntity
  8
0
100
AcDbSpline
 62
7
  6
CONTINUOUS
 70
0
 71
3
 72
8
 73
4
 74
0
 42
0.0000001
 43
0.0000001
 44
0.0000000001
 40
0.0
 40
0.0
 40
0.0
 40
0.0
 40
1.0
 40
1.0
 40
1.0
 40
1.0
 10
149.8281319163
 20
237.6613474244
 30
0.0
 10
149.8115755055
 20
237.6622379746
 30
0.0
 10
149.7949869487
 20
237.6625979123
 30
0.0
 10
149.7784066044
 20
237.6625979123
 30
0.0
  0
SPLINE
  5
590
100
AcDbEntity
  8
0
100
AcDbSpline
 62
7
  6
CONTINUOUS
 70
0
 71
3
 72
10
 73
6
 74
0
 42
0.0000001
 43
0.0000001
 44
0.0000000001
 40
0.0
 40
0.0
 40
0.0
 40
0.0
 40
0.0819649283
 40
0.2814554177
 40
1.0
 40
1.0
 40
1.0
 40
1.0
 10
134.2784066044
 20
237.6531814399
 30
0.0
 10
134.2784066044
 20
237.6545875418
 30
0.0
 10
134.2721856804
 20
237.6565028135
 30
0.0
 10
134.2574908724
 20
237.6595644148
 30
0.0
 10
134.2404406988
 20
237.6606853492
 30
0.0
 10
134.2281319163
 20
237.6613474244
 30
0.0
  0
SPLINE
  5
591
100
AcDbEntity
  8
0
100
AcDbSpline
 62
7
  6
CONTINUOUS
 70
0
 71
3
 72
8
 73
4
 74
0
 42
0.0000001
 43
0.0000001
 44
0.0000000001
 40
0.0
 40
0.0
 40
0.0
 40
0.0
 40
1.0
 40
1.0
 40
1.0
 40
1.0
 10
134.2281319163
 20
237.6613474244
 30
0.0
 10
134.2115755055
 20
237.6622379746
 30
0.0
 10
134.1949869487
 20
237.6625979123
 30
0.0
 10
134.1784066044
 20
237.6625979123
 30
0.0
  0
SPLINE
  5
592
100
AcDbEntity
  8
0
100
AcDbSpline
 62
7
  6
CONTINUOUS
 70
0
 71
3
 72
9
 73
5
 74
0
 42
0.0000001
 43
0.0000001
 44
0.0000000001
 40
0.0
 40
0.0
 40
0.0
 40
0.0
 40
0.2977690908
 40
1.0
 40
1.0
 40
1.0
 40
1.0
 10
132.8784066044
 20
237.6625979123
 30
0.0
 10
132.869786622
 20
237.6625979123
 30
0.0
 10
132.8408662447
 20
237.6621211371
 30
0.0
 10
132.8117796175
 20
237.6611876853
 30
0.0
 10
132.7917210748
 20
237.6578853544
 30
0.0
  0
SPLINE
  5
593
100
AcDbEntity
  8
0
100
AcDbSpline
 62
7
  6
CONTINUOUS
 70
0
 71
3
 72
9
 73
5
 74
0
 42
0.0000001
 43
0.0000001
 44
0.0000000001
 40
0.0
 40
0.0
 40
0.0
 40
0.0
 40
0.7084604207
 40
1.0
 40
1.0
 40
1.0
 40
1.0
 10
132.7917210748
 20
237.6578853544
 30
0.0
 10
132.7883777691
 20
237.6573349305
 30
0.0
 10
132.7846056619
 20
237.6565033486
 30
0.0
 10
132.7784066044
 20
237.6545757692
 30
0.0
 10
132.7784066044
 20
237.6531814399
 30
0.0
  0
SPLINE
  5
594
100
AcDbEntity
  8
0
100
AcDbSpline
 62
7
  6
CONTINUOUS
 70
0
 71
3
 72
17
 73
13
 74
0
 42
0.0000001
 43
0.0000001
 44
0.0000000001
 40
0.0
 40
0.0
 40
0.0
 40
0.0
 40
0.1941815589
 40
0.3812596043
 40
0.5534462797
 40
0.7043739637
 40
0.8283841899
 40
0.9207014254
 40
0.9539024741
 40
0.9780461056
 40
0.9931413478
 40
1.0
 40
1.0
 40
1.0
 40
1.0
 10
41.8784066033
 20
236.329335238
 30
0.0
 10
41.7808840311
 20
236.3293742677
 30
0.0
 10
41.5894070846
 20
236.3303030119
 30
0.0
 10
41.31147121
 20
236.334393638
 30
0.0
 10
41.0553447001
 20
236.3411099519
 30
0.0
 10
40.8308887067
 20
236.350068638
 30
0.0
 10
40.6469313498
 20
236.3607291368
 30
0.0
 10
40.521640096
 20
236.3716874405
 30
0.0
 10
40.4476444286
 20
236.3812166498
 30
0.0
 10
40.4109233794
 20
236.3883525645
 30
0.0
 10
40.3903290068
 20
236.3935883031
 30
0.0
 10
40.3784066044
 20
236.4005731574
 30
0.0
 10
40.3784066044
 20
236.4040177351
 30
0.0
  0
SPLINE
  5
595
100
AcDbEntity
  8
0
100
AcDbSpline
 62
7
  6
CONTINUOUS
 70
0
 71
3
 72
13
 73
9
 74
0
 42
0.0000001
 43
0.0000001
 44
0.0000000001
 40
0.0
 40
0.0
 40
0.0
 40
0.0
 40
0.0204095866
 40
0.0740950863
 40
0.1599216458
 40
0.2764710775
 40
0.5932975002
 40
1.0
 40
1.0
 40
1.0
 40
1.0
 10
123.936911457
 20
229.4195876463
 30
0.0
 10
123.93586969
 20
229.4197821823
 30
0.0
 10
123.935167072
 20
229.4247961704
 30
0.0
 10
123.9319237113
 20
229.4314091941
 30
0.0
 10
123.928258742
 20
229.4447680767
 30
0.0
 10
123.9198810042
 20
229.4700661505
 30
0.0
 10
123.9062964725
 20
229.5117514708
 30
0.0
 10
123.8943870501
 20
229.5473050684
 30
0.0
 10
123.8877385974
 20
229.567349396
 30
0.0
  0
SPLINE
  5
596
100
AcDbEntity
  8
0
100
AcDbSpline
 62
7
  6
CONTINUOUS
 70
0
 71
3
 72
9
 73
5
 74
0
 42
0.0000001
 43
0.0000001
 44
0.0000000001
 40
0.0
 40
0.0
 40
0.0
 40
0.0
 40
0.2634046698
 40
1.0
 40
1.0
 40
1.0
 40
1.0
 10
143.2531587109
 20
233.3759471378
 30
0.0
 10
143.2530702396
 20
233.3738085072
 30
0.0
 10
143.24096245
 20
233.373883692
 30
0.0
 10
143.2352772187
 20
233.372056683
 30
0.0
 10
143.2293170993
 20
233.3715042441
 30
0.0
  0
SPLINE
  5
597
100
AcDbEntity
  8
0
100
AcDbSpline
 62
7
  6
CONTINUOUS
 70
0
 71
3
 72
13
 73
9
 74
0
 42
0.0000001
 43
0.0000001
 44
0.0000000001
 40
0.0
 40
0.0
 40
0.0
 40
0.0
 40
0.0203123571
 40
0.0738227398
 40
0.1594932598
 40
0.2760035403
 40
0.5930229082
 40
1.0
 40
1.0
 40
1.0
 40
1.0
 10
159.8200551652
 20
229.4195876463
 30
0.0
 10
159.8210911453
 20
229.4197810996
 30
0.0
 10
159.8217653453
 20
229.4247865673
 30
0.0
 10
159.8249641007
 20
229.4313831923
 30
0.0
 10
159.8285742428
 20
229.4447294043
 30
0.0
 10
159.8369042863
 20
229.4700186422
 30
0.0
 10
159.8504750008
 20
229.5116968708
 30
0.0
 10
159.8623841661
 20
229.5472441334
 30
0.0
 10
159.8690342563
 20
229.5672852359
 30
0.0
  0
SPLINE
  5
598
100
AcDbEntity
  8
0
100
AcDbSpline
 62
7
  6
CONTINUOUS
 70
0
 71
3
 72
9
 73
5
 74
0
 42
0.0000001
 43
0.0000001
 44
0.0000000001
 40
0.0
 40
0.0
 40
0.0
 40
0.0
 40
0.5002203888
 40
1.0
 40
1.0
 40
1.0
 40
1.0
 10
145.9965093046
 20
235.1650048868
 30
0.0
 10
145.9923756014
 20
235.0861291313
 30
0.0
 10
146.0521980179
 20
234.9177731924
 30
0.0
 10
146.2171837627
 20
234.8493510511
 30
0.0
 10
146.296098165
 20
234.8493497914
 30
0.0
  0
SPLINE
  5
599
100
AcDbEntity
  8
0
100
AcDbSpline
 62
7
  6
CONTINUOUS
 70
0
 71
3
 72
9
 73
5
 74
0
 42
0.0000001
 43
0.0000001
 44
0.0000000001
 40
0.0
 40
0.0
 40
0.0
 40
0.0
 40
0.275251754
 40
1.0
 40
1.0
 40
1.0
 40
1.0
 10
146.7972416706
 20
235.1580305263
 30
0.0
 10
146.745343157
 20
235.1590489065
 30
0.0
 10
146.5567900033
 20
235.1625281438
 30
0.0
 10
146.3682226297
 20
235.1653806232
 30
0.0
 10
146.231550793
 20
235.1665742146
 30
0.0
  0
SPLINE
  5
59A
100
AcDbEntity
  8
0
100
AcDbSpline
 62
7
  6
CONTINUOUS
 70
0
 71
3
 72
14
 73
10
 74
0
 42
0.0000001
 43
0.0000001
 44
0.0000000001
 40
0.0
 40
0.0
 40
0.0
 40
0.0
 40
0.4237972903
 40
0.5960300021
 40
0.739344485
 40
0.8520938467
 40
0.9334728462
 40
0.9829080573
 40
1.0
 40
1.0
 40
1.0
 40
1.0
 10
146.231550793
 20
235.1665742146
 30
0.0
 10
146.1983343565
 20
235.1668643025
 30
0.0
 10
146.1515663354
 20
235.167226737
 30
0.0
 10
146.0937311315
 20
235.1672525239
 30
0.0
 10
146.0599149129
 20
235.1673258078
 30
0.0
 10
146.034111232
 20
235.1666283415
 30
0.0
 10
146.0135449521
 20
235.1672348113
 30
0.0
 10
146.0045984751
 20
235.1649401584
 30
0.0
 10
145.9966089229
 20
235.1663401822
 30
0.0
 10
145.996509269
 20
235.1650042083
 30
0.0
  0
SPLINE
  5
59B
100
AcDbEntity
  8
0
100
AcDbSpline
 62
7
  6
CONTINUOUS
 70
0
 71
3
 72
17
 73
13
 74
0
 42
0.0000001
 43
0.0000001
 44
0.0000000001
 40
0.0
 40
0.0
 40
0.0
 40
0.0
 40
0.006858913
 40
0.0219537139
 40
0.046097047
 40
0.0792981207
 40
0.1716154024
 40
0.2956262145
 40
0.4465539541
 40
0.6187400302
 40
0.8058181817
 40
1.0
 40
1.0
 40
1.0
 40
1.0
 10
210.3784066044
 20
236.4040177348
 30
0.0
 10
210.3784066043
 20
236.4005730251
 30
0.0
 10
210.3664855812
 20
236.3935869343
 30
0.0
 10
210.3458904349
 20
236.3883519045
 30
0.0
 10
210.3091701049
 20
236.3812163773
 30
0.0
 10
210.2351741008
 20
236.3716884877
 30
0.0
 10
210.1098825612
 20
236.3607315522
 30
0.0
 10
209.9259247231
 20
236.3500711288
 30
0.0
 10
209.7014687257
 20
236.3411111197
 30
0.0
 10
209.4453423817
 20
236.33439319
 30
0.0
 10
209.1674065236
 20
236.3303031749
 30
0.0
 10
208.9759293372
 20
236.3293748518
 30
0.0
 10
208.8784066044
 20
236.329335238
 30
0.0
  0
SPLINE
  5
59C
100
AcDbEntity
  8
0
100
AcDbSpline
 62
7
  6
CONTINUOUS
 70
0
 71
3
 72
11
 73
7
 74
0
 42
0.0000001
 43
0.0000001
 44
0.0000000001
 40
0.0
 40
0.0
 40
0.0
 40
0.0
 40
0.2401442612
 40
0.4990792565
 40
0.758587547
 40
1.0
 40
1.0
 40
1.0
 40
1.0
 10
146.0597235233
 20
236.3712040363
 30
0.0
 10
146.0647678259
 20
236.4674563662
 30
0.0
 10
146.112691534
 20
236.6673834573
 30
0.0
 10
146.2937533642
 20
236.9218774221
 30
0.0
 10
146.5588355251
 20
237.0878897767
 30
0.0
 10
146.7617337511
 20
237.1248036907
 30
0.0
 10
146.8586271536
 20
237.124745592
 30
0.0
  0
SPLINE
  5
59D
100
AcDbEntity
  8
0
100
AcDbSpline
 62
7
  6
CONTINUOUS
 70
0
 71
3
 72
11
 73
7
 74
0
 42
0.0000001
 43
0.0000001
 44
0.0000000001
 40
0.0
 40
0.0
 40
0.0
 40
0.0
 40
0.2412908664
 40
0.5007462062
 40
0.7597368278
 40
1.0
 40
1.0
 40
1.0
 40
1.0
 10
146.8811303587
 20
237.5549928689
 30
0.0
 10
146.7842334288
 20
237.555040102
 30
0.0
 10
146.5812978462
 20
237.5180506384
 30
0.0
 10
146.3162148249
 20
237.3518022288
 30
0.0
 10
146.13518593
 20
237.0970266443
 30
0.0
 10
146.0872725
 20
236.8969210004
 30
0.0
 10
146.0822255798
 20
236.8005688458
 30
0.0
  0
SPLINE
  5
59E
100
AcDbEntity
  8
0
100
AcDbSpline
 62
7
  6
CONTINUOUS
 70
0
 71
3
 72
11
 73
7
 74
0
 42
0.0000001
 43
0.0000001
 44
0.0000000001
 40
0.0
 40
0.0
 40
0.0
 40
0.0
 40
0.2411882456
 40
0.5006440926
 40
0.7596939893
 40
1.0
 40
1.0
 40
1.0
 40
1.0
 10
146.880902258
 20
237.5627008745
 30
0.0
 10
146.7840961591
 20
237.5626005454
 30
0.0
 10
146.5813734621
 20
237.525361877
 30
0.0
 10
146.3165637995
 20
237.3590929797
 30
0.0
 10
146.1354762668
 20
237.1045560222
 30
0.0
 10
146.0872946162
 20
236.904595443
 30
0.0
 10
146.0820994231
 20
236.8082834121
 30
0.0
  0
SPLINE
  5
59F
100
AcDbEntity
  8
0
100
AcDbSpline
 62
7
  6
CONTINUOUS
 70
0
 71
3
 72
9
 73
5
 74
0
 42
0.0000001
 43
0.0000001
 44
0.0000000001
 40
0.0
 40
0.0
 40
0.0
 40
0.0
 40
0.1916487109
 40
1.0
 40
1.0
 40
1.0
 40
1.0
 10
146.082099423
 20
236.8082834125
 30
0.0
 10
146.0814481253
 20
236.8158847881
 30
0.0
 10
146.0690338598
 20
236.854868922
 30
0.0
 10
146.0321665491
 20
236.8790805135
 30
0.0
 10
146.0042756547
 20
236.8951303293
 30
0.0
  0
SPLINE
  5
5A0
100
AcDbEntity
  8
0
100
AcDbSpline
 62
7
  6
CONTINUOUS
 70
0
 71
3
 72
8
 73
4
 74
0
 42
0.0000001
 43
0.0000001
 44
0.0000000001
 40
0.0
 40
0.0
 40
0.0
 40
0.0
 40
1.0
 40
1.0
 40
1.0
 40
1.0
 10
145.9939282323
 20
235.1045807802
 30
0.0
 10
145.9964094385
 20
235.054988366
 30
0.0
 10
146.0127846436
 20
235.0047936822
 30
0.0
 10
146.0389214904
 20
234.9625748573
 30
0.0
  0
SPLINE
  5
5A1
100
AcDbEntity
  8
0
100
AcDbSpline
 62
7
  6
CONTINUOUS
 70
0
 71
3
 72
9
 73
5
 74
0
 42
0.0000001
 43
0.0000001
 44
0.0000000001
 40
0.0
 40
0.0
 40
0.0
 40
0.0
 40
0.5001652973
 40
1.0
 40
1.0
 40
1.0
 40
1.0
 10
146.0389214904
 20
234.9625748573
 30
0.0
 10
146.0654842138
 20
234.9196681144
 30
0.0
 10
146.1414194234
 20
234.8458803494
 30
0.0
 10
146.2441080822
 20
234.8195847909
 30
0.0
 10
146.2945382474
 20
234.8195847909
 30
0.0
  0
SPLINE
  5
5A2
100
AcDbEntity
  8
0
100
AcDbSpline
 62
7
  6
CONTINUOUS
 70
0
 71
3
 72
9
 73
5
 74
0
 42
0.0000001
 43
0.0000001
 44
0.0000000001
 40
0.0
 40
0.0
 40
0.0
 40
0.0
 40
0.3284901205
 40
1.0
 40
1.0
 40
1.0
 40
1.0
 10
137.7525301247
 20
236.8951256464
 30
0.0
 10
137.7412807701
 20
236.8886518395
 30
0.0
 10
137.7087287009
 20
236.8680770581
 30
0.0
 10
137.6769788386
 20
236.8347189282
 30
0.0
 10
137.6747137859
 20
236.808283414
 30
0.0
  0
SPLINE
  5
5A3
100
AcDbEntity
  8
0
100
AcDbSpline
 62
7
  6
CONTINUOUS
 70
0
 71
3
 72
9
 73
5
 74
0
 42
0.0000001
 43
0.0000001
 44
0.0000000001
 40
0.0
 40
0.0
 40
0.0
 40
0.0
 40
0.2752490924
 40
1.0
 40
1.0
 40
1.0
 40
1.0
 10
146.7973655528
 20
234.8580773236
 30
0.0
 10
146.7648699087
 20
234.8580774776
 30
0.0
 10
146.6468115565
 20
234.8578590723
 30
0.0
 10
146.5287500973
 20
234.8570125857
 30
0.0
 10
146.4431996682
 20
234.8555229281
 30
0.0
  0
SPLINE
  5
5A4
100
AcDbEntity
  8
0
100
AcDbSpline
 62
7
  6
CONTINUOUS
 70
0
 71
3
 72
13
 73
9
 74
0
 42
0.0000001
 43
0.0000001
 44
0.0000000001
 40
0.0
 40
0.0
 40
0.0
 40
0.0
 40
0.4226082489
 40
0.7376400027
 40
0.8504449935
 40
0.9320926913
 40
0.9820012289
 40
1.0
 40
1.0
 40
1.0
 40
1.0
 10
146.4431996682
 20
234.8555229281
 30
0.0
 10
146.4224417611
 20
234.8551614784
 30
0.0
 10
146.386334546
 20
234.8543593046
 30
0.0
 10
146.3442201428
 20
234.8532929133
 30
0.0
 10
146.3196941891
 20
234.8518936032
 30
0.0
 10
146.3069102577
 20
234.851509096
 30
0.0
 10
146.3010545852
 20
234.8500724778
 30
0.0
 10
146.2961835932
 20
234.8502326317
 30
0.0
 10
146.2960983094
 20
234.8493525465
 30
0.0
  0
SPLINE
  5
5A5
100
AcDbEntity
  8
0
100
AcDbSpline
 62
7
  6
CONTINUOUS
 70
0
 71
3
 72
13
 73
9
 74
0
 42
0.0000001
 43
0.0000001
 44
0.0000000001
 40
0.0
 40
0.0
 40
0.0
 40
0.0
 40
0.0179954319
 40
0.0679053557
 40
0.1495568927
 40
0.2623656867
 40
0.5773983863
 40
1.0
 40
1.0
 40
1.0
 40
1.0
 10
137.4607148877
 20
234.8493527695
 30
0.0
 10
137.4606306559
 20
234.8502327844
 30
0.0
 10
137.4557576129
 20
234.850072807
 30
0.0
 10
137.4499040662
 20
234.8515092517
 30
0.0
 10
137.4371185542
 20
234.8518937554
 30
0.0
 10
137.4125930792
 20
234.853292946
 30
0.0
 10
137.3704785675
 20
234.8543593325
 30
0.0
 10
137.3343720845
 20
234.8551614756
 30
0.0
 10
137.3136146606
 20
234.8555229137
 30
0.0
  0
SPLINE
  5
5A6
100
AcDbEntity
  8
0
100
AcDbSpline
 62
7
  6
CONTINUOUS
 70
0
 71
3
 72
9
 73
5
 74
0
 42
0.0000001
 43
0.0000001
 44
0.0000000001
 40
0.0
 40
0.0
 40
0.0
 40
0.0
 40
0.2142911884
 40
1.0
 40
1.0
 40
1.0
 40
1.0
 10
137.3136146606
 20
234.8555229137
 30
0.0
 10
137.2883179228
 20
234.8559633926
 30
0.0
 10
137.1702621604
 20
234.8575875956
 30
0.0
 10
137.0521930752
 20
234.8580777547
 30
0.0
 10
136.959427326
 20
234.8580773236
 30
0.0
  0
SPLINE
  5
5A7
100
AcDbEntity
  8
0
100
AcDbSpline
 62
7
  6
CONTINUOUS
 70
0
 71
3
 72
9
 73
5
 74
0
 42
0.0000001
 43
0.0000001
 44
0.0000000001
 40
0.0
 40
0.0
 40
0.0
 40
0.0
 40
0.2013443932
 40
1.0
 40
1.0
 40
1.0
 40
1.0
 10
206.5936479562
 20
239.0495553245
 30
0.0
 10
205.0649912175
 20
239.0202268702
 30
0.0
 10
197.4725783389
 20
238.8834421672
 30
0.0
 10
189.8793109393
 20
238.7920381836
 30
0.0
 10
183.8147509452
 20
238.7496684423
 30
0.0
  0
LINE
  5
5A8
100
AcDbEntity
  8
0
100
AcDbLine
 62
7
  6
CONTINUOUS
 10
183.8147509452
 20
238.7496684423
 11
183.1815037361
 21
238.7453649443
  0
LINE
  5
5A9
100
AcDbEntity
  8
0
100
AcDbLine
 62
7
  6
CONTINUOUS
 10
183.1815037361
 20
238.7453649443
 11
182.0451851694
 21
238.738232405
  0
LINE
  5
5AA
100
AcDbEntity
  8
0
100
AcDbLine
 62
7
  6
CONTINUOUS
 10
182.0451851694
 20
238.738232405
 11
180.9062571869
 21
238.731812744
  0
SPLINE
  5
5AB
100
AcDbEntity
  8
0
100
AcDbSpline
 62
7
  6
CONTINUOUS
 70
0
 71
3
 72
9
 73
5
 74
0
 42
0.0000001
 43
0.0000001
 44
0.0000000001
 40
0.0
 40
0.0
 40
0.0
 40
0.0
 40
0.2487516913
 40
1.0
 40
1.0
 40
1.0
 40
1.0
 10
180.9062571869
 20
238.731812744
 30
0.0
 10
180.3967093539
 20
238.7290987857
 30
0.0
 10
178.348285406
 20
238.7190378515
 30
0.0
 10
176.2998458067
 20
238.7120655037
 30
0.0
 10
174.7609555275
 20
238.7088845497
 30
0.0
  0
SPLINE
  5
5AC
100
AcDbEntity
  8
0
100
AcDbSpline
 62
7
  6
CONTINUOUS
 70
0
 71
3
 72
9
 73
5
 74
0
 42
0.0000001
 43
0.0000001
 44
0.0000000001
 40
0.0
 40
0.0
 40
0.0
 40
0.0
 40
0.4997107019
 40
1.0
 40
1.0
 40
1.0
 40
1.0
 10
137.4622749614
 20
234.8195847909
 30
0.0
 10
137.5365069739
 20
234.8195847909
 30
0.0
 10
137.6903305461
 20
234.8798487691
 30
0.0
 10
137.7591713474
 20
235.0303556593
 30
0.0
 10
137.7628849765
 20
235.1045807802
 30
0.0
  0
SPLINE
  5
5AD
100
AcDbEntity
  8
0
100
AcDbSpline
 62
7
  6
CONTINUOUS
 70
0
 71
3
 72
14
 73
10
 74
0
 42
0.0000001
 43
0.0000001
 44
0.0000000001
 40
0.0
 40
0.0
 40
0.0
 40
0.0
 40
0.0170878728
 40
0.0665126974
 40
0.1478790031
 40
0.2606167474
 40
0.4039224548
 40
0.5761537756
 40
1.0
 40
1.0
 40
1.0
 40
1.0
 10
137.7603039115
 20
235.1650047478
 30
0.0
 10
137.7602053797
 20
235.166336095
 30
0.0
 10
137.7522426427
 20
235.1649447165
 30
0.0
 10
137.7433281866
 20
235.1672307163
 30
0.0
 10
137.7228314548
 20
235.1666293722
 30
0.0
 10
137.6971149495
 20
235.1673256933
 30
0.0
 10
137.663410873
 20
235.1672545244
 30
0.0
 10
137.6057617495
 20
235.1672310322
 30
0.0
 10
137.5591428472
 20
235.1668712078
 30
0.0
 10
137.5260311574
 20
235.1665830091
 30
0.0
  0
SPLINE
  5
5AE
100
AcDbEntity
  8
0
100
AcDbSpline
 62
7
  6
CONTINUOUS
 70
0
 71
3
 72
9
 73
5
 74
0
 42
0.0000001
 43
0.0000001
 44
0.0000000001
 40
0.0
 40
0.0
 40
0.0
 40
0.0
 40
0.214184385
 40
1.0
 40
1.0
 40
1.0
 40
1.0
 10
137.5260311574
 20
235.1665830091
 30
0.0
 10
137.4855857011
 20
235.1662309785
 30
0.0
 10
137.2967548334
 20
235.1641535729
 30
0.0
 10
137.1079378512
 20
235.1609427275
 30
0.0
 10
136.9595714898
 20
235.1580314503
 30
0.0
  0
SPLINE
  5
5AF
100
AcDbEntity
  8
0
100
AcDbSpline
 62
7
  6
CONTINUOUS
 70
0
 71
3
 72
9
 73
5
 74
0
 42
0.0000001
 43
0.0000001
 44
0.0000000001
 40
0.0
 40
0.0
 40
0.0
 40
0.0
 40
0.5002757163
 40
1.0
 40
1.0
 40
1.0
 40
1.0
 10
137.4607150438
 20
234.8493497911
 30
0.0
 10
137.5397077811
 20
234.8493510521
 30
0.0
 10
137.704707249
 20
234.9178701644
 30
0.0
 10
137.7644335078
 20
235.0862073571
 30
0.0
 10
137.7603039043
 20
235.1650048866
 30
0.0
  0
SPLINE
  5
5B0
100
AcDbEntity
  8
0
100
AcDbSpline
 62
7
  6
CONTINUOUS
 70
0
 71
3
 72
9
 73
5
 74
0
 42
0.0000001
 43
0.0000001
 44
0.0000000001
 40
0.0
 40
0.0
 40
0.0
 40
0.0
 40
0.1896910431
 40
1.0
 40
1.0
 40
1.0
 40
1.0
 10
134.4401511154
 20
239.3678122771
 30
0.0
 10
136.7517204125
 20
239.3213814863
 30
0.0
 10
148.9381198058
 20
239.099262701
 30
0.0
 10
161.1269042923
 20
238.9994784304
 30
0.0
 10
171.0032964149
 20
238.9995750345
 30
0.0
  0
SPLINE
  5
5B1
100
AcDbEntity
  8
0
100
AcDbSpline
 62
7
  6
CONTINUOUS
 70
0
 71
3
 72
11
 73
7
 74
0
 42
0.0000001
 43
0.0000001
 44
0.0000000001
 40
0.0
 40
0.0
 40
0.0
 40
0.0
 40
0.240729575
 40
0.5009087673
 40
0.7605133206
 40
1.0
 40
1.0
 40
1.0
 40
1.0
 10
41.1784066044
 20
237.1995777177
 30
0.0
 10
41.0784976494
 20
237.1995777146
 30
0.0
 10
40.8686064023
 20
237.1600387045
 30
0.0
 10
40.5970975217
 20
236.9826422608
 30
0.0
 10
40.4183142912
 20
236.7125757896
 30
0.0
 10
40.3784066936
 20
236.5034108585
 30
0.0
 10
40.3784066936
 20
236.4040177372
 30
0.0
  0
SPLINE
  5
5B2
100
AcDbEntity
  8
0
100
AcDbSpline
 62
7
  6
CONTINUOUS
 70
0
 71
3
 72
21
 73
17
 74
0
 42
0.0000001
 43
0.0000001
 44
0.0000000001
 40
0.0
 40
0.0
 40
0.0
 40
0.0
 40
0.0014707283
 40
0.0051763178
 40
0.0112333885
 40
0.0196457055
 40
0.0434874547
 40
0.0765533812
 40
0.1185012954
 40
0.1689106643
 40
0.2273477664
 40
0.2932344008
 40
0.4446412342
 40
0.6174131938
 40
0.8051490845
 40
1.0
 40
1.0
 40
1.0
 40
1.0
 10
206.3799465038
 20
94.8323094664
 30
0.0
 10
206.3799681025
 20
94.8310824622
 30
0.0
 10
206.3743831478
 20
94.8293361
 30
0.0
 10
206.3665134409
 20
94.8276129574
 30
0.0
 10
206.3507490833
 20
94.8255473134
 30
0.0
 10
206.3193614454
 20
94.8225132474
 30
0.0
 10
206.2646398955
 20
94.8189870928
 30
0.0
 10
206.1823978676
 20
94.8151177382
 30
0.0
 10
206.0777498292
 20
94.8113539615
 30
0.0
 10
205.9519970104
 20
94.8077500407
 30
0.0
 10
205.8062292404
 20
94.8043651372
 30
0.0
 10
205.57620024
 20
94.799984956
 30
0.0
 10
205.2507523574
 20
94.7954685163
 30
0.0
 10
204.8236215406
 20
94.791572957
 30
0.0
 10
204.3602281326
 20
94.7891752367
 30
0.0
 10
204.0409926586
 20
94.7886312398
 30
0.0
 10
203.878406594
 20
94.7886312398
 30
0.0
  0
SPLINE
  5
5B3
100
AcDbEntity
  8
0
100
AcDbSpline
 62
7
  6
CONTINUOUS
 70
0
 71
3
 72
21
 73
17
 74
0
 42
0.0000001
 43
0.0000001
 44
0.0000000001
 40
0.0
 40
0.0
 40
0.0
 40
0.0
 40
0.0014707174
 40
0.0051762166
 40
0.0112331286
 40
0.0196452217
 40
0.0434863344
 40
0.0765514037
 40
0.1184983154
 40
0.1689065888
 40
0.2273425726
 40
0.2932281672
 40
0.4446332401
 40
0.6174046975
 40
0.8051432692
 40
1.0
 40
1.0
 40
1.0
 40
1.0
 10
49.3799465038
 20
94.8323094664
 30
0.0
 10
49.3799681003
 20
94.8310825877
 30
0.0
 10
49.374383915
 20
94.8293362472
 30
0.0
 10
49.3665150625
 20
94.8276132721
 30
0.0
 10
49.3507526802
 20
94.8255477161
 30
0.0
 10
49.3193688439
 20
94.8225138523
 30
0.0
 10
49.2646539656
 20
94.8189878812
 30
0.0
 10
49.1824218245
 20
94.8151187371
 30
0.0
 10
49.0777862016
 20
94.8113551385
 30
0.0
 10
48.9520480116
 20
94.8077513671
 30
0.0
 10
48.8062968034
 20
94.8043665739
 30
0.0
 10
48.5762929208
 20
94.7999864852
 30
0.0
 10
48.2508787029
 20
94.7954699821
 30
0.0
 10
47.8237881005
 20
94.7915741131
 30
0.0
 10
47.3604320259
 20
94.7891760323
 30
0.0
 10
47.0412197753
 20
94.7886319053
 30
0.0
 10
46.8786442968
 20
94.7886319053
 30
0.0
  0
SPLINE
  5
5B4
100
AcDbEntity
  8
0
100
AcDbSpline
 62
7
  6
CONTINUOUS
 70
0
 71
3
 72
21
 73
17
 74
0
 42
0.0000001
 43
0.0000001
 44
0.0000000001
 40
0.0
 40
0.0
 40
0.0
 40
0.0
 40
0.194850916
 40
0.382586807
 40
0.5553587666
 40
0.7067655998
 40
0.7726522341
 40
0.8310893361
 40
0.8814987049
 40
0.923446619
 40
0.9565125454
 40
0.9803542945
 40
0.9887666115
 40
0.9948236822
 40
0.9985292717
 40
1.0
 40
1.0
 40
1.0
 40
1.0
 10
203.878406594
 20
94.7886312398
 30
0.0
 10
203.7158205303
 20
94.7886312398
 30
0.0
 10
203.3965850582
 20
94.7891752367
 30
0.0
 10
202.9331916532
 20
94.791572957
 30
0.0
 10
202.5060608397
 20
94.7954685164
 30
0.0
 10
202.18061296
 20
94.7999849561
 30
0.0
 10
201.9505839617
 20
94.8043651373
 30
0.0
 10
201.8048161931
 20
94.8077500408
 30
0.0
 10
201.6790633755
 20
94.8113539616
 30
0.0
 10
201.5744153383
 20
94.8151177382
 30
0.0
 10
201.4921733112
 20
94.8189870928
 30
0.0
 10
201.4374517618
 20
94.8225132475
 30
0.0
 10
201.4060641243
 20
94.8255473134
 30
0.0
 10
201.3902997669
 20
94.8276129574
 30
0.0
 10
201.3824300601
 20
94.8293361
 30
0.0
 10
201.3768451054
 20
94.8310824622
 30
0.0
 10
201.3768667041
 20
94.8323094664
 30
0.0
  0
SPLINE
  5
5B5
100
AcDbEntity
  8
0
100
AcDbSpline
 62
7
  6
CONTINUOUS
 70
0
 71
3
 72
18
 73
14
 74
0
 42
0.0000001
 43
0.0000001
 44
0.0000000001
 40
0.0
 40
0.0
 40
0.0
 40
0.0
 40
0.1945885329
 40
0.3824831386
 40
0.5553439221
 40
0.7067332261
 40
0.8309633503
 40
0.8814416816
 40
0.9234433373
 40
0.9564910535
 40
0.9803510952
 40
0.9948644169
 40
1.0
 40
1.0
 40
1.0
 40
1.0
 10
38.3957093413
 20
163.9370371973
 30
0.0
 10
38.4605809066
 20
163.9381691898
 30
0.0
 10
38.588097195
 20
163.940175589
 30
0.0
 10
38.7732477111
 20
163.9424512277
 30
0.0
 10
38.9440177244
 20
163.9438793246
 30
0.0
 10
39.0935186043
 20
163.9443953313
 30
0.0
 10
39.2023356993
 20
163.944126922
 30
0.0
 10
39.2744528262
 20
163.9432666515
 30
0.0
 10
39.3165965137
 20
163.9426219296
 30
0.0
 10
39.3487858738
 20
163.9413092474
 30
0.0
 10
39.3743578359
 20
163.9409498463
 30
0.0
 10
39.3856292079
 20
163.9383678645
 30
0.0
 10
39.3955271518
 20
163.9387492884
 30
0.0
 10
39.3955570365
 20
163.9370371973
 30
0.0
  0
SPLINE
  5
5B6
100
AcDbEntity
  8
0
100
AcDbSpline
 62
7
  6
CONTINUOUS
 70
0
 71
3
 72
18
 73
14
 74
0
 42
0.0000001
 43
0.0000001
 44
0.0000000001
 40
0.0
 40
0.0
 40
0.0
 40
0.0
 40
0.0051355831
 40
0.0196489048
 40
0.0435089464
 40
0.0765566626
 40
0.1185583184
 40
0.1690366497
 40
0.2932667738
 40
0.4446560778
 40
0.6175168614
 40
0.8054114671
 40
1.0
 40
1.0
 40
1.0
 40
1.0
 10
26.5008966917
 20
163.9370371973
 30
0.0
 10
26.5009265764
 20
163.9387492884
 30
0.0
 10
26.5108245203
 20
163.9383678645
 30
0.0
 10
26.5220958923
 20
163.9409498463
 30
0.0
 10
26.5476678543
 20
163.9413092474
 30
0.0
 10
26.5798572144
 20
163.9426219296
 30
0.0
 10
26.6220009019
 20
163.9432666515
 30
0.0
 10
26.6941180288
 20
163.944126922
 30
0.0
 10
26.8029351238
 20
163.9443953313
 30
0.0
 10
26.9524360037
 20
163.9438793246
 30
0.0
 10
27.123206017
 20
163.9424512277
 30
0.0
 10
27.3083565331
 20
163.940175589
 30
0.0
 10
27.4358728216
 20
163.9381691898
 30
0.0
 10
27.5007443869
 20
163.9370371973
 30
0.0
  0
SPLINE
  5
5B7
100
AcDbEntity
  8
0
100
AcDbSpline
 62
7
  6
CONTINUOUS
 70
0
 71
3
 72
11
 73
7
 74
0
 42
0.0000001
 43
0.0000001
 44
0.0000000001
 40
0.0
 40
0.0
 40
0.0
 40
0.0
 40
0.2098750677
 40
0.4448948989
 40
0.711854304
 40
1.0
 40
1.0
 40
1.0
 40
1.0
 10
182.351149089
 20
157.2299251004
 30
0.0
 10
182.349568864
 20
157.2759887399
 30
0.0
 10
182.3168275097
 20
157.373787164
 30
0.0
 10
182.1998275456
 20
157.4840828303
 30
0.0
 10
182.0376591089
 20
157.5530952805
 30
0.0
 10
181.9147234718
 20
157.567155227
 30
0.0
 10
181.8514536755
 20
157.5660314003
 30
0.0
  0
SPLINE
  5
5B8
100
AcDbEntity
  8
0
100
AcDbSpline
 62
7
  6
CONTINUOUS
 70
0
 71
3
 72
21
 73
17
 74
0
 42
0.0000001
 43
0.0000001
 44
0.0000000001
 40
0.0
 40
0.0
 40
0.0
 40
0.0
 40
0.1947775348
 40
0.3824488323
 40
0.5551729042
 40
0.7065553045
 40
0.7724403122
 40
0.8308838219
 40
0.8813076013
 40
0.9232782278
 40
0.9563756221
 40
0.980257073
 40
0.9886921685
 40
0.9947739057
 40
0.9985057098
 40
1.0
 40
1.0
 40
1.0
 40
1.0
 10
203.878406594
 20
94.8759610855
 30
0.0
 10
204.0409302612
 20
94.8759610855
 30
0.0
 10
204.3600483166
 20
94.8754174868
 30
0.0
 10
204.8232833102
 20
94.8730215448
 30
0.0
 10
205.2502968571
 20
94.8691287262
 30
0.0
 10
205.5756806754
 20
94.8646155196
 30
0.0
 10
205.8056917788
 20
94.8602383297
 30
0.0
 10
205.9514743265
 20
94.8568558374
 30
0.0
 10
206.077263356
 20
94.8532532727
 30
0.0
 10
206.1819659627
 20
94.8494936386
 30
0.0
 10
206.2642910592
 20
94.8456202736
 30
0.0
 10
206.3190802588
 20
94.8421076853
 30
0.0
 10
206.3505546757
 20
94.8390588613
 30
0.0
 10
206.3663595006
 20
94.8370209376
 30
0.0
 10
206.3743261359
 20
94.8352453467
 30
0.0
 10
206.3799245593
 20
94.8335561189
 30
0.0
 10
206.3799465038
 20
94.8323094664
 30
0.0
  0
SPLINE
  5
5B9
100
AcDbEntity
  8
0
100
AcDbSpline
 62
7
  6
CONTINUOUS
 70
0
 71
3
 72
21
 73
17
 74
0
 42
0.0000001
 43
0.0000001
 44
0.0000000001
 40
0.0
 40
0.0
 40
0.0
 40
0.0
 40
0.0021947449
 40
0.0066523887
 40
0.0134164891
 40
0.0224845084
 40
0.0474824914
 40
0.0814464473
 40
0.1240320116
 40
0.1748701418
 40
0.2334757988
 40
0.2992891047
 40
0.4500511297
 40
0.6214304999
 40
0.8071631014
 40
1.0
 40
1.0
 40
1.0
 40
1.0
 10
198.3098022414
 20
94.8509804279
 30
0.0
 10
198.3118721735
 20
94.85305036
 30
0.0
 10
198.3211522767
 20
94.8550914638
 30
0.0
 10
198.3382488767
 20
94.8585093493
 30
0.0
 10
198.3654014273
 20
94.8615073511
 30
0.0
 10
198.4194959167
 20
94.8664487508
 30
0.0
 10
198.5101870186
 20
94.8718992949
 30
0.0
 10
198.6454405768
 20
94.8780622527
 30
0.0
 10
198.8152679412
 20
94.8839702299
 30
0.0
 10
199.0179580159
 20
94.8896334897
 30
0.0
 10
199.2516566682
 20
94.8949475145
 30
0.0
 10
199.61862553
 20
94.9018151402
 30
0.0
 10
200.1360305647
 20
94.9088801894
 30
0.0
 10
200.8134012144
 20
94.9149822608
 30
0.0
 10
201.5469089016
 20
94.9187391398
 30
0.0
 10
202.0518410341
 20
94.9195847909
 30
0.0
 10
202.3090447195
 20
94.9195847909
 30
0.0
  0
SPLINE
  5
5BA
100
AcDbEntity
  8
0
100
AcDbSpline
 62
7
  6
CONTINUOUS
 70
0
 71
3
 72
11
 73
7
 74
0
 42
0.0000001
 43
0.0000001
 44
0.0000000001
 40
0.0
 40
0.0
 40
0.0
 40
0.0
 40
0.2881571239
 40
0.5551167342
 40
0.790129329
 40
1.0
 40
1.0
 40
1.0
 40
1.0
 10
174.9053595333
 20
157.5660314003
 30
0.0
 10
174.8420872207
 20
157.5671552717
 30
0.0
 10
174.7191489662
 20
157.5530939488
 30
0.0
 10
174.5569803401
 20
157.484079302
 30
0.0
 10
174.4399838357
 20
157.3737837752
 30
0.0
 10
174.4072443118
 20
157.27598778
 30
0.0
 10
174.4056641198
 20
157.2299251004
 30
0.0
  0
SPLINE
  5
5BB
100
AcDbEntity
  8
0
100
AcDbSpline
 62
7
  6
CONTINUOUS
 70
0
 71
3
 72
21
 73
17
 74
0
 42
0.0000001
 43
0.0000001
 44
0.0000000001
 40
0.0
 40
0.0
 40
0.0
 40
0.0
 40
0.194783344
 40
0.3824573197
 40
0.5551808889
 40
0.7065615286
 40
0.7724454971
 40
0.8308878895
 40
0.8813105744
 40
0.9232801997
 40
0.9563767383
 40
0.9802575541
 40
0.9886924265
 40
0.9947740058
 40
0.9985057203
 40
1.0
 40
1.0
 40
1.0
 40
1.0
 10
46.8786442968
 20
94.87596042
 30
0.0
 10
47.0411573785
 20
94.87596042
 30
0.0
 10
47.3602522139
 20
94.8754166913
 30
0.0
 10
47.8234498807
 20
94.8730203891
 30
0.0
 10
48.2504232214
 20
94.869127261
 30
0.0
 10
48.5757733807
 20
94.8646139909
 30
0.0
 10
48.8057593691
 20
94.8602368933
 30
0.0
 10
48.9515253558
 20
94.8568545112
 30
0.0
 10
49.0772997555
 20
94.853252096
 30
0.0
 10
49.1819899449
 20
94.8494926396
 30
0.0
 10
49.2643051493
 20
94.8456194856
 30
0.0
 10
49.3190876755
 20
94.8421070799
 30
0.0
 10
49.350558283
 20
94.8390584593
 30
0.0
 10
49.3663611343
 20
94.8370206214
 30
0.0
 10
49.3743269018
 20
94.8352452023
 30
0.0
 10
49.3799245615
 20
94.8335559917
 30
0.0
 10
49.3799465038
 20
94.8323094664
 30
0.0
  0
SPLINE
  5
5BC
100
AcDbEntity
  8
0
100
AcDbSpline
 62
7
  6
CONTINUOUS
 70
0
 71
3
 72
11
 73
7
 74
0
 42
0.0000001
 43
0.0000001
 44
0.0000000001
 40
0.0
 40
0.0
 40
0.0
 40
0.0
 40
0.209870671
 40
0.4448832658
 40
0.7118428761
 40
1.0
 40
1.0
 40
1.0
 40
1.0
 10
76.351149089
 20
157.2299251004
 30
0.0
 10
76.3495688969
 20
157.27598778
 30
0.0
 10
76.3168293731
 20
157.3737837752
 30
0.0
 10
76.1998328687
 20
157.484079302
 30
0.0
 10
76.0376642426
 20
157.5530939488
 30
0.0
 10
75.914725988
 20
157.5671552717
 30
0.0
 10
75.8514536755
 20
157.5660314003
 30
0.0
  0
SPLINE
  5
5BD
100
AcDbEntity
  8
0
100
AcDbSpline
 62
7
  6
CONTINUOUS
 70
0
 71
3
 72
11
 73
7
 74
0
 42
0.0000001
 43
0.0000001
 44
0.0000000001
 40
0.0
 40
0.0
 40
0.0
 40
0.0
 40
0.2881571239
 40
0.5551167342
 40
0.790129329
 40
1.0
 40
1.0
 40
1.0
 40
1.0
 10
68.9053595333
 20
157.5660314003
 30
0.0
 10
68.8420872207
 20
157.5671552717
 30
0.0
 10
68.7191489662
 20
157.5530939488
 30
0.0
 10
68.5569803401
 20
157.484079302
 30
0.0
 10
68.4399838357
 20
157.3737837752
 30
0.0
 10
68.4072443118
 20
157.27598778
 30
0.0
 10
68.4056641198
 20
157.2299251004
 30
0.0
  0
SPLINE
  5
5BE
100
AcDbEntity
  8
0
100
AcDbSpline
 62
7
  6
CONTINUOUS
 70
0
 71
3
 72
11
 73
7
 74
0
 42
0.0000001
 43
0.0000001
 44
0.0000000001
 40
0.0
 40
0.0
 40
0.0
 40
0.0
 40
0.209870671
 40
0.4448832658
 40
0.7118428761
 40
1.0
 40
1.0
 40
1.0
 40
1.0
 10
68.4840713727
 20
159.4370318816
 30
0.0
 10
68.4856515647
 20
159.4830945612
 30
0.0
 10
68.5183910885
 20
159.5808905564
 30
0.0
 10
68.635387593
 20
159.6911860832
 30
0.0
 10
68.797556219
 20
159.76020073
 30
0.0
 10
68.9204944736
 20
159.7742620528
 30
0.0
 10
68.9837667862
 20
159.7731381815
 30
0.0
  0
SPLINE
  5
5BF
100
AcDbEntity
  8
0
100
AcDbSpline
 62
7
  6
CONTINUOUS
 70
0
 71
3
 72
11
 73
7
 74
0
 42
0.0000001
 43
0.0000001
 44
0.0000000001
 40
0.0
 40
0.0
 40
0.0
 40
0.0
 40
0.209870671
 40
0.4448832658
 40
0.7118428761
 40
1.0
 40
1.0
 40
1.0
 40
1.0
 10
174.4840713727
 20
159.4370318816
 30
0.0
 10
174.4856515647
 20
159.4830945612
 30
0.0
 10
174.5183910885
 20
159.5808905564
 30
0.0
 10
174.635387593
 20
159.6911860832
 30
0.0
 10
174.797556219
 20
159.76020073
 30
0.0
 10
174.9204944736
 20
159.7742620529
 30
0.0
 10
174.9837667862
 20
159.7731381815
 30
0.0
  0
SPLINE
  5
5C0
100
AcDbEntity
  8
0
100
AcDbSpline
 62
7
  6
CONTINUOUS
 70
0
 71
3
 72
11
 73
7
 74
0
 42
0.0000001
 43
0.0000001
 44
0.0000000001
 40
0.0
 40
0.0
 40
0.0
 40
0.0
 40
0.2881571239
 40
0.5551167342
 40
0.790129329
 40
1.0
 40
1.0
 40
1.0
 40
1.0
 10
181.7730464226
 20
159.7731381815
 30
0.0
 10
181.8363187352
 20
159.7742620529
 30
0.0
 10
181.9592569897
 20
159.76020073
 30
0.0
 10
182.1214256158
 20
159.6911860832
 30
0.0
 10
182.2384221202
 20
159.5808905564
 30
0.0
 10
182.2711616441
 20
159.4830945612
 30
0.0
 10
182.2727418361
 20
159.4370318816
 30
0.0
  0
SPLINE
  5
5C1
100
AcDbEntity
  8
0
100
AcDbSpline
 62
7
  6
CONTINUOUS
 70
0
 71
3
 72
21
 73
17
 74
0
 42
0.0000001
 43
0.0000001
 44
0.0000000001
 40
0.0
 40
0.0
 40
0.0
 40
0.0
 40
0.1928368986
 40
0.3785694999
 40
0.5499488707
 40
0.7007108963
 40
0.7665242024
 40
0.8251298595
 40
0.8759679897
 40
0.9185535538
 40
0.9525175095
 40
0.9775154922
 40
0.9865835113
 40
0.9933476114
 40
0.9978052551
 40
1.0
 40
1.0
 40
1.0
 40
1.0
 10
48.4477684997
 20
94.9195847909
 30
0.0
 10
48.7049721843
 20
94.9195847909
 30
0.0
 10
49.2099043152
 20
94.9187391398
 30
0.0
 10
49.9434120011
 20
94.9149822607
 30
0.0
 10
50.6207826505
 20
94.9088801893
 30
0.0
 10
51.1381876858
 20
94.9018151401
 30
0.0
 10
51.5051565478
 20
94.8949475143
 30
0.0
 10
51.7388551998
 20
94.8896334895
 30
0.0
 10
51.9415452739
 20
94.8839702297
 30
0.0
 10
52.1113726375
 20
94.8780622525
 30
0.0
 10
52.2466261944
 20
94.8718992947
 30
0.0
 10
52.3373172951
 20
94.8664487506
 30
0.0
 10
52.3914117834
 20
94.8615073509
 30
0.0
 10
52.4185643332
 20
94.8585093491
 30
0.0
 10
52.4356609327
 20
94.8550914637
 30
0.0
 10
52.4449410355
 20
94.8530503598
 30
0.0
 10
52.4470109676
 20
94.8509804277
 30
0.0
  0
SPLINE
  5
5C2
100
AcDbEntity
  8
0
100
AcDbSpline
 62
7
  6
CONTINUOUS
 70
0
 71
3
 72
13
 73
9
 74
0
 42
0.0000001
 43
0.0000001
 44
0.0000000001
 40
0.0
 40
0.0
 40
0.0
 40
0.0
 40
0.0231887285
 40
0.0761674898
 40
0.1589513878
 40
0.2712147144
 40
0.5817350204
 40
1.0
 40
1.0
 40
1.0
 40
1.0
 10
40.4066414498
 20
94.9453193465
 30
0.0
 10
40.4082623643
 20
94.943697691
 30
0.0
 10
40.416575662
 20
94.943130782
 30
0.0
 10
40.4314546921
 20
94.9405935845
 30
0.0
 10
40.4562925189
 20
94.9391081652
 30
0.0
 10
40.5059837043
 20
94.9360583273
 30
0.0
 10
40.5892526989
 20
94.9331125933
 30
0.0
 10
40.6612309856
 20
94.9311200011
 30
0.0
 10
40.7025765861
 20
94.9301493787
 30
0.0
  0
SPLINE
  5
5C3
100
AcDbEntity
  8
0
100
AcDbSpline
 62
7
  6
CONTINUOUS
 70
0
 71
3
 72
9
 73
5
 74
0
 42
0.0000001
 43
0.0000001
 44
0.0000000001
 40
0.0
 40
0.0
 40
0.0
 40
0.0
 40
0.1985885728
 40
1.0
 40
1.0
 40
1.0
 40
1.0
 10
40.7025765861
 20
94.9301493787
 30
0.0
 10
40.7822477715
 20
94.9282790311
 30
0.0
 10
41.1834903771
 20
94.9213212867
 30
0.0
 10
41.584804588
 20
94.9195847909
 30
0.0
 10
41.9064091462
 20
94.9195847909
 30
0.0
  0
SPLINE
  5
5C4
100
AcDbEntity
  8
0
100
AcDbSpline
 62
7
  6
CONTINUOUS
 70
0
 71
3
 72
12
 73
8
 74
0
 42
0.0000001
 43
0.0000001
 44
0.0000000001
 40
0.0
 40
0.0
 40
0.0
 40
0.0
 40
0.2495382682
 40
0.4993351886
 40
0.6245119739
 40
0.7497550462
 40
1.0
 40
1.0
 40
1.0
 40
1.0
 10
40.3780316261
 20
159.4283301002
 30
0.0
 10
40.1659106771
 20
159.427906474
 30
0.0
 10
39.7377002325
 20
159.5151356497
 30
0.0
 10
39.280621746
 20
159.8038131042
 30
0.0
 10
38.9802041009
 20
160.1063306858
 30
0.0
 10
38.7196674132
 20
160.4434344014
 30
0.0
 10
38.5473322413
 20
160.7136746616
 30
0.0
 10
38.448690674
 20
160.9021435728
 30
0.0
  0
SPLINE
  5
5C5
100
AcDbEntity
  8
0
100
AcDbSpline
 62
7
  6
CONTINUOUS
 70
0
 71
3
 72
18
 73
14
 74
0
 42
0.0000001
 43
0.0000001
 44
0.0000000001
 40
0.0
 40
0.0
 40
0.0
 40
0.0
 40
0.1949900492
 40
0.3825190108
 40
0.5555419985
 40
0.7070148538
 40
0.8305690752
 40
0.880687709
 40
0.922535441
 40
0.9557400994
 40
0.9799334959
 40
0.9947620681
 40
1.0
 40
1.0
 40
1.0
 40
1.0
 10
38.4486834873
 20
160.9021323518
 30
0.0
 10
38.5136862114
 20
160.9009987161
 30
0.0
 10
38.6412093218
 20
160.8990001227
 30
0.0
 10
38.8264182461
 20
160.8967436134
 30
0.0
 10
38.9971414979
 20
160.895305457
 30
0.0
 10
39.1464913093
 20
160.8947677537
 30
0.0
 10
39.2549893581
 20
160.8950488392
 30
0.0
 10
39.32670245
 20
160.8959241711
 30
0.0
 10
39.3687359861
 20
160.8965742607
 30
0.0
 10
39.4009995842
 20
160.8978883086
 30
0.0
 10
39.4269460432
 20
160.898211315
 30
0.0
 10
39.4382498783
 20
160.9008392722
 30
0.0
 10
39.4485317164
 20
160.9003862812
 30
0.0
 10
39.448497318
 20
160.9021323474
 30
0.0
  0
SPLINE
  5
5C6
100
AcDbEntity
  8
0
100
AcDbSpline
 62
7
  6
CONTINUOUS
 70
0
 71
3
 72
11
 73
7
 74
0
 42
0.0000001
 43
0.0000001
 44
0.0000000001
 40
0.0
 40
0.0
 40
0.0
 40
0.0
 40
0.297074557
 40
0.5547563346
 40
0.7840807652
 40
1.0
 40
1.0
 40
1.0
 40
1.0
 10
38.4486803732
 20
160.9021174413
 30
0.0
 10
38.6363641403
 20
160.7935275973
 30
0.0
 10
38.9870519438
 20
160.5896624104
 30
0.0
 10
39.4495855758
 20
160.2531296493
 30
0.0
 10
39.8932533373
 20
159.9890797645
 30
0.0
 10
40.2204420745
 20
159.9196362265
 30
0.0
 10
40.3780409459
 20
159.9196257099
 30
0.0
  0
SPLINE
  5
5C7
100
AcDbEntity
  8
0
100
AcDbSpline
 62
7
  6
CONTINUOUS
 70
0
 71
3
 72
21
 73
17
 74
0
 42
0.0000001
 43
0.0000001
 44
0.0000000001
 40
0.0
 40
0.0
 40
0.0
 40
0.0
 40
0.0014942902
 40
0.0052260943
 40
0.0113078314
 40
0.0197429269
 40
0.0436243778
 40
0.0767217721
 40
0.1186923984
 40
0.1691161777
 40
0.2275596873
 40
0.2934446949
 40
0.444827095
 40
0.6175511669
 40
0.8052224647
 40
1.0
 40
1.0
 40
1.0
 40
1.0
 10
201.3768667041
 20
94.8323094664
 30
0.0
 10
201.3768886487
 20
94.8335561189
 30
0.0
 10
201.382487072
 20
94.8352453467
 30
0.0
 10
201.3904537072
 20
94.8370209376
 30
0.0
 10
201.4062585319
 20
94.8390588613
 30
0.0
 10
201.4377329485
 20
94.8421076852
 30
0.0
 10
201.4925221475
 20
94.8456202735
 30
0.0
 10
201.5748472431
 20
94.8494936385
 30
0.0
 10
201.6795498488
 20
94.8532532726
 30
0.0
 10
201.805338877
 20
94.8568558373
 30
0.0
 10
201.9511214233
 20
94.8602383296
 30
0.0
 10
202.1811325245
 20
94.8646155195
 30
0.0
 10
202.50651634
 20
94.8691287261
 30
0.0
 10
202.9335298836
 20
94.8730215447
 30
0.0
 10
203.3967648741
 20
94.8754174868
 30
0.0
 10
203.7158829277
 20
94.8759610855
 30
0.0
 10
203.878406594
 20
94.8759610855
 30
0.0
  0
SPLINE
  5
5C8
100
AcDbEntity
  8
0
100
AcDbSpline
 62
7
  6
CONTINUOUS
 70
0
 71
3
 72
11
 73
7
 74
0
 42
0.0000001
 43
0.0000001
 44
0.0000000001
 40
0.0
 40
0.0
 40
0.0
 40
0.0
 40
0.2881571239
 40
0.5551167342
 40
0.790129329
 40
1.0
 40
1.0
 40
1.0
 40
1.0
 10
75.7730464226
 20
159.7731381815
 30
0.0
 10
75.8363187352
 20
159.7742620529
 30
0.0
 10
75.9592569897
 20
159.76020073
 30
0.0
 10
76.1214256158
 20
159.6911860832
 30
0.0
 10
76.2384221202
 20
159.5808905564
 30
0.0
 10
76.2711616441
 20
159.4830945612
 30
0.0
 10
76.2727418361
 20
159.4370318816
 30
0.0
  0
SPLINE
  5
5C9
100
AcDbEntity
  8
0
100
AcDbSpline
 62
7
  6
CONTINUOUS
 70
0
 71
3
 72
17
 73
13
 74
0
 42
0.0000001
 43
0.0000001
 44
0.0000000001
 40
0.0
 40
0.0
 40
0.0
 40
0.0
 40
0.195071868
 40
0.382470566
 40
0.5551972024
 40
0.7062593847
 40
0.8293547279
 40
0.9209033492
 40
0.9539730676
 40
0.978149978
 40
0.9932542846
 40
1.0
 40
1.0
 40
1.0
 40
1.0
 10
208.9569121482
 20
207.9760363717
 30
0.0
 10
208.9619884749
 20
208.0736545437
 30
0.0
 10
208.9709372945
 20
208.2651029838
 30
0.0
 10
208.9810520057
 20
208.5431396157
 30
0.0
 10
208.9874742018
 20
208.7991962599
 30
0.0
 10
208.9899418701
 20
209.0231986963
 30
0.0
 10
208.9883624093
 20
209.2062612929
 30
0.0
 10
208.9833325901
 20
209.3307630108
 30
0.0
 10
208.9772641917
 20
209.4044863479
 30
0.0
 10
208.9714469303
 20
209.4413960223
 30
0.0
 10
208.9673870649
 20
209.4619945915
 30
0.0
 10
208.9602854787
 20
209.4741500482
 30
0.0
 10
208.956911423
 20
209.4739452934
 30
0.0
  0
SPLINE
  5
5CA
100
AcDbEntity
  8
0
100
AcDbSpline
 62
7
  6
CONTINUOUS
 70
0
 71
3
 72
17
 73
13
 74
0
 42
0.0000001
 43
0.0000001
 44
0.0000000001
 40
0.0
 40
0.0
 40
0.0
 40
0.0
 40
0.0070038052
 40
0.022194606
 40
0.0463959637
 40
0.0796194827
 40
0.1719201303
 40
0.2958703513
 40
0.4467010232
 40
0.6187968065
 40
0.8058405346
 40
1.0
 40
1.0
 40
1.0
 40
1.0
 10
48.5877504313
 20
225.118244663
 30
0.0
 10
48.5912549596
 20
225.1180609982
 30
0.0
 10
48.5979210866
 20
225.1059514574
 30
0.0
 10
48.6024867209
 20
225.0849838031
 30
0.0
 10
48.6081406959
 20
225.0480618585
 30
0.0
 10
48.6143515898
 20
224.9738131292
 30
0.0
 10
48.619209499
 20
224.8484780763
 30
0.0
 10
48.6207549714
 20
224.6647195767
 30
0.0
 10
48.6183939399
 20
224.4407442527
 30
0.0
 10
48.6120121456
 20
224.1853117777
 30
0.0
 10
48.6018269468
 20
223.9082501661
 30
0.0
 10
48.5928280711
 20
223.7174536113
 30
0.0
 10
48.5877504311
 20
223.6203003608
 30
0.0
  0
SPLINE
  5
5CB
100
AcDbEntity
  8
0
100
AcDbSpline
 62
7
  6
CONTINUOUS
 70
0
 71
3
 72
17
 73
13
 74
0
 42
0.0000001
 43
0.0000001
 44
0.0000000001
 40
0.0
 40
0.0
 40
0.0
 40
0.0
 40
0.0067457378
 40
0.0218500565
 40
0.0460269688
 40
0.0790966835
 40
0.1706453019
 40
0.2937406811
 40
0.4448029566
 40
0.6175296738
 40
0.8049283493
 40
1.0
 40
1.0
 40
1.0
 40
1.0
 10
41.799901781
 20
225.4739453177
 30
0.0
 10
41.7965277126
 20
225.4741500491
 30
0.0
 10
41.7894261509
 20
225.4619945867
 30
0.0
 10
41.7853662516
 20
225.4413959882
 30
0.0
 10
41.7795490031
 20
225.4044863155
 30
0.0
 10
41.7734805957
 20
225.3307629756
 30
0.0
 10
41.7684507886
 20
225.2062612442
 30
0.0
 10
41.7668713356
 20
225.0231985808
 30
0.0
 10
41.7693390149
 20
224.7991960371
 30
0.0
 10
41.7757612152
 20
224.543139314
 30
0.0
 10
41.7858759219
 20
224.2651027583
 30
0.0
 10
41.7948247351
 20
224.073654436
 30
0.0
 10
41.7999010577
 20
223.9760363716
 30
0.0
  0
SPLINE
  5
5CC
100
AcDbEntity
  8
0
100
AcDbSpline
 62
7
  6
CONTINUOUS
 70
0
 71
3
 72
15
 73
11
 74
0
 42
0.0000001
 43
0.0000001
 44
0.0000000001
 40
0.0
 40
0.0
 40
0.0
 40
0.0
 40
0.1250304744
 40
0.2500486613
 40
0.3750242548
 40
0.5000087383
 40
0.6249918452
 40
0.7499648074
 40
0.8749766207
 40
1.0
 40
1.0
 40
1.0
 40
1.0
 10
141.1773802132
 20
233.8343106325
 30
0.0
 10
140.9764127334
 20
233.8311920486
 30
0.0
 10
140.5699420501
 20
233.7551697616
 30
0.0
 10
140.0569961889
 20
233.4088161287
 30
0.0
 10
139.7132840019
 20
232.8950613762
 30
0.0
 10
139.5929497916
 20
232.2883755498
 30
0.0
 10
139.713334751
 20
231.6817175502
 30
0.0
 10
140.0570476337
 20
231.1679598818
 30
0.0
 10
140.570015699
 20
230.8217568418
 30
0.0
 10
140.9764535154
 20
230.7455586428
 30
0.0
 10
141.1774113747
 20
230.7425573895
 30
0.0
  0
SPLINE
  5
5CD
100
AcDbEntity
  8
0
100
AcDbSpline
 62
7
  6
CONTINUOUS
 70
0
 71
3
 72
15
 73
11
 74
0
 42
0.0000001
 43
0.0000001
 44
0.0000000001
 40
0.0
 40
0.0
 40
0.0
 40
0.0
 40
0.125028217
 40
0.2500454471
 40
0.3750222038
 40
0.5000085311
 40
0.6249927957
 40
0.7499670827
 40
0.8749785456
 40
1.0
 40
1.0
 40
1.0
 40
1.0
 10
145.6793840861
 20
230.7425573893
 30
0.0
 10
145.8803554567
 20
230.7455805526
 30
0.0
 10
146.2868298331
 20
230.8217539314
 30
0.0
 10
146.7997860758
 20
231.168056496
 30
0.0
 10
147.1435381806
 20
231.6818229161
 30
0.0
 10
147.2639015059
 20
232.2885317317
 30
0.0
 10
147.1434587409
 20
232.895215908
 30
0.0
 10
146.7996478555
 20
233.4089361477
 30
0.0
 10
146.2866897624
 20
233.7551236662
 30
0.0
 10
145.8802291132
 20
233.831417103
 30
0.0
 10
145.679266707
 20
233.8343106319
 30
0.0
  0
SPLINE
  5
5CE
100
AcDbEntity
  8
0
100
AcDbSpline
 62
7
  6
CONTINUOUS
 70
0
 71
3
 72
15
 73
11
 74
0
 42
0.0000001
 43
0.0000001
 44
0.0000000001
 40
0.0
 40
0.0
 40
0.0
 40
0.0
 40
0.1251918212
 40
0.2497646357
 40
0.3747191425
 40
0.4997783109
 40
0.6248190042
 40
0.7498197237
 40
0.8746123843
 40
1.0
 40
1.0
 40
1.0
 40
1.0
 10
141.1784064926
 20
233.5350385577
 30
0.0
 10
141.0160783525
 20
233.5350426848
 30
0.0
 10
140.6892890259
 20
233.4685251483
 30
0.0
 10
140.2736283613
 20
233.1937356731
 30
0.0
 10
140.0001284541
 20
232.7773478742
 30
0.0
 10
139.8978734725
 20
232.2889137185
 30
0.0
 10
139.9991824589
 20
231.8001710857
 30
0.0
 10
140.2725413617
 20
231.3832331028
 30
0.0
 10
140.6885241413
 20
231.1078601768
 30
0.0
 10
141.0158245914
 20
231.0408975905
 30
0.0
 10
141.1784066045
 20
231.0409169399
 30
0.0
  0
SPLINE
  5
5CF
100
AcDbEntity
  8
0
100
AcDbSpline
 62
7
  6
CONTINUOUS
 70
0
 71
3
 72
15
 73
11
 74
0
 42
0.0000001
 43
0.0000001
 44
0.0000000001
 40
0.0
 40
0.0
 40
0.0
 40
0.0
 40
0.1252408733
 40
0.2498733216
 40
0.3748762249
 40
0.4999642306
 40
0.6250115403
 40
0.7499891163
 40
0.8746936312
 40
1.0
 40
1.0
 40
1.0
 40
1.0
 10
145.6784067118
 20
231.040918773
 30
0.0
 10
145.8407909829
 20
231.0409206783
 30
0.0
 10
146.1677018573
 20
231.1075362983
 30
0.0
 10
146.583444399
 20
231.3825492105
 30
0.0
 10
146.8568640427
 20
231.7991882404
 30
0.0
 10
146.9588840807
 20
232.2877776241
 30
0.0
 10
146.8571994423
 20
232.7764384843
 30
0.0
 10
146.5837375027
 20
233.1930802034
 30
0.0
 10
146.1679570065
 20
233.4682457997
 30
0.0
 10
145.8408757945
 20
233.5350562343
 30
0.0
 10
145.6784066049
 20
233.5350345896
 30
0.0
  0
SPLINE
  5
5D0
100
AcDbEntity
  8
0
100
AcDbSpline
 62
7
  6
CONTINUOUS
 70
0
 71
3
 72
17
 73
13
 74
0
 42
0.0000001
 43
0.0000001
 44
0.0000000001
 40
0.0
 40
0.0
 40
0.0
 40
0.0
 40
0.1941299975
 40
0.3810772719
 40
0.5531085446
 40
0.7039565391
 40
0.82795285
 40
0.9203276833
 40
0.9535754716
 40
0.9777917174
 40
0.9929930673
 40
1.0
 40
1.0
 40
1.0
 40
1.0
 10
202.1690627867
 20
207.6203003613
 30
0.0
 10
202.1639859243
 20
207.7174387349
 30
0.0
 10
202.1549886376
 20
207.9081719385
 30
0.0
 10
202.1448071162
 20
208.1851378316
 30
0.0
 10
202.13842416
 20
208.4404978863
 30
0.0
 10
202.1360585093
 20
208.6644724302
 30
0.0
 10
202.1376001594
 20
208.8482992242
 30
0.0
 10
202.1424539795
 20
208.9737077788
 30
0.0
 10
202.1486684662
 20
209.04801175
 30
0.0
 10
202.1543251984
 20
209.0849606659
 30
0.0
 10
202.1588921731
 20
209.1059383149
 30
0.0
 10
202.165556698
 20
209.118060917
 30
0.0
 10
202.1690627865
 20
209.1182446634
 30
0.0
  0
ELLIPSE
  5
5D1
100
AcDbEntity
  8
0
100
AcDbEllipse
 62
7
  6
CONTINUOUS
 10
141.8784066044
 20
233.3759471286
 30
0.0
 11
3.9441437922
 21
0.0
 31
0.0
 40
0.0174550649
 41
-1.150151816
 42
-0.7280707877
  0
ELLIPSE
  5
5D2
100
AcDbEntity
  8
0
100
AcDbEllipse
 62
7
  6
CONTINUOUS
 10
181.8781018322
 20
156.4492584013
 30
0.0
 11
0.5003047721
 21
-0.0000053174
 31
0.0
 40
0.0174444285
 41
0.0000001854
 42
1.5714055924
  0
ELLIPSE
  5
5D3
100
AcDbEntity
  8
0
100
AcDbEllipse
 62
7
  6
CONTINUOUS
 10
208.8749789798
 20
94.7363066092
 30
0.0
 11
1.5002285617
 21
0.0000079785
 31
0.0
 40
0.0174524048
 41
-1.5711010525
 42
-0.0003047257
  0
ELLIPSE
  5
5D4
100
AcDbEntity
  8
0
100
AcDbEllipse
 62
7
  6
CONTINUOUS
 10
208.8503160457
 20
94.9457673883
 30
0.0
 11
1.5000000696
 21
-0.0000001393
 31
0.0
 40
0.0174550641
 41
4.7123942994
 42
6.2657399922
  0
ELLIPSE
  5
5D5
100
AcDbEntity
  8
0
100
AcDbEllipse
 62
7
  6
CONTINUOUS
 10
68.8787113766
 20
156.4492584013
 30
0.0
 11
0.5003047721
 21
0.0000053174
 31
0.0
 40
0.0174444285
 41
1.5701870612
 42
3.1415924684
  0
ELLIPSE
  5
5D6
100
AcDbEntity
  8
0
100
AcDbEllipse
 62
7
  6
CONTINUOUS
 10
174.8787113765
 20
156.4492584013
 30
0.0
 11
0.5003047721
 21
0.0000053174
 31
0.0
 40
0.0174444285
 41
1.5701870612
 42
3.1415924681
  0
ELLIPSE
  5
5D7
100
AcDbEntity
  8
0
100
AcDbEllipse
 62
7
  6
CONTINUOUS
 10
75.8781018323
 20
156.4492584013
 30
0.0
 11
0.5003047721
 21
-0.0000053174
 31
0.0
 40
0.0174444285
 41
0.0000001854
 42
1.5714055926
  0
ELLIPSE
  5
5D8
100
AcDbEntity
  8
0
100
AcDbEllipse
 62
7
  6
CONTINUOUS
 10
41.881834229
 20
94.7363066092
 30
0.0
 11
1.5002285617
 21
-0.0000079785
 31
0.0
 40
0.0174524048
 41
-3.1412879279
 42
-1.5704916011
  0
ELLIPSE
  5
5D9
100
AcDbEntity
  8
0
100
AcDbEllipse
 62
7
  6
CONTINUOUS
 10
54.0619132782
 20
94.7363066092
 30
0.0
 11
1.5
 21
-0.0
 31
0.0
 40
0.0174550649
 41
-3.124139361
 42
-1.5707963268
  0
ENDSEC
  0
SECTION
  2
OBJECTS
  0
DICTIONARY
  5
C
100
AcDbDictionary
280
0
281
1
  3
ACAD_GROUP
350
D
  3
ACAD_MLINESTYLE
350
17
  3
ACAD_LAYOUT
350
1A
  3
ACAD_PLOTSETTINGS
350
19
  3
ACAD_PLOTSTYLENAME
350
E
  0
DICTIONARY
  5
D
102
{ACAD_REACTORS
330
C
102
}
100
AcDbDictionary
280
0
281
1
  0
ACDBDICTIONARYWDFLT
  5
E
102
{ACAD_REACTORS
330
C
102
}
100
AcDbDictionary
281
1
  3
Normal
350
F
100
AcDbDictionaryWithDefault
340
F
  0
DICTIONARY
  5
17
102
{ACAD_REACTORS
330
C
102
}
100
AcDbDictionary
280
0
281
1
  3
Standard
350
18
  0
DICTIONARY
  5
19
102
{ACAD_REACTORS
330
C
102
}
100
AcDbDictionary
281
1
  0
DICTIONARY
  5
1A
102
{ACAD_REACTORS
330
C
102
}
100
AcDbDictionary
281
1
  3
Model
350
5DA
  3
Layout1
350
5DB
  0
ACDBPLACEHOLDER
  5
F
102
{ACAD_REACTORS
330
E
102
}
  0
MLINESTYLE
  5
18
102
{ACAD_REACTORS
330
17
102
}
100
AcDbMlineStyle
  2
STANDARD
 70
0
  3

 62
256
 51
90.0
 52
90.0
 71
2
 49
0.5
 62
256
  6
BYLAYER
 49
-0.5
 62
256
  6
BYLAYER
  0
LAYOUT
  5
5DA
102
{ACAD_REACTORS
330
1A
102
}
100
AcDbPlotSettings
  1

  2
none_device
  4

  6

 40
0.0
 41
0.0
 42
0.0
 43
0.0
 44
210.0
 45
297.0
 46
0.0
 47
0.0
 48
0.0
 49
0.0
140
0.0
141
0.0
142
1.0
143
1.0
 70
1024
 72
1
 73
0
 74
0
  7

 75
0
147
1.0
148
0.0
149
0.0
100
AcDbLayout
  1
Model
 70
0
 71
0
 10
0.0
 20
0.0
 11
210.0
 21
297.0
 12
0.0
 22
0.0
 32
0.0
 14
0.0
 24
0.0
 34
0.0
 15
0.0
 25
0.0
 35
0.0
146
0.0
 13
0.0
 23
0.0
 33
0.0
 16
1.0
 26
0.0
 36
0.0
 17
0.0
 27
1.0
 37
0.0
 76
0
330
210
345
0
346
0
  0
LAYOUT
  5
5DB
102
{ACAD_REACTORS
330
1A
102
}
100
AcDbPlotSettings
  1

  2
none_device
  4

  6

 40
0.0
 41
0.0
 42
0.0
 43
0.0
 44
210.0
 45
297.0
 46
0.0
 47
0.0
 48
0.0
 49
0.0
140
0.0
141
0.0
142
1.0
143
1.0
 70
0
 72
1
 73
0
 74
0
  7

 75
0
147
1.0
148
0.0
149
0.0
100
AcDbLayout
  1
Layout1
 70
0
 71
1
 10
0.0
 20
0.0
 11
210.0
 21
297.0
 12
0.0
 22
0.0
 32
0.0
 14
0.0
 24
0.0
 34
0.0
 15
0.0
 25
0.0
 35
0.0
146
0.0
 13
0.0
 23
0.0
 33
0.0
 16
1.0
 26
0.0
 36
0.0
 17
0.0
 27
1.0
 37
0.0
 76
0
330
211
345
0
346
0
  0
ENDSEC
  0
EOF
