999
DXF file: C:\Users\sesa63760\Dev\_Creo\CAD\MCADID0002330_3D-CAD\drw0001_6.dxf
999
Pro/ENGINEER 2019471 by Parametric Technology Corporation
  0
SECTION
  2
HEADER
  9
$ACADVER
  1
AC1024
  9
$DWGCODEPAGE
  3
ANSI_1252
  9
$EXTMAX
 10
54.5820928652
 20
77.1946741951
 30
0.0
  9
$EXTMIN
 10
0.0
 20
0.0
 30
0.0
  9
$LIMMIN
 10
0.0
 20
0.0
  9
$LIMMAX
 10
54.5820928652
 20
77.1946741951
  9
$VIEWCTR
 10
27.2910464326
 20
38.5973370976
  9
$VIEWSIZE
 40
77.1946741951
  9
$CLAYER
  8
0
  9
$LTSCALE
 40
5.0319491327
  9
$CELTYPE
  6
BYLAYER
  9
$DIMSCALE
 40
1.0
  9
$DIMASZ
 40
0.6497868198
  9
$DIMEXO
 40
1.0
  9
$DIMDLI
 40
3.4766194008
  9
$DIMEXE
 40
1.0
  9
$DIMCEN
 40
0.8234098581
  9
$DIMLFAC
 40
1.0
  9
$DIMBLK
  1
_FILLED
  9
$DIMALT
 70
0
  9
$DIMALTF
 40
0.0393700787
  9
$DIMTXT
 40
0.9097015478
  9
$DIMTOL
 70
1
  9
$DIMLIM
 70
0
  9
$DIMTFAC
 40
1.0
  9
$DIMTP
 40
0.01
  9
$DIMTM
 40
0.01
  9
$DIMGAP
 40
0.625
  9
$DIMDSEP
 70
46
  9
$AUNITS
 70
0
  9
$PDMODE
 70
3
  9
$PDSIZE
 40
0.3125
  9
$HANDSEED
  5
2BF
  9
$TILEMODE
 70
1
  9
$MEASUREMENT
 70
1
  9
$INSUNITS
 70
4
  0
ENDSEC
  0
SECTION
  2
CLASSES
  0
CLASS
  1
ACDBDICTIONARYWDFLT
  2
AcDbDictionaryWithDefault
  3
AutoCAD 2000
 90
0
 91
1
280
0
281
0
  0
CLASS
  1
ACDBPLACEHOLDER
  2
AcDbPlaceHolder
  3
AutoCAD 2000
 90
0
 91
1
280
0
281
0
  0
CLASS
  1
LAYOUT
  2
AcDbLayout
  3
AutoCAD 2000
 90
0
 91
0
280
0
281
0
  0
ENDSEC
  0
SECTION
  2
TABLES
  0
TABLE
  2
VPORT
  5
8
100
AcDbSymbolTable
 70
2
  0
VPORT
  5
1F4
100
AcDbSymbolTableRecord
100
AcDbViewportTableRecord
  2
*ACTIVE
 70
0
 10
0.0
 20
0.0
 11
1.0
 21
1.0
 12
27.2910464326
 22
38.5973370976
 13
0.0
 23
0.0
 14
1.0
 24
1.0
 15
0.0
 25
0.0
 16
0.0
 26
0.0
 36
1.0
 17
0.0
 27
0.0
 37
0.0
 40
77.1946741951
 41
0.7070707071
 42
50.0
 43
0.0
 44
0.0
 50
0.0
 51
0.0
 71
0
 72
100
 73
1
 74
1
 75
0
 76
0
 77
0
 78
0
  0
ENDTAB
  0
TABLE
  2
LTYPE
  5
5
100
AcDbSymbolTable
 70
6
  0
LTYPE
  5
14
100
AcDbSymbolTableRecord
100
AcDbLinetypeTableRecord
  2
BYBLOCK
 70
0
  3

 72
65
 73
0
 40
0.0
  0
LTYPE
  5
15
100
AcDbSymbolTableRecord
100
AcDbLinetypeTableRecord
  2
BYLAYER
 70
0
  3

 72
65
 73
0
 40
0.0
  0
LTYPE
  5
16
100
AcDbSymbolTableRecord
100
AcDbLinetypeTableRecord
  2
CONTINUOUS
 70
64
  3
Solid line
 72
65
 73
0
 40
0.0
  0
LTYPE
  5
1F5
100
AcDbSymbolTableRecord
100
AcDbLinetypeTableRecord
  2
CENTER
 70
64
  3
____ _ ____ _ ____ _ ____ _ ____ _ ____ _ ____
 72
65
 73
4
 40
0.6
 49
0.375
 74
0
 49
-0.075
 74
0
 49
0.075
 74
0
 49
-0.075
 74
0
  0
LTYPE
  5
1F6
100
AcDbSymbolTableRecord
100
AcDbLinetypeTableRecord
  2
HIDDEN
 70
64
  3
- - - - - - - - - - - - - - - - - - - -
 72
65
 73
2
 40
0.2
 49
0.1
 74
0
 49
-0.1
 74
0
  0
LTYPE
  5
1F7
100
AcDbSymbolTableRecord
100
AcDbLinetypeTableRecord
  2
PHANTOM
 70
64
  3
_____ _ _ _____ _ _ _____ _ _ _____
 72
65
 73
6
 40
0.8
 49
0.45
 74
0
 49
-0.05
 74
0
 49
0.1
 74
0
 49
-0.05
 74
0
 49
0.1
 74
0
 49
-0.05
 74
0
  0
LTYPE
  5
1F8
100
AcDbSymbolTableRecord
100
AcDbLinetypeTableRecord
  2
DOT
 70
64
  3
. . . . . . . . . . . . . . . . . . . .
 72
65
 73
2
 40
0.2
 49
0.1
 74
0
 49
-0.1
 74
0
  0
LTYPE
  5
1F9
100
AcDbSymbolTableRecord
100
AcDbLinetypeTableRecord
  2
DASHED
 70
64
  3
- - - - - - - - - - - - - - - - - - - -
 72
65
 73
2
 40
0.2
 49
0.1
 74
0
 49
-0.1
 74
0
  0
ENDTAB
  0
TABLE
  2
LAYER
  5
2
100
AcDbSymbolTable
 70
36
  0
LAYER
  5
10
100
AcDbSymbolTableRecord
100
AcDbLayerTableRecord
  2
0
 70
0
 62
7
  6
CONTINUOUS
370
-3
390
F
  0
LAYER
  5
1FA
100
AcDbSymbolTableRecord
100
AcDbLayerTableRecord
  2
DEFAULT_1
 70
0
 62
7
  6
CENTER
370
-3
390
F
  0
LAYER
  5
1FB
100
AcDbSymbolTableRecord
100
AcDbLayerTableRecord
  2
DEFAULT_2
 70
0
 62
8
  6
HIDDEN
370
-3
390
F
  0
LAYER
  5
1FC
100
AcDbSymbolTableRecord
100
AcDbLayerTableRecord
  2
DEFAULT_3
 70
0
 62
7
  6
PHANTOM
370
-3
390
F
  0
LAYER
  5
1FD
100
AcDbSymbolTableRecord
100
AcDbLayerTableRecord
  2
00_COMPONENTS
 70
0
 62
7
  6
CONTINUOUS
370
-3
390
F
  0
LAYER
  5
1FE
100
AcDbSymbolTableRecord
100
AcDbLayerTableRecord
  2
01_1_DEFAULT_DATUMS
 70
0
 62
7
  6
CONTINUOUS
370
-3
390
F
  0
LAYER
  5
1FF
100
AcDbSymbolTableRecord
100
AcDbLayerTableRecord
  2
01_PLANES
 70
0
 62
7
  6
CONTINUOUS
370
-3
390
F
  0
LAYER
  5
200
100
AcDbSymbolTableRecord
100
AcDbLayerTableRecord
  2
02_COORD_SYS
 70
0
 62
7
  6
CONTINUOUS
370
-3
390
F
  0
LAYER
  5
201
100
AcDbSymbolTableRecord
100
AcDbLayerTableRecord
  2
03_AXES
 70
0
 62
7
  6
CONTINUOUS
370
-3
390
F
  0
LAYER
  5
202
100
AcDbSymbolTableRecord
100
AcDbLayerTableRecord
  2
04_POINTS
 70
0
 62
7
  6
CONTINUOUS
370
-3
390
F
  0
LAYER
  5
203
100
AcDbSymbolTableRecord
100
AcDbLayerTableRecord
  2
05_CURVES
 70
0
 62
7
  6
CONTINUOUS
370
-3
390
F
  0
LAYER
  5
204
100
AcDbSymbolTableRecord
100
AcDbLayerTableRecord
  2
06_SURFS
 70
0
 62
7
  6
CONTINUOUS
370
-3
390
F
  0
LAYER
  5
205
100
AcDbSymbolTableRecord
100
AcDbLayerTableRecord
  2
07_COSMETICS
 70
0
 62
7
  6
CONTINUOUS
370
-3
390
F
  0
LAYER
  5
206
100
AcDbSymbolTableRecord
100
AcDbLayerTableRecord
  2
10_NOTES
 70
0
 62
7
  6
CONTINUOUS
370
-3
390
F
  0
LAYER
  5
207
100
AcDbSymbolTableRecord
100
AcDbLayerTableRecord
  2
11_NOTES_PUB
 70
0
 62
7
  6
CONTINUOUS
370
-3
390
F
  0
LAYER
  5
208
100
AcDbSymbolTableRecord
100
AcDbLayerTableRecord
  2
13_REF_GTOL
 70
0
 62
7
  6
CONTINUOUS
370
-3
390
F
  0
LAYER
  5
209
100
AcDbSymbolTableRecord
100
AcDbLayerTableRecord
  2
16_MISC
 70
0
 62
7
  6
CONTINUOUS
370
-3
390
F
  0
LAYER
  5
20A
100
AcDbSymbolTableRecord
100
AcDbLayerTableRecord
  2
17_NO_PRINT
 70
0
 62
7
  6
CONTINUOUS
370
-3
390
F
  0
LAYER
  5
20B
100
AcDbSymbolTableRecord
100
AcDbLayerTableRecord
  2
18_DATUM_CAMS_JOINTS
 70
0
 62
7
  6
CONTINUOUS
370
-3
390
F
  0
LAYER
  5
20C
100
AcDbSymbolTableRecord
100
AcDbLayerTableRecord
  2
19_DATUM_FUNCTIONAL
 70
0
 62
7
  6
CONTINUOUS
370
-3
390
F
  0
LAYER
  5
20D
100
AcDbSymbolTableRecord
100
AcDbLayerTableRecord
  2
20_DATUM_KINEMATIC_SCHEME
 70
0
 62
7
  6
CONTINUOUS
370
-3
390
F
  0
ENDTAB
  0
TABLE
  2
STYLE
  5
3
100
AcDbSymbolTable
 70
1
  0
STYLE
  5
11
100
AcDbSymbolTableRecord
100
AcDbTextStyleTableRecord
  2
STANDARD
 70
0
 40
0.0
 41
0.8
 50
0.0
 71
0
 42
0.2
  3
txt
  4

  0
STYLE
  5
20E
100
AcDbSymbolTableRecord
100
AcDbTextStyleTableRecord
  2
TEXTSTYLE_1
 70
0
 40
0.0
 41
0.8
 50
0.0
 71
0
 42
0.2
  3
gdt
  4

  0
ENDTAB
  0
TABLE
  2
VIEW
  5
6
100
AcDbSymbolTable
 70
0
  0
ENDTAB
  0
TABLE
  2
UCS
  5
7
100
AcDbSymbolTable
 70
0
  0
ENDTAB
  0
TABLE
  2
APPID
  5
9
100
AcDbSymbolTable
 70
1
  0
APPID
  5
20F
100
AcDbSymbolTableRecord
100
AcDbRegAppTableRecord
  2
ACAD
 70
0
  0
ENDTAB
  0
TABLE
  2
BLOCK_RECORD
  5
1
100
AcDbSymbolTable
 70
0
  0
BLOCK_RECORD
  5
210
100
AcDbSymbolTableRecord
100
AcDbBlockTableRecord
  2
*Model_Space
  0
BLOCK_RECORD
  5
211
100
AcDbSymbolTableRecord
100
AcDbBlockTableRecord
  2
*Paper_Space
  0
BLOCK_RECORD
  5
212
100
AcDbSymbolTableRecord
100
AcDbBlockTableRecord
  2
_FILLED
  0
ENDTAB
  0
TABLE
  2
DIMSTYLE
  5
A
100
AcDbSymbolTable
 70
1
100
AcDbDimStyleTable
 71
0
  0
DIMSTYLE
105
213
100
AcDbSymbolTableRecord
100
AcDbDimStyleTableRecord
  2
STANDARD
 70
0
  3

  4

 40
1.0
 41
0.6497868198
 42
1.0
 43
0.38
 44
1.0
 45
0.0
 46
0.0
 47
0.01
 48
0.01
140
0.9097015478
141
0.09
142
0.0
143
25.4
144
1.0
145
0.0
146
1.0
147
0.625
 71
1
 72
0
 73
0
 74
0
 75
0
 76
0
 77
1
 78
8
 79
2
170
0
171
1
172
0
173
0
174
0
175
0
176
0
177
0
178
0
270
2
179
2
271
2
272
2
273
2
274
2
275
0
280
0
281
0
282
0
283
1
284
8
285
0
286
0
287
3
288
0
340
11
278
46
341
212
342
212
343
212
344
212
  0
ENDTAB
  0
ENDSEC
  0
SECTION
  2
BLOCKS
  0
BLOCK
  5
20
100
AcDbEntity
  8
0
100
AcDbBlockBegin
  2
*Model_Space
 70
0
 10
0.0
 20
0.0
 30
0.0
  3
*Model_Space
  1

  0
ENDBLK
  5
21
100
AcDbEntity
  8
0
100
AcDbBlockEnd
  0
BLOCK
  5
1C
100
AcDbEntity
  8
0
100
AcDbBlockBegin
  2
*Paper_Space
 70
0
 10
0.0
 20
0.0
 30
0.0
  3
*Paper_Space
  1

  0
ENDBLK
  5
1D
100
AcDbEntity
  8
0
100
AcDbBlockEnd
  0
BLOCK
  5
214
100
AcDbEntity
  8
0
100
AcDbBlockBegin
  2
_FILLED
 70
64
 10
0.0
 20
0.0
  3
_FILLED
  1

  0
SOLID
  5
215
100
AcDbEntity
  8
0
  6
BYBLOCK
 62
0
100
AcDbTrace
 10
0.0
 20
0.0
 11
-1.0
 21
0.25
 12
-1.0
 22
-0.25
 13
-1.0
 23
-0.25
  0
ENDBLK
  5
216
100
AcDbEntity
  8
0
  6
BYBLOCK
 62
0
100
AcDbBlockEnd
  0
ENDSEC
  0
SECTION
  2
ENTITIES
  0
LINE
  5
217
100
AcDbEntity
  8
0
100
AcDbLine
 62
7
  6
CONTINUOUS
 10
42.0286199397
 20
6.3777734344
 11
46.8854884073
 21
6.3777734344
  0
LINE
  5
218
100
AcDbEntity
  8
0
100
AcDbLine
 62
7
  6
CONTINUOUS
 10
48.4548839937
 20
10.4777734344
 11
6.7751058646
 21
10.4777734344
  0
LINE
  5
219
100
AcDbEntity
  8
0
100
AcDbLine
 62
7
  6
CONTINUOUS
 10
44.4483279703
 20
8.3691982184
 11
46.4195720949
 21
8.3347900242
  0
LINE
  5
21A
100
AcDbEntity
  8
0
100
AcDbLine
 62
7
  6
CONTINUOUS
 10
48.9202742492
 20
10.7949841839
 11
6.4752823104
 21
10.7949841839
  0
LINE
  5
21B
100
AcDbEntity
  8
0
100
AcDbLine
 62
7
  6
CONTINUOUS
 10
6.6298165166
 20
13.4777734344
 11
48.879549811
 21
13.4777734344
  0
LINE
  5
21C
100
AcDbEntity
  8
0
100
AcDbLine
 62
7
  6
CONTINUOUS
 10
11.2314160131
 20
15.3397427461
 11
48.7532652275
 21
15.3397427461
  0
LINE
  5
21D
100
AcDbEntity
  8
0
100
AcDbLine
 62
7
  6
CONTINUOUS
 10
48.5246588371
 20
17.5528969218
 11
12.9838631675
 21
17.5528969218
  0
LINE
  5
21E
100
AcDbEntity
  8
0
100
AcDbLine
 62
7
  6
CONTINUOUS
 10
13.0178907801
 20
17.619090993
 11
48.5164990505
 21
17.619090993
  0
LINE
  5
21F
100
AcDbEntity
  8
0
100
AcDbLine
 62
7
  6
CONTINUOUS
 10
48.476348525
 20
17.9361189905
 11
12.8349939295
 21
17.9361189905
  0
LINE
  5
220
100
AcDbEntity
  8
0
100
AcDbLine
 62
7
  6
CONTINUOUS
 10
11.8566632471
 20
17.9670653866
 11
48.4723343174
 21
17.9670653866
  0
LINE
  5
221
100
AcDbEntity
  8
0
100
AcDbLine
 62
7
  6
CONTINUOUS
 10
48.4302368964
 20
18.2840933841
 11
11.668355056
 21
18.2840933841
  0
LINE
  5
222
100
AcDbEntity
  8
0
100
AcDbLine
 62
7
  6
CONTINUOUS
 10
6.629445591
 20
13.4777734344
 11
6.4752823104
 21
10.7949841839
  0
LINE
  5
223
100
AcDbEntity
  8
0
100
AcDbLine
 62
7
  6
CONTINUOUS
 10
11.7276815052
 20
18.4066663306
 11
48.4134843741
 21
18.4066663306
  0
LINE
  5
224
100
AcDbEntity
  8
0
100
AcDbLine
 62
7
  6
CONTINUOUS
 10
48.3950353769
 20
18.5394555812
 11
11.8276706888
 21
18.5394555812
  0
LINE
  5
225
100
AcDbEntity
  8
0
100
AcDbLine
 62
7
  6
CONTINUOUS
 10
13.7428006727
 20
20.339742746
 11
48.1139451238
 21
20.339742746
  0
LINE
  5
226
100
AcDbEntity
  8
0
100
AcDbLine
 62
7
  6
CONTINUOUS
 10
47.6883958149
 20
22.5528969218
 11
15.358355134
 21
22.5528969218
  0
LINE
  5
227
100
AcDbEntity
  8
0
100
AcDbLine
 62
7
  6
CONTINUOUS
 10
15.3868509145
 20
22.619090993
 11
47.6742910646
 21
22.619090993
  0
LINE
  5
228
100
AcDbEntity
  8
0
100
AcDbLine
 62
7
  6
CONTINUOUS
 10
47.6056191422
 20
22.9361189905
 11
15.1575401412
 21
22.9361189905
  0
LINE
  5
229
100
AcDbEntity
  8
0
100
AcDbLine
 62
7
  6
CONTINUOUS
 10
14.1221915619
 20
22.9670653866
 11
47.5988164526
 21
22.9670653866
  0
LINE
  5
22A
100
AcDbEntity
  8
0
100
AcDbLine
 62
7
  6
CONTINUOUS
 10
47.5281064784
 20
23.2840933841
 11
13.8890089124
 21
23.2840933841
  0
LINE
  5
22B
100
AcDbEntity
  8
0
100
AcDbLine
 62
7
  6
CONTINUOUS
 10
13.9378524914
 20
23.4066663306
 11
47.5002684933
 21
23.4066663306
  0
LINE
  5
22C
100
AcDbEntity
  8
0
100
AcDbLine
 62
7
  6
CONTINUOUS
 10
47.4697953145
 20
23.5394555812
 11
14.0282573595
 21
23.5394555812
  0
LINE
  5
22D
100
AcDbEntity
  8
0
100
AcDbLine
 62
7
  6
CONTINUOUS
 10
15.8341177705
 20
25.3397427461
 11
47.0240539882
 21
25.3397427461
  0
LINE
  5
22E
100
AcDbEntity
  8
0
100
AcDbLine
 62
7
  6
CONTINUOUS
 10
46.3912792774
 20
27.5528969218
 11
17.2573816712
 21
27.5528969218
  0
LINE
  5
22F
100
AcDbEntity
  8
0
100
AcDbLine
 62
7
  6
CONTINUOUS
 10
17.2788452575
 20
27.619090993
 11
46.3708833727
 21
27.619090993
  0
LINE
  5
230
100
AcDbEntity
  8
0
100
AcDbLine
 62
7
  6
CONTINUOUS
 10
46.2719995443
 20
27.9361189905
 11
16.9986964172
 21
27.9361189905
  0
LINE
  5
231
100
AcDbEntity
  8
0
100
AcDbLine
 62
7
  6
CONTINUOUS
 10
15.9135025319
 20
27.9670653866
 11
46.2622404561
 21
27.9670653866
  0
LINE
  5
232
100
AcDbEntity
  8
0
100
AcDbLine
 62
7
  6
CONTINUOUS
 10
46.161167672
 20
28.2840933841
 11
15.6317711559
 21
28.2840933841
  0
LINE
  5
233
100
AcDbEntity
  8
0
100
AcDbLine
 62
7
  6
CONTINUOUS
 10
15.6676892652
 20
28.4066663306
 11
46.1215527193
 21
28.4066663306
  0
LINE
  5
234
100
AcDbEntity
  8
0
100
AcDbLine
 62
7
  6
CONTINUOUS
 10
46.0782968074
 20
28.5394555812
 11
15.745572147
 21
28.5394555812
  0
LINE
  5
235
100
AcDbEntity
  8
0
100
AcDbLine
 62
7
  6
CONTINUOUS
 10
17.3964356689
 20
30.3397427461
 11
45.4566162145
 21
30.3397427461
  0
LINE
  5
236
100
AcDbEntity
  8
0
100
AcDbLine
 62
7
  6
CONTINUOUS
 10
46.9107697393
 20
7.8261399734
 11
46.4195720949
 21
8.3347900242
  0
LINE
  5
237
100
AcDbEntity
  8
0
100
AcDbLine
 62
7
  6
CONTINUOUS
 10
44.5999506624
 20
32.5528969218
 11
18.5772810747
 21
32.5528969218
  0
LINE
  5
238
100
AcDbEntity
  8
0
100
AcDbLine
 62
7
  6
CONTINUOUS
 10
18.5904769964
 20
32.619090993
 11
44.572713499
 21
32.619090993
  0
LINE
  5
239
100
AcDbEntity
  8
0
100
AcDbLine
 62
7
  6
CONTINUOUS
 10
44.4409390167
 20
32.9361189905
 11
18.2587196098
 21
32.9361189905
  0
LINE
  5
23A
100
AcDbEntity
  8
0
100
AcDbLine
 62
7
  6
CONTINUOUS
 10
17.1373839707
 20
32.9670653866
 11
44.4279580999
 21
32.9670653866
  0
LINE
  5
23B
100
AcDbEntity
  8
0
100
AcDbLine
 62
7
  6
CONTINUOUS
 10
44.2937622528
 20
33.2840933841
 11
16.8067980723
 21
33.2840933841
  0
LINE
  5
23C
100
AcDbEntity
  8
0
100
AcDbLine
 62
7
  6
CONTINUOUS
 10
16.8278545279
 20
33.4066663306
 11
44.2412828422
 21
33.4066663306
  0
LINE
  5
23D
100
AcDbEntity
  8
0
100
AcDbLine
 62
7
  6
CONTINUOUS
 10
44.1840531193
 20
33.5394555812
 11
16.8906165366
 21
33.5394555812
  0
LINE
  5
23E
100
AcDbEntity
  8
0
100
AcDbLine
 62
7
  6
CONTINUOUS
 10
12.9951997424
 20
17.5749366622
 11
12.9838631675
 21
17.5528969218
  0
LINE
  5
23F
100
AcDbEntity
  8
0
100
AcDbLine
 62
7
  6
CONTINUOUS
 10
18.3421642976
 20
35.3397427461
 11
43.3688860017
 21
35.3397427461
  0
LINE
  5
240
100
AcDbEntity
  8
0
100
AcDbLine
 62
7
  6
CONTINUOUS
 10
42.3139440011
 20
37.5528969219
 11
19.2383380931
 21
37.5528969219
  0
LINE
  5
241
100
AcDbEntity
  8
0
100
AcDbLine
 62
7
  6
CONTINUOUS
 10
19.2425153834
 20
37.6205052656
 11
42.2819541352
 21
37.6205052656
  0
LINE
  5
242
100
AcDbEntity
  8
0
100
AcDbLine
 62
7
  6
CONTINUOUS
 10
42.1321649795
 20
37.9375230689
 11
18.8624736282
 21
37.9375230689
  0
LINE
  5
243
100
AcDbEntity
  8
0
100
AcDbLine
 62
7
  6
CONTINUOUS
 10
17.7945141325
 20
37.966555948
 11
42.1184645965
 21
37.966555948
  0
LINE
  5
244
100
AcDbEntity
  8
0
100
AcDbLine
 62
7
  6
CONTINUOUS
 10
17.4192108531
 20
38.2985603798
 11
41.9620028627
 21
38.2985603798
  0
LINE
  5
245
100
AcDbEntity
  8
0
100
AcDbLine
 62
7
  6
CONTINUOUS
 10
41.9071523759
 20
38.4151434351
 11
17.4315766306
 21
38.4151434351
  0
LINE
  5
246
100
AcDbEntity
  8
0
100
AcDbLine
 62
7
  6
CONTINUOUS
 10
41.8521447679
 20
38.5321613669
 11
17.4761369417
 21
38.5321613669
  0
LINE
  5
247
100
AcDbEntity
  8
0
100
AcDbLine
 62
7
  6
CONTINUOUS
 10
19.8947006312
 20
63.8182172594
 11
20.118809781
 21
62.9775070548
  0
LINE
  5
248
100
AcDbEntity
  8
0
100
AcDbLine
 62
7
  6
CONTINUOUS
 10
18.6757830295
 20
40.3075723381
 11
41.023382729
 21
40.3075723381
  0
LINE
  5
249
100
AcDbEntity
  8
0
100
AcDbLine
 62
7
  6
CONTINUOUS
 10
39.8747917539
 20
42.8075723381
 11
19.2283630913
 21
42.8075723381
  0
LINE
  5
24A
100
AcDbEntity
  8
0
100
AcDbLine
 62
7
  6
CONTINUOUS
 10
19.1150851467
 20
43.4777734344
 11
39.5705128478
 21
43.4777734344
  0
LINE
  5
24B
100
AcDbEntity
  8
0
100
AcDbLine
 62
7
  6
CONTINUOUS
 10
19.7117466802
 20
44.5691854464
 11
39.078271538
 21
44.5691854464
  0
LINE
  5
24C
100
AcDbEntity
  8
0
100
AcDbLine
 62
7
  6
CONTINUOUS
 10
37.9659364823
 20
47.0691854464
 11
19.9481396714
 21
47.0691854464
  0
LINE
  5
24D
100
AcDbEntity
  8
0
100
AcDbLine
 62
7
  6
CONTINUOUS
 10
19.5211226896
 20
48.4777734344
 11
37.3484689977
 21
48.4777734344
  0
LINE
  5
24E
100
AcDbEntity
  8
0
100
AcDbLine
 62
7
  6
CONTINUOUS
 10
20.1769309171
 20
49.3884850402
 11
36.9527821397
 21
49.3884850402
  0
LINE
  5
24F
100
AcDbEntity
  8
0
100
AcDbLine
 62
7
  6
CONTINUOUS
 10
42.3139440011
 20
37.5528969219
 11
42.2819541352
 21
37.6205052656
  0
LINE
  5
250
100
AcDbEntity
  8
0
100
AcDbLine
 62
7
  6
CONTINUOUS
 10
44.2937622528
 20
33.2840933841
 11
44.2412828422
 21
33.4066663306
  0
LINE
  5
251
100
AcDbEntity
  8
0
100
AcDbLine
 62
7
  6
CONTINUOUS
 10
42.0286199397
 20
6.3777734344
 11
41.9742046056
 21
9.4952258409
  0
LINE
  5
252
100
AcDbEntity
  8
0
100
AcDbLine
 62
7
  6
CONTINUOUS
 10
42.4741284531
 20
9.4952258409
 11
42.5285437873
 21
6.3777734344
  0
LINE
  5
253
100
AcDbEntity
  8
0
100
AcDbLine
 62
7
  6
CONTINUOUS
 10
35.8505472147
 20
51.9596354789
 11
20.3422847237
 21
51.9596354789
  0
LINE
  5
254
100
AcDbEntity
  8
0
100
AcDbLine
 62
7
  6
CONTINUOUS
 10
19.668757025
 20
53.4777734344
 11
35.2099893371
 21
53.4777734344
  0
LINE
  5
255
100
AcDbEntity
  8
0
100
AcDbLine
 62
7
  6
CONTINUOUS
 10
44.5999506624
 20
32.5528969218
 11
44.572713499
 21
32.619090993
  0
LINE
  5
256
100
AcDbEntity
  8
0
100
AcDbLine
 62
7
  6
CONTINUOUS
 10
46.161167672
 20
28.2840933841
 11
46.1215527193
 21
28.4066663306
  0
LINE
  5
257
100
AcDbEntity
  8
0
100
AcDbLine
 62
7
  6
CONTINUOUS
 10
46.3708833727
 20
27.619090993
 11
46.3912792774
 21
27.5528969218
  0
LINE
  5
258
100
AcDbEntity
  8
0
100
AcDbLine
 62
7
  6
CONTINUOUS
 10
43.9570541735
 20
10.4777734344
 11
43.9511312096
 21
6.3777734344
  0
LINE
  5
259
100
AcDbEntity
  8
0
100
AcDbLine
 62
7
  6
CONTINUOUS
 10
20.5716654473
 20
55.2051328479
 11
34.4903528815
 21
55.2051328479
  0
LINE
  5
25A
100
AcDbEntity
  8
0
100
AcDbLine
 62
7
  6
CONTINUOUS
 10
47.5281064784
 20
23.2840933841
 11
47.5002684933
 21
23.4066663306
  0
LINE
  5
25B
100
AcDbEntity
  8
0
100
AcDbLine
 62
7
  6
CONTINUOUS
 10
47.6742910646
 20
22.619090993
 11
47.6883958149
 21
22.5528969218
  0
LINE
  5
25C
100
AcDbEntity
  8
0
100
AcDbLine
 62
7
  6
CONTINUOUS
 10
48.4302368964
 20
18.2840933841
 11
48.4134843741
 21
18.4066663306
  0
LINE
  5
25D
100
AcDbEntity
  8
0
100
AcDbLine
 62
7
  6
CONTINUOUS
 10
48.5164990505
 20
17.619090993
 11
48.5246588371
 21
17.5528969218
  0
LINE
  5
25E
100
AcDbEntity
  8
0
100
AcDbLine
 62
7
  6
CONTINUOUS
 10
46.467751534
 20
6.3777734344
 11
46.5004495063
 21
8.2510390131
  0
LINE
  5
25F
100
AcDbEntity
  8
0
100
AcDbLine
 62
7
  6
CONTINUOUS
 10
46.8854884073
 20
6.3777734344
 11
46.9107697393
 21
7.8261399734
  0
LINE
  5
260
100
AcDbEntity
  8
0
100
AcDbLine
 62
7
  6
CONTINUOUS
 10
33.4371985749
 20
57.7762832866
 11
20.2594210995
 21
57.7762832866
  0
LINE
  5
261
100
AcDbEntity
  8
0
100
AcDbLine
 62
7
  6
CONTINUOUS
 10
20.1421477859
 20
57.9777734344
 11
33.3555732607
 21
57.9777734344
  0
LINE
  5
262
100
AcDbEntity
  8
0
100
AcDbLine
 62
7
  6
CONTINUOUS
 10
33.1535858173
 20
58.4777734344
 11
20.2361747721
 21
58.4777734344
  0
LINE
  5
263
100
AcDbEntity
  8
0
100
AcDbLine
 62
7
  6
CONTINUOUS
 10
21.7208261619
 20
60.5495324862
 11
32.325228613
 21
60.5495324862
  0
LINE
  5
264
100
AcDbEntity
  8
0
100
AcDbLine
 62
7
  6
CONTINUOUS
 10
31.4224475481
 20
62.8476658155
 11
20.2741661065
 21
62.8476658155
  0
LINE
  5
265
100
AcDbEntity
  8
0
100
AcDbLine
 62
7
  6
CONTINUOUS
 10
20.1188158627
 20
62.9777734344
 11
31.3718407049
 21
62.9777734344
  0
ARC
  5
266
100
AcDbEntity
  8
0
100
AcDbCircle
 62
7
  6
CONTINUOUS
 10
-141.8591968189
 20
174.7201101014
 40
214.9605707025
100
AcDbArc
 50
317.1536426588
 51
317.8047037954
  0
ARC
  5
267
100
AcDbEntity
  8
0
100
AcDbCircle
 62
7
  6
CONTINUOUS
 10
-316.0501031198
 20
356.4455265005
 40
468.8050512864
100
AcDbArc
 50
314.7556279095
 51
315.0672727216
  0
ARC
  5
268
100
AcDbEntity
  8
0
100
AcDbCircle
 62
7
  6
CONTINUOUS
 10
-76.9008097217
 20
1.3609861545
 40
112.3512180785
100
AcDbArc
 50
30.1412440898
 51
30.2601353504
  0
ARC
  5
269
100
AcDbEntity
  8
0
100
AcDbCircle
 62
7
  6
CONTINUOUS
 10
-46.3524221894
 20
47.3604666444
 40
64.8745078637
100
AcDbArc
 50
338.2151540596
 51
338.331686221
  0
ARC
  5
26A
100
AcDbEntity
  8
0
100
AcDbCircle
 62
7
  6
CONTINUOUS
 10
-36.8719444013
 20
27.4847998837
 40
62.2292984998
100
AcDbArc
 50
23.160044087
 51
24.6892566425
  0
ARC
  5
26B
100
AcDbEntity
  8
0
100
AcDbCircle
 62
7
  6
CONTINUOUS
 10
-31.9223754802
 20
42.285650866
 40
49.5725778451
100
AcDbArc
 50
343.5937786775
 51
343.7414052862
  0
ARC
  5
26C
100
AcDbEntity
  8
0
100
AcDbCircle
 62
7
  6
CONTINUOUS
 10
-23.6285311353
 20
34.6278280146
 40
45.3179171337
100
AcDbArc
 50
15.9343091357
 51
17.7953138914
  0
ARC
  5
26D
100
AcDbEntity
  8
0
100
AcDbCircle
 62
7
  6
CONTINUOUS
 10
-23.5888127373
 20
40.2866347971
 40
40.9980604288
100
AcDbArc
 50
350.1655609035
 51
350.3393688272
  0
ARC
  5
26E
100
AcDbEntity
  8
0
100
AcDbCircle
 62
7
  6
CONTINUOUS
 10
-18.7418721818
 20
36.7344854249
 40
38.4528432154
100
AcDbArc
 50
9.0871125224
 51
10.0999073537
  0
ARC
  5
26F
100
AcDbEntity
  8
0
100
AcDbCircle
 62
7
  6
CONTINUOUS
 10
-75.1016448817
 20
109.1969263103
 40
119.1076363546
100
AcDbArc
 50
320.5649934062
 51
321.677458911
  0
ARC
  5
270
100
AcDbEntity
  8
0
100
AcDbCircle
 62
7
  6
CONTINUOUS
 10
-43.1687428781
 20
80.8029434359
 40
73.9230712639
100
AcDbArc
 50
325.122675945
 51
326.7834960335
  0
ARC
  5
271
100
AcDbEntity
  8
0
100
AcDbCircle
 62
7
  6
CONTINUOUS
 10
-24.8697293921
 20
81.1353412818
 40
55.1095680099
100
AcDbArc
 50
323.6587374513
 51
324.8255437863
  0
ARC
  5
272
100
AcDbEntity
  8
0
100
AcDbCircle
 62
7
  6
CONTINUOUS
 10
-24.8319541424
 20
68.2118794766
 40
50.4293393173
100
AcDbArc
 50
330.62848552
 51
332.0417437069
  0
ARC
  5
273
100
AcDbEntity
  8
0
100
AcDbCircle
 62
7
  6
CONTINUOUS
 10
-9.1429458265
 20
10.4777734344
 40
58.1
100
AcDbArc
 50
0.4973654435
 51
6.9945499719
  0
ARC
  5
274
100
AcDbEntity
  8
0
100
AcDbCircle
 62
7
  6
CONTINUOUS
 10
-9.1429458265
 20
10.4777734344
 40
58.1
100
AcDbArc
 50
7.0603218876
 51
7.7216173592
  0
ARC
  5
275
100
AcDbEntity
  8
0
100
AcDbCircle
 62
7
  6
CONTINUOUS
 10
-9.1429458265
 20
10.4777734344
 40
58.1
100
AcDbArc
 50
7.8436174196
 51
11.9954170631
  0
ARC
  5
276
100
AcDbEntity
  8
0
100
AcDbCircle
 62
7
  6
CONTINUOUS
 10
-9.1429458265
 20
10.4777734344
 40
58.1
100
AcDbArc
 50
12.0621603612
 51
12.7336198496
  0
ARC
  5
277
100
AcDbEntity
  8
0
100
AcDbCircle
 62
7
  6
CONTINUOUS
 10
-9.1429458265
 20
10.4777734344
 40
58.1
100
AcDbArc
 50
12.8575744052
 51
17.0911069702
  0
ARC
  5
278
100
AcDbEntity
  8
0
100
AcDbCircle
 62
7
  6
CONTINUOUS
 10
-9.1429458265
 20
10.4777734344
 40
58.1
100
AcDbArc
 50
17.1594132629
 51
17.8470523241
  0
ARC
  5
279
100
AcDbEntity
  8
0
100
AcDbCircle
 62
7
  6
CONTINUOUS
 10
-9.1429458265
 20
10.4777734344
 40
58.1
100
AcDbArc
 50
17.9740849333
 51
22.3306159484
  0
ARC
  5
27A
100
AcDbEntity
  8
0
100
AcDbCircle
 62
7
  6
CONTINUOUS
 10
-9.1429458265
 20
10.4777734344
 40
58.1
100
AcDbArc
 50
22.4012039141
 51
23.1123658256
  0
ARC
  5
27B
100
AcDbEntity
  8
0
100
AcDbCircle
 62
7
  6
CONTINUOUS
 10
-9.1429458265
 20
10.4777734344
 40
58.1
100
AcDbArc
 50
23.2438552068
 51
25.6429900781
  0
ARC
  5
27C
100
AcDbEntity
  8
0
100
AcDbCircle
 62
7
  6
CONTINUOUS
 10
12.6939142735
 20
17.7856083105
 40
0.3642647305
100
AcDbArc
 50
332.797760314
 51
335.8024030729
  0
ARC
  5
27D
100
AcDbEntity
  8
0
100
AcDbCircle
 62
7
  6
CONTINUOUS
 10
15.0992879697
 20
22.7428097893
 40
0.3130475807
100
AcDbArc
 50
336.7210751849
 51
340.1091380662
  0
ARC
  5
27E
100
AcDbEntity
  8
0
100
AcDbCircle
 62
7
  6
CONTINUOUS
 10
6.7747882204
 20
10.7777734344
 40
0.3
100
AcDbArc
 50
180.0
 51
270.0
  0
ARC
  5
27F
100
AcDbEntity
  8
0
100
AcDbCircle
 62
7
  6
CONTINUOUS
 10
15.7288222179
 20
37.7740513327
 40
3.5164770654
100
AcDbArc
 50
349.4985589274
 51
356.3942371777
  0
ARC
  5
280
100
AcDbEntity
  8
0
100
AcDbCircle
 62
7
  6
CONTINUOUS
 10
15.8920868724
 20
28.2075805844
 40
0.2713272577
100
AcDbArc
 50
163.6207199838
 51
167.3758863672
  0
ARC
  5
281
100
AcDbEntity
  8
0
100
AcDbCircle
 62
7
  6
CONTINUOUS
 10
17.0214837833
 20
27.7024227883
 40
0.2705163886
100
AcDbArc
 50
342.0584195829
 51
345.8521274818
  0
ARC
  5
282
100
AcDbEntity
  8
0
100
AcDbCircle
 62
7
  6
CONTINUOUS
 10
17.0498249963
 20
33.2422478639
 40
0.24660319
100
AcDbArc
 50
170.2303400893
 51
174.2672701402
  0
ARC
  5
283
100
AcDbEntity
  8
0
100
AcDbCircle
 62
7
  6
CONTINUOUS
 10
18.3534614634
 20
32.6661745393
 40
0.2416468977
100
AcDbArc
 50
348.7643656082
 51
352.898833152
  0
ARC
  5
284
100
AcDbEntity
  8
0
100
AcDbCircle
 62
7
  6
CONTINUOUS
 10
19.0132903199
 20
37.6344470507
 40
0.2296486514
100
AcDbArc
 50
356.5194790515
 51
0.8154738657
  0
ARC
  5
285
100
AcDbEntity
  8
0
100
AcDbCircle
 62
7
  6
CONTINUOUS
 10
40.9744572974
 20
9.4690459063
 40
1.4999645031
100
AcDbArc
 50
1.0001175169
 51
42.2616975652
  0
ARC
  5
286
100
AcDbEntity
  8
0
100
AcDbCircle
 62
7
  6
CONTINUOUS
 10
40.9743569104
 20
9.4777734344
 40
1.0
100
AcDbArc
 50
1.0
 51
90.0
  0
ARC
  5
287
100
AcDbEntity
  8
0
100
AcDbCircle
 62
7
  6
CONTINUOUS
 10
48.4548839937
 20
10.9777734344
 40
0.5
100
AcDbArc
 50
270.0
 51
0.4973654435
  0
ARC
  5
288
100
AcDbEntity
  8
0
100
AcDbCircle
 62
7
  6
CONTINUOUS
 10
44.4570541735
 20
8.869122066
 40
0.5
100
AcDbArc
 50
180.0
 51
269.0
  0
ARC
  5
289
100
AcDbEntity
  8
0
100
AcDbCircle
 62
7
  6
CONTINUOUS
 10
51.8570541735
 20
33.5777734344
 40
44.0
100
AcDbArc
 50
122.1835407457
 51
136.5845969426
  0
ARC
  5
28A
100
AcDbEntity
  8
0
100
AcDbCircle
 62
7
  6
CONTINUOUS
 10
-11.1266584963
 20
70.6745113524
 40
35.2715949759
100
AcDbArc
 50
330.820189447
 51
333.9867533966
  0
ARC
  5
28B
100
AcDbEntity
  8
0
100
AcDbCircle
 62
7
  6
CONTINUOUS
 10
20.740743892
 20
61.1981423359
 40
1.1752684769
100
AcDbArc
 50
326.5037585058
 51
339.6012803443
  0
ARC
  5
28C
100
AcDbEntity
  8
0
100
AcDbCircle
 62
7
  6
CONTINUOUS
 10
506.5449124524
 20
-529.9443852358
 40
736.6615504992
100
AcDbArc
 50
132.2507062657
 51
132.4656476956
  0
ARC
  5
28D
100
AcDbEntity
  8
0
100
AcDbCircle
 62
7
  6
CONTINUOUS
 10
393.4254831393
 20
203.7277734344
 40
388.45
100
AcDbArc
 50
205.327365225
 51
205.6429900781
  0
ARC
  5
28E
100
AcDbEntity
  8
0
100
AcDbCircle
 62
7
  6
CONTINUOUS
 10
393.4254831393
 20
203.7277734344
 40
388.45
100
AcDbArc
 50
200.0083342986
 51
205.3163331288
  0
ARC
  5
28F
100
AcDbEntity
  8
0
100
AcDbCircle
 62
7
  6
CONTINUOUS
 10
140.2732059789
 20
35.6454918224
 40
122.1892055157
100
AcDbArc
 50
169.230403009
 51
169.4689679944
  0
SPLINE
  5
290
100
AcDbEntity
  8
0
100
AcDbSpline
 62
7
  6
CONTINUOUS
 70
0
 71
3
 72
9
 73
5
 74
0
 42
0.0000001
 43
0.0000001
 44
0.0000000001
 40
0.0
 40
0.0
 40
0.0
 40
0.0
 40
0.4967862935
 40
1.0
 40
1.0
 40
1.0
 40
1.0
 10
12.9838631675
 20
17.5528969218
 30
0.0
 10
12.769154657
 20
17.1356021808
 30
0.0
 10
12.2383899486
 20
16.3451130099
 30
0.0
 10
11.5832378553
 20
15.6594170907
 30
0.0
 10
11.2314160131
 20
15.3397427461
 30
0.0
  0
LINE
  5
291
100
AcDbEntity
  8
0
100
AcDbLine
 62
7
  6
CONTINUOUS
 10
13.0178907801
 20
17.619090993
 11
12.9951997424
 21
17.5749366622
  0
SPLINE
  5
292
100
AcDbEntity
  8
0
100
AcDbSpline
 62
7
  6
CONTINUOUS
 70
0
 71
3
 72
13
 73
9
 74
0
 42
0.0000001
 43
0.0000001
 44
0.0000000001
 40
0.0
 40
0.0
 40
0.0
 40
0.0
 40
0.2904706103
 40
0.4235825569
 40
0.5456686324
 40
0.6607202302
 40
0.7731635582
 40
1.0
 40
1.0
 40
1.0
 40
1.0
 10
12.8349939295
 20
17.9361189905
 30
0.0
 10
12.87702356
 20
17.9347924873
 30
0.0
 10
12.9400894359
 20
17.9218002285
 30
0.0
 10
13.0046732083
 20
17.8743304197
 30
0.0
 10
13.0363434347
 20
17.829942348
 30
0.0
 10
13.0518701928
 20
17.7809714215
 30
0.0
 10
13.0538776712
 20
17.7146404355
 30
0.0
 10
13.0396242157
 20
17.666259159
 30
0.0
 10
13.0261737242
 20
17.6363017424
 30
0.0
  0
LINE
  5
293
100
AcDbEntity
  8
0
100
AcDbLine
 62
7
  6
CONTINUOUS
 10
11.8566632471
 20
17.9670653866
 11
12.8349939295
 21
17.9361189905
  0
SPLINE
  5
294
100
AcDbEntity
  8
0
100
AcDbSpline
 62
7
  6
CONTINUOUS
 70
0
 71
3
 72
13
 73
9
 74
0
 42
0.0000001
 43
0.0000001
 44
0.0000000001
 40
0.0
 40
0.0
 40
0.0
 40
0.0
 40
0.2286335191
 40
0.3418080309
 40
0.4574282184
 40
0.5795626375
 40
0.7120384284
 40
1.0
 40
1.0
 40
1.0
 40
1.0
 10
11.6605348101
 20
18.2668824497
 30
0.0
 10
11.647695174
 20
18.2363781512
 30
0.0
 10
11.6346295754
 20
18.1872089294
 30
0.0
 10
11.6388359235
 20
18.1205397706
 30
0.0
 10
11.6556417696
 20
18.0718424971
 30
0.0
 10
11.6879465405
 20
18.0279780522
 30
0.0
 10
11.7525244715
 20
17.9813825082
 30
0.0
 10
11.8149996618
 20
17.9683861682
 30
0.0
 10
11.8566632471
 20
17.9670653866
 30
0.0
  0
SPLINE
  5
295
100
AcDbEntity
  8
0
100
AcDbSpline
 62
7
  6
CONTINUOUS
 70
0
 71
3
 72
8
 73
4
 74
0
 42
0.0000001
 43
0.0000001
 44
0.0000000001
 40
0.0
 40
0.0
 40
0.0
 40
0.0
 40
1.0
 40
1.0
 40
1.0
 40
1.0
 10
11.668355056
 20
18.2840933841
 30
0.0
 10
11.6656056016
 20
18.2784234144
 30
0.0
 10
11.6629794339
 20
18.2726903642
 30
0.0
 10
11.6605348101
 20
18.2668824497
 30
0.0
  0
LINE
  5
296
100
AcDbEntity
  8
0
100
AcDbLine
 62
7
  6
CONTINUOUS
 10
11.7276815052
 20
18.4066663306
 11
11.668355056
 21
18.2840933841
  0
SPLINE
  5
297
100
AcDbEntity
  8
0
100
AcDbSpline
 62
7
  6
CONTINUOUS
 70
0
 71
3
 72
9
 73
5
 74
0
 42
0.0000001
 43
0.0000001
 44
0.0000000001
 40
0.0
 40
0.0
 40
0.0
 40
0.0
 40
0.258647461
 40
1.0
 40
1.0
 40
1.0
 40
1.0
 10
11.8276706888
 20
18.5394555812
 30
0.0
 10
11.8171933775
 20
18.5296150458
 30
0.0
 10
11.7782383383
 20
18.4900028657
 30
0.0
 10
11.7456032668
 20
18.4437636759
 30
0.0
 10
11.7276815052
 20
18.4066663306
 30
0.0
  0
SPLINE
  5
298
100
AcDbEntity
  8
0
100
AcDbSpline
 62
7
  6
CONTINUOUS
 70
0
 71
3
 72
9
 73
5
 74
0
 42
0.0000001
 43
0.0000001
 44
0.0000000001
 40
0.0
 40
0.0
 40
0.0
 40
0.0
 40
0.2531124313
 40
1.0
 40
1.0
 40
1.0
 40
1.0
 10
13.7428006727
 20
20.339742746
 30
0.0
 10
13.5813037498
 20
20.1877615862
 30
0.0
 10
12.9431616376
 20
19.5874163945
 30
0.0
 10
12.3046592007
 20
18.9874543263
 30
0.0
 10
11.8276706888
 20
18.5394555812
 30
0.0
  0
SPLINE
  5
299
100
AcDbEntity
  8
0
100
AcDbSpline
 62
7
  6
CONTINUOUS
 70
0
 71
3
 72
10
 73
6
 74
0
 42
0.0000001
 43
0.0000001
 44
0.0000000001
 40
0.0
 40
0.0
 40
0.0
 40
0.0
 40
0.4970982689
 40
0.7477365819
 40
1.0
 40
1.0
 40
1.0
 40
1.0
 10
15.358355134
 20
22.5528969218
 30
0.0
 10
15.1776018883
 20
22.1336331774
 30
0.0
 10
14.8195278826
 20
21.5381231739
 30
0.0
 10
14.2356053392
 20
20.8287447075
 30
0.0
 10
13.9115293985
 20
20.4985295946
 30
0.0
 10
13.7428006727
 20
20.339742746
 30
0.0
  0
SPLINE
  5
29A
100
AcDbEntity
  8
0
100
AcDbSpline
 62
7
  6
CONTINUOUS
 70
0
 71
3
 72
13
 73
9
 74
0
 42
0.0000001
 43
0.0000001
 44
0.0000000001
 40
0.0
 40
0.0
 40
0.0
 40
0.0
 40
0.2674950167
 40
0.3985936734
 40
0.5247081108
 40
0.646095553
 40
0.7652173386
 40
1.0
 40
1.0
 40
1.0
 40
1.0
 10
15.1575401412
 20
22.9361189905
 30
0.0
 10
15.1980523786
 20
22.934912623
 30
0.0
 10
15.2593798807
 20
22.9241829471
 30
0.0
 10
15.3294692747
 20
22.88532973
 30
0.0
 10
15.3717919587
 20
22.8454154066
 30
0.0
 10
15.3989417708
 20
22.7959488134
 30
0.0
 10
15.4149533759
 20
22.7249484498
 30
0.0
 10
15.4057520458
 20
22.6697571998
 30
0.0
 10
15.3936598837
 20
22.6363017424
 30
0.0
  0
LINE
  5
29B
100
AcDbEntity
  8
0
100
AcDbLine
 62
7
  6
CONTINUOUS
 10
14.1221915619
 20
22.9670653866
 11
15.1575401412
 21
22.9361189905
  0
SPLINE
  5
29C
100
AcDbEntity
  8
0
100
AcDbSpline
 62
7
  6
CONTINUOUS
 70
0
 71
3
 72
12
 73
8
 74
0
 42
0.0000001
 43
0.0000001
 44
0.0000000001
 40
0.0
 40
0.0
 40
0.0
 40
0.0
 40
0.236741046
 40
0.3565296986
 40
0.4784286964
 40
0.73321386
 40
1.0
 40
1.0
 40
1.0
 40
1.0
 10
13.882745383
 20
23.2668738615
 30
0.0
 10
13.8714680964
 20
23.2329481701
 30
0.0
 10
13.8636613577
 20
23.1773402543
 30
0.0
 10
13.8812924048
 20
23.1065002957
 30
0.0
 10
13.9188275054
 20
23.0403844501
 30
0.0
 10
14.002575402
 20
22.9820603624
 30
0.0
 10
14.0819215432
 20
22.968273469
 30
0.0
 10
14.1221915619
 20
22.9670653866
 30
0.0
  0
SPLINE
  5
29D
100
AcDbEntity
  8
0
100
AcDbSpline
 62
7
  6
CONTINUOUS
 70
0
 71
3
 72
8
 73
4
 74
0
 42
0.0000001
 43
0.0000001
 44
0.0000000001
 40
0.0
 40
0.0
 40
0.0
 40
0.0
 40
1.0
 40
1.0
 40
1.0
 40
1.0
 10
13.8890089124
 20
23.2840933841
 30
0.0
 10
13.88674219
 20
23.2784218031
 30
0.0
 10
13.8846720204
 20
23.2726698024
 30
0.0
 10
13.882745383
 20
23.2668738615
 30
0.0
  0
SPLINE
  5
29E
100
AcDbEntity
  8
0
100
AcDbSpline
 62
7
  6
CONTINUOUS
 70
0
 71
3
 72
9
 73
5
 74
0
 42
0.0000001
 43
0.0000001
 44
0.0000000001
 40
0.0
 40
0.0
 40
0.0
 40
0.0
 40
0.2549892157
 40
1.0
 40
1.0
 40
1.0
 40
1.0
 10
14.0282573595
 20
23.5394555812
 30
0.0
 10
14.0185267813
 20
23.529804798
 30
0.0
 10
13.9820410682
 20
23.4903705196
 30
0.0
 10
13.9526371965
 20
23.4438786819
 30
0.0
 10
13.9378524914
 20
23.4066663306
 30
0.0
  0
SPLINE
  5
29F
100
AcDbEntity
  8
0
100
AcDbSpline
 62
7
  6
CONTINUOUS
 70
0
 71
3
 72
10
 73
6
 74
0
 42
0.0000001
 43
0.0000001
 44
0.0000000001
 40
0.0
 40
0.0
 40
0.0
 40
0.0
 40
0.4986977514
 40
0.7490230793
 40
1.0
 40
1.0
 40
1.0
 40
1.0
 10
17.2573816712
 20
27.5528969218
 30
0.0
 10
17.1211714284
 20
27.1338170045
 30
0.0
 10
16.8177720204
 20
26.5339002513
 30
0.0
 10
16.2899255028
 20
25.8246908258
 30
0.0
 10
15.9907413816
 20
25.4967470082
 30
0.0
 10
15.8341177705
 20
25.3397427461
 30
0.0
  0
SPLINE
  5
2A0
100
AcDbEntity
  8
0
100
AcDbSpline
 62
7
  6
CONTINUOUS
 70
0
 71
3
 72
13
 73
9
 74
0
 42
0.0000001
 43
0.0000001
 44
0.0000000001
 40
0.0
 40
0.0
 40
0.0
 40
0.0
 40
0.2563626336
 40
0.5086889482
 40
0.633201187
 40
0.7561005631
 40
0.8780633883
 40
1.0
 40
1.0
 40
1.0
 40
1.0
 10
16.9986964172
 20
27.9361189905
 30
0.0
 10
17.0395957993
 20
27.9349586693
 30
0.0
 10
17.1210302761
 20
27.9218250258
 30
0.0
 10
17.2119045854
 20
27.8703713873
 30
0.0
 10
17.2629075918
 20
27.8078694948
 30
0.0
 10
17.286558739
 20
27.7529819715
 30
0.0
 10
17.2938756972
 20
27.6941771412
 30
0.0
 10
17.2885460766
 20
27.6551741247
 30
0.0
 10
17.2837949035
 20
27.6363017424
 30
0.0
  0
LINE
  5
2A1
100
AcDbEntity
  8
0
100
AcDbLine
 62
7
  6
CONTINUOUS
 10
15.9135025319
 20
27.9670653866
 11
16.9986964172
 21
27.9361189905
  0
SPLINE
  5
2A2
100
AcDbEntity
  8
0
100
AcDbSpline
 62
7
  6
CONTINUOUS
 70
0
 71
3
 72
11
 73
7
 74
0
 42
0.0000001
 43
0.0000001
 44
0.0000000001
 40
0.0
 40
0.0
 40
0.0
 40
0.0
 40
0.244013726
 40
0.4907202367
 40
0.7437315006
 40
1.0
 40
1.0
 40
1.0
 40
1.0
 10
15.6273189872
 20
28.2668802279
 30
0.0
 10
15.618854352
 20
28.2291661759
 30
0.0
 10
15.6190094766
 20
28.1473671017
 30
0.0
 10
15.6847297201
 20
28.042588537
 30
0.0
 10
15.7919955649
 20
27.9817260962
 30
0.0
 10
15.8729257188
 20
27.9682283481
 30
0.0
 10
15.9135025319
 20
27.9670653866
 30
0.0
  0
SPLINE
  5
2A3
100
AcDbEntity
  8
0
100
AcDbSpline
 62
7
  6
CONTINUOUS
 70
0
 71
3
 72
9
 73
5
 74
0
 42
0.0000001
 43
0.0000001
 44
0.0000000001
 40
0.0
 40
0.0
 40
0.0
 40
0.0
 40
0.2526685412
 40
1.0
 40
1.0
 40
1.0
 40
1.0
 10
15.745572147
 20
28.5394555812
 30
0.0
 10
15.7367155837
 20
28.5299022267
 30
0.0
 10
15.7035129385
 20
28.4904887283
 30
0.0
 10
15.6784768483
 20
28.4436563649
 30
0.0
 10
15.6676892652
 20
28.4066663306
 30
0.0
  0
SPLINE
  5
2A4
100
AcDbEntity
  8
0
100
AcDbSpline
 62
7
  6
CONTINUOUS
 70
0
 71
3
 72
11
 73
7
 74
0
 42
0.0000001
 43
0.0000001
 44
0.0000000001
 40
0.0
 40
0.0
 40
0.0
 40
0.0
 40
0.2503651005
 40
0.5003823138
 40
0.7502264669
 40
1.0
 40
1.0
 40
1.0
 40
1.0
 10
18.5772810747
 20
32.5528969218
 30
0.0
 10
18.5357114741
 20
32.3452864181
 30
0.0
 10
18.416882829
 20
31.9368413295
 30
0.0
 10
18.1486080934
 20
31.3596691255
 30
0.0
 10
17.806309585
 20
30.824131046
 30
0.0
 10
17.5382956039
 20
30.4962493305
 30
0.0
 10
17.3964356689
 20
30.3397427461
 30
0.0
  0
SPLINE
  5
2A5
100
AcDbEntity
  8
0
100
AcDbSpline
 62
7
  6
CONTINUOUS
 70
0
 71
3
 72
12
 73
8
 74
0
 42
0.0000001
 43
0.0000001
 44
0.0000000001
 40
0.0
 40
0.0
 40
0.0
 40
0.0
 40
0.2510048317
 40
0.5014987585
 40
0.7504074201
 40
0.875464136
 40
1.0
 40
1.0
 40
1.0
 40
1.0
 10
18.2587196098
 20
32.9361189905
 30
0.0
 10
18.3008892361
 20
32.9349624339
 30
0.0
 10
18.3853804135
 20
32.9216339476
 30
0.0
 10
18.5005004165
 20
32.8647159182
 30
0.0
 10
18.5711537181
 20
32.7809435136
 30
0.0
 10
18.5951833517
 20
32.699637054
 30
0.0
 10
18.5958382057
 20
32.6570719924
 30
0.0
 10
18.5932547894
 20
32.6363017424
 30
0.0
  0
LINE
  5
2A6
100
AcDbEntity
  8
0
100
AcDbLine
 62
7
  6
CONTINUOUS
 10
17.1373839707
 20
32.9670653866
 11
18.2587196098
 21
32.9361189905
  0
SPLINE
  5
2A7
100
AcDbEntity
  8
0
100
AcDbSpline
 62
7
  6
CONTINUOUS
 70
0
 71
3
 72
11
 73
7
 74
0
 42
0.0000001
 43
0.0000001
 44
0.0000000001
 40
0.0
 40
0.0
 40
0.0
 40
0.0
 40
0.2483034963
 40
0.4977687581
 40
0.7486195791
 40
1.0
 40
1.0
 40
1.0
 40
1.0
 10
16.8044551498
 20
33.2668806011
 30
0.0
 10
16.8002735889
 20
33.2256867433
 30
0.0
 10
16.8145928426
 20
33.1390018108
 30
0.0
 10
16.8975590963
 20
33.0396046659
 30
0.0
 10
17.0115045213
 20
32.9816350008
 30
0.0
 10
17.0954814833
 20
32.9682288434
 30
0.0
 10
17.1373839707
 20
32.9670653866
 30
0.0
  0
SPLINE
  5
2A8
100
AcDbEntity
  8
0
100
AcDbSpline
 62
7
  6
CONTINUOUS
 70
0
 71
3
 72
9
 73
5
 74
0
 42
0.0000001
 43
0.0000001
 44
0.0000000001
 40
0.0
 40
0.0
 40
0.0
 40
0.0
 40
0.500617654
 40
1.0
 40
1.0
 40
1.0
 40
1.0
 10
16.8906165366
 20
33.5394555812
 30
0.0
 10
16.8749229607
 20
33.5203592018
 30
0.0
 10
16.8476377203
 20
33.4785995941
 30
0.0
 10
16.831992183
 20
33.4309732924
 30
0.0
 10
16.8278545279
 20
33.4066663306
 30
0.0
  0
LINE
  5
2A9
100
AcDbEntity
  8
0
100
AcDbLine
 62
7
  6
CONTINUOUS
 10
20.1188158627
 20
62.9777734344
 11
20.2741661065
 21
62.8476658155
  0
SPLINE
  5
2AA
100
AcDbEntity
  8
0
100
AcDbSpline
 62
7
  6
CONTINUOUS
 70
0
 71
3
 72
15
 73
11
 74
0
 42
0.0000001
 43
0.0000001
 44
0.0000000001
 40
0.0
 40
0.0
 40
0.0
 40
0.0
 40
0.2319931812
 40
0.4826973642
 40
0.6121067164
 40
0.7422523935
 40
0.8072634239
 40
0.8719498356
 40
0.9361020171
 40
1.0
 40
1.0
 40
1.0
 40
1.0
 10
20.2741661065
 20
62.8470812738
 30
0.0
 10
20.4302932144
 20
62.7162628199
 30
0.0
 10
20.7479963943
 20
62.4354359238
 30
0.0
 10
21.1244189755
 20
62.0505846708
 30
0.0
 10
21.4088442582
 20
61.7040481934
 30
0.0
 10
21.5707248576
 20
61.4688436382
 30
0.0
 10
21.6829306551
 20
61.2700344959
 30
0.0
 10
21.7554087915
 20
61.115792683
 30
0.0
 10
21.8115834869
 20
60.9558060784
 30
0.0
 10
21.834967462
 20
60.8453690682
 30
0.0
 10
21.8423110225
 20
60.7897496627
 30
0.0
  0
SPLINE
  5
2AB
100
AcDbEntity
  8
0
100
AcDbSpline
 62
7
  6
CONTINUOUS
 70
0
 71
3
 72
10
 73
6
 74
0
 42
0.0000001
 43
0.0000001
 44
0.0000000001
 40
0.0
 40
0.0
 40
0.0
 40
0.0
 40
0.2374339343
 40
0.6096692647
 40
1.0
 40
1.0
 40
1.0
 40
1.0
 10
21.7208261619
 20
60.5495324862
 30
0.0
 10
21.6094605228
 20
60.3812903853
 30
0.0
 10
21.3192167454
 20
59.9521179896
 30
0.0
 10
20.8277228261
 20
59.2587943705
 30
0.0
 10
20.4385331886
 20
58.7405799407
 30
0.0
 10
20.2361747721
 20
58.4777734344
 30
0.0
  0
SPLINE
  5
2AC
100
AcDbEntity
  8
0
100
AcDbSpline
 62
7
  6
CONTINUOUS
 70
0
 71
3
 72
13
 73
9
 74
0
 42
0.0000001
 43
0.0000001
 44
0.0000000001
 40
0.0
 40
0.0
 40
0.0
 40
0.0
 40
0.2468695763
 40
0.4927160506
 40
0.6163603628
 40
0.7413083657
 40
0.8688315585
 40
1.0
 40
1.0
 40
1.0
 40
1.0
 10
20.2594210995
 20
57.7762832866
 30
0.0
 10
20.3707931527
 20
57.584471566
 30
0.0
 10
20.5688294103
 20
57.1866857965
 30
0.0
 10
20.7278386911
 20
56.6518123588
 30
0.0
 10
20.7781361488
 20
56.2093231009
 30
0.0
 10
20.7699133525
 20
55.8702000784
 30
0.0
 10
20.7059821168
 20
55.5299159982
 30
0.0
 10
20.6233016149
 20
55.3110667587
 30
0.0
 10
20.5716654473
 20
55.2051328479
 30
0.0
  0
SPLINE
  5
2AD
100
AcDbEntity
  8
0
100
AcDbSpline
 62
7
  6
CONTINUOUS
 70
0
 71
3
 72
11
 73
7
 74
0
 42
0.0000001
 43
0.0000001
 44
0.0000000001
 40
0.0
 40
0.0
 40
0.0
 40
0.0
 40
0.245810797
 40
0.4924393651
 40
0.7427361402
 40
1.0
 40
1.0
 40
1.0
 40
1.0
 10
20.3422847237
 20
51.9596354789
 30
0.0
 10
20.4289234239
 20
51.7569168857
 30
0.0
 10
20.5684510044
 20
51.3346550939
 30
0.0
 10
20.6366808836
 20
50.6654059517
 30
0.0
 10
20.5207997952
 20
49.9894815684
 30
0.0
 10
20.3098210774
 20
49.5771003835
 30
0.0
 10
20.1769309171
 20
49.3884850402
 30
0.0
  0
SPLINE
  5
2AE
100
AcDbEntity
  8
0
100
AcDbSpline
 62
7
  6
CONTINUOUS
 70
0
 71
3
 72
11
 73
7
 74
0
 42
0.0000001
 43
0.0000001
 44
0.0000000001
 40
0.0
 40
0.0
 40
0.0
 40
0.0
 40
0.2472560533
 40
0.4959992914
 40
0.746803359
 40
1.0
 40
1.0
 40
1.0
 40
1.0
 10
19.9481396714
 20
47.0691854464
 30
0.0
 10
20.0062846499
 20
46.8653421508
 30
0.0
 10
20.0906190381
 20
46.4461085601
 30
0.0
 10
20.0999757626
 20
45.8019834924
 30
0.0
 10
19.9795519495
 20
45.1635143148
 30
0.0
 10
19.8134865499
 20
44.76093264
 30
0.0
 10
19.7117466802
 20
44.5691854464
 30
0.0
  0
SPLINE
  5
2AF
100
AcDbEntity
  8
0
100
AcDbSpline
 62
7
  6
CONTINUOUS
 70
0
 71
3
 72
13
 73
9
 74
0
 42
0.0000001
 43
0.0000001
 44
0.0000000001
 40
0.0
 40
0.0
 40
0.0
 40
0.0
 40
0.2483433023
 40
0.3730943034
 40
0.4980665841
 40
0.6233038382
 40
0.7488077196
 40
1.0
 40
1.0
 40
1.0
 40
1.0
 10
19.2283630913
 20
42.8075723381
 30
0.0
 10
19.2625971817
 20
42.5934851959
 30
0.0
 10
19.2850458384
 20
42.2660692833
 30
0.0
 10
19.2525301147
 20
41.8319677838
 30
0.0
 10
19.1962138482
 20
41.5089548559
 30
0.0
 10
19.1093176041
 20
41.1921388319
 30
0.0
 10
18.9538470861
 20
40.7819454914
 30
0.0
 10
18.7958606525
 20
40.4910697794
 30
0.0
 10
18.6757830295
 20
40.3075723381
 30
0.0
  0
SPLINE
  5
2B0
100
AcDbEntity
  8
0
100
AcDbSpline
 62
7
  6
CONTINUOUS
 70
0
 71
3
 72
9
 73
5
 74
0
 42
0.0000001
 43
0.0000001
 44
0.0000000001
 40
0.0
 40
0.0
 40
0.0
 40
0.0
 40
0.5001179221
 40
1.0
 40
1.0
 40
1.0
 40
1.0
 10
17.4761369417
 20
38.5321613669
 30
0.0
 10
17.4641138051
 20
38.5148937886
 30
0.0
 10
17.4439255859
 20
38.477466695
 30
0.0
 10
17.4337980907
 20
38.4360568931
 30
0.0
 10
17.4315766306
 20
38.4151434351
 30
0.0
  0
LINE
  5
2B1
100
AcDbEntity
  8
0
100
AcDbLine
 62
7
  6
CONTINUOUS
 10
17.4315766306
 20
38.4151434351
 11
17.4192108531
 21
38.2985603798
  0
SPLINE
  5
2B2
100
AcDbEntity
  8
0
100
AcDbSpline
 62
7
  6
CONTINUOUS
 70
0
 71
3
 72
8
 73
4
 74
0
 42
0.0000001
 43
0.0000001
 44
0.0000000001
 40
0.0
 40
0.0
 40
0.0
 40
0.0
 40
1.0
 40
1.0
 40
1.0
 40
1.0
 10
17.4192108531
 20
38.2985603798
 30
0.0
 10
17.4180800793
 20
38.2878841723
 30
0.0
 10
17.4177273912
 20
38.2771044398
 30
0.0
 10
17.4180525877
 20
38.2663734425
 30
0.0
  0
SPLINE
  5
2B3
100
AcDbEntity
  8
0
100
AcDbSpline
 62
7
  6
CONTINUOUS
 70
0
 71
3
 72
12
 73
8
 74
0
 42
0.0000001
 43
0.0000001
 44
0.0000000001
 40
0.0
 40
0.0
 40
0.0
 40
0.0
 40
0.2489063407
 40
0.3743561025
 40
0.4998136529
 40
0.7498917041
 40
1.0
 40
1.0
 40
1.0
 40
1.0
 10
17.4180525877
 20
38.2663734425
 30
0.0
 10
17.4193742464
 20
38.22276069
 30
0.0
 10
17.440667379
 20
38.1566427153
 30
0.0
 10
17.4951475634
 20
38.0875569794
 30
0.0
 10
17.5622541886
 20
38.0300873655
 30
0.0
 10
17.6629319028
 20
37.9819036161
 30
0.0
 10
17.7506870519
 20
37.9677547947
 30
0.0
 10
17.7945141325
 20
37.966555948
 30
0.0
  0
LINE
  5
2B4
100
AcDbEntity
  8
0
100
AcDbLine
 62
7
  6
CONTINUOUS
 10
17.7945141325
 20
37.966555948
 11
18.8624736282
 21
37.9375230689
  0
SPLINE
  5
2B5
100
AcDbEntity
  8
0
100
AcDbSpline
 62
7
  6
CONTINUOUS
 70
0
 71
3
 72
12
 73
8
 74
0
 42
0.0000001
 43
0.0000001
 44
0.0000000001
 40
0.0
 40
0.0
 40
0.0
 40
0.0
 40
0.2500701649
 40
0.5001408543
 40
0.625609769
 40
0.7510837602
 40
1.0
 40
1.0
 40
1.0
 40
1.0
 10
18.8624736282
 20
37.9375230689
 30
0.0
 10
18.9066250869
 20
37.936330386
 30
0.0
 10
18.9950082409
 20
37.9223032881
 30
0.0
 10
19.0968582901
 20
37.8748009835
 30
0.0
 10
19.1651499767
 20
37.8176745691
 30
0.0
 10
19.2207304217
 20
37.7486212861
 30
0.0
 10
19.2422893409
 20
37.6816747573
 30
0.0
 10
19.2429157118
 20
37.6377154616
 30
0.0
  0
SPLINE
  5
2B6
100
AcDbEntity
  8
0
100
AcDbSpline
 62
7
  6
CONTINUOUS
 70
0
 71
3
 72
9
 73
5
 74
0
 42
0.0000001
 43
0.0000001
 44
0.0000000001
 40
0.0
 40
0.0
 40
0.0
 40
0.0
 40
0.4999996697
 40
1.0
 40
1.0
 40
1.0
 40
1.0
 10
19.2425153834
 20
37.6205052656
 30
0.0
 10
19.2420582755
 20
37.612991068
 30
0.0
 10
19.2394736583
 20
37.5980604797
 30
0.0
 10
19.240767046
 20
37.5829530137
 30
0.0
 10
19.2404410896
 20
37.5754319755
 30
0.0
  0
SPLINE
  5
2B7
100
AcDbEntity
  8
0
100
AcDbSpline
 62
7
  6
CONTINUOUS
 70
0
 71
3
 72
8
 73
4
 74
0
 42
0.0000001
 43
0.0000001
 44
0.0000000001
 40
0.0
 40
0.0
 40
0.0
 40
0.0
 40
1.0
 40
1.0
 40
1.0
 40
1.0
 10
19.2404410896
 20
37.5754319755
 30
0.0
 10
19.2401144307
 20
37.5678947281
 30
0.0
 10
19.238810499
 20
37.5604264395
 30
0.0
 10
19.2383380931
 20
37.5528969219
 30
0.0
  0
SPLINE
  5
2B8
100
AcDbEntity
  8
0
100
AcDbSpline
 62
7
  6
CONTINUOUS
 70
0
 71
3
 72
9
 73
5
 74
0
 42
0.0000001
 43
0.0000001
 44
0.0000000001
 40
0.0
 40
0.0
 40
0.0
 40
0.0
 40
0.4999839854
 40
1.0
 40
1.0
 40
1.0
 40
1.0
 10
19.1863995727
 20
37.1331373235
 30
0.0
 10
19.1257950706
 20
36.8058895088
 30
0.0
 10
18.9107504744
 20
36.1662577107
 30
0.0
 10
18.5485003065
 20
35.6009010906
 30
0.0
 10
18.3421642976
 20
35.3397427461
 30
0.0
  0
LINE
  5
2B9
100
AcDbEntity
  8
0
100
AcDbLine
 62
7
  6
CONTINUOUS
 10
15.358355134
 20
22.5528969218
 11
15.3868509145
 21
22.619090993
  0
LINE
  5
2BA
100
AcDbEntity
  8
0
100
AcDbLine
 62
7
  6
CONTINUOUS
 10
17.2573816712
 20
27.5528969218
 11
17.2788452575
 21
27.619090993
  0
LINE
  5
2BB
100
AcDbEntity
  8
0
100
AcDbLine
 62
7
  6
CONTINUOUS
 10
18.5772810747
 20
32.5528969218
 11
18.5904769964
 21
32.619090993
  0
SPLINE
  5
2BC
100
AcDbEntity
  8
0
100
AcDbSpline
 62
7
  6
CONTINUOUS
 70
0
 71
3
 72
22
 73
18
 74
0
 42
0.0000001
 43
0.0000001
 44
0.0000000001
 40
0.0
 40
0.0
 40
0.0
 40
0.0
 40
0.0015170846
 40
0.0053433666
 40
0.0115655237
 40
0.0201618434
 40
0.0310965022
 40
0.0443297357
 40
0.0775258164
 40
0.119405708
 40
0.1695899583
 40
0.2276899633
 40
0.2933164214
 40
0.444918254
 40
0.6179186832
 40
0.8052280743
 40
1.0
 40
1.0
 40
1.0
 40
1.0
 10
41.9742046055
 20
9.4952258452
 30
0.0
 10
41.9742090198
 20
9.4949729461
 30
0.0
 10
41.9753774516
 20
9.4946615717
 30
0.0
 10
41.9769978184
 20
9.494332625
 30
0.0
 10
41.980241526
 20
9.4939849118
 30
0.0
 10
41.9844564841
 20
9.493656041
 30
0.0
 10
41.9899357752
 20
9.4933430269
 30
0.0
 10
41.9994789998
 20
9.4929245042
 30
0.0
 10
42.014204467
 20
9.4924955533
 30
0.0
 10
42.0350818566
 20
9.492104977
 30
0.0
 10
42.0601178717
 20
9.4918207112
 30
0.0
 10
42.0891125311
 20
9.4916477045
 30
0.0
 10
42.1350171623
 20
9.4915715761
 30
0.0
 10
42.2000783594
 20
9.4918152981
 30
0.0
 10
42.2854246475
 20
9.4925301675
 30
0.0
 10
42.3779645741
 20
9.4936600204
 30
0.0
 10
42.441659827
 20
9.4946592778
 30
0.0
 10
42.474128453
 20
9.4952258473
 30
0.0
  0
ENDSEC
  0
SECTION
  2
OBJECTS
  0
DICTIONARY
  5
C
100
AcDbDictionary
280
0
281
1
  3
ACAD_GROUP
350
D
  3
ACAD_MLINESTYLE
350
17
  3
ACAD_LAYOUT
350
1A
  3
ACAD_PLOTSETTINGS
350
19
  3
ACAD_PLOTSTYLENAME
350
E
  0
DICTIONARY
  5
D
102
{ACAD_REACTORS
330
C
102
}
100
AcDbDictionary
280
0
281
1
  0
ACDBDICTIONARYWDFLT
  5
E
102
{ACAD_REACTORS
330
C
102
}
100
AcDbDictionary
281
1
  3
Normal
350
F
100
AcDbDictionaryWithDefault
340
F
  0
DICTIONARY
  5
17
102
{ACAD_REACTORS
330
C
102
}
100
AcDbDictionary
280
0
281
1
  3
Standard
350
18
  0
DICTIONARY
  5
19
102
{ACAD_REACTORS
330
C
102
}
100
AcDbDictionary
281
1
  0
DICTIONARY
  5
1A
102
{ACAD_REACTORS
330
C
102
}
100
AcDbDictionary
281
1
  3
Model
350
2BD
  3
Layout1
350
2BE
  0
ACDBPLACEHOLDER
  5
F
102
{ACAD_REACTORS
330
E
102
}
  0
MLINESTYLE
  5
18
102
{ACAD_REACTORS
330
17
102
}
100
AcDbMlineStyle
  2
STANDARD
 70
0
  3

 62
256
 51
90.0
 52
90.0
 71
2
 49
0.5
 62
256
  6
BYLAYER
 49
-0.5
 62
256
  6
BYLAYER
  0
LAYOUT
  5
2BD
102
{ACAD_REACTORS
330
1A
102
}
100
AcDbPlotSettings
  1

  2
none_device
  4

  6

 40
0.0
 41
0.0
 42
0.0
 43
0.0
 44
210.0
 45
297.0
 46
0.0
 47
0.0
 48
0.0
 49
0.0
140
0.0
141
0.0
142
1.0
143
1.0
 70
1024
 72
1
 73
0
 74
0
  7

 75
0
147
1.0
148
0.0
149
0.0
100
AcDbLayout
  1
Model
 70
0
 71
0
 10
0.0
 20
0.0
 11
210.0
 21
297.0
 12
0.0
 22
0.0
 32
0.0
 14
0.0
 24
0.0
 34
0.0
 15
0.0
 25
0.0
 35
0.0
146
0.0
 13
0.0
 23
0.0
 33
0.0
 16
1.0
 26
0.0
 36
0.0
 17
0.0
 27
1.0
 37
0.0
 76
0
330
210
345
0
346
0
  0
LAYOUT
  5
2BE
102
{ACAD_REACTORS
330
1A
102
}
100
AcDbPlotSettings
  1

  2
none_device
  4

  6

 40
0.0
 41
0.0
 42
0.0
 43
0.0
 44
210.0
 45
297.0
 46
0.0
 47
0.0
 48
0.0
 49
0.0
140
0.0
141
0.0
142
1.0
143
1.0
 70
0
 72
1
 73
0
 74
0
  7

 75
0
147
1.0
148
0.0
149
0.0
100
AcDbLayout
  1
Layout1
 70
0
 71
1
 10
0.0
 20
0.0
 11
210.0
 21
297.0
 12
0.0
 22
0.0
 32
0.0
 14
0.0
 24
0.0
 34
0.0
 15
0.0
 25
0.0
 35
0.0
146
0.0
 13
0.0
 23
0.0
 33
0.0
 16
1.0
 26
0.0
 36
0.0
 17
0.0
 27
1.0
 37
0.0
 76
0
330
211
345
0
346
0
  0
ENDSEC
  0
EOF
