999
DXF file: C:\Users\sesa63760\Dev\_Creo\CAD\MCADFD0002481_3D-CAD\drw0001_1.dxf
999
Pro/ENGINEER 2019471 by Parametric Technology Corporation
  0
SECTION
  2
HEADER
  9
$ACADVER
  1
AC1024
  9
$DWGCODEPAGE
  3
ANSI_1252
  9
$EXTMAX
 10
89.6428816729
 20
126.7806469374
 30
0.0
  9
$EXTMIN
 10
0.0
 20
0.0
 30
0.0
  9
$LIMMIN
 10
0.0
 20
0.0
  9
$LIMMAX
 10
89.6428816729
 20
126.7806469374
  9
$VIEWCTR
 10
44.8214408365
 20
63.3903234687
  9
$VIEWSIZE
 40
126.7806469374
  9
$CLAYER
  8
0
  9
$LTSCALE
 40
8.2642199485
  9
$CELTYPE
  6
BYLAYER
  9
$DIMSCALE
 40
1.0
  9
$DIMASZ
 40
1.0671771628
  9
$DIMEXO
 40
1.0
  9
$DIMDLI
 40
5.7098246917
  9
$DIMEXE
 40
1.0
  9
$DIMCEN
 40
1.3523269007
  9
$DIMLFAC
 40
1.0
  9
$DIMBLK
  1
_FILLED
  9
$DIMALT
 70
0
  9
$DIMALTF
 40
0.0393700787
  9
$DIMTXT
 40
1.4940480279
  9
$DIMTOL
 70
1
  9
$DIMLIM
 70
0
  9
$DIMTFAC
 40
1.0
  9
$DIMTP
 40
0.01
  9
$DIMTM
 40
0.01
  9
$DIMGAP
 40
0.625
  9
$DIMDSEP
 70
46
  9
$AUNITS
 70
0
  9
$PDMODE
 70
3
  9
$PDSIZE
 40
0.3125
  9
$HANDSEED
  5
289
  9
$TILEMODE
 70
1
  9
$MEASUREMENT
 70
1
  9
$INSUNITS
 70
4
  0
ENDSEC
  0
SECTION
  2
CLASSES
  0
CLASS
  1
ACDBDICTIONARYWDFLT
  2
AcDbDictionaryWithDefault
  3
AutoCAD 2000
 90
0
 91
1
280
0
281
0
  0
CLASS
  1
ACDBPLACEHOLDER
  2
AcDbPlaceHolder
  3
AutoCAD 2000
 90
0
 91
1
280
0
281
0
  0
CLASS
  1
LAYOUT
  2
AcDbLayout
  3
AutoCAD 2000
 90
0
 91
0
280
0
281
0
  0
ENDSEC
  0
SECTION
  2
TABLES
  0
TABLE
  2
VPORT
  5
8
100
AcDbSymbolTable
 70
2
  0
VPORT
  5
1F4
100
AcDbSymbolTableRecord
100
AcDbViewportTableRecord
  2
*ACTIVE
 70
0
 10
0.0
 20
0.0
 11
1.0
 21
1.0
 12
44.8214408365
 22
63.3903234687
 13
0.0
 23
0.0
 14
1.0
 24
1.0
 15
0.0
 25
0.0
 16
0.0
 26
0.0
 36
1.0
 17
0.0
 27
0.0
 37
0.0
 40
126.7806469374
 41
0.7070707071
 42
50.0
 43
0.0
 44
0.0
 50
0.0
 51
0.0
 71
0
 72
100
 73
1
 74
1
 75
0
 76
0
 77
0
 78
0
  0
ENDTAB
  0
TABLE
  2
LTYPE
  5
5
100
AcDbSymbolTable
 70
6
  0
LTYPE
  5
14
100
AcDbSymbolTableRecord
100
AcDbLinetypeTableRecord
  2
BYBLOCK
 70
0
  3

 72
65
 73
0
 40
0.0
  0
LTYPE
  5
15
100
AcDbSymbolTableRecord
100
AcDbLinetypeTableRecord
  2
BYLAYER
 70
0
  3

 72
65
 73
0
 40
0.0
  0
LTYPE
  5
16
100
AcDbSymbolTableRecord
100
AcDbLinetypeTableRecord
  2
CONTINUOUS
 70
64
  3
Solid line
 72
65
 73
0
 40
0.0
  0
LTYPE
  5
1F5
100
AcDbSymbolTableRecord
100
AcDbLinetypeTableRecord
  2
CENTER
 70
64
  3
____ _ ____ _ ____ _ ____ _ ____ _ ____ _ ____
 72
65
 73
4
 40
0.6
 49
0.375
 74
0
 49
-0.075
 74
0
 49
0.075
 74
0
 49
-0.075
 74
0
  0
LTYPE
  5
1F6
100
AcDbSymbolTableRecord
100
AcDbLinetypeTableRecord
  2
HIDDEN
 70
64
  3
- - - - - - - - - - - - - - - - - - - -
 72
65
 73
2
 40
0.2
 49
0.1
 74
0
 49
-0.1
 74
0
  0
LTYPE
  5
1F7
100
AcDbSymbolTableRecord
100
AcDbLinetypeTableRecord
  2
PHANTOM
 70
64
  3
_____ _ _ _____ _ _ _____ _ _ _____
 72
65
 73
6
 40
0.8
 49
0.45
 74
0
 49
-0.05
 74
0
 49
0.1
 74
0
 49
-0.05
 74
0
 49
0.1
 74
0
 49
-0.05
 74
0
  0
LTYPE
  5
1F8
100
AcDbSymbolTableRecord
100
AcDbLinetypeTableRecord
  2
DOT
 70
64
  3
. . . . . . . . . . . . . . . . . . . .
 72
65
 73
2
 40
0.2
 49
0.1
 74
0
 49
-0.1
 74
0
  0
LTYPE
  5
1F9
100
AcDbSymbolTableRecord
100
AcDbLinetypeTableRecord
  2
DASHED
 70
64
  3
- - - - - - - - - - - - - - - - - - - -
 72
65
 73
2
 40
0.2
 49
0.1
 74
0
 49
-0.1
 74
0
  0
ENDTAB
  0
TABLE
  2
LAYER
  5
2
100
AcDbSymbolTable
 70
36
  0
LAYER
  5
10
100
AcDbSymbolTableRecord
100
AcDbLayerTableRecord
  2
0
 70
0
 62
7
  6
CONTINUOUS
370
-3
390
F
  0
LAYER
  5
1FA
100
AcDbSymbolTableRecord
100
AcDbLayerTableRecord
  2
DEFAULT_1
 70
0
 62
7
  6
CENTER
370
-3
390
F
  0
LAYER
  5
1FB
100
AcDbSymbolTableRecord
100
AcDbLayerTableRecord
  2
DEFAULT_2
 70
0
 62
8
  6
HIDDEN
370
-3
390
F
  0
LAYER
  5
1FC
100
AcDbSymbolTableRecord
100
AcDbLayerTableRecord
  2
DEFAULT_3
 70
0
 62
7
  6
PHANTOM
370
-3
390
F
  0
LAYER
  5
1FD
100
AcDbSymbolTableRecord
100
AcDbLayerTableRecord
  2
00_COMPONENTS
 70
0
 62
7
  6
CONTINUOUS
370
-3
390
F
  0
LAYER
  5
1FE
100
AcDbSymbolTableRecord
100
AcDbLayerTableRecord
  2
01_1_DEFAULT_DATUMS
 70
0
 62
7
  6
CONTINUOUS
370
-3
390
F
  0
LAYER
  5
1FF
100
AcDbSymbolTableRecord
100
AcDbLayerTableRecord
  2
01_PLANES
 70
0
 62
7
  6
CONTINUOUS
370
-3
390
F
  0
LAYER
  5
200
100
AcDbSymbolTableRecord
100
AcDbLayerTableRecord
  2
02_COORD_SYS
 70
0
 62
7
  6
CONTINUOUS
370
-3
390
F
  0
LAYER
  5
201
100
AcDbSymbolTableRecord
100
AcDbLayerTableRecord
  2
03_AXES
 70
0
 62
7
  6
CONTINUOUS
370
-3
390
F
  0
LAYER
  5
202
100
AcDbSymbolTableRecord
100
AcDbLayerTableRecord
  2
04_POINTS
 70
0
 62
7
  6
CONTINUOUS
370
-3
390
F
  0
LAYER
  5
203
100
AcDbSymbolTableRecord
100
AcDbLayerTableRecord
  2
05_CURVES
 70
0
 62
7
  6
CONTINUOUS
370
-3
390
F
  0
LAYER
  5
204
100
AcDbSymbolTableRecord
100
AcDbLayerTableRecord
  2
06_SURFS
 70
0
 62
7
  6
CONTINUOUS
370
-3
390
F
  0
LAYER
  5
205
100
AcDbSymbolTableRecord
100
AcDbLayerTableRecord
  2
07_COSMETICS
 70
0
 62
7
  6
CONTINUOUS
370
-3
390
F
  0
LAYER
  5
206
100
AcDbSymbolTableRecord
100
AcDbLayerTableRecord
  2
10_NOTES
 70
0
 62
7
  6
CONTINUOUS
370
-3
390
F
  0
LAYER
  5
207
100
AcDbSymbolTableRecord
100
AcDbLayerTableRecord
  2
11_NOTES_PUB
 70
0
 62
7
  6
CONTINUOUS
370
-3
390
F
  0
LAYER
  5
208
100
AcDbSymbolTableRecord
100
AcDbLayerTableRecord
  2
13_REF_GTOL
 70
0
 62
7
  6
CONTINUOUS
370
-3
390
F
  0
LAYER
  5
209
100
AcDbSymbolTableRecord
100
AcDbLayerTableRecord
  2
16_MISC
 70
0
 62
7
  6
CONTINUOUS
370
-3
390
F
  0
LAYER
  5
20A
100
AcDbSymbolTableRecord
100
AcDbLayerTableRecord
  2
17_NO_PRINT
 70
0
 62
7
  6
CONTINUOUS
370
-3
390
F
  0
LAYER
  5
20B
100
AcDbSymbolTableRecord
100
AcDbLayerTableRecord
  2
18_DATUM_CAMS_JOINTS
 70
0
 62
7
  6
CONTINUOUS
370
-3
390
F
  0
LAYER
  5
20C
100
AcDbSymbolTableRecord
100
AcDbLayerTableRecord
  2
19_DATUM_FUNCTIONAL
 70
0
 62
7
  6
CONTINUOUS
370
-3
390
F
  0
LAYER
  5
20D
100
AcDbSymbolTableRecord
100
AcDbLayerTableRecord
  2
20_DATUM_KINEMATIC_SCHEME
 70
0
 62
7
  6
CONTINUOUS
370
-3
390
F
  0
ENDTAB
  0
TABLE
  2
STYLE
  5
3
100
AcDbSymbolTable
 70
1
  0
STYLE
  5
11
100
AcDbSymbolTableRecord
100
AcDbTextStyleTableRecord
  2
STANDARD
 70
0
 40
0.0
 41
0.8
 50
0.0
 71
0
 42
0.2
  3
txt
  4

  0
STYLE
  5
20E
100
AcDbSymbolTableRecord
100
AcDbTextStyleTableRecord
  2
TEXTSTYLE_1
 70
0
 40
0.0
 41
0.8
 50
0.0
 71
0
 42
0.2
  3
gdt
  4

  0
ENDTAB
  0
TABLE
  2
VIEW
  5
6
100
AcDbSymbolTable
 70
0
  0
ENDTAB
  0
TABLE
  2
UCS
  5
7
100
AcDbSymbolTable
 70
0
  0
ENDTAB
  0
TABLE
  2
APPID
  5
9
100
AcDbSymbolTable
 70
1
  0
APPID
  5
20F
100
AcDbSymbolTableRecord
100
AcDbRegAppTableRecord
  2
ACAD
 70
0
  0
ENDTAB
  0
TABLE
  2
BLOCK_RECORD
  5
1
100
AcDbSymbolTable
 70
0
  0
BLOCK_RECORD
  5
210
100
AcDbSymbolTableRecord
100
AcDbBlockTableRecord
  2
*Model_Space
  0
BLOCK_RECORD
  5
211
100
AcDbSymbolTableRecord
100
AcDbBlockTableRecord
  2
*Paper_Space
  0
BLOCK_RECORD
  5
212
100
AcDbSymbolTableRecord
100
AcDbBlockTableRecord
  2
_FILLED
  0
ENDTAB
  0
TABLE
  2
DIMSTYLE
  5
A
100
AcDbSymbolTable
 70
1
100
AcDbDimStyleTable
 71
0
  0
DIMSTYLE
105
213
100
AcDbSymbolTableRecord
100
AcDbDimStyleTableRecord
  2
STANDARD
 70
0
  3

  4

 40
1.0
 41
1.0671771628
 42
1.0
 43
0.38
 44
1.0
 45
0.0
 46
0.0
 47
0.01
 48
0.01
140
1.4940480279
141
0.09
142
0.0
143
25.4
144
1.0
145
0.0
146
1.0
147
0.625
 71
1
 72
0
 73
0
 74
0
 75
0
 76
0
 77
1
 78
8
 79
2
170
0
171
1
172
0
173
0
174
0
175
0
176
0
177
0
178
0
270
2
179
2
271
2
272
2
273
2
274
2
275
0
280
0
281
0
282
0
283
1
284
8
285
0
286
0
287
3
288
0
340
11
278
46
341
212
342
212
343
212
344
212
  0
ENDTAB
  0
ENDSEC
  0
SECTION
  2
BLOCKS
  0
BLOCK
  5
20
100
AcDbEntity
  8
0
100
AcDbBlockBegin
  2
*Model_Space
 70
0
 10
0.0
 20
0.0
 30
0.0
  3
*Model_Space
  1

  0
ENDBLK
  5
21
100
AcDbEntity
  8
0
100
AcDbBlockEnd
  0
BLOCK
  5
1C
100
AcDbEntity
  8
0
100
AcDbBlockBegin
  2
*Paper_Space
 70
0
 10
0.0
 20
0.0
 30
0.0
  3
*Paper_Space
  1

  0
ENDBLK
  5
1D
100
AcDbEntity
  8
0
100
AcDbBlockEnd
  0
BLOCK
  5
214
100
AcDbEntity
  8
0
100
AcDbBlockBegin
  2
_FILLED
 70
64
 10
0.0
 20
0.0
  3
_FILLED
  1

  0
SOLID
  5
215
100
AcDbEntity
  8
0
  6
BYBLOCK
 62
0
100
AcDbTrace
 10
0.0
 20
0.0
 11
-1.0
 21
0.25
 12
-1.0
 22
-0.25
 13
-1.0
 23
-0.25
  0
ENDBLK
  5
216
100
AcDbEntity
  8
0
  6
BYBLOCK
 62
0
100
AcDbBlockEnd
  0
ENDSEC
  0
SECTION
  2
ENTITIES
  0
LINE
  5
217
100
AcDbEntity
  8
0
100
AcDbLine
 62
7
  6
CONTINUOUS
 10
11.1925281816
 20
91.7231204982
 11
23.7082661003
 21
98.9490420217
  0
LINE
  5
218
100
AcDbEntity
  8
0
100
AcDbLine
 62
7
  6
CONTINUOUS
 10
24.2082638619
 20
98.8995177427
 11
11.6925259432
 21
91.6735962191
  0
LINE
  5
219
100
AcDbEntity
  8
0
100
AcDbLine
 62
7
  6
CONTINUOUS
 10
24.0569042254
 20
97.2842336742
 11
36.572642144
 21
104.5101551978
  0
LINE
  5
21A
100
AcDbEntity
  8
0
100
AcDbLine
 62
7
  6
CONTINUOUS
 10
27.5349129674
 20
99.2131238553
 11
38.8485743628
 21
105.7450303173
  0
LINE
  5
21B
100
AcDbEntity
  8
0
100
AcDbLine
 62
7
  6
CONTINUOUS
 10
29.607553915
 20
100.327681277
 11
40.9212153105
 21
106.859587739
  0
LINE
  5
21C
100
AcDbEntity
  8
0
100
AcDbLine
 62
7
  6
CONTINUOUS
 10
27.7890236999
 20
98.7625681993
 11
25.0568997485
 21
97.1851851162
  0
LINE
  5
21D
100
AcDbEntity
  8
0
100
AcDbLine
 62
7
  6
CONTINUOUS
 10
25.127610721
 20
97.1443610408
 11
27.8237617485
 21
98.7009752705
  0
LINE
  5
21E
100
AcDbEntity
  8
0
100
AcDbLine
 62
7
  6
CONTINUOUS
 10
25.127610721
 20
96.1645581402
 11
28.2406255348
 21
97.9618473525
  0
LINE
  5
21F
100
AcDbEntity
  8
0
100
AcDbLine
 62
7
  6
CONTINUOUS
 10
40.9212153105
 20
106.859587739
 11
38.8485743628
 21
105.7450303173
  0
LINE
  5
220
100
AcDbEntity
  8
0
100
AcDbLine
 62
7
  6
CONTINUOUS
 10
29.607553915
 20
100.327681277
 11
27.5349129674
 21
99.2131238553
  0
LINE
  5
221
100
AcDbEntity
  8
0
100
AcDbLine
 62
7
  6
CONTINUOUS
 10
10.3996056399
 20
59.6666226271
 11
10.3996056399
 21
56.9721646506
  0
LINE
  5
222
100
AcDbEntity
  8
0
100
AcDbLine
 62
7
  6
CONTINUOUS
 10
10.9854162181
 20
91.2653345565
 11
10.9854162181
 21
51.8282678092
  0
LINE
  5
223
100
AcDbEntity
  8
0
100
AcDbLine
 62
7
  6
CONTINUOUS
 10
28.3803154567
 20
95.26645357
 11
29.4217119824
 21
95.8677005455
  0
LINE
  5
224
100
AcDbEntity
  8
0
100
AcDbLine
 62
7
  6
CONTINUOUS
 10
31.3359839187
 20
96.4065914084
 11
29.6626515421
 21
95.4404982771
  0
LINE
  5
225
100
AcDbEntity
  8
0
100
AcDbLine
 62
7
  6
CONTINUOUS
 10
31.8283901379
 20
96.4779953214
 11
34.091122417
 21
97.7843766138
  0
LINE
  5
226
100
AcDbEntity
  8
0
100
AcDbLine
 62
7
  6
CONTINUOUS
 10
40.7378984868
 20
101.6218716601
 11
43.1420515333
 21
103.0099017833
  0
LINE
  5
227
100
AcDbEntity
  8
0
100
AcDbLine
 62
7
  6
CONTINUOUS
 10
29.8922327909
 20
95.3422812753
 11
32.897424099
 21
97.0773189293
  0
LINE
  5
228
100
AcDbEntity
  8
0
100
AcDbLine
 62
7
  6
CONTINUOUS
 10
40.7456406239
 20
101.6084618053
 11
42.4079707095
 21
102.5682027988
  0
LINE
  5
229
100
AcDbEntity
  8
0
100
AcDbLine
 62
7
  6
CONTINUOUS
 10
23.0145420567
 20
91.0952263109
 11
23.1884227978
 21
91.1956158044
  0
LINE
  5
22A
100
AcDbEntity
  8
0
100
AcDbLine
 62
7
  6
CONTINUOUS
 10
34.3020899947
 20
97.4186770125
 11
40.9488660645
 21
101.2561720589
  0
LINE
  5
22B
100
AcDbEntity
  8
0
100
AcDbLine
 62
7
  6
CONTINUOUS
 10
50.1068680386
 20
31.6078676395
 11
51.9270693041
 21
32.028689483
  0
LINE
  5
22C
100
AcDbEntity
  8
0
100
AcDbLine
 62
7
  6
CONTINUOUS
 10
68.1198820099
 20
20.2304689531
 11
61.3025105111
 21
22.7783370715
  0
LINE
  5
22D
100
AcDbEntity
  8
0
100
AcDbLine
 62
7
  6
CONTINUOUS
 10
50.3759579879
 20
97.0192734317
 11
37.8602200692
 21
89.7933519081
  0
LINE
  5
22E
100
AcDbEntity
  8
0
100
AcDbLine
 62
7
  6
CONTINUOUS
 10
10.9854162181
 20
51.8282678092
 11
24.7033448859
 21
43.9083971715
  0
LINE
  5
22F
100
AcDbEntity
  8
0
100
AcDbLine
 62
7
  6
CONTINUOUS
 10
57.5839471052
 20
24.9252020863
 11
61.3025105111
 21
22.7783370715
  0
LINE
  5
230
100
AcDbEntity
  8
0
100
AcDbLine
 62
7
  6
CONTINUOUS
 10
26.5417965338
 20
44.9698425535
 11
26.8953697252
 21
44.7657115943
  0
LINE
  5
231
100
AcDbEntity
  8
0
100
AcDbLine
 62
7
  6
CONTINUOUS
 10
23.6426802982
 20
96.368661791
 11
23.6426802982
 21
84.7743274677
  0
LINE
  5
232
100
AcDbEntity
  8
0
100
AcDbLine
 62
7
  6
CONTINUOUS
 10
26.4711191988
 20
47.3785585794
 11
51.9270693041
 21
32.6818914167
  0
LINE
  5
233
100
AcDbEntity
  8
0
100
AcDbLine
 62
7
  6
CONTINUOUS
 10
57.5839471052
 20
24.9252020863
 11
50.0885840187
 21
30.7930481279
  0
LINE
  5
234
100
AcDbEntity
  8
0
100
AcDbLine
 62
7
  6
CONTINUOUS
 10
25.127610721
 20
96.1645581402
 11
25.127610721
 21
97.1443610408
  0
LINE
  5
235
100
AcDbEntity
  8
0
100
AcDbLine
 62
7
  6
CONTINUOUS
 10
26.4711191988
 20
46.1538049537
 11
26.4711191988
 21
47.3785585794
  0
LINE
  5
236
100
AcDbEntity
  8
0
100
AcDbLine
 62
7
  6
CONTINUOUS
 10
28.3095891755
 20
46.3171414559
 11
28.3095891755
 21
45.5822349195
  0
LINE
  5
237
100
AcDbEntity
  8
0
100
AcDbLine
 62
7
  6
CONTINUOUS
 10
28.3803154567
 20
95.26645357
 11
28.3803154567
 21
94.2866506694
  0
LINE
  5
238
100
AcDbEntity
  8
0
100
AcDbLine
 62
7
  6
CONTINUOUS
 10
26.4711191988
 20
46.1538049537
 11
25.7640094736
 21
44.5207896654
  0
LINE
  5
239
100
AcDbEntity
  8
0
100
AcDbLine
 62
7
  6
CONTINUOUS
 10
54.0483984795
 20
80.4473141809
 11
66.5641363982
 21
87.6732357044
  0
LINE
  5
23A
100
AcDbEntity
  8
0
100
AcDbLine
 62
7
  6
CONTINUOUS
 10
67.9783558485
 20
85.2237493611
 11
55.4626179298
 21
77.9978278376
  0
LINE
  5
23B
100
AcDbEntity
  8
0
100
AcDbLine
 62
7
  6
CONTINUOUS
 10
73.3877150613
 20
43.7660462988
 11
76.9233247832
 21
41.7248072531
  0
LINE
  5
23C
100
AcDbEntity
  8
0
100
AcDbLine
 62
7
  6
CONTINUOUS
 10
76.9233247832
 20
44.2559647462
 11
75.5798130068
 21
45.0316470831
  0
LINE
  5
23D
100
AcDbEntity
  8
0
100
AcDbLine
 62
7
  6
CONTINUOUS
 10
55.4626179298
 20
66.4034935143
 11
67.9783558485
 21
73.6294150379
  0
LINE
  5
23E
100
AcDbEntity
  8
0
100
AcDbLine
 62
7
  6
CONTINUOUS
 10
27.5349129674
 20
99.2131238553
 11
29.6626515421
 21
95.4404982771
  0
LINE
  5
23F
100
AcDbEntity
  8
0
100
AcDbLine
 62
7
  6
CONTINUOUS
 10
51.9270693041
 20
32.6818914167
 11
51.9270693041
 21
32.028689483
  0
LINE
  5
240
100
AcDbEntity
  8
0
100
AcDbLine
 62
7
  6
CONTINUOUS
 10
50.0885840187
 20
30.7930481279
 11
50.1068680386
 21
31.6078676395
  0
LINE
  5
241
100
AcDbEntity
  8
0
100
AcDbLine
 62
7
  6
CONTINUOUS
 10
26.4711191988
 20
46.1538049537
 11
27.5318021154
 21
46.7661868657
  0
LINE
  5
242
100
AcDbEntity
  8
0
100
AcDbLine
 62
7
  6
CONTINUOUS
 10
24.7033448859
 20
43.9083971715
 11
28.5924972512
 21
46.1538080973
  0
LINE
  5
243
100
AcDbEntity
  8
0
100
AcDbLine
 62
7
  6
CONTINUOUS
 10
26.8953697252
 20
44.7657115943
 11
28.9460460041
 21
45.9496912474
  0
LINE
  5
244
100
AcDbEntity
  8
0
100
AcDbLine
 62
7
  6
CONTINUOUS
 10
11.6925259432
 20
91.6735962191
 11
23.6426802982
 21
84.7743274677
  0
LINE
  5
245
100
AcDbEntity
  8
0
100
AcDbLine
 62
7
  6
CONTINUOUS
 10
55.4626179298
 20
66.4034935143
 11
67.4127722848
 21
59.5042247629
  0
LINE
  5
246
100
AcDbEntity
  8
0
100
AcDbLine
 62
7
  6
CONTINUOUS
 10
29.607553915
 20
100.327681277
 11
31.8283901379
 21
96.4779953214
  0
LINE
  5
247
100
AcDbEntity
  8
0
100
AcDbLine
 62
7
  6
CONTINUOUS
 10
34.3020899947
 20
97.4186770125
 11
34.091122417
 21
97.7843766138
  0
LINE
  5
248
100
AcDbEntity
  8
0
100
AcDbLine
 62
7
  6
CONTINUOUS
 10
55.4626179298
 20
66.4034935143
 11
55.4626179298
 21
77.9978278376
  0
LINE
  5
249
100
AcDbEntity
  8
0
100
AcDbLine
 62
7
  6
CONTINUOUS
 10
70.9565814216
 20
63.4165031544
 11
71.1304621627
 21
63.5168926479
  0
LINE
  5
24A
100
AcDbEntity
  8
0
100
AcDbLine
 62
7
  6
CONTINUOUS
 10
67.4127722848
 20
59.5042247629
 11
79.9285102035
 21
66.7301462865
  0
LINE
  5
24B
100
AcDbEntity
  8
0
100
AcDbLine
 62
7
  6
CONTINUOUS
 10
40.7378984868
 20
101.6218716601
 11
40.9488660645
 21
101.2561720589
  0
LINE
  5
24C
100
AcDbEntity
  8
0
100
AcDbLine
 62
7
  6
CONTINUOUS
 10
80.6356199286
 20
65.5054031148
 11
68.1198820099
 21
58.2794815913
  0
LINE
  5
24D
100
AcDbEntity
  8
0
100
AcDbLine
 62
7
  6
CONTINUOUS
 10
28.3803154567
 20
94.2866506694
 11
25.127610721
 21
96.1645581402
  0
LINE
  5
24E
100
AcDbEntity
  8
0
100
AcDbLine
 62
7
  6
CONTINUOUS
 10
54.0483984795
 20
80.4473141809
 11
37.8602200692
 21
89.7933519081
  0
LINE
  5
24F
100
AcDbEntity
  8
0
100
AcDbLine
 62
7
  6
CONTINUOUS
 10
25.127610721
 20
97.1443610408
 11
25.0568997485
 21
97.1851851162
  0
LINE
  5
250
100
AcDbEntity
  8
0
100
AcDbLine
 62
7
  6
CONTINUOUS
 10
28.3803154567
 20
95.26645357
 11
29.2242128313
 21
94.7792402158
  0
LINE
  5
251
100
AcDbEntity
  8
0
100
AcDbLine
 62
7
  6
CONTINUOUS
 10
43.1420515333
 20
103.0099017833
 11
40.9212153105
 21
106.859587739
  0
LINE
  5
252
100
AcDbEntity
  8
0
100
AcDbLine
 62
7
  6
CONTINUOUS
 10
67.9783558485
 20
73.6294150379
 11
67.9783558485
 21
85.2237493611
  0
LINE
  5
253
100
AcDbEntity
  8
0
100
AcDbLine
 62
7
  6
CONTINUOUS
 10
68.1198820099
 20
20.2304689531
 11
68.1198820099
 21
58.2794815913
  0
LINE
  5
254
100
AcDbEntity
  8
0
100
AcDbLine
 62
7
  6
CONTINUOUS
 10
79.9285102035
 20
66.7301462865
 11
67.9783558485
 21
73.6294150379
  0
LINE
  5
255
100
AcDbEntity
  8
0
100
AcDbLine
 62
7
  6
CONTINUOUS
 10
25.5314804494
 20
98.1355755723
 11
24.2082638619
 21
98.8995177427
  0
LINE
  5
256
100
AcDbEntity
  8
0
100
AcDbLine
 62
7
  6
CONTINUOUS
 10
71.8321771553
 20
38.7854493452
 11
71.8321771553
 21
41.3166068383
  0
LINE
  5
257
100
AcDbEntity
  8
0
100
AcDbLine
 62
7
  6
CONTINUOUS
 10
72.6099913762
 20
42.6638280664
 11
72.6099913762
 21
43.3170300001
  0
LINE
  5
258
100
AcDbEntity
  8
0
100
AcDbLine
 62
7
  6
CONTINUOUS
 10
50.1068680386
 20
31.6078676395
 11
51.9270693041
 21
32.6587550571
  0
LINE
  5
259
100
AcDbEntity
  8
0
100
AcDbLine
 62
7
  6
CONTINUOUS
 10
76.1455105623
 20
45.3582507694
 11
76.1455105623
 21
44.7050488357
  0
LINE
  5
25A
100
AcDbEntity
  8
0
100
AcDbLine
 62
7
  6
CONTINUOUS
 10
76.9233247832
 20
44.2559647462
 11
76.9233247832
 21
41.7248072531
  0
LINE
  5
25B
100
AcDbEntity
  8
0
100
AcDbLine
 62
7
  6
CONTINUOUS
 10
72.6099913762
 20
42.6638280664
 11
71.8321771553
 21
41.3166068383
  0
LINE
  5
25C
100
AcDbEntity
  8
0
100
AcDbLine
 62
7
  6
CONTINUOUS
 10
72.6099913762
 20
43.3170300001
 11
76.1455105623
 21
45.3582507694
  0
LINE
  5
25D
100
AcDbEntity
  8
0
100
AcDbLine
 62
7
  6
CONTINUOUS
 10
66.5641363982
 20
87.6732357044
 11
50.3759579879
 21
97.0192734317
  0
LINE
  5
25E
100
AcDbEntity
  8
0
100
AcDbLine
 62
7
  6
CONTINUOUS
 10
80.6356199286
 20
27.4563904766
 11
80.6356199286
 21
65.5054031148
  0
LINE
  5
25F
100
AcDbEntity
  8
0
100
AcDbLine
 62
7
  6
CONTINUOUS
 10
68.1198820099
 20
20.2304689531
 11
80.6356199286
 21
27.4563904766
  0
ARC
  5
260
100
AcDbEntity
  8
0
100
AcDbCircle
 62
7
  6
CONTINUOUS
 10
22.1139146593
 20
87.2266559891
 40
4.3079094218
100
AcDbArc
 50
69.6837829284
 51
70.4186387441
  0
ARC
  5
261
100
AcDbEntity
  8
0
100
AcDbCircle
 62
7
  6
CONTINUOUS
 10
70.0559540244
 20
59.5479328332
 40
4.3079094213
100
AcDbArc
 50
69.6837829284
 51
70.4186387441
  0
ARC
  5
262
100
AcDbEntity
  8
0
100
AcDbCircle
 62
7
  6
CONTINUOUS
 10
31.9630944302
 20
93.6395421008
 40
2.9215544887
100
AcDbArc
 50
139.9551448296
 51
141.943543249
  0
ARC
  5
263
100
AcDbEntity
  8
0
100
AcDbCircle
 62
7
  6
CONTINUOUS
 10
31.1067968288
 20
93.2392063462
 40
2.4285996817
100
AcDbArc
 50
120.0072155744
 51
122.6211932066
  0
ARC
  5
264
100
AcDbEntity
  8
0
100
AcDbCircle
 62
7
  6
CONTINUOUS
 10
23.5017239326
 20
90.9767486172
 40
0.3093347352
100
AcDbArc
 50
62.8138290106
 51
69.5779658988
  0
SPLINE
  5
265
100
AcDbEntity
  8
0
100
AcDbSpline
 62
7
  6
CONTINUOUS
 70
0
 71
3
 72
15
 73
11
 74
0
 42
0.0000001
 43
0.0000001
 44
0.0000000001
 40
0.0
 40
0.0
 40
0.0
 40
0.0
 40
0.1214398204
 40
0.2458460728
 40
0.3724236746
 40
0.5001294388
 40
0.6278177741
 40
0.7543491125
 40
0.8786863707
 40
1.0
 40
1.0
 40
1.0
 40
1.0
 10
23.5576893661
 20
91.2854240513
 30
0.0
 10
23.4238301358
 20
91.3330442217
 30
0.0
 10
23.1479965245
 20
91.4162702951
 30
0.0
 10
22.7208246252
 20
91.5046521314
 30
0.0
 10
22.2804666819
 20
91.5577946925
 30
0.0
 10
21.8334426054
 20
91.5752381761
 30
0.0
 10
21.386511536
 20
91.5568252984
 30
0.0
 10
20.946425583
 20
91.5027241316
 30
0.0
 10
20.5197380279
 20
91.4133988781
 30
0.0
 10
20.24432402
 20
91.3295694602
 30
0.0
 10
20.1107290214
 20
91.2816484746
 30
0.0
  0
SPLINE
  5
266
100
AcDbEntity
  8
0
100
AcDbSpline
 62
7
  6
CONTINUOUS
 70
0
 71
3
 72
10
 73
6
 74
0
 42
0.0000001
 43
0.0000001
 44
0.0000000001
 40
0.0
 40
0.0
 40
0.0
 40
0.0
 40
0.5376351287
 40
0.7771529471
 40
1.0
 40
1.0
 40
1.0
 40
1.0
 10
23.1884227978
 20
91.1956158044
 30
0.0
 10
23.2449329391
 20
91.2282417549
 30
0.0
 10
23.3325308732
 20
91.2675377083
 30
0.0
 10
23.4525940733
 20
91.2882695315
 30
0.0
 10
23.5091643608
 20
91.2877918636
 30
0.0
 10
23.536006649
 20
91.2844728517
 30
0.0
  0
SPLINE
  5
267
100
AcDbEntity
  8
0
100
AcDbSpline
 62
7
  6
CONTINUOUS
 70
0
 71
3
 72
15
 73
11
 74
0
 42
0.0000001
 43
0.0000001
 44
0.0000000001
 40
0.0
 40
0.0
 40
0.0
 40
0.0
 40
0.1199532826
 40
0.2441308878
 40
0.3712216112
 40
0.4998056325
 40
0.6284173707
 40
0.7555778429
 40
0.8798881971
 40
1.0
 40
1.0
 40
1.0
 40
1.0
 10
20.4801418308
 20
91.1921221159
 30
0.0
 10
20.5844239441
 20
91.2272024371
 30
0.0
 10
20.8000665915
 20
91.2887836995
 30
0.0
 10
21.1344900044
 20
91.3546327982
 30
0.0
 10
21.480937406
 20
91.394784643
 30
0.0
 10
21.8334829883
 20
91.4085490789
 30
0.0
 10
22.1861261417
 20
91.3956863744
 30
0.0
 10
22.5328882094
 20
91.3564296797
 30
0.0
 10
22.8678140056
 20
91.291430266
 30
0.0
 10
23.0838952217
 20
91.2304208332
 30
0.0
 10
23.1884227978
 20
91.1956158044
 30
0.0
  0
SPLINE
  5
268
100
AcDbEntity
  8
0
100
AcDbSpline
 62
7
  6
CONTINUOUS
 70
0
 71
3
 72
15
 73
11
 74
0
 42
0.0000001
 43
0.0000001
 44
0.0000000001
 40
0.0
 40
0.0
 40
0.0
 40
0.0
 40
0.1214398204
 40
0.2458460728
 40
0.3724236746
 40
0.5001294388
 40
0.6278177741
 40
0.7543491125
 40
0.8786863707
 40
1.0
 40
1.0
 40
1.0
 40
1.0
 10
71.4997287311
 20
63.6067008949
 30
0.0
 10
71.3658695007
 20
63.6543210653
 30
0.0
 10
71.0900358895
 20
63.7375471386
 30
0.0
 10
70.6628639902
 20
63.8259289749
 30
0.0
 10
70.2225060468
 20
63.879071536
 30
0.0
 10
69.7754819703
 20
63.8965150196
 30
0.0
 10
69.328550901
 20
63.8781021419
 30
0.0
 10
68.888464948
 20
63.8240009752
 30
0.0
 10
68.4617773929
 20
63.7346757216
 30
0.0
 10
68.1863633849
 20
63.6508463037
 30
0.0
 10
68.0527683864
 20
63.6029253181
 30
0.0
  0
SPLINE
  5
269
100
AcDbEntity
  8
0
100
AcDbSpline
 62
7
  6
CONTINUOUS
 70
0
 71
3
 72
10
 73
6
 74
0
 42
0.0000001
 43
0.0000001
 44
0.0000000001
 40
0.0
 40
0.0
 40
0.0
 40
0.0
 40
0.5376351287
 40
0.7771529471
 40
1.0
 40
1.0
 40
1.0
 40
1.0
 10
71.1304621627
 20
63.5168926479
 30
0.0
 10
71.186972304
 20
63.5495185984
 30
0.0
 10
71.2745702381
 20
63.5888145519
 30
0.0
 10
71.3946334383
 20
63.609546375
 30
0.0
 10
71.4512037258
 20
63.6090687071
 30
0.0
 10
71.4780460139
 20
63.6057496952
 30
0.0
  0
SPLINE
  5
26A
100
AcDbEntity
  8
0
100
AcDbSpline
 62
7
  6
CONTINUOUS
 70
0
 71
3
 72
15
 73
11
 74
0
 42
0.0000001
 43
0.0000001
 44
0.0000000001
 40
0.0
 40
0.0
 40
0.0
 40
0.0
 40
0.1199532826
 40
0.2441308878
 40
0.3712216112
 40
0.4998056325
 40
0.6284173707
 40
0.7555778429
 40
0.8798881971
 40
1.0
 40
1.0
 40
1.0
 40
1.0
 10
68.4221811957
 20
63.5133989594
 30
0.0
 10
68.5264633091
 20
63.5484792807
 30
0.0
 10
68.7421059565
 20
63.610060543
 30
0.0
 10
69.0765293693
 20
63.6759096418
 30
0.0
 10
69.4229767709
 20
63.7160614865
 30
0.0
 10
69.7755223533
 20
63.7298259224
 30
0.0
 10
70.1281655066
 20
63.7169632179
 30
0.0
 10
70.4749275743
 20
63.6777065232
 30
0.0
 10
70.8098533705
 20
63.6127071095
 30
0.0
 10
71.0259345866
 20
63.5516976767
 30
0.0
 10
71.1304621627
 20
63.5168926479
 30
0.0
  0
SPLINE
  5
26B
100
AcDbEntity
  8
0
100
AcDbSpline
 62
7
  6
CONTINUOUS
 70
0
 71
3
 72
14
 73
10
 74
0
 42
0.0000001
 43
0.0000001
 44
0.0000000001
 40
0.0
 40
0.0
 40
0.0
 40
0.0
 40
0.108045758
 40
0.2181291408
 40
0.3321091572
 40
0.4514977165
 40
0.5774414204
 40
0.7107250264
 40
1.0
 40
1.0
 40
1.0
 40
1.0
 10
10.3996090543
 20
56.9721646506
 30
0.0
 10
10.3996090518
 20
56.934302334
 30
0.0
 10
10.4061986091
 20
56.8577120157
 30
0.0
 10
10.4355256654
 20
56.7445744372
 30
0.0
 10
10.483994626
 20
56.633891645
 30
0.0
 10
10.5508948069
 20
56.5267532824
 30
0.0
 10
10.6355610763
 20
56.4241413288
 30
0.0
 10
10.7746558687
 20
56.2910111267
 30
0.0
 10
10.8976082963
 20
56.2063605854
 30
0.0
 10
10.9853979655
 20
56.1556763429
 30
0.0
  0
SPLINE
  5
26C
100
AcDbEntity
  8
0
100
AcDbSpline
 62
7
  6
CONTINUOUS
 70
0
 71
3
 72
14
 73
10
 74
0
 42
0.0000001
 43
0.0000001
 44
0.0000000001
 40
0.0
 40
0.0
 40
0.0
 40
0.0
 40
0.1080460029
 40
0.2181295928
 40
0.3321097481
 40
0.451498358
 40
0.5774420198
 40
0.7107254959
 40
1.0
 40
1.0
 40
1.0
 40
1.0
 10
10.3996090543
 20
59.6666226271
 30
0.0
 10
10.3996090534
 20
59.7044845408
 30
0.0
 10
10.4061984655
 20
59.781074026
 30
0.0
 10
10.4355248929
 20
59.894210414
 30
0.0
 10
10.483992825
 20
60.0048920973
 30
0.0
 10
10.5508916065
 20
60.1120294663
 30
0.0
 10
10.6355561379
 20
60.2146405676
 30
0.0
 10
10.7746481007
 20
60.3477698018
 30
0.0
 10
10.8975981617
 20
60.4324199972
 30
0.0
 10
10.9853861896
 20
60.4831041362
 30
0.0
  0
SPLINE
  5
26D
100
AcDbEntity
  8
0
100
AcDbSpline
 62
7
  6
CONTINUOUS
 70
0
 71
3
 72
14
 73
10
 74
0
 42
0.0000001
 43
0.0000001
 44
0.0000000001
 40
0.0
 40
0.0
 40
0.0
 40
0.0
 40
0.2892749824
 40
0.422558598
 40
0.5485023015
 40
0.6678908559
 40
0.7818708695
 40
0.8919542479
 40
1.0
 40
1.0
 40
1.0
 40
1.0
 10
10.9853979655
 20
58.8501343194
 30
0.0
 10
10.8976082937
 20
58.9008185634
 30
0.0
 10
10.7746558624
 20
58.9854691106
 30
0.0
 10
10.6355610657
 20
59.118599317
 30
0.0
 10
10.5508947964
 20
59.2212112726
 30
0.0
 10
10.4839946219
 20
59.3283496358
 30
0.0
 10
10.4355256639
 20
59.439032424
 30
0.0
 10
10.4061986071
 20
59.5521699981
 30
0.0
 10
10.3996090552
 20
59.6287603127
 30
0.0
 10
10.3996090543
 20
59.6666226271
 30
0.0
  0
SPLINE
  5
26E
100
AcDbEntity
  8
0
100
AcDbSpline
 62
7
  6
CONTINUOUS
 70
0
 71
3
 72
11
 73
7
 74
0
 42
0.0000001
 43
0.0000001
 44
0.0000000001
 40
0.0
 40
0.0
 40
0.0
 40
0.0
 40
0.2372539654
 40
0.5000012591
 40
0.7627478695
 40
1.0
 40
1.0
 40
1.0
 40
1.0
 10
80.6356199286
 20
65.5054031148
 30
0.0
 10
80.6356199286
 20
65.6213289979
 30
0.0
 10
80.592155663
 20
65.8658020225
 30
0.0
 10
80.4405499078
 20
66.2092783209
 30
0.0
 10
80.2188926696
 20
66.5123091203
 30
0.0
 10
80.0289047546
 20
66.6721847766
 30
0.0
 10
79.9285102035
 20
66.7301462865
 30
0.0
  0
SPLINE
  5
26F
100
AcDbEntity
  8
0
100
AcDbSpline
 62
7
  6
CONTINUOUS
 70
0
 71
3
 72
15
 73
11
 74
0
 42
0.0000001
 43
0.0000001
 44
0.0000000001
 40
0.0
 40
0.0
 40
0.0
 40
0.0
 40
0.1141241598
 40
0.2373483675
 40
0.3669736385
 40
0.5000010132
 40
0.6330282465
 40
0.7626531028
 40
0.8858766831
 40
1.0
 40
1.0
 40
1.0
 40
1.0
 10
67.9783558485
 20
85.2237493611
 30
0.0
 10
67.9783558485
 20
85.3355103011
 30
0.0
 10
67.9578349875
 20
85.5681551521
 30
0.0
 10
67.8762708196
 20
85.9191141482
 30
0.0
 10
67.7454518887
 20
86.2746098402
 30
0.0
 10
67.570482596
 20
86.6212612497
 30
0.0
 10
67.3577570347
 20
86.9461134847
 30
0.0
 10
67.1152974397
 20
87.2371517215
 30
0.0
 10
66.8521398897
 20
87.4832649347
 30
0.0
 10
66.660924044
 20
87.6173565952
 30
0.0
 10
66.5641363982
 20
87.6732357044
 30
0.0
  0
SPLINE
  5
270
100
AcDbEntity
  8
0
100
AcDbSpline
 62
7
  6
CONTINUOUS
 70
0
 71
3
 72
18
 73
14
 74
0
 42
0.0000001
 43
0.0000001
 44
0.0000000001
 40
0.0
 40
0.0
 40
0.0
 40
0.0
 40
0.1508892948
 40
0.3013941851
 40
0.4466881328
 40
0.5824516319
 40
0.6457703689
 40
0.7056445385
 40
0.8146126878
 40
0.8642504312
 40
0.9111740816
 40
0.9561081984
 40
1.0
 40
1.0
 40
1.0
 40
1.0
 10
50.3759579879
 20
97.0192734317
 30
0.0
 10
50.1647075745
 20
97.5136316623
 30
0.0
 10
49.676994933
 20
98.4742401668
 30
0.0
 10
48.7807864187
 20
99.794475966
 30
0.0
 10
47.7551948238
 20
100.9462774987
 30
0.0
 10
46.8110086154
 20
101.7386874984
 30
0.0
 10
46.0311043847
 20
102.2343048273
 30
0.0
 10
45.2929198465
 20
102.6087876299
 30
0.0
 10
44.5431680114
 20
102.851490142
 30
0.0
 10
43.8119002442
 20
102.9232368086
 30
0.0
 10
43.306271684
 20
102.892421081
 30
0.0
 10
42.8336292331
 20
102.7782714375
 30
0.0
 10
42.5433926196
 20
102.6464089935
 30
0.0
 10
42.407970045
 20
102.5682039495
 30
0.0
  0
SPLINE
  5
271
100
AcDbEntity
  8
0
100
AcDbSpline
 62
7
  6
CONTINUOUS
 70
0
 71
3
 72
9
 73
5
 74
0
 42
0.0000001
 43
0.0000001
 44
0.0000000001
 40
0.0
 40
0.0
 40
0.0
 40
0.0
 40
0.5080630615
 40
1.0
 40
1.0
 40
1.0
 40
1.0
 10
36.8656220691
 20
104.6005672084
 30
0.0
 10
36.8135924657
 20
104.5959178093
 30
0.0
 10
36.7117345371
 20
104.5766507722
 30
0.0
 10
36.6164498135
 20
104.5354359008
 30
0.0
 10
36.5726471339
 20
104.5101465551
 30
0.0
  0
SPLINE
  5
272
100
AcDbEntity
  8
0
100
AcDbSpline
 62
7
  6
CONTINUOUS
 70
0
 71
3
 72
17
 73
13
 74
0
 42
0.0000001
 43
0.0000001
 44
0.0000000001
 40
0.0
 40
0.0
 40
0.0
 40
0.0
 40
0.0429012378
 40
0.0872410953
 40
0.1342332195
 40
0.1847375434
 40
0.2975891322
 40
0.4261561386
 40
0.5667983334
 40
0.7137681027
 40
0.8603855583
 40
1.0
 40
1.0
 40
1.0
 40
1.0
 10
18.239519271
 20
93.0412328301
 30
0.0
 10
18.2395349147
 20
92.9494072206
 30
0.0
 10
18.2613193506
 20
92.7620173381
 30
0.0
 10
18.3578673444
 20
92.4892020808
 30
0.0
 10
18.5153919194
 20
92.2275212329
 30
0.0
 10
18.813064875
 20
91.8871858009
 30
0.0
 10
19.3279987317
 20
91.5191799986
 30
0.0
 10
20.085637895
 20
91.1992840945
 30
0.0
 10
20.9584863862
 20
91.001702728
 30
0.0
 10
21.8894163906
 20
90.9394557687
 30
0.0
 10
22.81674005
 20
91.0163718302
 30
0.0
 10
23.4152863757
 20
91.1627997128
 30
0.0
 10
23.6975142664
 20
91.2610180889
 30
0.0
  0
SPLINE
  5
273
100
AcDbEntity
  8
0
100
AcDbSpline
 62
7
  6
CONTINUOUS
 70
0
 71
3
 72
11
 73
7
 74
0
 42
0.0000001
 43
0.0000001
 44
0.0000000001
 40
0.0
 40
0.0
 40
0.0
 40
0.0
 40
0.2895391946
 40
0.5491157945
 40
0.7822541179
 40
1.0
 40
1.0
 40
1.0
 40
1.0
 10
24.2082638619
 20
98.8995177427
 30
0.0
 10
24.1644106041
 20
98.9248358601
 30
0.0
 10
24.0770995459
 20
98.966315919
 30
0.0
 10
23.9429553604
 20
98.9987849863
 30
0.0
 10
23.8170239491
 20
98.9956215315
 30
0.0
 10
23.7412734621
 20
98.968034124
 30
0.0
 10
23.708294077
 20
98.9489935651
 30
0.0
  0
SPLINE
  5
274
100
AcDbEntity
  8
0
100
AcDbSpline
 62
7
  6
CONTINUOUS
 70
0
 71
3
 72
20
 73
16
 74
0
 42
0.0000001
 43
0.0000001
 44
0.0000000001
 40
0.0
 40
0.0
 40
0.0
 40
0.0
 40
0.0428301089
 40
0.0874298883
 40
0.1352305615
 40
0.1871623943
 40
0.2436310661
 40
0.3046119854
 40
0.3697373604
 40
0.4383723735
 40
0.5826242953
 40
0.7296909676
 40
0.8711895034
 40
0.9376088123
 40
1.0
 40
1.0
 40
1.0
 40
1.0
 10
66.1815586359
 20
65.3625096736
 30
0.0
 10
66.1815760944
 20
65.2600318156
 30
0.0
 10
66.208927249
 20
65.0499444686
 30
0.0
 10
66.329480307
 20
64.746634207
 30
0.0
 10
66.5249206227
 20
64.459031547
 30
0.0
 10
66.7899372388
 20
64.1929613841
 30
0.0
 10
67.1182761615
 20
63.953027391
 30
0.0
 10
67.5029780553
 20
63.7437534822
 30
0.0
 10
67.9360482837
 20
63.5693138723
 30
0.0
 10
68.5761147116
 20
63.384865331
 30
0.0
 10
69.4339838018
 20
63.2645640524
 30
0.0
 10
70.473469645
 20
63.2932515058
 30
0.0
 10
71.3116483806
 20
63.460853851
 30
0.0
 10
71.9206026039
 20
63.6815792529
 30
0.0
 10
72.1978515587
 20
63.8182028638
 30
0.0
 10
72.3271327664
 20
63.8928429583
 30
0.0
  0
SPLINE
  5
275
100
AcDbEntity
  8
0
100
AcDbSpline
 62
7
  6
CONTINUOUS
 70
0
 71
3
 72
12
 73
8
 74
0
 42
0.0000001
 43
0.0000001
 44
0.0000000001
 40
0.0
 40
0.0
 40
0.0
 40
0.0
 40
0.2895270772
 40
0.5486629388
 40
0.7816288993
 40
0.8918382437
 40
1.0
 40
1.0
 40
1.0
 40
1.0
 10
71.8321771553
 20
38.7854493452
 30
0.0
 10
71.8321771553
 20
38.6030156744
 30
0.0
 10
71.8598820192
 20
38.2560743339
 30
0.0
 10
72.0000582131
 20
37.7796366966
 30
0.0
 10
72.2017634148
 20
37.450975879
 30
0.0
 10
72.4052804445
 20
37.250717874
 30
0.0
 10
72.5187629661
 20
37.1715035252
 30
0.0
 10
72.5777919536
 20
37.1374373006
 30
0.0
  0
SPLINE
  5
276
100
AcDbEntity
  8
0
100
AcDbSpline
 62
7
  6
CONTINUOUS
 70
0
 71
3
 72
10
 73
6
 74
0
 42
0.0000001
 43
0.0000001
 44
0.0000000001
 40
0.0
 40
0.0
 40
0.0
 40
0.0
 40
0.5110169179
 40
0.7570491912
 40
1.0
 40
1.0
 40
1.0
 40
1.0
 10
31.8283901379
 20
96.4779953214
 30
0.0
 10
31.5807954326
 20
96.476421846
 30
0.0
 10
31.2115581253
 20
96.4325664423
 30
0.0
 10
30.7503376192
 20
96.2806388761
 30
0.0
 10
30.5366294395
 20
96.1762194179
 30
0.0
 10
30.4346865758
 20
96.1173588856
 30
0.0
  0
SPLINE
  5
277
100
AcDbEntity
  8
0
100
AcDbSpline
 62
7
  6
CONTINUOUS
 70
0
 71
3
 72
12
 73
8
 74
0
 42
0.0000001
 43
0.0000001
 44
0.0000000001
 40
0.0
 40
0.0
 40
0.0
 40
0.0
 40
0.2895275962
 40
0.5486635188
 40
0.7816292527
 40
0.8918384267
 40
1.0
 40
1.0
 40
1.0
 40
1.0
 10
72.3271327664
 20
63.8928429583
 30
0.0
 10
72.4851196108
 20
63.984056161
 30
0.0
 10
72.7717175422
 20
64.1815117246
 30
0.0
 10
73.1142259958
 20
64.5411114691
 30
0.0
 10
73.2979976218
 20
64.8801094783
 30
0.0
 10
73.3696672447
 20
65.1564781515
 30
0.0
 10
73.3815284861
 20
65.2943586069
 30
0.0
 10
73.3815168757
 20
65.3625096755
 30
0.0
  0
SPLINE
  5
278
100
AcDbEntity
  8
0
100
AcDbSpline
 62
7
  6
CONTINUOUS
 70
0
 71
3
 72
11
 73
7
 74
0
 42
0.0000001
 43
0.0000001
 44
0.0000000001
 40
0.0
 40
0.0
 40
0.0
 40
0.0
 40
0.2895401978
 40
0.5491171512
 40
0.782255066
 40
1.0
 40
1.0
 40
1.0
 40
1.0
 10
10.9854162181
 20
91.2653345565
 30
0.0
 10
10.9854162181
 20
91.3159731797
 30
0.0
 10
10.9931482679
 20
91.4123296982
 30
0.0
 10
11.0321013371
 20
91.5447405404
 30
0.0
 10
11.0978078025
 20
91.6522217275
 30
0.0
 10
11.1595760245
 20
91.7040310738
 30
0.0
 10
11.1925561577
 20
91.7230720412
 30
0.0
  0
SPLINE
  5
279
100
AcDbEntity
  8
0
100
AcDbSpline
 62
7
  6
CONTINUOUS
 70
0
 71
3
 72
11
 73
7
 74
0
 42
0.0000001
 43
0.0000001
 44
0.0000000001
 40
0.0
 40
0.0
 40
0.0
 40
0.0
 40
0.2897033281
 40
0.5490895198
 40
0.7822165953
 40
1.0
 40
1.0
 40
1.0
 40
1.0
 10
23.6426802982
 20
96.368661791
 30
0.0
 10
23.6426802982
 20
96.4699980798
 30
0.0
 10
23.6580443705
 20
96.6627182238
 30
0.0
 10
23.7360937166
 20
96.9275056024
 30
0.0
 10
23.8675028944
 20
97.1423655861
 30
0.0
 10
23.990935999
 20
97.2461356339
 30
0.0
 10
24.0569092152
 20
97.2842250315
 30
0.0
  0
SPLINE
  5
27A
100
AcDbEntity
  8
0
100
AcDbSpline
 62
7
  6
CONTINUOUS
 70
0
 71
3
 72
9
 73
5
 74
0
 42
0.0000001
 43
0.0000001
 44
0.0000000001
 40
0.0
 40
0.0
 40
0.0
 40
0.0
 40
0.5047035672
 40
1.0
 40
1.0
 40
1.0
 40
1.0
 10
29.2242128313
 20
94.7792402158
 30
0.0
 10
29.3073616312
 20
94.8778113144
 30
0.0
 10
29.4862769411
 20
95.0616756318
 30
0.0
 10
29.6909902661
 20
95.2164806928
 30
0.0
 10
29.7975815715
 20
95.2847018421
 30
0.0
  0
SPLINE
  5
27B
100
AcDbEntity
  8
0
100
AcDbSpline
 62
7
  6
CONTINUOUS
 70
0
 71
3
 72
20
 73
16
 74
0
 42
0.0000001
 43
0.0000001
 44
0.0000000001
 40
0.0
 40
0.0
 40
0.0
 40
0.0
 40
0.0428306607
 40
0.0874309023
 40
0.1352318862
 40
0.187163855
 40
0.2436324957
 40
0.3046132396
 40
0.3697383308
 40
0.4383729904
 40
0.5826241615
 40
0.7296903044
 40
0.8711888209
 40
0.937608378
 40
1.0
 40
1.0
 40
1.0
 40
1.0
 10
72.5777919536
 20
37.1374373006
 30
0.0
 10
72.6665504763
 20
37.0862138611
 30
0.0
 10
72.8621690871
 20
37.0048575959
 30
0.0
 10
73.1851220934
 20
36.9576044721
 30
0.0
 10
73.5319145601
 20
36.9830586899
 30
0.0
 10
73.894846545
 20
37.0795333971
 30
0.0
 10
74.2668041659
 20
37.2439144377
 30
0.0
 10
74.6403900489
 20
37.4724368228
 30
0.0
 10
75.00799201
 20
37.7602642449
 30
0.0
 10
75.4877585196
 20
38.2223499477
 30
0.0
 10
76.0208718336
 20
38.9051314953
 30
0.0
 10
76.5157642738
 20
39.8196926792
 30
0.0
 10
76.7897006142
 20
40.6293760777
 30
0.0
 10
76.9030209148
 20
41.2671086679
 30
0.0
 10
76.9233247832
 20
41.5755258271
 30
0.0
 10
76.9233247832
 20
41.7248072531
 30
0.0
  0
SPLINE
  5
27C
100
AcDbEntity
  8
0
100
AcDbSpline
 62
7
  6
CONTINUOUS
 70
0
 71
3
 72
20
 73
16
 74
0
 42
0.0000001
 43
0.0000001
 44
0.0000000001
 40
0.0
 40
0.0
 40
0.0
 40
0.0
 40
0.0428301089
 40
0.0874298883
 40
0.1352305615
 40
0.1871623943
 40
0.2436310661
 40
0.3046119854
 40
0.3697373604
 40
0.4383723735
 40
0.5826242953
 40
0.7296909676
 40
0.8711895034
 40
0.9376088123
 40
1.0
 40
1.0
 40
1.0
 40
1.0
 10
73.3815168757
 20
65.3625096755
 30
0.0
 10
73.3814994173
 20
65.4649875336
 30
0.0
 10
73.3541482626
 20
65.6750748805
 30
0.0
 10
73.2335952046
 20
65.9783851421
 30
0.0
 10
73.038154889
 20
66.2659878022
 30
0.0
 10
72.7731382728
 20
66.5320579651
 30
0.0
 10
72.4447993501
 20
66.7719919581
 30
0.0
 10
72.0600974563
 20
66.981265867
 30
0.0
 10
71.6270272279
 20
67.1557054768
 30
0.0
 10
70.9869608001
 20
67.3401540181
 30
0.0
 10
70.1290917099
 20
67.4604552967
 30
0.0
 10
69.0896058667
 20
67.4317678433
 30
0.0
 10
68.2514271311
 20
67.2641654981
 30
0.0
 10
67.6424729077
 20
67.0434400962
 30
0.0
 10
67.3652239529
 20
66.9068164853
 30
0.0
 10
67.2359427453
 20
66.8321763908
 30
0.0
  0
SPLINE
  5
27D
100
AcDbEntity
  8
0
100
AcDbSpline
 62
7
  6
CONTINUOUS
 70
0
 71
3
 72
10
 73
6
 74
0
 42
0.0000001
 43
0.0000001
 44
0.0000000001
 40
0.0
 40
0.0
 40
0.0
 40
0.0
 40
0.5122066424
 40
0.7577983317
 40
1.0
 40
1.0
 40
1.0
 40
1.0
 10
34.3020899947
 20
97.4186770125
 30
0.0
 10
34.0526833997
 20
97.4235480572
 30
0.0
 10
33.6798172508
 20
97.3876133378
 30
0.0
 10
33.2143671519
 20
97.2402019723
 30
0.0
 10
32.999570128
 20
97.1363102229
 30
0.0
 10
32.8974206063
 20
97.0773249543
 30
0.0
  0
SPLINE
  5
27E
100
AcDbEntity
  8
0
100
AcDbSpline
 62
7
  6
CONTINUOUS
 70
0
 71
3
 72
18
 73
14
 74
0
 42
0.0000001
 43
0.0000001
 44
0.0000000001
 40
0.0
 40
0.0
 40
0.0
 40
0.0
 40
0.0438918016
 40
0.0888259184
 40
0.1357495688
 40
0.1853873122
 40
0.2943554615
 40
0.3542296311
 40
0.4175483681
 40
0.5533118672
 40
0.6986058149
 40
0.8491107052
 40
1.0
 40
1.0
 40
1.0
 40
1.0
 10
29.8922321263
 20
95.342282426
 30
0.0
 10
30.0276547009
 20
95.42048747
 30
0.0
 10
30.3178913144
 20
95.552349914
 30
0.0
 10
30.7905337653
 20
95.6664995575
 30
0.0
 10
31.2961623255
 20
95.6973152851
 30
0.0
 10
32.0274300927
 20
95.6255686185
 30
0.0
 10
32.7771819278
 20
95.3828661064
 30
0.0
 10
33.515366466
 20
95.0083833037
 30
0.0
 10
34.2952706967
 20
94.5127659749
 30
0.0
 10
35.2394569051
 20
93.7203559752
 30
0.0
 10
36.2650485
 20
92.5685544424
 30
0.0
 10
37.1612570143
 20
91.2483186433
 30
0.0
 10
37.6489696558
 20
90.2877101387
 30
0.0
 10
37.8602200692
 20
89.7933519081
 30
0.0
  0
SPLINE
  5
27F
100
AcDbEntity
  8
0
100
AcDbSpline
 62
7
  6
CONTINUOUS
 70
0
 71
3
 72
13
 73
9
 74
0
 42
0.0000001
 43
0.0000001
 44
0.0000000001
 40
0.0
 40
0.0
 40
0.0
 40
0.0
 40
0.2505870244
 40
0.5129000359
 40
0.6427343277
 40
0.7684795003
 40
0.8881784664
 40
1.0
 40
1.0
 40
1.0
 40
1.0
 10
23.6849282591
 20
94.8257760885
 30
0.0
 10
23.3281460308
 20
94.9487647766
 30
0.0
 10
22.5668831336
 20
95.1140593148
 30
0.0
 10
21.5934276997
 20
95.1367109595
 30
0.0
 10
20.8179223217
 20
95.0440228005
 30
0.0
 10
20.2652305554
 20
94.9208563379
 30
0.0
 10
19.7548601285
 20
94.7471774839
 30
0.0
 10
19.4397456095
 20
94.595101095
 30
0.0
 10
19.2939033803
 20
94.5108995473
 30
0.0
  0
SPLINE
  5
280
100
AcDbEntity
  8
0
100
AcDbSpline
 62
7
  6
CONTINUOUS
 70
0
 71
3
 72
12
 73
8
 74
0
 42
0.0000001
 43
0.0000001
 44
0.0000000001
 40
0.0
 40
0.0
 40
0.0
 40
0.0
 40
0.2895275962
 40
0.5486635188
 40
0.7816292527
 40
0.8918384267
 40
1.0
 40
1.0
 40
1.0
 40
1.0
 10
67.2359427453
 20
66.8321763908
 30
0.0
 10
67.0779559009
 20
66.7409631882
 30
0.0
 10
66.7913579695
 20
66.5435076246
 30
0.0
 10
66.4488495159
 20
66.18390788
 30
0.0
 10
66.2650778898
 20
65.8449098708
 30
0.0
 10
66.193408267
 20
65.5685411976
 30
0.0
 10
66.1815470255
 20
65.4306607422
 30
0.0
 10
66.1815586359
 20
65.3625096736
 30
0.0
  0
SPLINE
  5
281
100
AcDbEntity
  8
0
100
AcDbSpline
 62
7
  6
CONTINUOUS
 70
0
 71
3
 72
11
 73
7
 74
0
 42
0.0000001
 43
0.0000001
 44
0.0000000001
 40
0.0
 40
0.0
 40
0.0
 40
0.0
 40
0.2177843137
 40
0.4509117637
 40
0.7102976701
 40
1.0
 40
1.0
 40
1.0
 40
1.0
 10
24.0569092152
 20
97.2842250315
 30
0.0
 10
24.122880943
 20
97.3223135698
 30
0.0
 10
24.2744612441
 20
97.3773233025
 30
0.0
 10
24.5262335412
 20
97.3836981286
 30
0.0
 10
24.7945638043
 20
97.3189011536
 30
0.0
 10
24.9691421004
 20
97.2358508718
 30
0.0
 10
25.0568997485
 20
97.1851851162
 30
0.0
  0
SPLINE
  5
282
100
AcDbEntity
  8
0
100
AcDbSpline
 62
7
  6
CONTINUOUS
 70
0
 71
3
 72
11
 73
7
 74
0
 42
0.0000001
 43
0.0000001
 44
0.0000000001
 40
0.0
 40
0.0
 40
0.0
 40
0.0
 40
0.2372523758
 40
0.4999990758
 40
0.7627462798
 40
1.0
 40
1.0
 40
1.0
 40
1.0
 10
67.4127722848
 20
59.5042247629
 30
0.0
 10
67.5131669397
 20
59.4462631932
 30
0.0
 10
67.7031549608
 20
59.2863873936
 30
0.0
 10
67.9248121941
 20
58.9833564423
 30
0.0
 10
68.0764178154
 20
58.6398802156
 30
0.0
 10
68.1198820099
 20
58.3954073546
 30
0.0
 10
68.1198820099
 20
58.2794815913
 30
0.0
  0
SPLINE
  5
283
100
AcDbEntity
  8
0
100
AcDbSpline
 62
7
  6
CONTINUOUS
 70
0
 71
3
 72
12
 73
8
 74
0
 42
0.0000001
 43
0.0000001
 44
0.0000000001
 40
0.0
 40
0.0
 40
0.0
 40
0.0
 40
0.2895275962
 40
0.5486635188
 40
0.7816292527
 40
0.8918384267
 40
1.0
 40
1.0
 40
1.0
 40
1.0
 10
19.2939033803
 20
94.5108995473
 30
0.0
 10
19.1359165359
 20
94.4196863446
 30
0.0
 10
18.8493186045
 20
94.222230781
 30
0.0
 10
18.5068101509
 20
93.8626310365
 30
0.0
 10
18.3230385248
 20
93.5236330273
 30
0.0
 10
18.251368902
 20
93.2472643541
 30
0.0
 10
18.2395076606
 20
93.1093838987
 30
0.0
 10
18.239519271
 20
93.0412328301
 30
0.0
  0
SPLINE
  5
284
100
AcDbEntity
  8
0
100
AcDbSpline
 62
7
  6
CONTINUOUS
 70
0
 71
3
 72
9
 73
5
 74
0
 42
0.0000001
 43
0.0000001
 44
0.0000000001
 40
0.0
 40
0.0
 40
0.0
 40
0.0
 40
0.4949185281
 40
1.0
 40
1.0
 40
1.0
 40
1.0
 10
30.4346865758
 20
96.1173588856
 30
0.0
 10
30.301746667
 20
96.0406010479
 30
0.0
 10
30.0467109989
 20
95.8607921288
 30
0.0
 10
29.827325774
 20
95.639156183
 30
0.0
 10
29.7265247174
 20
95.5192326472
 30
0.0
  0
SPLINE
  5
285
100
AcDbEntity
  8
0
100
AcDbSpline
 62
7
  6
CONTINUOUS
 70
0
 71
3
 72
11
 73
7
 74
0
 42
0.0000001
 43
0.0000001
 44
0.0000000001
 40
0.0
 40
0.0
 40
0.0
 40
0.0
 40
0.2177460211
 40
0.4508843679
 40
0.7104607696
 40
1.0
 40
1.0
 40
1.0
 40
1.0
 10
11.1925561577
 20
91.7230720412
 30
0.0
 10
11.2255355744
 20
91.742112595
 30
0.0
 10
11.3012860789
 20
91.7697000416
 30
0.0
 10
11.4272174892
 20
91.7728634338
 30
0.0
 10
11.5613616659
 20
91.7403944429
 30
0.0
 10
11.6486726793
 20
91.6989143401
 30
0.0
 10
11.6925259432
 20
91.6735962191
 30
0.0
  0
SPLINE
  5
286
100
AcDbEntity
  8
0
100
AcDbSpline
 62
7
  6
CONTINUOUS
 70
0
 71
3
 72
15
 73
11
 74
0
 42
0.0000001
 43
0.0000001
 44
0.0000000001
 40
0.0
 40
0.0
 40
0.0
 40
0.0
 40
0.1141232787
 40
0.2373467935
 40
0.3669716251
 40
0.4999988493
 40
0.6330262331
 40
0.7626515288
 40
0.885875802
 40
1.0
 40
1.0
 40
1.0
 40
1.0
 10
54.0483984795
 20
80.4473141809
 30
0.0
 10
54.1451860929
 20
80.3914350904
 30
0.0
 10
54.3364018751
 20
80.2573435175
 30
0.0
 10
54.5995593303
 20
80.0112303861
 30
0.0
 10
54.8420188958
 20
79.7201922539
 30
0.0
 10
55.0547444825
 20
79.3953400637
 30
0.0
 10
55.2297138266
 20
79.0486886538
 30
0.0
 10
55.3605328335
 20
78.6931928839
 30
0.0
 10
55.4420970247
 20
78.3422337648
 30
0.0
 10
55.4626179298
 20
78.109588815
 30
0.0
 10
55.4626179298
 20
77.9978278376
 30
0.0
  0
ENDSEC
  0
SECTION
  2
OBJECTS
  0
DICTIONARY
  5
C
100
AcDbDictionary
280
0
281
1
  3
ACAD_GROUP
350
D
  3
ACAD_MLINESTYLE
350
17
  3
ACAD_LAYOUT
350
1A
  3
ACAD_PLOTSETTINGS
350
19
  3
ACAD_PLOTSTYLENAME
350
E
  0
DICTIONARY
  5
D
102
{ACAD_REACTORS
330
C
102
}
100
AcDbDictionary
280
0
281
1
  0
ACDBDICTIONARYWDFLT
  5
E
102
{ACAD_REACTORS
330
C
102
}
100
AcDbDictionary
281
1
  3
Normal
350
F
100
AcDbDictionaryWithDefault
340
F
  0
DICTIONARY
  5
17
102
{ACAD_REACTORS
330
C
102
}
100
AcDbDictionary
280
0
281
1
  3
Standard
350
18
  0
DICTIONARY
  5
19
102
{ACAD_REACTORS
330
C
102
}
100
AcDbDictionary
281
1
  0
DICTIONARY
  5
1A
102
{ACAD_REACTORS
330
C
102
}
100
AcDbDictionary
281
1
  3
Model
350
287
  3
Layout1
350
288
  0
ACDBPLACEHOLDER
  5
F
102
{ACAD_REACTORS
330
E
102
}
  0
MLINESTYLE
  5
18
102
{ACAD_REACTORS
330
17
102
}
100
AcDbMlineStyle
  2
STANDARD
 70
0
  3

 62
256
 51
90.0
 52
90.0
 71
2
 49
0.5
 62
256
  6
BYLAYER
 49
-0.5
 62
256
  6
BYLAYER
  0
LAYOUT
  5
287
102
{ACAD_REACTORS
330
1A
102
}
100
AcDbPlotSettings
  1

  2
none_device
  4

  6

 40
0.0
 41
0.0
 42
0.0
 43
0.0
 44
210.0
 45
297.0
 46
0.0
 47
0.0
 48
0.0
 49
0.0
140
0.0
141
0.0
142
1.0
143
1.0
 70
1024
 72
1
 73
0
 74
0
  7

 75
0
147
1.0
148
0.0
149
0.0
100
AcDbLayout
  1
Model
 70
0
 71
0
 10
0.0
 20
0.0
 11
210.0
 21
297.0
 12
0.0
 22
0.0
 32
0.0
 14
0.0
 24
0.0
 34
0.0
 15
0.0
 25
0.0
 35
0.0
146
0.0
 13
0.0
 23
0.0
 33
0.0
 16
1.0
 26
0.0
 36
0.0
 17
0.0
 27
1.0
 37
0.0
 76
0
330
210
345
0
346
0
  0
LAYOUT
  5
288
102
{ACAD_REACTORS
330
1A
102
}
100
AcDbPlotSettings
  1

  2
none_device
  4

  6

 40
0.0
 41
0.0
 42
0.0
 43
0.0
 44
210.0
 45
297.0
 46
0.0
 47
0.0
 48
0.0
 49
0.0
140
0.0
141
0.0
142
1.0
143
1.0
 70
0
 72
1
 73
0
 74
0
  7

 75
0
147
1.0
148
0.0
149
0.0
100
AcDbLayout
  1
Layout1
 70
0
 71
1
 10
0.0
 20
0.0
 11
210.0
 21
297.0
 12
0.0
 22
0.0
 32
0.0
 14
0.0
 24
0.0
 34
0.0
 15
0.0
 25
0.0
 35
0.0
146
0.0
 13
0.0
 23
0.0
 33
0.0
 16
1.0
 26
0.0
 36
0.0
 17
0.0
 27
1.0
 37
0.0
 76
0
330
211
345
0
346
0
  0
ENDSEC
  0
EOF
