  0
SECTION
  2
HEADER
  9
$ACADVER
  1
AC1018
  9
$ACADMAINTVER
 70
    77
  9
$DWGCODEPAGE
  3
ANSI_1252
  9
$INSBASE
 10
0.0
 20
0.0
 30
0.0
  9
$EXTMIN
 10
10.4513751888
 20
3.989387437999999
 30
0.0
  9
$EXTMAX
 10
12.052477551
 20
13.8370252333
 30
0.0
  9
$LIMMIN
 10
0.0
 20
0.0
  9
$LIMMAX
 10
22.0
 20
17.0
  9
$ORTHOMODE
 70
     0
  9
$REGENMODE
 70
     1
  9
$FILLMODE
 70
     1
  9
$QTEXTMODE
 70
     0
  9
$MIRRTEXT
 70
     1
  9
$LTSCALE
 40
1.209999999999999
  9
$ATTMODE
 70
     1
  9
$TEXTSIZE
 40
0.2
  9
$TRACEWID
 40
0.05
  9
$TEXTSTYLE
  7
STANDARD
  9
$CLAYER
  8
0
  9
$CELTYPE
  6
BYLAYER
  9
$CECOLOR
 62
   256
  9
$CELTSCALE
 40
1.0
  9
$DISPSILH
 70
     0
  9
$DIMSCALE
 40
1.0
  9
$DIMASZ
 40
0.1875
  9
$DIMEXO
 40
0.1375
  9
$DIMDLI
 40
0.8359999999999999
  9
$DIMRND
 40
0.0
  9
$DIMDLE
 40
0.0
  9
$DIMEXE
 40
0.396
  9
$DIMTP
 40
0.0
  9
$DIMTM
 40
0.0
  9
$DIMTXT
 40
0.2486049107
  9
$DIMCEN
 40
0.198
  9
$DIMTSZ
 40
0.0
  9
$DIMTOL
 70
     0
  9
$DIMLIM
 70
     0
  9
$DIMTIH
 70
     1
  9
$DIMTOH
 70
     1
  9
$DIMSE1
 70
     0
  9
$DIMSE2
 70
     0
  9
$DIMTAD
 70
     0
  9
$DIMZIN
 70
     0
  9
$DIMBLK
  1

  9
$DIMASO
 70
     1
  9
$DIMSHO
 70
     1
  9
$DIMPOST
  1

  9
$DIMAPOST
  1

  9
$DIMALT
 70
     0
  9
$DIMALTD
 70
     2
  9
$DIMALTF
 40
25.4
  9
$DIMLFAC
 40
1.0
  9
$DIMTOFL
 70
     0
  9
$DIMTVP
 40
0.0
  9
$DIMTIX
 70
     0
  9
$DIMSOXD
 70
     0
  9
$DIMSAH
 70
     0
  9
$DIMBLK1
  1

  9
$DIMBLK2
  1

  9
$DIMSTYLE
  2
STANDARD
  9
$DIMCLRD
 70
     0
  9
$DIMCLRE
 70
     0
  9
$DIMCLRT
 70
     0
  9
$DIMTFAC
 40
1.0
  9
$DIMGAP
 40
0.09
  9
$DIMJUST
 70
     0
  9
$DIMSD1
 70
     0
  9
$DIMSD2
 70
     0
  9
$DIMTOLJ
 70
     1
  9
$DIMTZIN
 70
     0
  9
$DIMALTZ
 70
     0
  9
$DIMALTTZ
 70
     0
  9
$DIMUPT
 70
     0
  9
$DIMDEC
 70
     4
  9
$DIMTDEC
 70
     4
  9
$DIMALTU
 70
     2
  9
$DIMALTTD
 70
     2
  9
$DIMTXSTY
  7
STANDARD
  9
$DIMAUNIT
 70
     0
  9
$DIMADEC
 70
     0
  9
$DIMALTRND
 40
0.0
  9
$DIMAZIN
 70
     0
  9
$DIMDSEP
 70
    46
  9
$DIMATFIT
 70
     3
  9
$DIMFRAC
 70
     0
  9
$DIMLDRBLK
  1

  9
$DIMLUNIT
 70
     2
  9
$DIMLWD
 70
    -2
  9
$DIMLWE
 70
    -2
  9
$DIMTMOVE
 70
     0
  9
$LUNITS
 70
     2
  9
$LUPREC
 70
     4
  9
$SKETCHINC
 40
0.1
  9
$FILLETRAD
 40
0.0
  9
$AUNITS
 70
     0
  9
$AUPREC
 70
     0
  9
$MENU
  1
acad
  9
$ELEVATION
 40
0.0
  9
$PELEVATION
 40
0.0
  9
$THICKNESS
 40
0.0
  9
$LIMCHECK
 70
     0
  9
$CHAMFERA
 40
0.0
  9
$CHAMFERB
 40
0.0
  9
$CHAMFERC
 40
0.0
  9
$CHAMFERD
 40
0.0
  9
$SKPOLY
 70
     0
  9
$TDCREATE
 40
2444972.083333333
  9
$TDUCREATE
 40
2444972.000000000
  9
$TDUPDATE
 40
2454571.672844144
  9
$TDUUPDATE
 40
2454571.589510810
  9
$TDINDWG
 40
1.8213871759
  9
$TDUSRTIMER
 40
1.8213871759
  9
$USRTIMER
 70
     1
  9
$ANGBASE
 50
0.0
  9
$ANGDIR
 70
     0
  9
$PDMODE
 70
     0
  9
$PDSIZE
 40
0.0
  9
$PLINEWID
 40
0.0
  9
$SPLFRAME
 70
     0
  9
$SPLINETYPE
 70
     6
  9
$SPLINESEGS
 70
     8
  9
$HANDSEED
  5
210
  9
$SURFTAB1
 70
     6
  9
$SURFTAB2
 70
     6
  9
$SURFTYPE
 70
     6
  9
$SURFU
 70
     6
  9
$SURFV
 70
     6
  9
$UCSBASE
  2

  9
$UCSNAME
  2

  9
$UCSORG
 10
0.0
 20
0.0
 30
0.0
  9
$UCSXDIR
 10
1.0
 20
0.0
 30
0.0
  9
$UCSYDIR
 10
0.0
 20
1.0
 30
0.0
  9
$UCSORTHOREF
  2

  9
$UCSORTHOVIEW
 70
     0
  9
$UCSORGTOP
 10
0.0
 20
0.0
 30
0.0
  9
$UCSORGBOTTOM
 10
0.0
 20
0.0
 30
0.0
  9
$UCSORGLEFT
 10
0.0
 20
0.0
 30
0.0
  9
$UCSORGRIGHT
 10
0.0
 20
0.0
 30
0.0
  9
$UCSORGFRONT
 10
0.0
 20
0.0
 30
0.0
  9
$UCSORGBACK
 10
0.0
 20
0.0
 30
0.0
  9
$PUCSBASE
  2

  9
$PUCSNAME
  2

  9
$PUCSORG
 10
0.0
 20
0.0
 30
0.0
  9
$PUCSXDIR
 10
1.0
 20
0.0
 30
0.0
  9
$PUCSYDIR
 10
0.0
 20
1.0
 30
0.0
  9
$PUCSORTHOREF
  2

  9
$PUCSORTHOVIEW
 70
     0
  9
$PUCSORGTOP
 10
0.0
 20
0.0
 30
0.0
  9
$PUCSORGBOTTOM
 10
0.0
 20
0.0
 30
0.0
  9
$PUCSORGLEFT
 10
0.0
 20
0.0
 30
0.0
  9
$PUCSORGRIGHT
 10
0.0
 20
0.0
 30
0.0
  9
$PUCSORGFRONT
 10
0.0
 20
0.0
 30
0.0
  9
$PUCSORGBACK
 10
0.0
 20
0.0
 30
0.0
  9
$USERI1
 70
     0
  9
$USERI2
 70
     0
  9
$USERI3
 70
     0
  9
$USERI4
 70
     0
  9
$USERI5
 70
     0
  9
$USERR1
 40
0.0
  9
$USERR2
 40
0.0
  9
$USERR3
 40
0.0
  9
$USERR4
 40
0.0
  9
$USERR5
 40
0.0
  9
$WORLDVIEW
 70
     1
  9
$SHADEDGE
 70
     3
  9
$SHADEDIF
 70
    70
  9
$TILEMODE
 70
     1
  9
$MAXACTVP
 70
    64
  9
$PINSBASE
 10
0.0
 20
0.0
 30
0.0
  9
$PLIMCHECK
 70
     0
  9
$PEXTMIN
 10
1.000000000000000E+20
 20
1.000000000000000E+20
 30
1.000000000000000E+20
  9
$PEXTMAX
 10
-1.000000000000000E+20
 20
-1.000000000000000E+20
 30
-1.000000000000000E+20
  9
$PLIMMIN
 10
0.0
 20
0.0
  9
$PLIMMAX
 10
12.0
 20
9.0
  9
$UNITMODE
 70
     0
  9
$VISRETAIN
 70
     1
  9
$PLINEGEN
 70
     0
  9
$PSLTSCALE
 70
     1
  9
$TREEDEPTH
 70
  3020
  9
$CMLSTYLE
  2
STANDARD
  9
$CMLJUST
 70
     0
  9
$CMLSCALE
 40
1.0
  9
$PROXYGRAPHICS
 70
     1
  9
$MEASUREMENT
 70
     0
  9
$CELWEIGHT
370
    -1
  9
$ENDCAPS
280
     0
  9
$JOINSTYLE
280
     0
  9
$LWDISPLAY
290
     0
  9
$INSUNITS
 70
     0
  9
$HYPERLINKBASE
  1

  9
$STYLESHEET
  1

  9
$XEDIT
290
     1
  9
$CEPSNTYPE
380
     0
  9
$PSTYLEMODE
290
     1
  9
$FINGERPRINTGUID
  2
{475590B5-16D3-11D4-B6A7-006097678070}
  9
$VERSIONGUID
  2
{3F05B1BB-4A3D-4505-AC98-CA644BEB6679}
  9
$EXTNAMES
290
     1
  9
$PSVPSCALE
 40
0.0
  9
$OLESTARTUP
290
     0
  9
$SORTENTS
280
   127
  9
$INDEXCTL
280
     0
  9
$HIDETEXT
280
     0
  9
$XCLIPFRAME
290
     0
  9
$HALOGAP
280
     0
  9
$OBSCOLOR
 70
   257
  9
$OBSLTYPE
280
     0
  9
$INTERSECTIONDISPLAY
280
     0
  9
$INTERSECTIONCOLOR
 70
   257
  9
$DIMASSOC
280
     1
  9
$PROJECTNAME
  1

  0
ENDSEC
  0
SECTION
  2
CLASSES
  0
CLASS
  1
ACDBDICTIONARYWDFLT
  2
AcDbDictionaryWithDefault
  3
ObjectDBX Classes
 90
        0
 91
        1
280
     0
281
     0
  0
CLASS
  1
TABLESTYLE
  2
AcDbTableStyle
  3
ObjectDBX Classes
 90
     2047
 91
        1
280
     0
281
     0
  0
CLASS
  1
DICTIONARYVAR
  2
AcDbDictionaryVar
  3
ObjectDBX Classes
 90
        0
 91
        1
280
     0
281
     0
  0
ENDSEC
  0
SECTION
  2
TABLES
  0
TABLE
  2
VPORT
  5
8
330
0
100
AcDbSymbolTable
 70
     2
  0
VPORT
  5
20F
330
8
100
AcDbSymbolTableRecord
100
AcDbViewportTableRecord
  2
*Active
 70
     0
 10
0.0
 20
0.0
 11
1.0
 21
1.0
 12
14.10166724172173
 22
8.913323174945698
 13
0.0
 23
0.0
 14
1.0
 24
1.0
 15
0.0
 25
0.0
 16
0.0
 26
0.0
 36
1.0
 17
0.0
 27
0.0
 37
0.0
 40
9.968458595177288
 41
1.725190839694656
 42
50.0
 43
0.0
 44
0.0
 50
0.0
 51
0.0
 71
     0
 72
   100
 73
     1
 74
     1
 75
     0
 76
     0
 77
     0
 78
     0
281
     0
 65
     1
110
0.0
120
0.0
130
0.0
111
1.0
121
0.0
131
0.0
112
0.0
122
1.0
132
0.0
 79
     0
146
0.0
  0
ENDTAB
  0
TABLE
  2
LTYPE
  5
5
330
0
100
AcDbSymbolTable
 70
     1
  0
LTYPE
  5
12
330
5
100
AcDbSymbolTableRecord
100
AcDbLinetypeTableRecord
  2
BYBLOCK
 70
     0
  3

 72
    65
 73
     0
 40
0.0
  0
LTYPE
  5
13
330
5
100
AcDbSymbolTableRecord
100
AcDbLinetypeTableRecord
  2
BYLAYER
 70
     0
  3

 72
    65
 73
     0
 40
0.0
  0
LTYPE
  5
14
330
5
100
AcDbSymbolTableRecord
100
AcDbLinetypeTableRecord
  2
CONTINUOUS
 70
     0
  3
Solid line
 72
    65
 73
     0
 40
0.0
  0
ENDTAB
  0
TABLE
  2
LAYER
  5
2
330
0
100
AcDbSymbolTable
 70
     1
  0
LAYER
  5
E
330
2
100
AcDbSymbolTableRecord
100
AcDbLayerTableRecord
  2
0
 70
     0
 62
     7
  6
CONTINUOUS
370
    -3
390
197
  0
ENDTAB
  0
TABLE
  2
STYLE
  5
3
330
0
100
AcDbSymbolTable
 70
     1
  0
STYLE
  5
F
330
3
100
AcDbSymbolTableRecord
100
AcDbTextStyleTableRecord
  2
STANDARD
 70
     0
 40
0.0
 41
1.0
 50
0.0
 71
     0
 42
0.2
  3
txt
  4

  0
ENDTAB
  0
TABLE
  2
VIEW
  5
6
330
0
100
AcDbSymbolTable
 70
     0
  0
ENDTAB
  0
TABLE
  2
UCS
  5
7
330
0
100
AcDbSymbolTable
 70
     0
  0
ENDTAB
  0
TABLE
  2
APPID
  5
9
330
0
100
AcDbSymbolTable
 70
     3
  0
APPID
  5
10
330
9
100
AcDbSymbolTableRecord
100
AcDbRegAppTableRecord
  2
ACAD
 70
     0
  0
APPID
  5
192
330
9
100
AcDbSymbolTableRecord
100
AcDbRegAppTableRecord
  2
CONTENTTABDATA
 70
     0
  0
APPID
  5
193
330
9
100
AcDbSymbolTableRecord
100
AcDbRegAppTableRecord
  2
CONTENTCURRENTTAB
 70
     0
  0
ENDTAB
  0
TABLE
  2
DIMSTYLE
  5
A
330
0
100
AcDbSymbolTable
 70
     1
100
AcDbDimStyleTable
 71
     0
  0
DIMSTYLE
105
181
330
A
100
AcDbSymbolTableRecord
100
AcDbDimStyleTableRecord
  2
STANDARD
 70
     0
340
F
  0
ENDTAB
  0
TABLE
  2
BLOCK_RECORD
  5
1
330
0
100
AcDbSymbolTable
 70
     0
  0
BLOCK_RECORD
  5
18
330
1
100
AcDbSymbolTableRecord
100
AcDbBlockTableRecord
  2
*MODEL_SPACE
340
19A
  0
BLOCK_RECORD
  5
15
330
1
100
AcDbSymbolTableRecord
100
AcDbBlockTableRecord
  2
*PAPER_SPACE
340
19B
  0
ENDTAB
  0
ENDSEC
  0
SECTION
  2
BLOCKS
  0
BLOCK
  5
19
330
18
100
AcDbEntity
  8
0
100
AcDbBlockBegin
  2
*MODEL_SPACE
 70
     0
 10
0.0
 20
0.0
 30
0.0
  3
*MODEL_SPACE
  1

  0
ENDBLK
  5
1A
330
18
100
AcDbEntity
  8
0
100
AcDbBlockEnd
  0
BLOCK
  5
16
330
15
100
AcDbEntity
 67
     1
  8
0
100
AcDbBlockBegin
  2
*PAPER_SPACE
 70
     0
 10
0.0
 20
0.0
 30
0.0
  3
*PAPER_SPACE
  1

  0
ENDBLK
  5
17
330
15
100
AcDbEntity
 67
     1
  8
0
100
AcDbBlockEnd
  0
ENDSEC
  0
SECTION
  2
ENTITIES
  0
LINE
  5
2C
330
18
100
AcDbEntity
  8
0
100
AcDbLine
 10
10.4581862124
 20
3.989387437999999
 30
0.0
 11
12.0463751888
 21
3.989387437999999
 31
0.0
  0
LINE
  5
2D
330
18
100
AcDbEntity
  8
0
100
AcDbLine
 10
11.4861389683
 20
4.064190587599999
 30
0.0
 11
11.4369263699
 21
4.064190587599999
 31
0.0
  0
LINE
  5
2E
330
18
100
AcDbEntity
  8
0
100
AcDbLine
 10
10.5510995982
 20
4.1464740522
 30
0.0
 11
10.4723594407
 21
4.1464740522
 31
0.0
  0
LINE
  5
2F
330
18
100
AcDbEntity
  8
0
100
AcDbLine
 10
11.4861389683
 20
4.189387437999999
 30
0.0
 11
11.4369263699
 21
4.189387437999999
 31
0.0
  0
LINE
  5
30
330
18
100
AcDbEntity
  8
0
100
AcDbLine
 10
10.4723594407
 20
4.2645842884
 30
0.0
 11
10.5510995982
 21
4.2645842884
 31
0.0
  0
LINE
  5
31
330
18
100
AcDbEntity
  8
0
100
AcDbLine
 10
11.3172413305
 20
4.2913559419
 30
0.0
 11
12.0343566296
 21
4.2913559419
 31
0.0
  0
LINE
  5
32
330
18
100
AcDbEntity
  8
0
100
AcDbLine
 10
12.0022807006
 20
4.432694524599999
 30
0.0
 11
11.7408633777
 21
4.432694524599999
 31
0.0
  0
LINE
  5
33
330
18
100
AcDbEntity
  8
0
100
AcDbLine
 10
10.5510995982
 20
4.4882063356
 30
0.0
 11
10.7971625903
 21
4.4882063356
 31
0.0
  0
LINE
  5
34
330
18
100
AcDbEntity
  8
0
100
AcDbLine
 10
12.0513751888
 20
4.619308697799999
 30
0.0
 11
12.0463751888
 21
4.619308697799999
 31
0.0
  0
LINE
  5
35
330
18
100
AcDbEntity
  8
0
100
AcDbLine
 10
10.4513751888
 20
4.619308697799999
 30
0.0
 11
10.4581862124
 21
4.619308697799999
 31
0.0
  0
LINE
  5
36
330
18
100
AcDbEntity
  8
0
100
AcDbLine
 10
12.0022807006
 20
4.6728520049
 30
0.0
 11
11.7408633777
 21
4.6728520049
 31
0.0
  0
LINE
  5
37
330
18
100
AcDbEntity
  8
0
100
AcDbLine
 10
11.2345641651
 20
4.704741768699999
 30
0.0
 11
12.0022807006
 21
4.704741768699999
 31
0.0
  0
LINE
  5
38
330
18
100
AcDbEntity
  8
0
100
AcDbLine
 10
11.2345641651
 20
4.7441118474
 30
0.0
 11
12.0022807006
 21
4.7441118474
 31
0.0
  0
LINE
  5
39
330
18
100
AcDbEntity
  8
0
100
AcDbLine
 10
10.4513751888
 20
4.744308697799999
 30
0.0
 11
10.4563751888
 21
4.744308697799999
 31
0.0
  0
LINE
  5
3A
330
18
100
AcDbEntity
  8
0
100
AcDbLine
 10
12.0463751888
 20
4.744308697799999
 30
0.0
 11
12.0513751888
 21
4.744308697799999
 31
0.0
  0
LINE
  5
3B
330
18
100
AcDbEntity
  8
0
100
AcDbLine
 10
10.5510995982
 20
4.960647280499999
 30
0.0
 11
10.7971625903
 21
4.960647280499999
 31
0.0
  0
LINE
  5
3C
330
18
100
AcDbEntity
  8
0
100
AcDbLine
 10
11.2345641651
 20
5.043324445899999
 30
0.0
 11
12.0022807006
 21
5.043324445899999
 31
0.0
  0
LINE
  5
3D
330
18
100
AcDbEntity
  8
0
100
AcDbLine
 10
11.2345641651
 20
5.082694524599999
 30
0.0
 11
12.0022807006
 21
5.082694524599999
 31
0.0
  0
LINE
  5
3E
330
18
100
AcDbEntity
  8
0
100
AcDbLine
 10
10.4723594407
 20
5.2323008238
 30
0.0
 11
10.5117295195
 21
5.2323008238
 31
0.0
  0
LINE
  5
3F
330
18
100
AcDbEntity
  8
0
100
AcDbLine
 10
10.4513751888
 20
5.244308697799999
 30
0.0
 11
10.4563751888
 21
5.244308697799999
 31
0.0
  0
LINE
  5
40
330
18
100
AcDbEntity
  8
0
100
AcDbLine
 10
12.0463751888
 20
5.244308697799999
 30
0.0
 11
12.0513751888
 21
5.244308697799999
 31
0.0
  0
LINE
  5
41
330
18
100
AcDbEntity
  8
0
100
AcDbLine
 10
10.4513751888
 20
5.369308697799999
 30
0.0
 11
10.4581862124
 21
5.369308697799999
 31
0.0
  0
LINE
  5
42
330
18
100
AcDbEntity
  8
0
100
AcDbLine
 10
12.0463751888
 20
5.369308697799999
 30
0.0
 11
12.0513751888
 21
5.369308697799999
 31
0.0
  0
LINE
  5
43
330
18
100
AcDbEntity
  8
0
100
AcDbLine
 10
11.2345641651
 20
5.381907122999999
 30
0.0
 11
12.0022807006
 21
5.381907122999999
 31
0.0
  0
LINE
  5
44
330
18
100
AcDbEntity
  8
0
100
AcDbLine
 10
11.2345641651
 20
5.421277201799999
 30
0.0
 11
12.0022807006
 21
5.421277201799999
 31
0.0
  0
LINE
  5
45
330
18
100
AcDbEntity
  8
0
100
AcDbLine
 10
10.5510995982
 20
5.436873753799999
 30
0.0
 11
10.4723594407
 21
5.436873753799999
 31
0.0
  0
LINE
  5
46
330
18
100
AcDbEntity
  8
0
100
AcDbLine
 10
10.4581862124
 20
5.4889937372
 30
0.0
 11
10.4520838502
 21
5.4889937372
 31
0.0
  0
LINE
  5
47
330
18
100
AcDbEntity
  8
0
100
AcDbLine
 10
12.0463751888
 20
5.4889937372
 30
0.0
 11
12.052477551
 21
5.4889937372
 31
0.0
  0
LINE
  5
48
330
18
100
AcDbEntity
  8
0
100
AcDbLine
 10
10.5510995982
 20
5.5391602188
 30
0.0
 11
10.4723594407
 21
5.5391602188
 31
0.0
  0
LINE
  5
49
330
18
100
AcDbEntity
  8
0
100
AcDbLine
 10
11.2345641651
 20
5.7204898002
 30
0.0
 11
12.0022807006
 21
5.7204898002
 31
0.0
  0
LINE
  5
4A
330
18
100
AcDbEntity
  8
0
100
AcDbLine
 10
11.2345641651
 20
5.759859878899999
 30
0.0
 11
12.0022807006
 21
5.759859878899999
 31
0.0
  0
LINE
  5
4B
330
18
100
AcDbEntity
  8
0
100
AcDbLine
 10
11.2345641651
 20
6.059072477299999
 30
0.0
 11
12.0022807006
 21
6.059072477299999
 31
0.0
  0
LINE
  5
4C
330
18
100
AcDbEntity
  8
0
100
AcDbLine
 10
11.2345641651
 20
6.0984425561
 30
0.0
 11
12.0022807006
 21
6.0984425561
 31
0.0
  0
LINE
  5
4D
330
18
100
AcDbEntity
  8
0
100
AcDbLine
 10
10.4581862124
 20
6.177970115099999
 30
0.0
 11
10.4520838502
 21
6.177970115099999
 31
0.0
  0
LINE
  5
4E
330
18
100
AcDbEntity
  8
0
100
AcDbLine
 10
12.0463751888
 20
6.177970115099999
 30
0.0
 11
12.052477551
 21
6.177970115099999
 31
0.0
  0
LINE
  5
4F
330
18
100
AcDbEntity
  8
0
100
AcDbLine
 10
11.2345641651
 20
6.3976551545
 30
0.0
 11
12.0022807006
 21
6.3976551545
 31
0.0
  0
LINE
  5
50
330
18
100
AcDbEntity
  8
0
100
AcDbLine
 10
11.2345641651
 20
6.4370252333
 30
0.0
 11
12.0022807006
 21
6.4370252333
 31
0.0
  0
LINE
  5
51
330
18
100
AcDbEntity
  8
0
100
AcDbLine
 10
11.2345641651
 20
6.736237831699999
 30
0.0
 11
12.0022807006
 21
6.736237831699999
 31
0.0
  0
LINE
  5
52
330
18
100
AcDbEntity
  8
0
100
AcDbLine
 10
11.2345641651
 20
6.775607910399999
 30
0.0
 11
12.0022807006
 21
6.775607910399999
 31
0.0
  0
LINE
  5
53
330
18
100
AcDbEntity
  8
0
100
AcDbLine
 10
10.5510995982
 20
6.956937491799999
 30
0.0
 11
10.4723594407
 21
6.956937491799999
 31
0.0
  0
LINE
  5
54
330
18
100
AcDbEntity
  8
0
100
AcDbLine
 10
10.5510995982
 20
7.059223956799999
 30
0.0
 11
10.4723594407
 21
7.059223956799999
 31
0.0
  0
LINE
  5
55
330
18
100
AcDbEntity
  8
0
100
AcDbLine
 10
11.2345641651
 20
7.0748205088
 30
0.0
 11
12.0022807006
 21
7.0748205088
 31
0.0
  0
LINE
  5
56
330
18
100
AcDbEntity
  8
0
100
AcDbLine
 10
11.2345641651
 20
7.114190587599999
 30
0.0
 11
12.0022807006
 21
7.114190587599999
 31
0.0
  0
LINE
  5
57
330
18
100
AcDbEntity
  8
0
100
AcDbLine
 10
10.4723594407
 20
7.263796886799999
 30
0.0
 11
10.5117295195
 21
7.263796886799999
 31
0.0
  0
LINE
  5
58
330
18
100
AcDbEntity
  8
0
100
AcDbLine
 10
10.5510995982
 20
7.2410665612
 30
0.0
 11
10.5117295195
 21
7.263796886799999
 31
0.0
  0
LINE
  5
59
330
18
100
AcDbEntity
  8
0
100
AcDbLine
 10
11.2345641651
 20
7.413403186
 30
0.0
 11
12.0022807006
 21
7.413403186
 31
0.0
  0
LINE
  5
5A
330
18
100
AcDbEntity
  8
0
100
AcDbLine
 10
11.2345641651
 20
7.4527732648
 30
0.0
 11
12.0022807006
 21
7.4527732648
 31
0.0
  0
LINE
  5
5B
330
18
100
AcDbEntity
  8
0
100
AcDbLine
 10
11.2345641651
 20
7.7519858632
 30
0.0
 11
12.0022807006
 21
7.7519858632
 31
0.0
  0
LINE
  5
5C
330
18
100
AcDbEntity
  8
0
100
AcDbLine
 10
11.2345641651
 20
7.7913559419
 30
0.0
 11
12.0022807006
 21
7.7913559419
 31
0.0
  0
LINE
  5
5D
330
18
100
AcDbEntity
  8
0
100
AcDbLine
 10
10.4513751888
 20
4.619308697799999
 30
0.0
 11
10.4513751888
 21
5.369308697799999
 31
0.0
  0
LINE
  5
5E
330
18
100
AcDbEntity
  8
0
100
AcDbLine
 10
10.4513751888
 20
9.894899248999999
 30
0.0
 11
10.4513751888
 21
10.644899249
 31
0.0
  0
LINE
  5
5F
330
18
100
AcDbEntity
  8
0
100
AcDbLine
 10
10.4520838502
 20
5.4889937372
 30
0.0
 11
10.4520838502
 21
6.177970115099999
 31
0.0
  0
LINE
  5
60
330
18
100
AcDbEntity
  8
0
100
AcDbLine
 10
10.4520838502
 20
11.6996236585
 30
0.0
 11
10.4520838502
 21
12.3886000364
 31
0.0
  0
LINE
  5
61
330
18
100
AcDbEntity
  8
0
100
AcDbLine
 10
10.4563751888
 20
4.619308697799999
 30
0.0
 11
10.4563751888
 21
5.369308697799999
 31
0.0
  0
LINE
  5
62
330
18
100
AcDbEntity
  8
0
100
AcDbLine
 10
10.4563751888
 20
9.894899248999999
 30
0.0
 11
10.4563751888
 21
10.644899249
 31
0.0
  0
LINE
  5
63
330
18
100
AcDbEntity
  8
0
100
AcDbLine
 10
10.4581862124
 20
3.989387437999999
 30
0.0
 11
10.4581862124
 21
13.831907123
 31
0.0
  0
LINE
  5
64
330
18
100
AcDbEntity
  8
0
100
AcDbLine
 10
10.4723594407
 20
3.989387437999999
 30
0.0
 11
10.4723594407
 21
11.4791512175
 31
0.0
  0
LINE
  5
65
330
18
100
AcDbEntity
  8
0
100
AcDbLine
 10
10.5117295195
 20
4.2645842884
 30
0.0
 11
10.5117295195
 21
5.2323008238
 31
0.0
  0
LINE
  5
66
330
18
100
AcDbEntity
  8
0
100
AcDbLine
 10
10.5117295195
 20
7.263796886799999
 30
0.0
 11
10.5117295195
 21
8.2795449183
 31
0.0
  0
LINE
  5
67
330
18
100
AcDbEntity
  8
0
100
AcDbLine
 10
10.5117295195
 20
10.3153716899
 30
0.0
 11
10.5117295195
 21
11.2122220836
 31
0.0
  0
LINE
  5
69
330
18
100
AcDbEntity
  8
0
100
AcDbLine
 10
10.5510995982
 20
3.989387437999999
 30
0.0
 11
10.5510995982
 21
11.2122220836
 31
0.0
  0
LINE
  5
6A
330
18
100
AcDbEntity
  8
0
100
AcDbLine
 10
10.5881074722
 20
13.831907123
 30
0.0
 11
10.5881074722
 21
13.8370252333
 31
0.0
  0
LINE
  5
6B
330
18
100
AcDbEntity
  8
0
100
AcDbLine
 10
11.2345641651
 20
8.090568540299999
 30
0.0
 11
12.0022807006
 21
8.090568540299999
 31
0.0
  0
LINE
  5
6C
330
18
100
AcDbEntity
  8
0
100
AcDbLine
 10
11.2345641651
 20
8.129938619099998
 30
0.0
 11
12.0022807006
 21
8.129938619099998
 31
0.0
  0
LINE
  5
6D
330
18
100
AcDbEntity
  8
0
100
AcDbLine
 10
10.4723594407
 20
8.2795449183
 30
0.0
 11
10.5117295195
 21
8.2795449183
 31
0.0
  0
LINE
  5
6E
330
18
100
AcDbEntity
  8
0
100
AcDbLine
 10
10.7869263699
 20
10.552379564
 30
0.0
 11
10.7869263699
 21
10.5429307451
 31
0.0
  0
LINE
  5
6F
330
18
100
AcDbEntity
  8
0
100
AcDbLine
 10
10.7971625903
 20
11.0153716899
 30
0.0
 11
10.7971625903
 21
10.5429307451
 31
0.0
  0
LINE
  5
70
330
18
100
AcDbEntity
  8
0
100
AcDbLine
 10
10.7971625903
 20
4.960647280499999
 30
0.0
 11
10.7971625903
 21
4.4882063356
 31
0.0
  0
LINE
  5
71
330
18
100
AcDbEntity
  8
0
100
AcDbLine
 10
11.2345641651
 20
8.429151217499999
 30
0.0
 11
12.0022807006
 21
8.429151217499999
 31
0.0
  0
LINE
  5
72
330
18
100
AcDbEntity
  8
0
100
AcDbLine
 10
11.2345641651
 20
8.4685212962
 30
0.0
 11
12.0022807006
 21
8.4685212962
 31
0.0
  0
LINE
  5
73
330
18
100
AcDbEntity
  8
0
100
AcDbLine
 10
10.5510995982
 20
8.4841178483
 30
0.0
 11
10.4723594407
 21
8.4841178483
 31
0.0
  0
LINE
  5
74
330
18
100
AcDbEntity
  8
0
100
AcDbLine
 10
10.5510995982
 20
8.5864043133
 30
0.0
 11
10.4723594407
 21
8.5864043133
 31
0.0
  0
LINE
  5
75
330
18
100
AcDbEntity
  8
0
100
AcDbLine
 10
11.2345641651
 20
10.8386000364
 30
0.0
 11
11.2345641651
 21
10.7992299577
 31
0.0
  0
LINE
  5
76
330
18
100
AcDbEntity
  8
0
100
AcDbLine
 10
11.2345641651
 20
10.5000173592
 30
0.0
 11
11.2345641651
 21
10.4606472805
 31
0.0
  0
LINE
  5
77
330
18
100
AcDbEntity
  8
0
100
AcDbLine
 10
11.2345641651
 20
10.1614346821
 30
0.0
 11
11.2345641651
 21
10.1220646033
 31
0.0
  0
LINE
  5
78
330
18
100
AcDbEntity
  8
0
100
AcDbLine
 10
11.2345641651
 20
9.822852004899999
 30
0.0
 11
11.2345641651
 21
9.7834819262
 31
0.0
  0
LINE
  5
79
330
18
100
AcDbEntity
  8
0
100
AcDbLine
 10
11.2345641651
 20
9.484269327699999
 30
0.0
 11
11.2345641651
 21
9.444899249
 31
0.0
  0
LINE
  5
7A
330
18
100
AcDbEntity
  8
0
100
AcDbLine
 10
11.2345641651
 20
9.1456866506
 30
0.0
 11
11.2345641651
 21
9.106316571799998
 31
0.0
  0
LINE
  5
7B
330
18
100
AcDbEntity
  8
0
100
AcDbLine
 10
11.2345641651
 20
8.8071039734
 30
0.0
 11
11.2345641651
 21
8.7677338947
 31
0.0
  0
LINE
  5
7C
330
18
100
AcDbEntity
  8
0
100
AcDbLine
 10
11.2345641651
 20
8.4685212962
 30
0.0
 11
11.2345641651
 21
8.429151217499999
 31
0.0
  0
LINE
  5
7D
330
18
100
AcDbEntity
  8
0
100
AcDbLine
 10
11.2345641651
 20
8.129938619099998
 30
0.0
 11
11.2345641651
 21
8.090568540299999
 31
0.0
  0
LINE
  5
7E
330
18
100
AcDbEntity
  8
0
100
AcDbLine
 10
11.2345641651
 20
7.7913559419
 30
0.0
 11
11.2345641651
 21
7.7519858632
 31
0.0
  0
LINE
  5
7F
330
18
100
AcDbEntity
  8
0
100
AcDbLine
 10
11.2345641651
 20
7.4527732648
 30
0.0
 11
11.2345641651
 21
7.413403186
 31
0.0
  0
LINE
  5
80
330
18
100
AcDbEntity
  8
0
100
AcDbLine
 10
11.2345641651
 20
7.114190587599999
 30
0.0
 11
11.2345641651
 21
7.0748205088
 31
0.0
  0
LINE
  5
81
330
18
100
AcDbEntity
  8
0
100
AcDbLine
 10
11.2345641651
 20
6.775607910399999
 30
0.0
 11
11.2345641651
 21
6.736237831699999
 31
0.0
  0
LINE
  5
82
330
18
100
AcDbEntity
  8
0
100
AcDbLine
 10
11.2345641651
 20
6.4370252333
 30
0.0
 11
11.2345641651
 21
6.3976551545
 31
0.0
  0
LINE
  5
83
330
18
100
AcDbEntity
  8
0
100
AcDbLine
 10
11.2345641651
 20
6.0984425561
 30
0.0
 11
11.2345641651
 21
6.059072477299999
 31
0.0
  0
LINE
  5
84
330
18
100
AcDbEntity
  8
0
100
AcDbLine
 10
11.2345641651
 20
5.759859878899999
 30
0.0
 11
11.2345641651
 21
5.7204898002
 31
0.0
  0
LINE
  5
85
330
18
100
AcDbEntity
  8
0
100
AcDbLine
 10
11.2345641651
 20
5.421277201799999
 30
0.0
 11
11.2345641651
 21
5.381907122999999
 31
0.0
  0
LINE
  5
86
330
18
100
AcDbEntity
  8
0
100
AcDbLine
 10
11.2345641651
 20
5.082694524599999
 30
0.0
 11
11.2345641651
 21
5.043324445899999
 31
0.0
  0
LINE
  5
87
330
18
100
AcDbEntity
  8
0
100
AcDbLine
 10
11.2345641651
 20
4.7441118474
 30
0.0
 11
11.2345641651
 21
4.704741768699999
 31
0.0
  0
LINE
  5
88
330
18
100
AcDbEntity
  8
0
100
AcDbLine
 10
11.2345641651
 20
8.7677338947
 30
0.0
 11
12.0022807006
 21
8.7677338947
 31
0.0
  0
LINE
  5
89
330
18
100
AcDbEntity
  8
0
100
AcDbLine
 10
11.2345641651
 20
8.8071039734
 30
0.0
 11
12.0022807006
 21
8.8071039734
 31
0.0
  0
LINE
  5
8A
330
18
100
AcDbEntity
  8
0
100
AcDbLine
 10
11.3133043226
 20
10.8386000364
 30
0.0
 11
11.3133043226
 21
10.7992299577
 31
0.0
  0
LINE
  5
8B
330
18
100
AcDbEntity
  8
0
100
AcDbLine
 10
11.3133043226
 20
10.5000173592
 30
0.0
 11
11.3133043226
 21
10.4606472805
 31
0.0
  0
LINE
  5
8C
330
18
100
AcDbEntity
  8
0
100
AcDbLine
 10
11.3133043226
 20
10.1614346821
 30
0.0
 11
11.3133043226
 21
10.1220646033
 31
0.0
  0
LINE
  5
8D
330
18
100
AcDbEntity
  8
0
100
AcDbLine
 10
11.3133043226
 20
9.822852004899999
 30
0.0
 11
11.3133043226
 21
9.7834819262
 31
0.0
  0
LINE
  5
8E
330
18
100
AcDbEntity
  8
0
100
AcDbLine
 10
11.3133043226
 20
9.484269327699999
 30
0.0
 11
11.3133043226
 21
9.444899249
 31
0.0
  0
LINE
  5
8F
330
18
100
AcDbEntity
  8
0
100
AcDbLine
 10
11.3133043226
 20
9.1456866506
 30
0.0
 11
11.3133043226
 21
9.106316571799998
 31
0.0
  0
LINE
  5
90
330
18
100
AcDbEntity
  8
0
100
AcDbLine
 10
11.3133043226
 20
8.8071039734
 30
0.0
 11
11.3133043226
 21
8.7677338947
 31
0.0
  0
LINE
  5
91
330
18
100
AcDbEntity
  8
0
100
AcDbLine
 10
11.3133043226
 20
8.4685212962
 30
0.0
 11
11.3133043226
 21
8.429151217499999
 31
0.0
  0
LINE
  5
92
330
18
100
AcDbEntity
  8
0
100
AcDbLine
 10
11.3133043226
 20
8.129938619099998
 30
0.0
 11
11.3133043226
 21
8.090568540299999
 31
0.0
  0
LINE
  5
93
330
18
100
AcDbEntity
  8
0
100
AcDbLine
 10
11.3133043226
 20
7.7913559419
 30
0.0
 11
11.3133043226
 21
7.7519858632
 31
0.0
  0
LINE
  5
94
330
18
100
AcDbEntity
  8
0
100
AcDbLine
 10
11.3133043226
 20
7.4527732648
 30
0.0
 11
11.3133043226
 21
7.413403186
 31
0.0
  0
LINE
  5
95
330
18
100
AcDbEntity
  8
0
100
AcDbLine
 10
11.3133043226
 20
7.114190587599999
 30
0.0
 11
11.3133043226
 21
7.0748205088
 31
0.0
  0
LINE
  5
96
330
18
100
AcDbEntity
  8
0
100
AcDbLine
 10
11.3133043226
 20
6.775607910399999
 30
0.0
 11
11.3133043226
 21
6.736237831699999
 31
0.0
  0
LINE
  5
97
330
18
100
AcDbEntity
  8
0
100
AcDbLine
 10
11.3133043226
 20
6.4370252333
 30
0.0
 11
11.3133043226
 21
6.3976551545
 31
0.0
  0
LINE
  5
98
330
18
100
AcDbEntity
  8
0
100
AcDbLine
 10
11.3133043226
 20
6.0984425561
 30
0.0
 11
11.3133043226
 21
6.059072477299999
 31
0.0
  0
LINE
  5
99
330
18
100
AcDbEntity
  8
0
100
AcDbLine
 10
11.3133043226
 20
5.759859878899999
 30
0.0
 11
11.3133043226
 21
5.7204898002
 31
0.0
  0
LINE
  5
9A
330
18
100
AcDbEntity
  8
0
100
AcDbLine
 10
11.3133043226
 20
5.421277201799999
 30
0.0
 11
11.3133043226
 21
5.381907122999999
 31
0.0
  0
LINE
  5
9B
330
18
100
AcDbEntity
  8
0
100
AcDbLine
 10
11.3133043226
 20
5.082694524599999
 30
0.0
 11
11.3133043226
 21
5.043324445899999
 31
0.0
  0
LINE
  5
9C
330
18
100
AcDbEntity
  8
0
100
AcDbLine
 10
11.3133043226
 20
4.7441118474
 30
0.0
 11
11.3133043226
 21
4.704741768699999
 31
0.0
  0
LINE
  5
9D
330
18
100
AcDbEntity
  8
0
100
AcDbLine
 10
11.3172413305
 20
3.989387437999999
 30
0.0
 11
11.3172413305
 21
4.704741768699999
 31
0.0
  0
LINE
  5
9E
330
18
100
AcDbEntity
  8
0
100
AcDbLine
 10
11.3172413305
 20
4.7441118474
 30
0.0
 11
11.3172413305
 21
5.043324445899999
 31
0.0
  0
LINE
  5
9F
330
18
100
AcDbEntity
  8
0
100
AcDbLine
 10
11.3172413305
 20
5.082694524599999
 30
0.0
 11
11.3172413305
 21
5.381907122999999
 31
0.0
  0
LINE
  5
A0
330
18
100
AcDbEntity
  8
0
100
AcDbLine
 10
11.3172413305
 20
5.421277201799999
 30
0.0
 11
11.3172413305
 21
5.7204898002
 31
0.0
  0
LINE
  5
A1
330
18
100
AcDbEntity
  8
0
100
AcDbLine
 10
11.3172413305
 20
5.759859878899999
 30
0.0
 11
11.3172413305
 21
6.059072477299999
 31
0.0
  0
LINE
  5
A2
330
18
100
AcDbEntity
  8
0
100
AcDbLine
 10
11.3172413305
 20
6.0984425561
 30
0.0
 11
11.3172413305
 21
6.3976551545
 31
0.0
  0
LINE
  5
A3
330
18
100
AcDbEntity
  8
0
100
AcDbLine
 10
11.3172413305
 20
6.4370252333
 30
0.0
 11
11.3172413305
 21
6.736237831699999
 31
0.0
  0
LINE
  5
A4
330
18
100
AcDbEntity
  8
0
100
AcDbLine
 10
11.3172413305
 20
6.775607910399999
 30
0.0
 11
11.3172413305
 21
7.0748205088
 31
0.0
  0
LINE
  5
A5
330
18
100
AcDbEntity
  8
0
100
AcDbLine
 10
11.3172413305
 20
7.114190587599999
 30
0.0
 11
11.3172413305
 21
7.413403186
 31
0.0
  0
LINE
  5
A6
330
18
100
AcDbEntity
  8
0
100
AcDbLine
 10
11.3172413305
 20
7.4527732648
 30
0.0
 11
11.3172413305
 21
7.7519858632
 31
0.0
  0
LINE
  5
A7
330
18
100
AcDbEntity
  8
0
100
AcDbLine
 10
11.3172413305
 20
7.7913559419
 30
0.0
 11
11.3172413305
 21
8.090568540299999
 31
0.0
  0
LINE
  5
A8
330
18
100
AcDbEntity
  8
0
100
AcDbLine
 10
11.3172413305
 20
8.129938619099998
 30
0.0
 11
11.3172413305
 21
8.429151217499999
 31
0.0
  0
LINE
  5
A9
330
18
100
AcDbEntity
  8
0
100
AcDbLine
 10
11.3172413305
 20
8.4685212962
 30
0.0
 11
11.3172413305
 21
8.7677338947
 31
0.0
  0
LINE
  5
AA
330
18
100
AcDbEntity
  8
0
100
AcDbLine
 10
11.3172413305
 20
8.8071039734
 30
0.0
 11
11.3172413305
 21
9.106316571799998
 31
0.0
  0
LINE
  5
AB
330
18
100
AcDbEntity
  8
0
100
AcDbLine
 10
11.3172413305
 20
9.1456866506
 30
0.0
 11
11.3172413305
 21
9.444899249
 31
0.0
  0
LINE
  5
AC
330
18
100
AcDbEntity
  8
0
100
AcDbLine
 10
11.3172413305
 20
9.484269327699999
 30
0.0
 11
11.3172413305
 21
9.7834819262
 31
0.0
  0
LINE
  5
AD
330
18
100
AcDbEntity
  8
0
100
AcDbLine
 10
11.3172413305
 20
9.822852004899999
 30
0.0
 11
11.3172413305
 21
10.1220646033
 31
0.0
  0
LINE
  5
AE
330
18
100
AcDbEntity
  8
0
100
AcDbLine
 10
11.3172413305
 20
10.1614346821
 30
0.0
 11
11.3172413305
 21
10.4606472805
 31
0.0
  0
LINE
  5
AF
330
18
100
AcDbEntity
  8
0
100
AcDbLine
 10
11.3172413305
 20
10.5000173592
 30
0.0
 11
11.3172413305
 21
10.7992299577
 31
0.0
  0
LINE
  5
B0
330
18
100
AcDbEntity
  8
0
100
AcDbLine
 10
11.3172413305
 20
10.8386000364
 30
0.0
 11
11.3172413305
 21
11.2122220836
 31
0.0
  0
LINE
  5
B1
330
18
100
AcDbEntity
  8
0
100
AcDbLine
 10
11.4172413305
 20
4.083875627
 30
0.0
 11
11.4172413305
 21
4.1697023986
 31
0.0
  0
LINE
  5
B2
330
18
100
AcDbEntity
  8
0
100
AcDbLine
 10
11.4861389683
 20
11.4791512175
 30
0.0
 11
11.4861389683
 21
11.2122220836
 31
0.0
  0
LINE
  5
B3
330
18
100
AcDbEntity
  8
0
100
AcDbLine
 10
11.4861389683
 20
3.989387437999999
 30
0.0
 11
11.4861389683
 21
4.2913559419
 31
0.0
  0
LINE
  5
B4
330
18
100
AcDbEntity
  8
0
100
AcDbLine
 10
11.5888948738
 20
10.8386000364
 30
0.0
 11
11.5888948738
 21
10.7992299577
 31
0.0
  0
LINE
  5
B5
330
18
100
AcDbEntity
  8
0
100
AcDbLine
 10
11.5888948738
 20
10.5000173592
 30
0.0
 11
11.5888948738
 21
10.4606472805
 31
0.0
  0
LINE
  5
B6
330
18
100
AcDbEntity
  8
0
100
AcDbLine
 10
11.5888948738
 20
10.1614346821
 30
0.0
 11
11.5888948738
 21
10.1220646033
 31
0.0
  0
LINE
  5
B7
330
18
100
AcDbEntity
  8
0
100
AcDbLine
 10
11.5888948738
 20
9.822852004899999
 30
0.0
 11
11.5888948738
 21
9.7834819262
 31
0.0
  0
LINE
  5
B8
330
18
100
AcDbEntity
  8
0
100
AcDbLine
 10
11.5888948738
 20
9.484269327699999
 30
0.0
 11
11.5888948738
 21
9.444899249
 31
0.0
  0
LINE
  5
B9
330
18
100
AcDbEntity
  8
0
100
AcDbLine
 10
11.5888948738
 20
9.1456866506
 30
0.0
 11
11.5888948738
 21
9.106316571799998
 31
0.0
  0
LINE
  5
BA
330
18
100
AcDbEntity
  8
0
100
AcDbLine
 10
11.5888948738
 20
8.8071039734
 30
0.0
 11
11.5888948738
 21
8.7677338947
 31
0.0
  0
LINE
  5
BB
330
18
100
AcDbEntity
  8
0
100
AcDbLine
 10
11.5888948738
 20
8.4685212962
 30
0.0
 11
11.5888948738
 21
8.429151217499999
 31
0.0
  0
LINE
  5
BC
330
18
100
AcDbEntity
  8
0
100
AcDbLine
 10
11.5888948738
 20
8.129938619099998
 30
0.0
 11
11.5888948738
 21
8.090568540299999
 31
0.0
  0
LINE
  5
BD
330
18
100
AcDbEntity
  8
0
100
AcDbLine
 10
11.5888948738
 20
7.7913559419
 30
0.0
 11
11.5888948738
 21
7.7519858632
 31
0.0
  0
LINE
  5
BE
330
18
100
AcDbEntity
  8
0
100
AcDbLine
 10
11.5888948738
 20
7.4527732648
 30
0.0
 11
11.5888948738
 21
7.413403186
 31
0.0
  0
LINE
  5
BF
330
18
100
AcDbEntity
  8
0
100
AcDbLine
 10
11.5888948738
 20
7.114190587599999
 30
0.0
 11
11.5888948738
 21
7.0748205088
 31
0.0
  0
LINE
  5
C0
330
18
100
AcDbEntity
  8
0
100
AcDbLine
 10
11.5888948738
 20
6.775607910399999
 30
0.0
 11
11.5888948738
 21
6.736237831699999
 31
0.0
  0
LINE
  5
C1
330
18
100
AcDbEntity
  8
0
100
AcDbLine
 10
11.5888948738
 20
6.4370252333
 30
0.0
 11
11.5888948738
 21
6.3976551545
 31
0.0
  0
LINE
  5
C2
330
18
100
AcDbEntity
  8
0
100
AcDbLine
 10
11.5888948738
 20
6.0984425561
 30
0.0
 11
11.5888948738
 21
6.059072477299999
 31
0.0
  0
LINE
  5
C3
330
18
100
AcDbEntity
  8
0
100
AcDbLine
 10
11.5888948738
 20
5.759859878899999
 30
0.0
 11
11.5888948738
 21
5.7204898002
 31
0.0
  0
LINE
  5
C4
330
18
100
AcDbEntity
  8
0
100
AcDbLine
 10
11.5888948738
 20
5.421277201799999
 30
0.0
 11
11.5888948738
 21
5.381907122999999
 31
0.0
  0
LINE
  5
C5
330
18
100
AcDbEntity
  8
0
100
AcDbLine
 10
11.5888948738
 20
5.082694524599999
 30
0.0
 11
11.5888948738
 21
5.043324445899999
 31
0.0
  0
LINE
  5
C6
330
18
100
AcDbEntity
  8
0
100
AcDbLine
 10
11.5888948738
 20
4.7441118474
 30
0.0
 11
11.5888948738
 21
4.704741768699999
 31
0.0
  0
LINE
  5
C7
330
18
100
AcDbEntity
  8
0
100
AcDbLine
 10
11.6085799132
 20
10.8386000364
 30
0.0
 11
11.6085799132
 21
10.7992299577
 31
0.0
  0
LINE
  5
C8
330
18
100
AcDbEntity
  8
0
100
AcDbLine
 10
11.6085799132
 20
10.5000173592
 30
0.0
 11
11.6085799132
 21
10.4606472805
 31
0.0
  0
LINE
  5
C9
330
18
100
AcDbEntity
  8
0
100
AcDbLine
 10
11.6085799132
 20
10.1614346821
 30
0.0
 11
11.6085799132
 21
10.1220646033
 31
0.0
  0
LINE
  5
CA
330
18
100
AcDbEntity
  8
0
100
AcDbLine
 10
11.6085799132
 20
9.822852004899999
 30
0.0
 11
11.6085799132
 21
9.7834819262
 31
0.0
  0
LINE
  5
CB
330
18
100
AcDbEntity
  8
0
100
AcDbLine
 10
11.6085799132
 20
9.484269327699999
 30
0.0
 11
11.6085799132
 21
9.444899249
 31
0.0
  0
LINE
  5
CC
330
18
100
AcDbEntity
  8
0
100
AcDbLine
 10
11.6085799132
 20
9.1456866506
 30
0.0
 11
11.6085799132
 21
9.106316571799998
 31
0.0
  0
LINE
  5
CD
330
18
100
AcDbEntity
  8
0
100
AcDbLine
 10
11.6085799132
 20
8.8071039734
 30
0.0
 11
11.6085799132
 21
8.7677338947
 31
0.0
  0
LINE
  5
CE
330
18
100
AcDbEntity
  8
0
100
AcDbLine
 10
11.6085799132
 20
8.4685212962
 30
0.0
 11
11.6085799132
 21
8.429151217499999
 31
0.0
  0
LINE
  5
CF
330
18
100
AcDbEntity
  8
0
100
AcDbLine
 10
11.6085799132
 20
8.129938619099998
 30
0.0
 11
11.6085799132
 21
8.090568540299999
 31
0.0
  0
LINE
  5
D0
330
18
100
AcDbEntity
  8
0
100
AcDbLine
 10
11.6085799132
 20
7.7913559419
 30
0.0
 11
11.6085799132
 21
7.7519858632
 31
0.0
  0
LINE
  5
D1
330
18
100
AcDbEntity
  8
0
100
AcDbLine
 10
11.6085799132
 20
7.4527732648
 30
0.0
 11
11.6085799132
 21
7.413403186
 31
0.0
  0
LINE
  5
D2
330
18
100
AcDbEntity
  8
0
100
AcDbLine
 10
11.6085799132
 20
7.114190587599999
 30
0.0
 11
11.6085799132
 21
7.0748205088
 31
0.0
  0
LINE
  5
D3
330
18
100
AcDbEntity
  8
0
100
AcDbLine
 10
11.6085799132
 20
6.775607910399999
 30
0.0
 11
11.6085799132
 21
6.736237831699999
 31
0.0
  0
LINE
  5
D4
330
18
100
AcDbEntity
  8
0
100
AcDbLine
 10
11.6085799132
 20
6.4370252333
 30
0.0
 11
11.6085799132
 21
6.3976551545
 31
0.0
  0
LINE
  5
D5
330
18
100
AcDbEntity
  8
0
100
AcDbLine
 10
11.6085799132
 20
6.0984425561
 30
0.0
 11
11.6085799132
 21
6.059072477299999
 31
0.0
  0
LINE
  5
D6
330
18
100
AcDbEntity
  8
0
100
AcDbLine
 10
11.6085799132
 20
5.759859878899999
 30
0.0
 11
11.6085799132
 21
5.7204898002
 31
0.0
  0
LINE
  5
D7
330
18
100
AcDbEntity
  8
0
100
AcDbLine
 10
11.6085799132
 20
5.421277201799999
 30
0.0
 11
11.6085799132
 21
5.381907122999999
 31
0.0
  0
LINE
  5
D8
330
18
100
AcDbEntity
  8
0
100
AcDbLine
 10
11.6085799132
 20
5.082694524599999
 30
0.0
 11
11.6085799132
 21
5.043324445899999
 31
0.0
  0
LINE
  5
D9
330
18
100
AcDbEntity
  8
0
100
AcDbLine
 10
11.6085799132
 20
4.7441118474
 30
0.0
 11
11.6085799132
 21
4.704741768699999
 31
0.0
  0
LINE
  5
DA
330
18
100
AcDbEntity
  8
0
100
AcDbLine
 10
10.5510995982
 20
8.3022752439
 30
0.0
 11
10.5117295195
 21
8.2795449183
 31
0.0
  0
LINE
  5
DB
330
18
100
AcDbEntity
  8
0
100
AcDbLine
 10
11.2345641651
 20
9.106316571799998
 30
0.0
 11
12.0022807006
 21
9.106316571799998
 31
0.0
  0
LINE
  5
DC
330
18
100
AcDbEntity
  8
0
100
AcDbLine
 10
11.2345641651
 20
9.1456866506
 30
0.0
 11
12.0022807006
 21
9.1456866506
 31
0.0
  0
LINE
  5
DD
330
18
100
AcDbEntity
  8
0
100
AcDbLine
 10
11.6873200707
 20
10.8386000364
 30
0.0
 11
11.6873200707
 21
10.7992299577
 31
0.0
  0
LINE
  5
DE
330
18
100
AcDbEntity
  8
0
100
AcDbLine
 10
11.6873200707
 20
10.5000173592
 30
0.0
 11
11.6873200707
 21
10.4606472805
 31
0.0
  0
LINE
  5
DF
330
18
100
AcDbEntity
  8
0
100
AcDbLine
 10
11.6873200707
 20
10.1614346821
 30
0.0
 11
11.6873200707
 21
10.1220646033
 31
0.0
  0
LINE
  5
E0
330
18
100
AcDbEntity
  8
0
100
AcDbLine
 10
11.6873200707
 20
9.822852004899999
 30
0.0
 11
11.6873200707
 21
9.7834819262
 31
0.0
  0
LINE
  5
E1
330
18
100
AcDbEntity
  8
0
100
AcDbLine
 10
11.6873200707
 20
9.484269327699999
 30
0.0
 11
11.6873200707
 21
9.444899249
 31
0.0
  0
LINE
  5
E2
330
18
100
AcDbEntity
  8
0
100
AcDbLine
 10
11.6873200707
 20
9.1456866506
 30
0.0
 11
11.6873200707
 21
9.106316571799998
 31
0.0
  0
LINE
  5
E3
330
18
100
AcDbEntity
  8
0
100
AcDbLine
 10
11.6873200707
 20
8.8071039734
 30
0.0
 11
11.6873200707
 21
8.7677338947
 31
0.0
  0
LINE
  5
E4
330
18
100
AcDbEntity
  8
0
100
AcDbLine
 10
11.6873200707
 20
8.4685212962
 30
0.0
 11
11.6873200707
 21
8.429151217499999
 31
0.0
  0
LINE
  5
E5
330
18
100
AcDbEntity
  8
0
100
AcDbLine
 10
11.6873200707
 20
8.129938619099998
 30
0.0
 11
11.6873200707
 21
8.090568540299999
 31
0.0
  0
LINE
  5
E6
330
18
100
AcDbEntity
  8
0
100
AcDbLine
 10
11.6873200707
 20
7.7913559419
 30
0.0
 11
11.6873200707
 21
7.7519858632
 31
0.0
  0
LINE
  5
E7
330
18
100
AcDbEntity
  8
0
100
AcDbLine
 10
11.6873200707
 20
7.4527732648
 30
0.0
 11
11.6873200707
 21
7.413403186
 31
0.0
  0
LINE
  5
E8
330
18
100
AcDbEntity
  8
0
100
AcDbLine
 10
11.6873200707
 20
7.114190587599999
 30
0.0
 11
11.6873200707
 21
7.0748205088
 31
0.0
  0
LINE
  5
E9
330
18
100
AcDbEntity
  8
0
100
AcDbLine
 10
11.6873200707
 20
6.775607910399999
 30
0.0
 11
11.6873200707
 21
6.736237831699999
 31
0.0
  0
LINE
  5
EA
330
18
100
AcDbEntity
  8
0
100
AcDbLine
 10
11.6873200707
 20
6.4370252333
 30
0.0
 11
11.6873200707
 21
6.3976551545
 31
0.0
  0
LINE
  5
EB
330
18
100
AcDbEntity
  8
0
100
AcDbLine
 10
11.6873200707
 20
6.0984425561
 30
0.0
 11
11.6873200707
 21
6.059072477299999
 31
0.0
  0
LINE
  5
EC
330
18
100
AcDbEntity
  8
0
100
AcDbLine
 10
11.6873200707
 20
5.759859878899999
 30
0.0
 11
11.6873200707
 21
5.7204898002
 31
0.0
  0
LINE
  5
ED
330
18
100
AcDbEntity
  8
0
100
AcDbLine
 10
11.6873200707
 20
5.421277201799999
 30
0.0
 11
11.6873200707
 21
5.381907122999999
 31
0.0
  0
LINE
  5
EE
330
18
100
AcDbEntity
  8
0
100
AcDbLine
 10
11.6873200707
 20
5.082694524599999
 30
0.0
 11
11.6873200707
 21
5.043324445899999
 31
0.0
  0
LINE
  5
EF
330
18
100
AcDbEntity
  8
0
100
AcDbLine
 10
11.6873200707
 20
4.7441118474
 30
0.0
 11
11.6873200707
 21
4.704741768699999
 31
0.0
  0
LINE
  5
F0
330
18
100
AcDbEntity
  8
0
100
AcDbLine
 10
11.64739707207266
 20
4.282590108325961
 30
0.0
 11
11.64739707207266
 21
4.695975935125961
 31
0.0
  0
LINE
  5
F1
330
18
100
AcDbEntity
  8
0
100
AcDbLine
 10
11.64739707207266
 20
4.735346013825961
 30
0.0
 11
11.64739707207266
 21
5.034558612325961
 31
0.0
  0
LINE
  5
F2
330
18
100
AcDbEntity
  8
0
100
AcDbLine
 10
11.64739707207266
 20
5.073928691025961
 30
0.0
 11
11.64739707207266
 21
5.37314128942596
 31
0.0
  0
LINE
  5
F3
330
18
100
AcDbEntity
  8
0
100
AcDbLine
 10
11.64739707207266
 20
5.412511368225961
 30
0.0
 11
11.64739707207266
 21
5.711723966625961
 31
0.0
  0
LINE
  5
F4
330
18
100
AcDbEntity
  8
0
100
AcDbLine
 10
11.64739707207266
 20
5.75109404532596
 30
0.0
 11
11.64739707207266
 21
6.050306643725961
 31
0.0
  0
LINE
  5
F5
330
18
100
AcDbEntity
  8
0
100
AcDbLine
 10
11.64739707207266
 20
6.089676722525961
 30
0.0
 11
11.64739707207266
 21
6.388889320925962
 31
0.0
  0
LINE
  5
F6
330
18
100
AcDbEntity
  8
0
100
AcDbLine
 10
11.64739707207266
 20
6.428259399725962
 30
0.0
 11
11.64739707207266
 21
6.72747199812596
 31
0.0
  0
LINE
  5
F7
330
18
100
AcDbEntity
  8
0
100
AcDbLine
 10
11.64739707207266
 20
6.766842076825961
 30
0.0
 11
11.64739707207266
 21
7.066054675225961
 31
0.0
  0
LINE
  5
F8
330
18
100
AcDbEntity
  8
0
100
AcDbLine
 10
11.64739695606114
 20
7.122956421174038
 30
0.0
 11
11.64739695606114
 21
7.422169019574038
 31
0.0
  0
LINE
  5
F9
330
18
100
AcDbEntity
  8
0
100
AcDbLine
 10
11.64739695606114
 20
7.461539098374038
 30
0.0
 11
11.64739695606114
 21
7.760751696774039
 31
0.0
  0
LINE
  5
FA
330
18
100
AcDbEntity
  8
0
100
AcDbLine
 10
11.64739695606114
 20
7.800121775474039
 30
0.0
 11
11.64739695606114
 21
8.099334373874038
 31
0.0
  0
LINE
  5
FB
330
18
100
AcDbEntity
  8
0
100
AcDbLine
 10
11.64739695606114
 20
8.138704452674037
 30
0.0
 11
11.64739695606114
 21
8.437917051074037
 31
0.0
  0
LINE
  5
FC
330
18
100
AcDbEntity
  8
0
100
AcDbLine
 10
11.64739695606114
 20
8.477287129774039
 30
0.0
 11
11.64739695606114
 21
8.776499728274039
 31
0.0
  0
LINE
  5
FD
330
18
100
AcDbEntity
  8
0
100
AcDbLine
 10
11.64739695606114
 20
8.815869806974038
 30
0.0
 11
11.64739695606114
 21
9.115082405374037
 31
0.0
  0
LINE
  5
FE
330
18
100
AcDbEntity
  8
0
100
AcDbLine
 10
11.64739695606114
 20
9.154452484174038
 30
0.0
 11
11.64739695606114
 21
9.453665082574039
 31
0.0
  0
LINE
  5
FF
330
18
100
AcDbEntity
  8
0
100
AcDbLine
 10
11.64739695606114
 20
9.493035161274038
 30
0.0
 11
11.64739695606114
 21
9.792247759774038
 31
0.0
  0
LINE
  5
100
330
18
100
AcDbEntity
  8
0
100
AcDbLine
 10
11.64739695606114
 20
9.831617838474038
 30
0.0
 11
11.64739695606114
 21
10.13083043687404
 31
0.0
  0
LINE
  5
101
330
18
100
AcDbEntity
  8
0
100
AcDbLine
 10
11.64739695606114
 20
10.17020051567404
 30
0.0
 11
11.64739695606114
 21
10.46941311407404
 31
0.0
  0
LINE
  5
102
330
18
100
AcDbEntity
  8
0
100
AcDbLine
 10
11.64739695606114
 20
10.50878319277404
 30
0.0
 11
11.64739695606114
 21
10.80799579127404
 31
0.0
  0
LINE
  5
103
330
18
100
AcDbEntity
  8
0
100
AcDbLine
 10
11.64739695606114
 20
10.84736586997404
 30
0.0
 11
11.64739695606114
 21
11.22098791717403
 31
0.0
  0
LINE
  5
104
330
18
100
AcDbEntity
  8
0
100
AcDbLine
 10
11.7408633777
 20
4.6728520049
 30
0.0
 11
11.7408633777
 21
4.432694524599999
 31
0.0
  0
LINE
  5
107
330
18
100
AcDbEntity
  8
0
100
AcDbLine
 10
11.8448003856
 20
11.4791512175
 30
0.0
 11
11.8448003856
 21
11.2122220836
 31
0.0
  0
LINE
  5
108
330
18
100
AcDbEntity
  8
0
100
AcDbLine
 10
11.8448003856
 20
3.989387437999999
 30
0.0
 11
11.8448003856
 21
4.2913559419
 31
0.0
  0
LINE
  5
109
330
18
100
AcDbEntity
  8
0
100
AcDbLine
 10
11.8585799132
 20
11.7114346821
 30
0.0
 11
11.8585799132
 21
13.831907123
 31
0.0
  0
LINE
  5
10A
330
18
100
AcDbEntity
  8
0
100
AcDbLine
 10
11.9266901494
 20
13.831907123
 30
0.0
 11
11.9266901494
 21
13.8370252333
 31
0.0
  0
LINE
  5
10B
330
18
100
AcDbEntity
  8
0
100
AcDbLine
 10
11.2345641651
 20
9.444899249
 30
0.0
 11
12.0022807006
 21
9.444899249
 31
0.0
  0
LINE
  5
10C
330
18
100
AcDbEntity
  8
0
100
AcDbLine
 10
11.2345641651
 20
9.484269327699999
 30
0.0
 11
12.0022807006
 21
9.484269327699999
 31
0.0
  0
LINE
  5
10D
330
18
100
AcDbEntity
  8
0
100
AcDbLine
 10
12.0416507793
 20
11.4594661781
 30
0.0
 11
12.0414789906
 21
11.4791512175
 31
0.0
  0
LINE
  5
10E
330
18
100
AcDbEntity
  8
0
100
AcDbLine
 10
11.9944066848
 20
11.4791512175
 30
0.0
 11
11.9944066848
 21
11.2122220836
 31
0.0
  0
LINE
  5
10F
330
18
100
AcDbEntity
  8
0
100
AcDbLine
 10
11.9944066848
 20
3.989387437999999
 30
0.0
 11
11.9944066848
 21
4.2913559419
 31
0.0
  0
LINE
  5
110
330
18
100
AcDbEntity
  8
0
100
AcDbLine
 10
12.0022807006
 20
4.2913559419
 30
0.0
 11
12.0022807006
 21
4.704741768699999
 31
0.0
  0
LINE
  5
111
330
18
100
AcDbEntity
  8
0
100
AcDbLine
 10
12.0022807006
 20
4.7441118474
 30
0.0
 11
12.0022807006
 21
5.043324445899999
 31
0.0
  0
LINE
  5
112
330
18
100
AcDbEntity
  8
0
100
AcDbLine
 10
12.0022807006
 20
5.082694524599999
 30
0.0
 11
12.0022807006
 21
5.381907122999999
 31
0.0
  0
LINE
  5
113
330
18
100
AcDbEntity
  8
0
100
AcDbLine
 10
12.0022807006
 20
5.421277201799999
 30
0.0
 11
12.0022807006
 21
5.7204898002
 31
0.0
  0
LINE
  5
114
330
18
100
AcDbEntity
  8
0
100
AcDbLine
 10
12.0022807006
 20
5.759859878899999
 30
0.0
 11
12.0022807006
 21
6.059072477299999
 31
0.0
  0
LINE
  5
115
330
18
100
AcDbEntity
  8
0
100
AcDbLine
 10
12.0022807006
 20
6.0984425561
 30
0.0
 11
12.0022807006
 21
6.3976551545
 31
0.0
  0
LINE
  5
116
330
18
100
AcDbEntity
  8
0
100
AcDbLine
 10
12.0022807006
 20
6.4370252333
 30
0.0
 11
12.0022807006
 21
6.736237831699999
 31
0.0
  0
LINE
  5
117
330
18
100
AcDbEntity
  8
0
100
AcDbLine
 10
12.0022807006
 20
6.775607910399999
 30
0.0
 11
12.0022807006
 21
7.0748205088
 31
0.0
  0
LINE
  5
118
330
18
100
AcDbEntity
  8
0
100
AcDbLine
 10
12.0022807006
 20
7.114190587599999
 30
0.0
 11
12.0022807006
 21
7.413403186
 31
0.0
  0
LINE
  5
119
330
18
100
AcDbEntity
  8
0
100
AcDbLine
 10
12.0022807006
 20
7.4527732648
 30
0.0
 11
12.0022807006
 21
7.7519858632
 31
0.0
  0
LINE
  5
11A
330
18
100
AcDbEntity
  8
0
100
AcDbLine
 10
12.0022807006
 20
7.7913559419
 30
0.0
 11
12.0022807006
 21
8.090568540299999
 31
0.0
  0
LINE
  5
11B
330
18
100
AcDbEntity
  8
0
100
AcDbLine
 10
12.0022807006
 20
8.129938619099998
 30
0.0
 11
12.0022807006
 21
8.429151217499999
 31
0.0
  0
LINE
  5
11C
330
18
100
AcDbEntity
  8
0
100
AcDbLine
 10
12.0022807006
 20
8.4685212962
 30
0.0
 11
12.0022807006
 21
8.7677338947
 31
0.0
  0
LINE
  5
11D
330
18
100
AcDbEntity
  8
0
100
AcDbLine
 10
12.0022807006
 20
8.8071039734
 30
0.0
 11
12.0022807006
 21
9.106316571799998
 31
0.0
  0
LINE
  5
11E
330
18
100
AcDbEntity
  8
0
100
AcDbLine
 10
12.0022807006
 20
9.1456866506
 30
0.0
 11
12.0022807006
 21
9.444899249
 31
0.0
  0
LINE
  5
11F
330
18
100
AcDbEntity
  8
0
100
AcDbLine
 10
12.0022807006
 20
9.484269327699999
 30
0.0
 11
12.0022807006
 21
9.7834819262
 31
0.0
  0
LINE
  5
120
330
18
100
AcDbEntity
  8
0
100
AcDbLine
 10
12.0022807006
 20
9.822852004899999
 30
0.0
 11
12.0022807006
 21
10.1220646033
 31
0.0
  0
LINE
  5
121
330
18
100
AcDbEntity
  8
0
100
AcDbLine
 10
12.0022807006
 20
10.1614346821
 30
0.0
 11
12.0022807006
 21
10.4606472805
 31
0.0
  0
LINE
  5
122
330
18
100
AcDbEntity
  8
0
100
AcDbLine
 10
12.0022807006
 20
10.5000173592
 30
0.0
 11
12.0022807006
 21
10.7992299577
 31
0.0
  0
LINE
  5
123
330
18
100
AcDbEntity
  8
0
100
AcDbLine
 10
12.0022807006
 20
10.8386000364
 30
0.0
 11
12.0022807006
 21
11.2122220836
 31
0.0
  0
LINE
  5
124
330
18
100
AcDbEntity
  8
0
100
AcDbLine
 10
12.0333018467
 20
3.989387437999999
 30
0.0
 11
12.0333018467
 21
4.2913559419
 31
0.0
  0
LINE
  5
125
330
18
100
AcDbEntity
  8
0
100
AcDbLine
 10
12.0333018467
 20
11.2122220836
 30
0.0
 11
12.0333018467
 21
11.4791512175
 31
0.0
  0
LINE
  5
126
330
18
100
AcDbEntity
  8
0
100
AcDbLine
 10
12.0343566296
 20
4.2913559419
 30
0.0
 11
12.0343566296
 21
11.2122220836
 31
0.0
  0
LINE
  5
127
330
18
100
AcDbEntity
  8
0
100
AcDbLine
 10
12.0416507793
 20
3.989387437999999
 30
0.0
 11
12.0416507793
 21
11.4594661781
 31
0.0
  0
LINE
  5
128
330
18
100
AcDbEntity
  8
0
100
AcDbLine
 10
12.0463751888
 20
3.989387437999999
 30
0.0
 11
12.0463751888
 21
13.831907123
 31
0.0
  0
LINE
  5
129
330
18
100
AcDbEntity
  8
0
100
AcDbLine
 10
12.0513751888
 20
4.619308697799999
 30
0.0
 11
12.0513751888
 21
5.369308697799999
 31
0.0
  0
LINE
  5
12A
330
18
100
AcDbEntity
  8
0
100
AcDbLine
 10
12.0513751888
 20
9.894899248999999
 30
0.0
 11
12.0513751888
 21
10.644899249
 31
0.0
  0
LINE
  5
12B
330
18
100
AcDbEntity
  8
0
100
AcDbLine
 10
12.052477551
 20
5.4889937372
 30
0.0
 11
12.052477551
 21
6.177970115099999
 31
0.0
  0
LINE
  5
12C
330
18
100
AcDbEntity
  8
0
100
AcDbLine
 10
12.052477551
 20
11.6996236585
 30
0.0
 11
12.052477551
 21
12.3886000364
 31
0.0
  0
LINE
  5
12D
330
18
100
AcDbEntity
  8
0
100
AcDbLine
 10
11.2345641651
 20
9.7834819262
 30
0.0
 11
12.0022807006
 21
9.7834819262
 31
0.0
  0
LINE
  5
12E
330
18
100
AcDbEntity
  8
0
100
AcDbLine
 10
11.2345641651
 20
9.822852004899999
 30
0.0
 11
12.0022807006
 21
9.822852004899999
 31
0.0
  0
LINE
  5
12F
330
18
100
AcDbEntity
  8
0
100
AcDbLine
 10
12.0513751888
 20
9.894899248999999
 30
0.0
 11
12.0463751888
 21
9.894899248999999
 31
0.0
  0
LINE
  5
130
330
18
100
AcDbEntity
  8
0
100
AcDbLine
 10
10.4513751888
 20
9.894899248999999
 30
0.0
 11
10.4581862124
 21
9.894899248999999
 31
0.0
  0
LINE
  5
131
330
18
100
AcDbEntity
  8
0
100
AcDbLine
 10
10.5510995982
 20
10.2926413644
 30
0.0
 11
10.5117295195
 21
10.3153716899
 31
0.0
  0
LINE
  5
132
330
18
100
AcDbEntity
  8
0
100
AcDbLine
 10
10.5510995982
 20
10.0085122949
 30
0.0
 11
10.4723594407
 21
10.0085122949
 31
0.0
  0
LINE
  5
133
330
18
100
AcDbEntity
  8
0
100
AcDbLine
 10
10.4513751888
 20
10.019899249
 30
0.0
 11
10.4563751888
 21
10.019899249
 31
0.0
  0
LINE
  5
134
330
18
100
AcDbEntity
  8
0
100
AcDbLine
 10
12.0463751888
 20
10.019899249
 30
0.0
 11
12.0513751888
 21
10.019899249
 31
0.0
  0
LINE
  5
135
330
18
100
AcDbEntity
  8
0
100
AcDbLine
 10
10.5510995982
 20
10.1107987599
 30
0.0
 11
10.4723594407
 21
10.1107987599
 31
0.0
  0
LINE
  5
136
330
18
100
AcDbEntity
  8
0
100
AcDbLine
 10
11.2345641651
 20
10.1220646033
 30
0.0
 11
12.0022807006
 21
10.1220646033
 31
0.0
  0
LINE
  5
137
330
18
100
AcDbEntity
  8
0
100
AcDbLine
 10
11.2345641651
 20
10.1614346821
 30
0.0
 11
12.0022807006
 21
10.1614346821
 31
0.0
  0
LINE
  5
138
330
18
100
AcDbEntity
  8
0
100
AcDbLine
 10
10.4723594407
 20
10.3153716899
 30
0.0
 11
10.5117295195
 21
10.3153716899
 31
0.0
  0
LINE
  5
139
330
18
100
AcDbEntity
  8
0
100
AcDbLine
 10
11.2345641651
 20
10.4606472805
 30
0.0
 11
12.0022807006
 21
10.4606472805
 31
0.0
  0
LINE
  5
13A
330
18
100
AcDbEntity
  8
0
100
AcDbLine
 10
11.2345641651
 20
10.5000173592
 30
0.0
 11
12.0022807006
 21
10.5000173592
 31
0.0
  0
LINE
  5
13B
330
18
100
AcDbEntity
  8
0
100
AcDbLine
 10
10.4513751888
 20
10.519899249
 30
0.0
 11
10.4563751888
 21
10.519899249
 31
0.0
  0
LINE
  5
13C
330
18
100
AcDbEntity
  8
0
100
AcDbLine
 10
12.0463751888
 20
10.519899249
 30
0.0
 11
12.0513751888
 21
10.519899249
 31
0.0
  0
LINE
  5
13D
330
18
100
AcDbEntity
  8
0
100
AcDbLine
 10
10.5510995982
 20
10.5429307451
 30
0.0
 11
10.7971625903
 21
10.5429307451
 31
0.0
  0
LINE
  5
13E
330
18
100
AcDbEntity
  8
0
100
AcDbLine
 10
10.7869263699
 20
10.552379564
 30
0.0
 11
10.5510995982
 21
10.552379564
 31
0.0
  0
LINE
  5
13F
330
18
100
AcDbEntity
  8
0
100
AcDbLine
 10
10.4513751888
 20
10.644899249
 30
0.0
 11
10.4581862124
 21
10.644899249
 31
0.0
  0
LINE
  5
140
330
18
100
AcDbEntity
  8
0
100
AcDbLine
 10
12.0463751888
 20
10.644899249
 30
0.0
 11
12.0513751888
 21
10.644899249
 31
0.0
  0
LINE
  5
141
330
18
100
AcDbEntity
  8
0
100
AcDbLine
 10
11.2345641651
 20
10.7992299577
 30
0.0
 11
12.0022807006
 21
10.7992299577
 31
0.0
  0
LINE
  5
142
330
18
100
AcDbEntity
  8
0
100
AcDbLine
 10
11.2345641651
 20
10.8386000364
 30
0.0
 11
12.0022807006
 21
10.8386000364
 31
0.0
  0
LINE
  5
143
330
18
100
AcDbEntity
  8
0
100
AcDbLine
 10
10.5510995982
 20
11.0153716899
 30
0.0
 11
10.7971625903
 21
11.0153716899
 31
0.0
  0
LINE
  5
144
330
18
100
AcDbEntity
  8
0
100
AcDbLine
 10
10.5117295195
 20
11.2122220836
 30
0.0
 11
12.0333018467
 21
11.2122220836
 31
0.0
  0
LINE
  5
145
330
18
100
AcDbEntity
  8
0
100
AcDbLine
 10
10.4581862124
 20
11.5236394065
 30
0.0
 11
11.8585799132
 21
11.7114346821
 31
0.0
  0
LINE
  5
146
330
18
100
AcDbEntity
  8
0
100
AcDbLine
 10
10.4723594407
 20
11.4791512175
 30
0.0
 11
11.6161344356
 21
11.4791512175
 31
0.0
  0
LINE
  5
147
330
18
100
AcDbEntity
  8
0
100
AcDbLine
 10
11.630159249
 20
11.4791512175
 30
0.0
 11
12.0414789906
 21
11.4791512175
 31
0.0
  0
LINE
  5
148
330
18
100
AcDbEntity
  8
0
100
AcDbLine
 10
12.0463751888
 20
11.5236394065
 30
0.0
 11
10.4581862124
 21
11.5236394065
 31
0.0
  0
LINE
  5
149
330
18
100
AcDbEntity
  8
0
100
AcDbLine
 10
11.8585799132
 20
11.7114346821
 30
0.0
 11
12.0463751888
 21
11.5236394065
 31
0.0
  0
LINE
  5
14A
330
18
100
AcDbEntity
  8
0
100
AcDbLine
 10
10.5510995982
 20
5.255031149399999
 30
0.0
 11
10.5117295195
 21
5.2323008238
 31
0.0
  0
LINE
  5
14B
330
18
100
AcDbEntity
  8
0
100
AcDbLine
 10
10.4581862124
 20
11.6996236585
 30
0.0
 11
10.4520838502
 21
11.6996236585
 31
0.0
  0
LINE
  5
14C
330
18
100
AcDbEntity
  8
0
100
AcDbLine
 10
12.0463751888
 20
11.6996236585
 30
0.0
 11
12.052477551
 21
11.6996236585
 31
0.0
  0
LINE
  5
14D
330
18
100
AcDbEntity
  8
0
100
AcDbLine
 10
10.4581862124
 20
12.3886000364
 30
0.0
 11
10.4520838502
 21
12.3886000364
 31
0.0
  0
LINE
  5
14E
330
18
100
AcDbEntity
  8
0
100
AcDbLine
 10
12.0463751888
 20
12.3886000364
 30
0.0
 11
12.052477551
 21
12.3886000364
 31
0.0
  0
LINE
  5
151
330
18
100
AcDbEntity
  8
0
100
AcDbLine
 10
10.4581862124
 20
13.831907123
 30
0.0
 11
12.0463751888
 21
13.831907123
 31
0.0
  0
LINE
  5
152
330
18
100
AcDbEntity
  8
0
100
AcDbLine
 10
10.5881074722
 20
13.8370252333
 30
0.0
 11
11.9266901494
 21
13.8370252333
 31
0.0
  0
ARC
  5
153
330
18
100
AcDbEntity
  8
0
100
AcDbCircle
 10
11.8468869998
 20
4.555332319899999
 30
0.0
 40
0.0688976378
100
AcDbArc
 50
146.4876437876
 51
214.1530418142
  0
CIRCLE
  5
154
330
18
100
AcDbEntity
  8
0
100
AcDbCircle
 10
11.6231468423
 20
11.3543480679
 30
0.0
 40
0.125
  0
CIRCLE
  5
155
330
18
100
AcDbEntity
  8
0
100
AcDbCircle
 10
11.6231468423
 20
4.1574976742
 30
0.0
 40
0.125
  0
ARC
  5
156
330
18
100
AcDbEntity
  8
0
100
AcDbCircle
 10
11.4369263699
 20
4.1697023986
 30
0.0
 40
0.0196850394
100
AcDbArc
 50
90.0
 51
180.0
  0
ARC
  5
157
330
18
100
AcDbEntity
  8
0
100
AcDbCircle
 10
11.4369263699
 20
4.083875627
 30
0.0
 40
0.0196850394
100
AcDbArc
 50
180.0
 51
270.0
  0
CIRCLE
  5
158
330
18
100
AcDbEntity
  8
0
100
AcDbCircle
 10
11.8349578659
 20
4.555135469499999
 30
0.0
 40
0.0590551181
  0
CIRCLE
  5
159
330
18
100
AcDbEntity
  8
0
100
AcDbCircle
 10
11.8349578659
 20
4.8937181466
 30
0.0
 40
0.0590551181
  0
CIRCLE
  5
15A
330
18
100
AcDbEntity
  8
0
100
AcDbCircle
 10
11.8349578659
 20
5.2323008238
 30
0.0
 40
0.0590551181
  0
CIRCLE
  5
15B
330
18
100
AcDbEntity
  8
0
100
AcDbCircle
 10
11.8349578659
 20
5.570883500999999
 30
0.0
 40
0.0590551181
  0
CIRCLE
  5
15C
330
18
100
AcDbEntity
  8
0
100
AcDbCircle
 10
11.8349578659
 20
5.909466178099999
 30
0.0
 40
0.0590551181
  0
CIRCLE
  5
15D
330
18
100
AcDbEntity
  8
0
100
AcDbCircle
 10
11.8349578659
 20
6.248048855299999
 30
0.0
 40
0.0590551181
  0
CIRCLE
  5
15E
330
18
100
AcDbEntity
  8
0
100
AcDbCircle
 10
11.8349578659
 20
6.5866315325
 30
0.0
 40
0.0590551181
  0
CIRCLE
  5
15F
330
18
100
AcDbEntity
  8
0
100
AcDbCircle
 10
11.8349578659
 20
6.9252142096
 30
0.0
 40
0.0590551181
  0
CIRCLE
  5
160
330
18
100
AcDbEntity
  8
0
100
AcDbCircle
 10
11.8349578659
 20
7.263796886799999
 30
0.0
 40
0.0590551181
  0
CIRCLE
  5
161
330
18
100
AcDbEntity
  8
0
100
AcDbCircle
 10
11.8349578659
 20
7.602379563999999
 30
0.0
 40
0.0590551181
  0
CIRCLE
  5
162
330
18
100
AcDbEntity
  8
0
100
AcDbCircle
 10
11.8349578659
 20
7.9409622411
 30
0.0
 40
0.0590551181
  0
CIRCLE
  5
163
330
18
100
AcDbEntity
  8
0
100
AcDbCircle
 10
11.8349578659
 20
8.2795449183
 30
0.0
 40
0.0590551181
  0
CIRCLE
  5
164
330
18
100
AcDbEntity
  8
0
100
AcDbCircle
 10
11.8349578659
 20
8.618127595499998
 30
0.0
 40
0.0590551181
  0
CIRCLE
  5
165
330
18
100
AcDbEntity
  8
0
100
AcDbCircle
 10
11.8349578659
 20
8.9567102726
 30
0.0
 40
0.0590551181
  0
CIRCLE
  5
166
330
18
100
AcDbEntity
  8
0
100
AcDbCircle
 10
11.8349578659
 20
9.2952929498
 30
0.0
 40
0.0590551181
  0
CIRCLE
  5
167
330
18
100
AcDbEntity
  8
0
100
AcDbCircle
 10
11.8349578659
 20
9.633875627
 30
0.0
 40
0.0590551181
  0
CIRCLE
  5
168
330
18
100
AcDbEntity
  8
0
100
AcDbCircle
 10
11.8349578659
 20
9.972458304099999
 30
0.0
 40
0.0590551181
  0
CIRCLE
  5
169
330
18
100
AcDbEntity
  8
0
100
AcDbCircle
 10
11.8349578659
 20
10.3110409813
 30
0.0
 40
0.0590551181
  0
CIRCLE
  5
16A
330
18
100
AcDbEntity
  8
0
100
AcDbCircle
 10
11.8349578659
 20
10.6496236585
 30
0.0
 40
0.0590551181
  0
CIRCLE
  5
16B
330
18
100
AcDbEntity
  8
0
100
AcDbCircle
 10
11.8349578659
 20
10.9882063356
 30
0.0
 40
0.0590551181
  0
CIRCLE
  5
16C
330
18
100
AcDbEntity
  8
0
100
AcDbCircle
 10
11.469997236
 20
4.555135469499999
 30
0.0
 40
0.0590551181
  0
CIRCLE
  5
16D
330
18
100
AcDbEntity
  8
0
100
AcDbCircle
 10
11.469997236
 20
4.8937181466
 30
0.0
 40
0.0590551181
  0
CIRCLE
  5
16E
330
18
100
AcDbEntity
  8
0
100
AcDbCircle
 10
11.469997236
 20
5.2323008238
 30
0.0
 40
0.0590551181
  0
CIRCLE
  5
16F
330
18
100
AcDbEntity
  8
0
100
AcDbCircle
 10
11.469997236
 20
5.570883500999999
 30
0.0
 40
0.0590551181
  0
CIRCLE
  5
170
330
18
100
AcDbEntity
  8
0
100
AcDbCircle
 10
11.469997236
 20
5.909466178099999
 30
0.0
 40
0.0590551181
  0
CIRCLE
  5
171
330
18
100
AcDbEntity
  8
0
100
AcDbCircle
 10
11.469997236
 20
6.248048855299999
 30
0.0
 40
0.0590551181
  0
CIRCLE
  5
172
330
18
100
AcDbEntity
  8
0
100
AcDbCircle
 10
11.469997236
 20
6.5866315325
 30
0.0
 40
0.0590551181
  0
CIRCLE
  5
173
330
18
100
AcDbEntity
  8
0
100
AcDbCircle
 10
11.469997236
 20
6.9252142096
 30
0.0
 40
0.0590551181
  0
CIRCLE
  5
174
330
18
100
AcDbEntity
  8
0
100
AcDbCircle
 10
11.469997236
 20
7.263796886799999
 30
0.0
 40
0.0590551181
  0
CIRCLE
  5
175
330
18
100
AcDbEntity
  8
0
100
AcDbCircle
 10
11.469997236
 20
7.602379563999999
 30
0.0
 40
0.0590551181
  0
CIRCLE
  5
176
330
18
100
AcDbEntity
  8
0
100
AcDbCircle
 10
11.469997236
 20
7.9409622411
 30
0.0
 40
0.0590551181
  0
CIRCLE
  5
177
330
18
100
AcDbEntity
  8
0
100
AcDbCircle
 10
11.469997236
 20
8.2795449183
 30
0.0
 40
0.0590551181
  0
CIRCLE
  5
178
330
18
100
AcDbEntity
  8
0
100
AcDbCircle
 10
11.469997236
 20
8.618127595499998
 30
0.0
 40
0.0590551181
  0
CIRCLE
  5
179
330
18
100
AcDbEntity
  8
0
100
AcDbCircle
 10
11.469997236
 20
8.9567102726
 30
0.0
 40
0.0590551181
  0
CIRCLE
  5
17A
330
18
100
AcDbEntity
  8
0
100
AcDbCircle
 10
11.469997236
 20
9.2952929498
 30
0.0
 40
0.0590551181
  0
CIRCLE
  5
17B
330
18
100
AcDbEntity
  8
0
100
AcDbCircle
 10
11.469997236
 20
9.633875627
 30
0.0
 40
0.0590551181
  0
CIRCLE
  5
17C
330
18
100
AcDbEntity
  8
0
100
AcDbCircle
 10
11.469997236
 20
9.972458304099999
 30
0.0
 40
0.0590551181
  0
CIRCLE
  5
17D
330
18
100
AcDbEntity
  8
0
100
AcDbCircle
 10
11.469997236
 20
10.3110409813
 30
0.0
 40
0.0590551181
  0
CIRCLE
  5
17E
330
18
100
AcDbEntity
  8
0
100
AcDbCircle
 10
11.469997236
 20
10.6496236585
 30
0.0
 40
0.0590551181
  0
CIRCLE
  5
17F
330
18
100
AcDbEntity
  8
0
100
AcDbCircle
 10
11.469997236
 20
10.9882063356
 30
0.0
 40
0.0590551181
  0
ARC
  5
180
330
18
100
AcDbEntity
  8
0
100
AcDbCircle
 10
11.2522807006
 20
4.246474052199999
 30
0.0
 40
0.1850393701
100
AcDbArc
 50
333.0612705327
 51
341.0925997888
  0
LINE
  5
185
330
18
100
AcDbEntity
  8
0
100
AcDbLine
 10
11.78634694903899
 20
13.75254529807955
 30
0.0
 11
11.78634694903899
 21
13.61749856534183
 31
0.0
  0
LINE
  5
186
330
18
100
AcDbEntity
  8
0
100
AcDbLine
 10
10.91749500879491
 20
13.75329879083316
 30
0.0
 11
10.91749500879491
 21
13.61825205809543
 31
0.0
  0
LINE
  5
187
330
18
100
AcDbEntity
  8
0
100
AcDbLine
 10
10.91749500879491
 20
13.75283296744251
 30
0.0
 11
11.78634694903899
 21
13.75254529807955
 31
0.0
  0
LINE
  5
188
330
18
100
AcDbEntity
  8
0
100
AcDbLine
 10
10.91749500879491
 20
13.61715833838315
 30
0.0
 11
11.78634694903899
 21
13.61749856534183
 31
0.0
  0
MTEXT
  5
189
330
18
100
AcDbEntity
  8
0
100
AcDbMText
 10
10.61374868120043
 20
13.74062941455342
 30
0.0
 40
0.125
 41
0.2822515926455512
 71
     1
 72
     5
  1
\fArial|b1|i0|c0|p34;140
 73
     1
 44
1.0
  0
MTEXT
  5
18B
330
18
100
AcDbEntity
  8
0
100
AcDbMText
 10
10.6177235307664
 20
13.57380696602521
 30
0.0
 40
0.125
 41
1.125
 71
     1
 72
     5
  1
{\fArial|b1|i0|c0|p34;ACI 030 00}
 73
     1
 44
1.0
  0
MTEXT
  5
18C
330
18
100
AcDbEntity
  8
0
100
AcDbMText
 10
10.62964827625848
 20
13.4030125827091
 30
0.0
 40
0.075
 41
0.6677999999999999
 71
     1
 72
     5
  1
{\fArial|b1|i0|c0|p34;ANALOG IN}
 73
     1
 44
1.0
  0
MTEXT
  5
1B3
330
18
100
AcDbEntity
  8
0
100
AcDbMText
 10
11.34663944124816
 20
11.10514217095427
 30
0.0
 40
0.075
 41
0.6271
 71
     1
 72
     5
  3
{\fTimes New Roman|b1|i0|c0|p18;2           1\P4           3\P6           5\P8           7\P10         9\P12        11\P14        13\P16        15\P18        17\P20        19\P22        21\P24        23\P26        25\P28        27\P30        29\P32  
  1
      31\P34        33\P36        35\P38        37\P40        39}
 73
     1
 44
2.704
  0
ENDSEC
  0
SECTION
  2
OBJECTS
  0
DICTIONARY
  5
C
330
0
100
AcDbDictionary
281
     1
  3
ACAD_COLOR
350
206
  3
ACAD_GROUP
350
D
  3
ACAD_LAYOUT
350
198
  3
ACAD_MATERIAL
350
205
  3
ACAD_MLINESTYLE
350
1B
  3
ACAD_PLOTSETTINGS
350
199
  3
ACAD_PLOTSTYLENAME
350
196
  3
ACAD_TABLESTYLE
350
207
  3
AcDbVariableDictionary
350
20D
  3
CONTENTDICTIONARY
350
191
  0
DICTIONARY
  5
206
102
{ACAD_REACTORS
330
C
102
}
330
C
100
AcDbDictionary
281
     1
  0
DICTIONARY
  5
D
102
{ACAD_REACTORS
330
C
102
}
330
C
100
AcDbDictionary
281
     1
  0
DICTIONARY
  5
198
102
{ACAD_REACTORS
330
C
102
}
330
C
100
AcDbDictionary
281
     1
  3
Layout1
350
19B
  3
Model
350
19A
  0
DICTIONARY
  5
205
102
{ACAD_REACTORS
330
C
102
}
330
C
100
AcDbDictionary
281
     1
  0
DICTIONARY
  5
1B
102
{ACAD_REACTORS
330
C
102
}
330
C
100
AcDbDictionary
281
     1
  3
STANDARD
350
1C
  0
DICTIONARY
  5
199
102
{ACAD_REACTORS
330
C
102
}
330
C
100
AcDbDictionary
281
     1
  0
ACDBDICTIONARYWDFLT
  5
196
102
{ACAD_REACTORS
330
C
102
}
330
C
100
AcDbDictionary
281
     1
  3
Normal
350
197
100
AcDbDictionaryWithDefault
340
197
  0
DICTIONARY
  5
207
102
{ACAD_REACTORS
330
C
102
}
330
C
100
AcDbDictionary
281
     1
  3
Standard
350
208
  0
DICTIONARY
  5
20D
102
{ACAD_REACTORS
330
C
102
}
330
C
100
AcDbDictionary
281
     1
  3
CTABLESTYLE
350
20E
  0
DICTIONARY
  5
191
102
{ACAD_REACTORS
330
C
102
}
330
C
100
AcDbDictionary
281
     1
  0
LAYOUT
  5
19B
102
{ACAD_REACTORS
330
198
102
}
330
198
100
AcDbPlotSettings
  1

  2
\\NAOAPRT02\USP5
  4

  6

 40
0.0
 41
0.0
 42
0.0
 43
0.0
 44
0.0
 45
0.0
 46
0.0
 47
0.0
 48
0.0
 49
0.0
140
0.0
141
0.0
142
1.0
143
1.0
 70
   688
 72
     0
 73
     0
 74
     5
  7

 75
    16
147
1.0
 76
     0
 77
     2
 78
   300
148
0.0
149
0.0
100
AcDbLayout
  1
Layout1
 70
     1
 71
     1
 10
0.0
 20
0.0
 11
12.0
 21
9.0
 12
0.0
 22
0.0
 32
0.0
 14
1.000000000000000E+20
 24
1.000000000000000E+20
 34
1.000000000000000E+20
 15
-1.000000000000000E+20
 25
-1.000000000000000E+20
 35
-1.000000000000000E+20
146
0.0
 13
0.0
 23
0.0
 33
0.0
 16
1.0
 26
0.0
 36
0.0
 17
0.0
 27
1.0
 37
0.0
 76
     0
330
15
  0
LAYOUT
  5
19A
102
{ACAD_REACTORS
330
198
102
}
330
198
100
AcDbPlotSettings
  1

  2
\\NAOAPRT02\USP5
  4

  6

 40
0.0
 41
0.0
 42
0.0
 43
0.0
 44
0.0
 45
0.0
 46
0.0
 47
0.0
 48
0.0
 49
0.0
140
0.0
141
0.0
142
1.0
143
1.0
 70
  1712
 72
     0
 73
     0
 74
     0
  7

 75
     0
147
1.0
 76
     0
 77
     2
 78
   300
148
0.0
149
0.0
100
AcDbLayout
  1
Model
 70
     1
 71
     0
 10
0.0
 20
0.0
 11
12.0
 21
9.0
 12
0.0
 22
0.0
 32
0.0
 14
0.0
 24
0.0
 34
0.0
 15
0.0
 25
0.0
 35
0.0
146
0.0
 13
0.0
 23
0.0
 33
0.0
 16
1.0
 26
0.0
 36
0.0
 17
0.0
 27
1.0
 37
0.0
 76
     0
330
18
  0
MLINESTYLE
  5
1C
102
{ACAD_REACTORS
330
1B
102
}
330
1B
100
AcDbMlineStyle
  2
STANDARD
 70
     0
  3

 62
   256
 51
90.0
 52
90.0
 71
     2
 49
0.5
 62
   256
  6
BYLAYER
 49
-0.5
 62
   256
  6
BYLAYER
  0
ACDBPLACEHOLDER
  5
197
102
{ACAD_REACTORS
330
196
102
}
330
196
  0
TABLESTYLE
  5
208
102
{ACAD_REACTORS
330
207
102
}
330
207
100
AcDbTableStyle
  3
Standard
 70
     0
 71
     0
 40
0.06
 41
0.06
280
     0
281
     0
  7
STANDARD
140
0.18
170
     2
 62
     0
 63
     7
283
     0
274
    -2
284
     1
 64
     0
275
    -2
285
     1
 65
     0
276
    -2
286
     1
 66
     0
277
    -2
287
     1
 67
     0
278
    -2
288
     1
 68
     0
279
    -2
289
     1
 69
     0
  7
STANDARD
140
0.25
170
     5
 62
     0
 63
     7
283
     0
274
    -2
284
     1
 64
     0
275
    -2
285
     1
 65
     0
276
    -2
286
     1
 66
     0
277
    -2
287
     1
 67
     0
278
    -2
288
     1
 68
     0
279
    -2
289
     1
 69
     0
  7
STANDARD
140
0.18
170
     5
 62
     0
 63
     7
283
     0
274
    -2
284
     1
 64
     0
275
    -2
285
     1
 65
     0
276
    -2
286
     1
 66
     0
277
    -2
287
     1
 67
     0
278
    -2
288
     1
 68
     0
279
    -2
289
     1
 69
     0
  0
DICTIONARYVAR
  5
20E
102
{ACAD_REACTORS
330
20D
102
}
330
20D
100
DictionaryVariables
280
     0
  1
STANDARD
  0
ENDSEC
  0
EOF
