999
DXF file: C:\Users\sesa63760\Dev\_Creo\CAD\MCADID0003918_3D-CAD\drw0001_6.dxf
999
Pro/ENGINEER 2019471 by Parametric Technology Corporation
  0
SECTION
  2
HEADER
  9
$ACADVER
  1
AC1024
  9
$DWGCODEPAGE
  3
ANSI_1252
  9
$EXTMAX
 10
66.4897111155
 20
94.0354485777
 30
0.0
  9
$EXTMIN
 10
0.0
 20
0.0
 30
0.0
  9
$LIMMIN
 10
0.0
 20
0.0
  9
$LIMMAX
 10
66.4897111155
 20
94.0354485777
  9
$VIEWCTR
 10
33.2448555578
 20
47.0177242888
  9
$VIEWSIZE
 40
94.0354485777
  9
$CLAYER
  8
0
  9
$LTSCALE
 40
6.1297181295
  9
$CELTYPE
  6
BYLAYER
  9
$DIMSCALE
 40
1.0
  9
$DIMASZ
 40
0.7915441799
  9
$DIMEXO
 40
1.0
  9
$DIMDLI
 40
4.2350779804
  9
$DIMEXE
 40
1.0
  9
$DIMCEN
 40
1.0030447848
  9
$DIMLFAC
 40
1.0
  9
$DIMBLK
  1
_FILLED
  9
$DIMALT
 70
0
  9
$DIMALTF
 40
0.0393700787
  9
$DIMTXT
 40
1.1081618519
  9
$DIMTOL
 70
1
  9
$DIMLIM
 70
0
  9
$DIMTFAC
 40
1.0
  9
$DIMTP
 40
0.01
  9
$DIMTM
 40
0.01
  9
$DIMGAP
 40
0.625
  9
$DIMDSEP
 70
46
  9
$AUNITS
 70
0
  9
$PDMODE
 70
3
  9
$PDSIZE
 40
0.3125
  9
$HANDSEED
  5
32E
  9
$TILEMODE
 70
1
  9
$MEASUREMENT
 70
1
  9
$INSUNITS
 70
4
  0
ENDSEC
  0
SECTION
  2
CLASSES
  0
CLASS
  1
ACDBDICTIONARYWDFLT
  2
AcDbDictionaryWithDefault
  3
AutoCAD 2000
 90
0
 91
1
280
0
281
0
  0
CLASS
  1
ACDBPLACEHOLDER
  2
AcDbPlaceHolder
  3
AutoCAD 2000
 90
0
 91
1
280
0
281
0
  0
CLASS
  1
LAYOUT
  2
AcDbLayout
  3
AutoCAD 2000
 90
0
 91
0
280
0
281
0
  0
ENDSEC
  0
SECTION
  2
TABLES
  0
TABLE
  2
VPORT
  5
8
100
AcDbSymbolTable
 70
2
  0
VPORT
  5
1F4
100
AcDbSymbolTableRecord
100
AcDbViewportTableRecord
  2
*ACTIVE
 70
0
 10
0.0
 20
0.0
 11
1.0
 21
1.0
 12
33.2448555578
 22
47.0177242888
 13
0.0
 23
0.0
 14
1.0
 24
1.0
 15
0.0
 25
0.0
 16
0.0
 26
0.0
 36
1.0
 17
0.0
 27
0.0
 37
0.0
 40
94.0354485777
 41
0.7070707071
 42
50.0
 43
0.0
 44
0.0
 50
0.0
 51
0.0
 71
0
 72
100
 73
1
 74
1
 75
0
 76
0
 77
0
 78
0
  0
ENDTAB
  0
TABLE
  2
LTYPE
  5
5
100
AcDbSymbolTable
 70
6
  0
LTYPE
  5
14
100
AcDbSymbolTableRecord
100
AcDbLinetypeTableRecord
  2
BYBLOCK
 70
0
  3

 72
65
 73
0
 40
0.0
  0
LTYPE
  5
15
100
AcDbSymbolTableRecord
100
AcDbLinetypeTableRecord
  2
BYLAYER
 70
0
  3

 72
65
 73
0
 40
0.0
  0
LTYPE
  5
16
100
AcDbSymbolTableRecord
100
AcDbLinetypeTableRecord
  2
CONTINUOUS
 70
64
  3
Solid line
 72
65
 73
0
 40
0.0
  0
LTYPE
  5
1F5
100
AcDbSymbolTableRecord
100
AcDbLinetypeTableRecord
  2
CENTER
 70
64
  3
____ _ ____ _ ____ _ ____ _ ____ _ ____ _ ____
 72
65
 73
4
 40
0.6
 49
0.375
 74
0
 49
-0.075
 74
0
 49
0.075
 74
0
 49
-0.075
 74
0
  0
LTYPE
  5
1F6
100
AcDbSymbolTableRecord
100
AcDbLinetypeTableRecord
  2
HIDDEN
 70
64
  3
- - - - - - - - - - - - - - - - - - - -
 72
65
 73
2
 40
0.2
 49
0.1
 74
0
 49
-0.1
 74
0
  0
LTYPE
  5
1F7
100
AcDbSymbolTableRecord
100
AcDbLinetypeTableRecord
  2
PHANTOM
 70
64
  3
_____ _ _ _____ _ _ _____ _ _ _____
 72
65
 73
6
 40
0.8
 49
0.45
 74
0
 49
-0.05
 74
0
 49
0.1
 74
0
 49
-0.05
 74
0
 49
0.1
 74
0
 49
-0.05
 74
0
  0
LTYPE
  5
1F8
100
AcDbSymbolTableRecord
100
AcDbLinetypeTableRecord
  2
DOT
 70
64
  3
. . . . . . . . . . . . . . . . . . . .
 72
65
 73
2
 40
0.2
 49
0.1
 74
0
 49
-0.1
 74
0
  0
LTYPE
  5
1F9
100
AcDbSymbolTableRecord
100
AcDbLinetypeTableRecord
  2
DASHED
 70
64
  3
- - - - - - - - - - - - - - - - - - - -
 72
65
 73
2
 40
0.2
 49
0.1
 74
0
 49
-0.1
 74
0
  0
ENDTAB
  0
TABLE
  2
LAYER
  5
2
100
AcDbSymbolTable
 70
36
  0
LAYER
  5
10
100
AcDbSymbolTableRecord
100
AcDbLayerTableRecord
  2
0
 70
0
 62
7
  6
CONTINUOUS
370
-3
390
F
  0
LAYER
  5
1FA
100
AcDbSymbolTableRecord
100
AcDbLayerTableRecord
  2
DEFAULT_1
 70
0
 62
7
  6
CENTER
370
-3
390
F
  0
LAYER
  5
1FB
100
AcDbSymbolTableRecord
100
AcDbLayerTableRecord
  2
DEFAULT_2
 70
0
 62
7
  6
HIDDEN
370
-3
390
F
  0
LAYER
  5
1FC
100
AcDbSymbolTableRecord
100
AcDbLayerTableRecord
  2
DEFAULT_3
 70
0
 62
7
  6
PHANTOM
370
-3
390
F
  0
LAYER
  5
1FD
100
AcDbSymbolTableRecord
100
AcDbLayerTableRecord
  2
00_COMPONENTS
 70
0
 62
7
  6
CONTINUOUS
370
-3
390
F
  0
LAYER
  5
1FE
100
AcDbSymbolTableRecord
100
AcDbLayerTableRecord
  2
01_1_DEFAULT_DATUMS
 70
0
 62
7
  6
CONTINUOUS
370
-3
390
F
  0
LAYER
  5
1FF
100
AcDbSymbolTableRecord
100
AcDbLayerTableRecord
  2
01_PLANES
 70
0
 62
7
  6
CONTINUOUS
370
-3
390
F
  0
LAYER
  5
200
100
AcDbSymbolTableRecord
100
AcDbLayerTableRecord
  2
02_COORD_SYS
 70
0
 62
7
  6
CONTINUOUS
370
-3
390
F
  0
LAYER
  5
201
100
AcDbSymbolTableRecord
100
AcDbLayerTableRecord
  2
03_AXES
 70
0
 62
7
  6
CONTINUOUS
370
-3
390
F
  0
LAYER
  5
202
100
AcDbSymbolTableRecord
100
AcDbLayerTableRecord
  2
04_POINTS
 70
0
 62
7
  6
CONTINUOUS
370
-3
390
F
  0
LAYER
  5
203
100
AcDbSymbolTableRecord
100
AcDbLayerTableRecord
  2
05_CURVES
 70
0
 62
7
  6
CONTINUOUS
370
-3
390
F
  0
LAYER
  5
204
100
AcDbSymbolTableRecord
100
AcDbLayerTableRecord
  2
06_SURFS
 70
0
 62
7
  6
CONTINUOUS
370
-3
390
F
  0
LAYER
  5
205
100
AcDbSymbolTableRecord
100
AcDbLayerTableRecord
  2
07_COSMETICS
 70
0
 62
7
  6
CONTINUOUS
370
-3
390
F
  0
LAYER
  5
206
100
AcDbSymbolTableRecord
100
AcDbLayerTableRecord
  2
10_NOTES
 70
0
 62
7
  6
CONTINUOUS
370
-3
390
F
  0
LAYER
  5
207
100
AcDbSymbolTableRecord
100
AcDbLayerTableRecord
  2
11_NOTES_PUB
 70
0
 62
7
  6
CONTINUOUS
370
-3
390
F
  0
LAYER
  5
208
100
AcDbSymbolTableRecord
100
AcDbLayerTableRecord
  2
13_REF_GTOL
 70
0
 62
7
  6
CONTINUOUS
370
-3
390
F
  0
LAYER
  5
209
100
AcDbSymbolTableRecord
100
AcDbLayerTableRecord
  2
16_MISC
 70
0
 62
7
  6
CONTINUOUS
370
-3
390
F
  0
LAYER
  5
20A
100
AcDbSymbolTableRecord
100
AcDbLayerTableRecord
  2
17_NO_PRINT
 70
0
 62
7
  6
CONTINUOUS
370
-3
390
F
  0
LAYER
  5
20B
100
AcDbSymbolTableRecord
100
AcDbLayerTableRecord
  2
18_DATUM_CAMS_JOINTS
 70
0
 62
7
  6
CONTINUOUS
370
-3
390
F
  0
LAYER
  5
20C
100
AcDbSymbolTableRecord
100
AcDbLayerTableRecord
  2
19_DATUM_FUNCTIONAL
 70
0
 62
7
  6
CONTINUOUS
370
-3
390
F
  0
LAYER
  5
20D
100
AcDbSymbolTableRecord
100
AcDbLayerTableRecord
  2
20_DATUM_KINEMATIC_SCHEME
 70
0
 62
7
  6
CONTINUOUS
370
-3
390
F
  0
ENDTAB
  0
TABLE
  2
STYLE
  5
3
100
AcDbSymbolTable
 70
1
  0
STYLE
  5
11
100
AcDbSymbolTableRecord
100
AcDbTextStyleTableRecord
  2
STANDARD
 70
0
 40
0.0
 41
1.0
 50
0.0
 71
0
 42
0.2
  3
ARIAL.TTF
  4

  0
STYLE
  5
20E
100
AcDbSymbolTableRecord
100
AcDbTextStyleTableRecord
  2
TEXTSTYLE_1
 70
0
 40
0.0
 41
0.8
 50
0.0
 71
0
 42
0.2
  3
gdt
  4

  0
ENDTAB
  0
TABLE
  2
VIEW
  5
6
100
AcDbSymbolTable
 70
0
  0
ENDTAB
  0
TABLE
  2
UCS
  5
7
100
AcDbSymbolTable
 70
0
  0
ENDTAB
  0
TABLE
  2
APPID
  5
9
100
AcDbSymbolTable
 70
1
  0
APPID
  5
20F
100
AcDbSymbolTableRecord
100
AcDbRegAppTableRecord
  2
ACAD
 70
0
  0
ENDTAB
  0
TABLE
  2
BLOCK_RECORD
  5
1
100
AcDbSymbolTable
 70
0
  0
BLOCK_RECORD
  5
210
100
AcDbSymbolTableRecord
100
AcDbBlockTableRecord
  2
*Model_Space
  0
BLOCK_RECORD
  5
211
100
AcDbSymbolTableRecord
100
AcDbBlockTableRecord
  2
*Paper_Space
  0
BLOCK_RECORD
  5
212
100
AcDbSymbolTableRecord
100
AcDbBlockTableRecord
  2
_FILLED
  0
ENDTAB
  0
TABLE
  2
DIMSTYLE
  5
A
100
AcDbSymbolTable
 70
1
100
AcDbDimStyleTable
 71
0
  0
DIMSTYLE
105
213
100
AcDbSymbolTableRecord
100
AcDbDimStyleTableRecord
  2
STANDARD
 70
0
  3

  4

 40
1.0
 41
0.7915441799
 42
1.0
 43
0.38
 44
1.0
 45
0.0
 46
0.0
 47
0.01
 48
0.01
140
1.1081618519
141
0.09
142
0.0
143
25.4
144
1.0
145
0.0
146
1.0
147
0.625
 71
1
 72
0
 73
0
 74
0
 75
0
 76
0
 77
1
 78
8
 79
2
170
0
171
1
172
0
173
0
174
0
175
0
176
0
177
0
178
0
270
2
179
2
271
2
272
2
273
2
274
2
275
0
280
0
281
0
282
0
283
1
284
8
285
0
286
0
287
3
288
0
340
11
278
46
341
212
342
212
343
212
344
212
  0
ENDTAB
  0
ENDSEC
  0
SECTION
  2
BLOCKS
  0
BLOCK
  5
20
100
AcDbEntity
  8
0
100
AcDbBlockBegin
  2
*Model_Space
 70
0
 10
0.0
 20
0.0
 30
0.0
  3
*Model_Space
  1

  0
ENDBLK
  5
21
100
AcDbEntity
  8
0
100
AcDbBlockEnd
  0
BLOCK
  5
1C
100
AcDbEntity
  8
0
100
AcDbBlockBegin
  2
*Paper_Space
 70
0
 10
0.0
 20
0.0
 30
0.0
  3
*Paper_Space
  1

  0
ENDBLK
  5
1D
100
AcDbEntity
  8
0
100
AcDbBlockEnd
  0
BLOCK
  5
214
100
AcDbEntity
  8
0
100
AcDbBlockBegin
  2
_FILLED
 70
64
 10
0.0
 20
0.0
  3
_FILLED
  1

  0
SOLID
  5
215
100
AcDbEntity
  8
0
  6
BYBLOCK
 62
0
100
AcDbTrace
 10
0.0
 20
0.0
 11
-1.0
 21
0.25
 12
-1.0
 22
-0.25
 13
-1.0
 23
-0.25
  0
ENDBLK
  5
216
100
AcDbEntity
  8
0
  6
BYBLOCK
 62
0
100
AcDbBlockEnd
  0
ENDSEC
  0
SECTION
  2
ENTITIES
  0
LINE
  5
217
100
AcDbEntity
  8
0
100
AcDbLine
 62
7
  6
BYLAYER
 10
7.5203478991
 20
41.846872576
 11
7.5203478991
 21
52.1885760016
  0
LINE
  5
218
100
AcDbEntity
  8
0
100
AcDbLine
 62
7
  6
BYLAYER
 10
8.8203478991
 20
41.6177242888
 11
8.8203478991
 21
52.4177242888
  0
LINE
  5
219
100
AcDbEntity
  8
0
100
AcDbLine
 62
7
  6
BYLAYER
 10
9.0203478991
 20
52.4176967932
 11
9.0203478991
 21
41.6177157916
  0
LINE
  5
21A
100
AcDbEntity
  8
0
100
AcDbLine
 62
7
  6
BYLAYER
 10
9.4703478991
 20
52.3677242888
 11
9.4703478991
 21
41.6677242888
  0
LINE
  5
21B
100
AcDbEntity
  8
0
100
AcDbLine
 62
7
  6
BYLAYER
 10
10.1203478991
 20
41.0177242888
 11
10.1203478991
 21
53.0177242888
  0
LINE
  5
21C
100
AcDbEntity
  8
0
100
AcDbLine
 62
7
  6
BYLAYER
 10
9.4703478991
 20
52.3677242888
 11
10.1203478991
 21
53.0177242888
  0
LINE
  5
21D
100
AcDbEntity
  8
0
100
AcDbLine
 62
7
  6
BYLAYER
 10
9.4703478991
 20
41.6677242888
 11
10.1203478991
 21
41.0177242888
  0
LINE
  5
21E
100
AcDbEntity
  8
0
100
AcDbLine
 62
7
  6
BYLAYER
 10
15.6203478991
 20
53.0177242888
 11
15.6203478991
 21
41.0177242888
  0
LINE
  5
21F
100
AcDbEntity
  8
0
100
AcDbLine
 62
7
  6
BYLAYER
 10
16.2703478991
 20
41.6677242888
 11
16.2703478991
 21
52.3677242888
  0
LINE
  5
220
100
AcDbEntity
  8
0
100
AcDbLine
 62
7
  6
BYLAYER
 10
26.5203478991
 20
52.8177242888
 11
26.7203478991
 21
53.0177242888
  0
LINE
  5
221
100
AcDbEntity
  8
0
100
AcDbLine
 62
7
  6
BYLAYER
 10
46.3203478991
 20
39.2663141273
 11
46.1203478991
 21
39.2127242888
  0
LINE
  5
222
100
AcDbEntity
  8
0
100
AcDbLine
 62
7
  6
BYLAYER
 10
45.4457454453
 20
37.3527697126
 11
43.7949503221
 21
37.3527697126
  0
LINE
  5
223
100
AcDbEntity
  8
0
100
AcDbLine
 62
7
  6
BYLAYER
 10
50.7949503529
 20
37.3527697126
 11
52.4457454453
 21
37.3527697126
  0
LINE
  5
224
100
AcDbEntity
  8
0
100
AcDbLine
 62
7
  6
BYLAYER
 10
7.5203478991
 20
41.8469493638
 11
8.8203478991
 21
41.6177242888
  0
LINE
  5
225
100
AcDbEntity
  8
0
100
AcDbLine
 62
7
  6
BYLAYER
 10
26.5203478991
 20
41.2177242888
 11
26.7203478991
 21
41.0177242888
  0
LINE
  5
226
100
AcDbEntity
  8
0
100
AcDbLine
 62
7
  6
BYLAYER
 10
24.953360601
 20
52.3677242888
 11
24.953360601
 21
41.6677242888
  0
LINE
  5
227
100
AcDbEntity
  8
0
100
AcDbLine
 62
7
  6
BYLAYER
 10
25.453360601
 20
41.8016988851
 11
25.453360601
 21
52.2337496926
  0
LINE
  5
228
100
AcDbEntity
  8
0
100
AcDbLine
 62
7
  6
BYLAYER
 10
26.5203478991
 20
41.2177174398
 11
26.5203478991
 21
52.8177311379
  0
LINE
  5
229
100
AcDbEntity
  8
0
100
AcDbLine
 62
7
  6
BYLAYER
 10
16.2703478991
 20
41.6677242888
 11
15.6203478991
 21
41.0177242888
  0
LINE
  5
22A
100
AcDbEntity
  8
0
100
AcDbLine
 62
7
  6
BYLAYER
 10
16.2703478991
 20
52.3677242888
 11
15.6203478991
 21
53.0177242888
  0
LINE
  5
22B
100
AcDbEntity
  8
0
100
AcDbLine
 62
7
  6
BYLAYER
 10
26.7203478991
 20
41.0177242888
 11
26.7203478991
 21
53.0177242888
  0
LINE
  5
22C
100
AcDbEntity
  8
0
100
AcDbLine
 62
7
  6
BYLAYER
 10
54.9203478991
 20
41.0177242888
 11
53.1203478991
 21
41.0177242888
  0
LINE
  5
22D
100
AcDbEntity
  8
0
100
AcDbLine
 62
7
  6
BYLAYER
 10
49.4203478991
 20
41.0177242888
 11
46.8203478991
 21
41.0177242888
  0
LINE
  5
22E
100
AcDbEntity
  8
0
100
AcDbLine
 62
7
  6
BYLAYER
 10
43.1203478991
 20
41.0177242888
 11
26.7203478991
 21
41.0177242888
  0
LINE
  5
22F
100
AcDbEntity
  8
0
100
AcDbLine
 62
7
  6
BYLAYER
 10
15.6203478991
 20
41.0177242888
 11
10.1203478991
 21
41.0177242888
  0
LINE
  5
230
100
AcDbEntity
  8
0
100
AcDbLine
 62
7
  6
BYLAYER
 10
9.0203478991
 20
41.6177242888
 11
8.8203478991
 21
41.6177242888
  0
LINE
  5
231
100
AcDbEntity
  8
0
100
AcDbLine
 62
7
  6
BYLAYER
 10
24.953360601
 20
41.6677242888
 11
16.2703478991
 21
41.6677242888
  0
LINE
  5
232
100
AcDbEntity
  8
0
100
AcDbLine
 62
7
  6
BYLAYER
 10
9.4703478991
 20
41.6677242888
 11
9.0203478991
 21
41.6677242888
  0
LINE
  5
233
100
AcDbEntity
  8
0
100
AcDbLine
 62
7
  6
BYLAYER
 10
55.1203478991
 20
41.8177242888
 11
60.0526354754
 21
41.8177242888
  0
LINE
  5
234
100
AcDbEntity
  8
0
100
AcDbLine
 62
7
  6
BYLAYER
 10
45.4457454465
 20
41.9602470007
 11
43.7949503517
 21
41.9602470007
  0
LINE
  5
235
100
AcDbEntity
  8
0
100
AcDbLine
 62
7
  6
BYLAYER
 10
50.7949503518
 20
41.9602470007
 11
52.4457454774
 21
41.9602470007
  0
LINE
  5
236
100
AcDbEntity
  8
0
100
AcDbLine
 62
7
  6
BYLAYER
 10
45.4998402628
 20
42.6102470007
 11
43.7408555522
 21
42.6102470007
  0
LINE
  5
237
100
AcDbEntity
  8
0
100
AcDbLine
 62
7
  6
BYLAYER
 10
50.7408555355
 20
42.6102470007
 11
52.4998401791
 21
42.6102470007
  0
LINE
  5
238
100
AcDbEntity
  8
0
100
AcDbLine
 62
7
  6
BYLAYER
 10
49.9203478991
 20
39.2663141273
 11
50.1203478991
 21
39.2127242888
  0
LINE
  5
239
100
AcDbEntity
  8
0
100
AcDbLine
 62
7
  6
BYLAYER
 10
46.8067357343
 20
39.6213428503
 11
46.8203478991
 21
39.6149157025
  0
LINE
  5
23A
100
AcDbEntity
  8
0
100
AcDbLine
 62
7
  6
BYLAYER
 10
26.5203478991
 20
42.4177242888
 11
25.453360601
 21
41.8016988851
  0
LINE
  5
23B
100
AcDbEntity
  8
0
100
AcDbLine
 62
7
  6
BYLAYER
 10
26.5203478991
 20
51.6177242888
 11
25.453360601
 21
52.2337496926
  0
LINE
  5
23C
100
AcDbEntity
  8
0
100
AcDbLine
 62
7
  6
BYLAYER
 10
43.1203478991
 20
55.5177242888
 11
43.7712841022
 21
56.6451788651
  0
LINE
  5
23D
100
AcDbEntity
  8
0
100
AcDbLine
 62
7
  6
BYLAYER
 10
49.4203478991
 20
54.6351598541
 11
50.1203478991
 21
54.8227242888
  0
LINE
  5
23E
100
AcDbEntity
  8
0
100
AcDbLine
 62
7
  6
BYLAYER
 10
43.1203478991
 20
38.5177242888
 11
43.7712841022
 21
37.3902697126
  0
LINE
  5
23F
100
AcDbEntity
  8
0
100
AcDbLine
 62
7
  6
BYLAYER
 10
45.4998402628
 20
51.425201577
 11
43.7408556191
 21
51.425201577
  0
LINE
  5
240
100
AcDbEntity
  8
0
100
AcDbLine
 62
7
  6
BYLAYER
 10
50.7408555355
 20
51.4252015769
 11
52.499840246
 21
51.4252015769
  0
LINE
  5
241
100
AcDbEntity
  8
0
100
AcDbLine
 62
7
  6
BYLAYER
 10
45.4457454453
 20
52.075201577
 11
43.7949503221
 21
52.075201577
  0
LINE
  5
242
100
AcDbEntity
  8
0
100
AcDbLine
 62
7
  6
BYLAYER
 10
50.7949503529
 20
52.075201577
 11
52.4457453396
 21
52.075201577
  0
LINE
  5
243
100
AcDbEntity
  8
0
100
AcDbLine
 62
7
  6
BYLAYER
 10
60.0526354754
 20
52.2177242888
 11
55.1203478991
 21
52.2177242888
  0
LINE
  5
244
100
AcDbEntity
  8
0
100
AcDbLine
 62
7
  6
BYLAYER
 10
24.953360601
 20
52.3677242888
 11
16.2703478991
 21
52.3677242888
  0
LINE
  5
245
100
AcDbEntity
  8
0
100
AcDbLine
 62
7
  6
BYLAYER
 10
9.4703478991
 20
52.3677242888
 11
9.0203478991
 21
52.3677242888
  0
LINE
  5
246
100
AcDbEntity
  8
0
100
AcDbLine
 62
7
  6
BYLAYER
 10
9.0203478991
 20
52.4177242888
 11
8.8203478991
 21
52.4177242888
  0
LINE
  5
247
100
AcDbEntity
  8
0
100
AcDbLine
 62
7
  6
BYLAYER
 10
46.5615261849
 20
53.0912756789
 11
46.5920239372
 21
53.1331232186
  0
LINE
  5
248
100
AcDbEntity
  8
0
100
AcDbLine
 62
7
  6
BYLAYER
 10
54.9203478991
 20
53.0177242888
 11
53.1203478991
 21
53.0177242888
  0
LINE
  5
249
100
AcDbEntity
  8
0
100
AcDbLine
 62
7
  6
BYLAYER
 10
49.5906755685
 20
53.0177242888
 11
46.6500166334
 21
53.0177242888
  0
LINE
  5
24A
100
AcDbEntity
  8
0
100
AcDbLine
 62
7
  6
BYLAYER
 10
43.1203478991
 20
53.0177242888
 11
26.7203478991
 21
53.0177242888
  0
LINE
  5
24B
100
AcDbEntity
  8
0
100
AcDbLine
 62
7
  6
BYLAYER
 10
15.6203478991
 20
53.0177242888
 11
10.1203478991
 21
53.0177242888
  0
LINE
  5
24C
100
AcDbEntity
  8
0
100
AcDbLine
 62
7
  6
BYLAYER
 10
46.5920239372
 20
40.558769758
 11
46.5867705322
 21
40.5658120952
  0
LINE
  5
24D
100
AcDbEntity
  8
0
100
AcDbLine
 62
7
  6
BYLAYER
 10
43.1203478991
 20
38.5177271564
 11
43.1203478991
 21
55.5177214213
  0
LINE
  5
24E
100
AcDbEntity
  8
0
100
AcDbLine
 62
7
  6
BYLAYER
 10
50.1203478991
 20
55.5177242888
 11
50.7712841022
 21
56.6451788651
  0
LINE
  5
24F
100
AcDbEntity
  8
0
100
AcDbLine
 62
7
  6
BYLAYER
 10
7.5203478991
 20
52.1884992139
 11
8.8203478991
 21
52.4177242888
  0
LINE
  5
250
100
AcDbEntity
  8
0
100
AcDbLine
 62
7
  6
BYLAYER
 10
45.4457454465
 20
56.6826788651
 11
43.7949504578
 21
56.6826788651
  0
LINE
  5
251
100
AcDbEntity
  8
0
100
AcDbLine
 62
7
  6
BYLAYER
 10
50.7949503518
 20
56.6826788651
 11
52.4457454774
 21
56.6826788651
  0
LINE
  5
252
100
AcDbEntity
  8
0
100
AcDbLine
 62
7
  6
BYLAYER
 10
46.8203478991
 20
54.6351598541
 11
46.1203478991
 21
54.8227242888
  0
LINE
  5
253
100
AcDbEntity
  8
0
100
AcDbLine
 62
7
  6
BYLAYER
 10
50.1203478991
 20
38.5177242888
 11
50.7712841022
 21
37.3902697126
  0
LINE
  5
254
100
AcDbEntity
  8
0
100
AcDbLine
 62
7
  6
BYLAYER
 10
46.1203478991
 20
55.5177214213
 11
46.1203478991
 21
38.5177271564
  0
LINE
  5
255
100
AcDbEntity
  8
0
100
AcDbLine
 62
7
  6
BYLAYER
 10
46.8203478991
 20
54.6329526492
 11
46.8203478991
 21
54.3158605374
  0
LINE
  5
256
100
AcDbEntity
  8
0
100
AcDbLine
 62
7
  6
BYLAYER
 10
46.8203478991
 20
54.2117954072
 11
46.8203478991
 21
53.9315508197
  0
LINE
  5
257
100
AcDbEntity
  8
0
100
AcDbLine
 62
7
  6
BYLAYER
 10
46.8203478991
 20
53.649054109
 11
46.8203478991
 21
53.3250250286
  0
LINE
  5
258
100
AcDbEntity
  8
0
100
AcDbLine
 62
7
  6
BYLAYER
 10
46.8203478991
 20
52.8731764142
 11
46.8203478991
 21
52.5157774021
  0
LINE
  5
259
100
AcDbEntity
  8
0
100
AcDbLine
 62
7
  6
BYLAYER
 10
46.8203478991
 20
51.9090996702
 11
46.8203478991
 21
51.5298178247
  0
LINE
  5
25A
100
AcDbEntity
  8
0
100
AcDbLine
 62
7
  6
BYLAYER
 10
46.8203478991
 20
50.7878100968
 11
46.8203478991
 21
50.3988358485
  0
LINE
  5
25B
100
AcDbEntity
  8
0
100
AcDbLine
 62
7
  6
BYLAYER
 10
46.8203478991
 20
49.5453468634
 11
46.8203478991
 21
49.1591821647
  0
LINE
  5
25C
100
AcDbEntity
  8
0
100
AcDbLine
 62
7
  6
BYLAYER
 10
46.8203478991
 20
48.2216437608
 11
46.8203478991
 21
47.8507002629
  0
LINE
  5
25D
100
AcDbEntity
  8
0
100
AcDbLine
 62
7
  6
BYLAYER
 10
46.8203478991
 20
46.8592456958
 11
46.8203478991
 21
46.4928910249
  0
LINE
  5
25E
100
AcDbEntity
  8
0
100
AcDbLine
 62
7
  6
BYLAYER
 10
46.8203478991
 20
45.5244960661
 11
46.8203478991
 21
45.1444118605
  0
LINE
  5
25F
100
AcDbEntity
  8
0
100
AcDbLine
 62
7
  6
BYLAYER
 10
46.8203478991
 20
44.2452785195
 11
46.8203478991
 21
43.8561424988
  0
LINE
  5
260
100
AcDbEntity
  8
0
100
AcDbLine
 62
7
  6
BYLAYER
 10
46.8203478991
 20
43.0551696612
 11
46.8203478991
 21
42.6694889772
  0
LINE
  5
261
100
AcDbEntity
  8
0
100
AcDbLine
 62
7
  6
BYLAYER
 10
46.8203478991
 20
41.992420569
 11
46.8203478991
 21
41.6225913163
  0
LINE
  5
262
100
AcDbEntity
  8
0
100
AcDbLine
 62
7
  6
BYLAYER
 10
46.8203478991
 20
41.0911888731
 11
46.8203478991
 21
40.7490976682
  0
LINE
  5
263
100
AcDbEntity
  8
0
100
AcDbLine
 62
7
  6
BYLAYER
 10
46.8203478991
 20
40.3804409019
 11
46.8203478991
 21
40.0770828376
  0
LINE
  5
264
100
AcDbEntity
  8
0
100
AcDbLine
 62
7
  6
BYLAYER
 10
46.8203478991
 20
39.88302068
 11
46.8203478991
 21
39.628145934
  0
LINE
  5
265
100
AcDbEntity
  8
0
100
AcDbLine
 62
7
  6
BYLAYER
 10
46.8203478991
 20
39.6149157025
 11
46.8203478991
 21
39.4167161589
  0
LINE
  5
266
100
AcDbEntity
  8
0
100
AcDbLine
 62
7
  6
BYLAYER
 10
46.1203478991
 20
38.5177242888
 11
45.4694116961
 21
37.3902697126
  0
LINE
  5
267
100
AcDbEntity
  8
0
100
AcDbLine
 62
7
  6
BYLAYER
 10
49.4339511326
 20
39.6213926163
 11
49.4203478991
 21
39.6149157025
  0
LINE
  5
268
100
AcDbEntity
  8
0
100
AcDbLine
 62
7
  6
BYLAYER
 10
46.1203478991
 20
55.5177242888
 11
45.4694116961
 21
56.6451788651
  0
LINE
  5
269
100
AcDbEntity
  8
0
100
AcDbLine
 62
7
  6
BYLAYER
 10
49.4203478991
 20
39.4167161589
 11
49.4203478991
 21
39.6149157025
  0
LINE
  5
26A
100
AcDbEntity
  8
0
100
AcDbLine
 62
7
  6
BYLAYER
 10
49.4203478991
 20
39.628145934
 11
49.4203478991
 21
39.88302068
  0
LINE
  5
26B
100
AcDbEntity
  8
0
100
AcDbLine
 62
7
  6
BYLAYER
 10
49.4203478991
 20
40.0770828376
 11
49.4203478991
 21
40.3804409019
  0
LINE
  5
26C
100
AcDbEntity
  8
0
100
AcDbLine
 62
7
  6
BYLAYER
 10
49.4203478991
 20
40.7490976682
 11
49.4203478991
 21
41.0911888731
  0
LINE
  5
26D
100
AcDbEntity
  8
0
100
AcDbLine
 62
7
  6
BYLAYER
 10
49.4203478991
 20
41.6225913163
 11
49.4203478991
 21
41.992420569
  0
LINE
  5
26E
100
AcDbEntity
  8
0
100
AcDbLine
 62
7
  6
BYLAYER
 10
49.4203478991
 20
42.6694889772
 11
49.4203478991
 21
43.0551696612
  0
LINE
  5
26F
100
AcDbEntity
  8
0
100
AcDbLine
 62
7
  6
BYLAYER
 10
49.4203478991
 20
43.8561424988
 11
49.4203478991
 21
44.2452785195
  0
LINE
  5
270
100
AcDbEntity
  8
0
100
AcDbLine
 62
7
  6
BYLAYER
 10
49.4203478991
 20
45.1444118605
 11
49.4203478991
 21
45.5244960661
  0
LINE
  5
271
100
AcDbEntity
  8
0
100
AcDbLine
 62
7
  6
BYLAYER
 10
49.4203478991
 20
46.4928910249
 11
49.4203478991
 21
46.8592456958
  0
LINE
  5
272
100
AcDbEntity
  8
0
100
AcDbLine
 62
7
  6
BYLAYER
 10
49.4203478991
 20
47.8507002629
 11
49.4203478991
 21
48.2216437608
  0
LINE
  5
273
100
AcDbEntity
  8
0
100
AcDbLine
 62
7
  6
BYLAYER
 10
49.4203478991
 20
49.1591821647
 11
49.4203478991
 21
49.5453468634
  0
LINE
  5
274
100
AcDbEntity
  8
0
100
AcDbLine
 62
7
  6
BYLAYER
 10
49.4203478991
 20
50.3988358485
 11
49.4203478991
 21
50.7878100968
  0
LINE
  5
275
100
AcDbEntity
  8
0
100
AcDbLine
 62
7
  6
BYLAYER
 10
49.4203478991
 20
51.5298178247
 11
49.4203478991
 21
51.9090996702
  0
LINE
  5
276
100
AcDbEntity
  8
0
100
AcDbLine
 62
7
  6
BYLAYER
 10
49.4203478991
 20
52.5157774021
 11
49.4203478991
 21
52.8731764142
  0
LINE
  5
277
100
AcDbEntity
  8
0
100
AcDbLine
 62
7
  6
BYLAYER
 10
49.4203478991
 20
53.3250250286
 11
49.4203478991
 21
53.649054109
  0
LINE
  5
278
100
AcDbEntity
  8
0
100
AcDbLine
 62
7
  6
BYLAYER
 10
49.4203478991
 20
53.9315508197
 11
49.4203478991
 21
54.2117954072
  0
LINE
  5
279
100
AcDbEntity
  8
0
100
AcDbLine
 62
7
  6
BYLAYER
 10
49.4203478991
 20
54.3158605374
 11
49.4203478991
 21
54.6329526492
  0
LINE
  5
27A
100
AcDbEntity
  8
0
100
AcDbLine
 62
7
  6
BYLAYER
 10
50.1203478991
 20
38.5177271564
 11
50.1203478991
 21
55.5177214213
  0
LINE
  5
27B
100
AcDbEntity
  8
0
100
AcDbLine
 62
7
  6
BYLAYER
 10
49.648671861
 20
40.558769758
 11
49.6539160156
 21
40.5658245025
  0
LINE
  5
27C
100
AcDbEntity
  8
0
100
AcDbLine
 62
7
  6
BYLAYER
 10
49.6792082348
 20
53.0913173648
 11
49.648671861
 21
53.1331232186
  0
LINE
  5
27D
100
AcDbEntity
  8
0
100
AcDbLine
 62
7
  6
BYLAYER
 10
53.1203478991
 20
55.5177214213
 11
53.1203478991
 21
38.5177271564
  0
LINE
  5
27E
100
AcDbEntity
  8
0
100
AcDbLine
 62
7
  6
BYLAYER
 10
55.1203478991
 20
41.2177242888
 11
54.9203478991
 21
41.0177242888
  0
LINE
  5
27F
100
AcDbEntity
  8
0
100
AcDbLine
 62
7
  6
BYLAYER
 10
55.1203478991
 20
52.8177242888
 11
54.9203478991
 21
53.0177242888
  0
LINE
  5
280
100
AcDbEntity
  8
0
100
AcDbLine
 62
7
  6
BYLAYER
 10
54.9203478991
 20
53.0177242888
 11
54.9203478991
 21
41.0177242888
  0
LINE
  5
281
100
AcDbEntity
  8
0
100
AcDbLine
 62
7
  6
BYLAYER
 10
55.1203478991
 20
52.8176658064
 11
55.1203478991
 21
41.2177172775
  0
LINE
  5
282
100
AcDbEntity
  8
0
100
AcDbLine
 62
7
  6
BYLAYER
 10
53.1203478991
 20
38.5177242888
 11
52.4694116961
 21
37.3902697126
  0
LINE
  5
283
100
AcDbEntity
  8
0
100
AcDbLine
 62
7
  6
BYLAYER
 10
53.1203478991
 20
55.5177242888
 11
52.4694116961
 21
56.6451788651
  0
LINE
  5
284
100
AcDbEntity
  8
0
100
AcDbLine
 62
7
  6
BYLAYER
 10
59.9203478991
 20
52.2177242888
 11
59.9203478991
 21
41.8177242888
  0
LINE
  5
285
100
AcDbEntity
  8
0
100
AcDbLine
 62
7
  6
BYLAYER
 10
60.1203478991
 20
52.0677282282
 11
60.1203478991
 21
41.9677247023
  0
ARC
  5
286
100
AcDbEntity
  8
0
100
AcDbCircle
 62
7
  6
BYLAYER
 10
-48.2626930315
 20
-33.4039465242
 40
127.9217924901
100
AcDbArc
 50
39.9135972089
 51
40.0573917348
  0
ARC
  5
287
100
AcDbEntity
  8
0
100
AcDbCircle
 62
7
  6
BYLAYER
 10
-25.5671239122
 20
-22.866731388
 40
103.9752525929
100
AcDbArc
 50
43.6640128135
 51
43.8459429004
  0
ARC
  5
288
100
AcDbEntity
  8
0
100
AcDbCircle
 62
7
  6
BYLAYER
 10
-18.2777614643
 20
-2.1607691998
 40
85.7411969286
100
AcDbArc
 50
37.4288711654
 51
37.60594554
  0
ARC
  5
289
100
AcDbEntity
  8
0
100
AcDbCircle
 62
7
  6
BYLAYER
 10
-5.52887615
 20
10.8910063142
 40
68.3918612684
100
AcDbArc
 50
36.0479526616
 51
36.216975251
  0
ARC
  5
28A
100
AcDbEntity
  8
0
100
AcDbCircle
 62
7
  6
BYLAYER
 10
7.1650235863
 20
9.6294057474
 40
58.7167681633
100
AcDbArc
 50
43.6528706988
 51
43.9746867693
  0
ARC
  5
28B
100
AcDbEntity
  8
0
100
AcDbCircle
 62
7
  6
BYLAYER
 10
3.43299859
 20
19.0241540295
 40
56.9496941709
100
AcDbArc
 50
35.6238883076
 51
35.7555389511
  0
ARC
  5
28C
100
AcDbEntity
  8
0
100
AcDbCircle
 62
7
  6
BYLAYER
 10
21.3460096298
 20
23.4124736209
 40
39.73353136
100
AcDbArc
 50
44.5766797015
 51
45.0438509393
  0
ARC
  5
28D
100
AcDbEntity
  8
0
100
AcDbCircle
 62
7
  6
BYLAYER
 10
29.9478509545
 20
31.5417165758
 40
28.6197373293
100
AcDbArc
 50
46.4991892417
 51
47.1261087637
  0
ARC
  5
28E
100
AcDbEntity
  8
0
100
AcDbCircle
 62
7
  6
BYLAYER
 10
35.9389496895
 20
37.0531341074
 40
21.1310797604
100
AcDbArc
 50
49.5492480509
 51
50.3579665658
  0
ARC
  5
28F
100
AcDbEntity
  8
0
100
AcDbCircle
 62
7
  6
BYLAYER
 10
-30.0286913269
 20
108.2848825598
 40
102.0733824967
100
AcDbArc
 50
321.3145386126
 51
321.4794548406
  0
ARC
  5
290
100
AcDbEntity
  8
0
100
AcDbCircle
 62
7
  6
BYLAYER
 10
-11.4719345987
 20
88.9953772999
 40
76.3197728216
100
AcDbArc
 50
323.2112434013
 51
323.3871737535
  0
ARC
  5
291
100
AcDbEntity
  8
0
100
AcDbCircle
 62
7
  6
BYLAYER
 10
-4.9652903931
 20
96.3894736102
 40
75.3446397171
100
AcDbArc
 50
316.2053552041
 51
316.4568127451
  0
ARC
  5
292
100
AcDbEntity
  8
0
100
AcDbCircle
 62
7
  6
BYLAYER
 10
-0.7727990368
 20
78.6812005503
 40
62.2260362258
100
AcDbArc
 50
324.1248028161
 51
324.2787862347
  0
ARC
  5
293
100
AcDbEntity
  8
0
100
AcDbCircle
 62
7
  6
BYLAYER
 10
15.2817945343
 20
76.4726766007
 40
47.7720692026
100
AcDbArc
 50
315.6115121003
 51
316.0043624628
  0
ARC
  5
294
100
AcDbEntity
  8
0
100
AcDbCircle
 62
7
  6
BYLAYER
 10
26.0583299877
 20
66.1431476638
 40
33.6012127772
100
AcDbArc
 50
314.0489802819
 51
314.5931697629
  0
ARC
  5
295
100
AcDbEntity
  8
0
100
AcDbCircle
 62
7
  6
BYLAYER
 10
33.1697511166
 20
59.5154817579
 40
24.5669791405
100
AcDbArc
 50
311.4129416222
 51
312.1269245867
  0
ARC
  5
296
100
AcDbEntity
  8
0
100
AcDbCircle
 62
7
  6
BYLAYER
 10
38.2881669266
 20
54.8688990703
 40
18.2713128511
100
AcDbArc
 50
307.5368098507
 51
308.4453075536
  0
ARC
  5
297
100
AcDbEntity
  8
0
100
AcDbCircle
 62
7
  6
BYLAYER
 10
40.3361043486
 20
40.9904209069
 40
15.8112720647
100
AcDbArc
 50
54.056417042
 51
54.9324192424
  0
ARC
  5
298
100
AcDbEntity
  8
0
100
AcDbCircle
 62
7
  6
BYLAYER
 10
37.7029077885
 20
50.5210115262
 40
14.8245327009
100
AcDbArc
 50
3.4968015304
 51
6.0178941128
  0
ARC
  5
299
100
AcDbEntity
  8
0
100
AcDbCircle
 62
7
  6
BYLAYER
 10
37.7029079173
 20
43.5144370139
 40
14.8245325701
100
AcDbArc
 50
353.9821059797
 51
356.503198584
  0
ARC
  5
29A
100
AcDbEntity
  8
0
100
AcDbCircle
 62
7
  6
BYLAYER
 10
30.7264527617
 20
50.5229699214
 40
14.8009121414
100
AcDbArc
 50
3.4947936857
 51
6.019910309
  0
ARC
  5
29B
100
AcDbEntity
  8
0
100
AcDbCircle
 62
7
  6
BYLAYER
 10
30.7264529345
 20
43.5124786147
 40
14.8009119664
100
AcDbArc
 50
353.9800897813
 51
356.5052064341
  0
ARC
  5
29C
100
AcDbEntity
  8
0
100
AcDbCircle
 62
7
  6
BYLAYER
 10
42.1008868118
 20
51.5025177966
 40
13.7327063557
100
AcDbArc
 50
302.2080256631
 51
302.9511971892
  0
ARC
  5
29D
100
AcDbEntity
  8
0
100
AcDbCircle
 62
7
  6
BYLAYER
 10
43.588163773
 20
43.7664262687
 40
12.0542496685
100
AcDbArc
 50
60.5657401636
 51
61.0642819857
  0
ARC
  5
29E
100
AcDbEntity
  8
0
100
AcDbCircle
 62
7
  6
BYLAYER
 10
24.953360601
 20
42.6677242888
 40
1.0
100
AcDbArc
 50
270.0
 51
300.0
  0
ARC
  5
29F
100
AcDbEntity
  8
0
100
AcDbCircle
 62
7
  6
BYLAYER
 10
24.953360601
 20
51.3677242888
 40
1.0
100
AcDbArc
 50
60.0
 51
90.0
  0
ARC
  5
2A0
100
AcDbEntity
  8
0
100
AcDbCircle
 62
7
  6
BYLAYER
 10
144.4148223761
 20
-33.3294476225
 40
127.8060595973
100
AcDbArc
 50
139.94261908
 51
140.086544645
  0
ARC
  5
2A1
100
AcDbEntity
  8
0
100
AcDbCircle
 62
7
  6
BYLAYER
 10
121.8814198947
 20
-22.9372004919
 40
104.0771488911
100
AcDbArc
 50
136.1541461586
 51
136.3358981275
  0
ARC
  5
2A2
100
AcDbEntity
  8
0
100
AcDbCircle
 62
7
  6
BYLAYER
 10
113.855003806
 20
-1.6511431781
 40
84.9046038926
100
AcDbArc
 50
142.3932997949
 51
142.5721204722
  0
ARC
  5
2A3
100
AcDbEntity
  8
0
100
AcDbCircle
 62
7
  6
BYLAYER
 10
101.4584346819
 20
11.1179390103
 40
68.0067583152
100
AcDbArc
 50
143.7823946848
 51
143.9523794217
  0
ARC
  5
2A4
100
AcDbEntity
  8
0
100
AcDbCircle
 62
7
  6
BYLAYER
 10
89.1171683384
 20
9.5895932323
 40
58.7742741527
100
AcDbArc
 50
136.025470667
 51
136.346971865
  0
ARC
  5
2A5
100
AcDbEntity
  8
0
100
AcDbCircle
 62
7
  6
BYLAYER
 10
92.9014662793
 20
18.956083074
 40
57.065565188
100
AcDbArc
 50
144.2440103718
 51
144.3753920356
  0
ARC
  5
2A6
100
AcDbEntity
  8
0
100
AcDbCircle
 62
7
  6
BYLAYER
 10
74.9222774501
 20
23.3850644736
 40
39.7724224266
100
AcDbArc
 50
134.9563774713
 51
135.4230918879
  0
ARC
  5
2A7
100
AcDbEntity
  8
0
100
AcDbCircle
 62
7
  6
BYLAYER
 10
66.3120067261
 20
31.5213022141
 40
28.6477355518
100
AcDbArc
 50
132.8741975922
 51
133.5005044024
  0
ARC
  5
2A8
100
AcDbEntity
  8
0
100
AcDbCircle
 62
7
  6
BYLAYER
 10
60.3150416682
 20
37.0373151069
 40
21.1517435313
100
AcDbArc
 50
129.6424284714
 51
130.4503569119
  0
ARC
  5
2A9
100
AcDbEntity
  8
0
100
AcDbCircle
 62
7
  6
BYLAYER
 10
125.7356190761
 20
107.8584528162
 40
101.3901914026
100
AcDbArc
 50
218.5198650705
 51
218.6858922531
  0
ARC
  5
2AA
100
AcDbEntity
  8
0
100
AcDbCircle
 62
7
  6
BYLAYER
 10
107.3621462543
 20
88.7340869018
 40
75.8826099279
100
AcDbArc
 50
216.6122984524
 51
216.7892391316
  0
ARC
  5
2AB
100
AcDbEntity
  8
0
100
AcDbCircle
 62
7
  6
BYLAYER
 10
101.2059861914
 20
96.3894736102
 40
75.3446397172
100
AcDbArc
 50
223.5431872549
 51
223.7946447959
  0
ARC
  5
2AC
100
AcDbEntity
  8
0
100
AcDbCircle
 62
7
  6
BYLAYER
 10
96.8400353804
 20
78.5566228706
 40
62.0124776152
100
AcDbArc
 50
215.7213342869
 51
215.8758497382
  0
ARC
  5
2AD
100
AcDbEntity
  8
0
100
AcDbCircle
 62
7
  6
BYLAYER
 10
80.9253974229
 20
76.4401045683
 40
47.7253421337
100
AcDbArc
 50
223.9954452199
 51
224.388680217
  0
ARC
  5
2AE
100
AcDbEntity
  8
0
100
AcDbCircle
 62
7
  6
BYLAYER
 10
70.1594155687
 20
66.119646977
 40
33.5683650754
100
AcDbArc
 50
225.4065639818
 51
225.9512859733
  0
ARC
  5
2AF
100
AcDbEntity
  8
0
100
AcDbCircle
 62
7
  6
BYLAYER
 10
63.0549538387
 20
59.4975780738
 40
24.5429744208
100
AcDbArc
 50
227.8727262465
 51
228.5874075446
  0
ARC
  5
2B0
100
AcDbEntity
  8
0
100
AcDbCircle
 62
7
  6
BYLAYER
 10
57.9415428329
 20
54.8548330578
 40
18.2534655624
100
AcDbArc
 50
231.5542482962
 51
232.4636342995
  0
ARC
  5
2B1
100
AcDbEntity
  8
0
100
AcDbCircle
 62
7
  6
BYLAYER
 10
55.913170307
 20
40.9784200854
 40
15.8260233527
100
AcDbArc
 50
125.0680390976
 51
125.9432304489
  0
ARC
  5
2B2
100
AcDbEntity
  8
0
100
AcDbCircle
 62
7
  6
BYLAYER
 10
65.5381600252
 20
43.5144690677
 40
14.8249059932
100
AcDbArc
 50
183.4968373395
 51
186.0178664452
  0
ARC
  5
2B3
100
AcDbEntity
  8
0
100
AcDbCircle
 62
7
  6
BYLAYER
 10
65.538157779
 20
50.5209796708
 40
14.8249037414
100
AcDbArc
 50
173.9821332625
 51
176.5031627516
  0
ARC
  5
2B4
100
AcDbEntity
  8
0
100
AcDbCircle
 62
7
  6
BYLAYER
 10
58.5142499327
 20
50.522970428
 40
14.8009189772
100
AcDbArc
 50
173.9800944532
 51
176.5052098948
  0
ARC
  5
2B5
100
AcDbEntity
  8
0
100
AcDbCircle
 62
7
  6
BYLAYER
 10
58.5142498097
 20
43.5124781116
 40
14.8009188521
100
AcDbArc
 50
183.4947899869
 51
186.0199054495
  0
ARC
  5
2B6
100
AcDbEntity
  8
0
100
AcDbCircle
 62
7
  6
BYLAYER
 10
54.1524004268
 20
51.5222981546
 40
13.7561540555
100
AcDbArc
 50
237.0495573041
 51
237.7915119154
  0
ARC
  5
2B7
100
AcDbEntity
  8
0
100
AcDbCircle
 62
7
  6
BYLAYER
 10
52.6354852411
 20
43.7968695304
 40
12.019359139
100
AcDbArc
 50
118.9348150946
 51
119.4347615459
  0
ARC
  5
2B8
100
AcDbEntity
  8
0
100
AcDbCircle
 62
7
  6
BYLAYER
 10
59.9203478991
 20
41.9677242888
 40
0.2
100
AcDbArc
 50
311.4096221093
 51
360.0
  0
ARC
  5
2B9
100
AcDbEntity
  8
0
100
AcDbCircle
 62
7
  6
BYLAYER
 10
59.9203478991
 20
52.0677242888
 40
0.2
100
AcDbArc
 50
0.0
 51
48.5903778907
  0
SPLINE
  5
2BA
100
AcDbEntity
  8
0
100
AcDbSpline
 62
7
  6
BYLAYER
 70
0
 71
3
 72
9
 73
5
 74
0
 42
0.0000001
 43
0.0000001
 44
0.0000000001
 40
0.0
 40
0.0
 40
0.0
 40
0.0
 40
0.2456243926
 40
1.0
 40
1.0
 40
1.0
 40
1.0
 10
43.7712790691
 20
56.6451789243
 30
0.0
 10
43.7730939409
 20
56.6483242179
 30
0.0
 10
43.780615312
 20
56.6610528042
 30
0.0
 10
43.788649905
 20
56.6734761901
 30
0.0
 10
43.7949503208
 20
56.6826788651
 30
0.0
  0
SPLINE
  5
2BB
100
AcDbEntity
  8
0
100
AcDbSpline
 62
7
  6
BYLAYER
 70
0
 71
3
 72
9
 73
5
 74
0
 42
0.0000001
 43
0.0000001
 44
0.0000000001
 40
0.0
 40
0.0
 40
0.0
 40
0.0
 40
0.2456244201
 40
1.0
 40
1.0
 40
1.0
 40
1.0
 10
45.4694167578
 20
37.390269653
 30
0.0
 10
45.4676018805
 20
37.3871243591
 30
0.0
 10
45.4600804849
 20
37.3743957747
 30
0.0
 10
45.4520458645
 20
37.3619723945
 30
0.0
 10
45.4457454453
 20
37.3527697126
 30
0.0
  0
SPLINE
  5
2BC
100
AcDbEntity
  8
0
100
AcDbSpline
 62
7
  6
BYLAYER
 70
0
 71
3
 72
9
 73
5
 74
0
 42
0.0000001
 43
0.0000001
 44
0.0000000001
 40
0.0
 40
0.0
 40
0.0
 40
0.0
 40
0.254471482
 40
1.0
 40
1.0
 40
1.0
 40
1.0
 10
43.7949503221
 20
37.3527697126
 30
0.0
 10
43.7928250319
 20
37.3558740084
 30
0.0
 10
43.7845818207
 20
37.3681467256
 30
0.0
 10
43.7767876056
 20
37.3807229931
 30
0.0
 10
43.7712790683
 20
37.3902696533
 30
0.0
  0
SPLINE
  5
2BD
100
AcDbEntity
  8
0
100
AcDbSpline
 62
7
  6
BYLAYER
 70
0
 71
3
 72
9
 73
5
 74
0
 42
0.0000001
 43
0.0000001
 44
0.0000000001
 40
0.0
 40
0.0
 40
0.0
 40
0.0
 40
0.2544713825
 40
1.0
 40
1.0
 40
1.0
 40
1.0
 10
45.4457454465
 20
56.6826788651
 30
0.0
 10
45.4478707369
 20
56.6795745682
 30
0.0
 10
45.4561139594
 20
56.6673018469
 30
0.0
 10
45.4639082042
 20
56.6547255863
 30
0.0
 10
45.4694167568
 20
56.6451789246
 30
0.0
  0
LINE
  5
2BE
100
AcDbEntity
  8
0
100
AcDbLine
 62
7
  6
BYLAYER
 10
46.5920239372
 20
47.6194066002
 11
46.8203478991
 21
47.8507002629
  0
LINE
  5
2BF
100
AcDbEntity
  8
0
100
AcDbLine
 62
7
  6
BYLAYER
 10
46.335033582
 20
47.3513693239
 11
46.5920239372
 21
47.6194066002
  0
LINE
  5
2C0
100
AcDbEntity
  8
0
100
AcDbLine
 62
7
  6
BYLAYER
 10
46.5920239372
 20
45.7603267037
 11
46.3640564979
 21
46.016177399
  0
LINE
  5
2C1
100
AcDbEntity
  8
0
100
AcDbLine
 62
7
  6
BYLAYER
 10
46.5920239372
 20
45.7603267037
 11
46.8203478991
 21
45.5244960661
  0
LINE
  5
2C2
100
AcDbEntity
  8
0
100
AcDbLine
 62
7
  6
BYLAYER
 10
46.5920239372
 20
41.2951185565
 11
46.5379655998
 21
41.3700580588
  0
LINE
  5
2C3
100
AcDbEntity
  8
0
100
AcDbLine
 62
7
  6
BYLAYER
 10
46.6639825712
 20
47.0177243164
 11
46.3203478991
 21
47.3654899907
  0
LINE
  5
2C4
100
AcDbEntity
  8
0
100
AcDbLine
 62
7
  6
BYLAYER
 10
46.8203478991
 20
46.8592456958
 11
46.6639825712
 21
47.0177243164
  0
SPLINE
  5
2C5
100
AcDbEntity
  8
0
100
AcDbSpline
 62
7
  6
BYLAYER
 70
0
 71
3
 72
13
 73
9
 74
0
 42
0.0000001
 43
0.0000001
 44
0.0000000001
 40
0.0
 40
0.0
 40
0.0
 40
0.0
 40
0.1204074337
 40
0.2413786051
 40
0.3634045455
 40
0.4869076083
 40
0.7393475573
 40
1.0
 40
1.0
 40
1.0
 40
1.0
 10
43.1203508168
 20
54.3789401877
 30
0.0
 10
43.12034956
 20
54.4763031913
 30
0.0
 10
43.1281488739
 20
54.6715715883
 30
0.0
 10
43.1628535944
 20
54.9636448733
 30
0.0
 10
43.2198745596
 20
55.2547408526
 30
0.0
 10
43.3249793717
 20
55.6437401902
 30
0.0
 10
43.5073876806
 20
56.1264636596
 30
0.0
 10
43.6933396426
 20
56.4980225912
 30
0.0
 10
43.7949504578
 20
56.6826788651
 30
0.0
  0
SPLINE
  5
2C6
100
AcDbEntity
  8
0
100
AcDbSpline
 62
7
  6
BYLAYER
 70
0
 71
3
 72
13
 73
9
 74
0
 42
0.0000001
 43
0.0000001
 44
0.0000000001
 40
0.0
 40
0.0
 40
0.0
 40
0.0
 40
0.1204073448
 40
0.2413781958
 40
0.3634046441
 40
0.4869092239
 40
0.7393494659
 40
1.0
 40
1.0
 40
1.0
 40
1.0
 10
46.1203449789
 20
39.6565083641
 30
0.0
 10
46.1203452935
 20
39.5591454405
 30
0.0
 10
46.1125555329
 20
39.3638773329
 30
0.0
 10
46.0778609776
 20
39.0718023638
 30
0.0
 10
46.0208311189
 20
38.7807061753
 30
0.0
 10
45.9156936803
 20
38.3917139142
 30
0.0
 10
45.7332937755
 20
37.9089897381
 30
0.0
 10
45.5473555134
 20
37.537424616
 30
0.0
 10
45.4457454453
 20
37.3527697126
 30
0.0
  0
SPLINE
  5
2C7
100
AcDbEntity
  8
0
100
AcDbSpline
 62
7
  6
BYLAYER
 70
0
 71
3
 72
13
 73
9
 74
0
 42
0.0000001
 43
0.0000001
 44
0.0000000001
 40
0.0
 40
0.0
 40
0.0
 40
0.0
 40
0.2606505638
 40
0.5130908164
 40
0.6365954003
 40
0.7586218401
 40
0.8795926661
 40
1.0
 40
1.0
 40
1.0
 40
1.0
 10
43.7949503529
 20
37.3527697126
 30
0.0
 10
43.6933402784
 20
37.5374246401
 30
0.0
 10
43.5074019547
 20
37.9089897705
 30
0.0
 10
43.3250021109
 20
38.3917140082
 30
0.0
 10
43.2198646537
 20
38.7807062702
 30
0.0
 10
43.1628348426
 20
39.0718024425
 30
0.0
 10
43.1281402146
 20
39.3638773674
 30
0.0
 10
43.1203505045
 20
39.5591454492
 30
0.0
 10
43.1203508193
 20
39.6565083641
 30
0.0
  0
SPLINE
  5
2C8
100
AcDbEntity
  8
0
100
AcDbSpline
 62
7
  6
BYLAYER
 70
0
 71
3
 72
13
 73
9
 74
0
 42
0.0000001
 43
0.0000001
 44
0.0000000001
 40
0.0
 40
0.0
 40
0.0
 40
0.0
 40
0.2606505647
 40
0.5130908169
 40
0.6365954003
 40
0.7586218399
 40
0.8795926661
 40
1.0
 40
1.0
 40
1.0
 40
1.0
 10
45.4457454465
 20
56.6826788651
 30
0.0
 10
45.547355526
 20
56.498023941
 30
0.0
 10
45.7332938491
 20
56.1264588124
 30
0.0
 10
45.9156936931
 20
55.6437345778
 30
0.0
 10
46.0208311383
 20
55.2547423159
 30
0.0
 10
46.0778609472
 20
54.9636461458
 30
0.0
 10
46.1125555794
 20
54.6715712233
 30
0.0
 10
46.1203452933
 20
54.4763031426
 30
0.0
 10
46.1203449789
 20
54.3789402284
 30
0.0
  0
SPLINE
  5
2C9
100
AcDbEntity
  8
0
100
AcDbSpline
 62
7
  6
BYLAYER
 70
0
 71
3
 72
13
 73
9
 74
0
 42
0.0000001
 43
0.0000001
 44
0.0000000001
 40
0.0
 40
0.0
 40
0.0
 40
0.0
 40
0.1204073448
 40
0.2413781958
 40
0.3634046441
 40
0.4869092239
 40
0.7393494659
 40
1.0
 40
1.0
 40
1.0
 40
1.0
 10
46.1203449789
 20
54.3789402284
 30
0.0
 10
46.1203452935
 20
54.2815773048
 30
0.0
 10
46.1125555329
 20
54.0863091972
 30
0.0
 10
46.0778609776
 20
53.7942342282
 30
0.0
 10
46.0208311189
 20
53.5031380396
 30
0.0
 10
45.9156936803
 20
53.1141457785
 30
0.0
 10
45.7332937755
 20
52.6314216025
 30
0.0
 10
45.5473555134
 20
52.2598564803
 30
0.0
 10
45.4457454453
 20
52.075201577
 30
0.0
  0
SPLINE
  5
2CA
100
AcDbEntity
  8
0
100
AcDbSpline
 62
7
  6
BYLAYER
 70
0
 71
3
 72
11
 73
7
 74
0
 42
0.0000001
 43
0.0000001
 44
0.0000000001
 40
0.0
 40
0.0
 40
0.0
 40
0.0
 40
0.2500022938
 40
0.5000026912
 40
0.7500024826
 40
1.0
 40
1.0
 40
1.0
 40
1.0
 10
45.4998402628
 20
51.425201577
 30
0.0
 10
45.5953677827
 20
51.0657614707
 30
0.0
 10
45.7692802095
 20
50.3421434457
 30
0.0
 10
45.9674216692
 20
49.2434100868
 30
0.0
 10
46.0919753037
 20
48.1337547806
 30
0.0
 10
46.1203478991
 20
47.3896347776
 30
0.0
 10
46.1203478991
 20
47.0177242888
 30
0.0
  0
SPLINE
  5
2CB
100
AcDbEntity
  8
0
100
AcDbSpline
 62
7
  6
BYLAYER
 70
0
 71
3
 72
13
 73
9
 74
0
 42
0.0000001
 43
0.0000001
 44
0.0000000001
 40
0.0
 40
0.0
 40
0.0
 40
0.0
 40
0.2606524703
 40
0.5130924323
 40
0.6365954993
 40
0.7586214316
 40
0.8795925774
 40
1.0
 40
1.0
 40
1.0
 40
1.0
 10
43.7949504586
 20
52.075201577
 30
0.0
 10
43.6933396353
 20
52.2598578656
 30
0.0
 10
43.5073876508
 20
52.6314168119
 30
0.0
 10
43.3249793598
 20
53.1141403116
 30
0.0
 10
43.219874538
 20
53.5031396443
 30
0.0
 10
43.1628536034
 20
53.7942355959
 30
0.0
 10
43.1281488186
 20
54.0863088303
 30
0.0
 10
43.1203495611
 20
54.2815771956
 30
0.0
 10
43.1203508168
 20
54.3789401877
 30
0.0
  0
SPLINE
  5
2CC
100
AcDbEntity
  8
0
100
AcDbSpline
 62
7
  6
BYLAYER
 70
0
 71
3
 72
11
 73
7
 74
0
 42
0.0000001
 43
0.0000001
 44
0.0000000001
 40
0.0
 40
0.0
 40
0.0
 40
0.0
 40
0.2499942108
 40
0.4999900508
 40
0.7499919184
 40
1.0
 40
1.0
 40
1.0
 40
1.0
 10
43.1203478991
 20
47.0177242888
 30
0.0
 10
43.1203478991
 20
47.3896296501
 30
0.0
 10
43.1487520134
 20
48.1337360817
 30
0.0
 10
43.2732458283
 20
49.2433895899
 30
0.0
 10
43.4714650122
 20
50.3421133694
 30
0.0
 10
43.6453259464
 20
51.0657533494
 30
0.0
 10
43.7408556191
 20
51.425201577
 30
0.0
  0
SPLINE
  5
2CD
100
AcDbEntity
  8
0
100
AcDbSpline
 62
7
  6
BYLAYER
 70
0
 71
3
 72
11
 73
7
 74
0
 42
0.0000001
 43
0.0000001
 44
0.0000000001
 40
0.0
 40
0.0
 40
0.0
 40
0.0
 40
0.2500022721
 40
0.5000027068
 40
0.7500024686
 40
1.0
 40
1.0
 40
1.0
 40
1.0
 10
43.7408556171
 20
42.6102470007
 30
0.0
 10
43.6453281483
 20
42.9696869355
 30
0.0
 10
43.4714492566
 20
43.693312069
 30
0.0
 10
43.273260677
 20
44.7920364833
 30
0.0
 10
43.1487417381
 20
45.9016957118
 30
0.0
 10
43.1203478991
 20
46.6458139258
 30
0.0
 10
43.1203478991
 20
47.0177242888
 30
0.0
  0
SPLINE
  5
2CE
100
AcDbEntity
  8
0
100
AcDbSpline
 62
7
  6
BYLAYER
 70
0
 71
3
 72
13
 73
9
 74
0
 42
0.0000001
 43
0.0000001
 44
0.0000000001
 40
0.0
 40
0.0
 40
0.0
 40
0.0
 40
0.1204073448
 40
0.241378196
 40
0.3634046441
 40
0.4869092234
 40
0.7393494649
 40
1.0
 40
1.0
 40
1.0
 40
1.0
 10
43.1203508193
 20
39.6565083641
 30
0.0
 10
43.1203505051
 20
39.7538712871
 30
0.0
 10
43.1281402697
 20
39.9491393935
 30
0.0
 10
43.162834829
 20
40.2412143601
 30
0.0
 10
43.2198646852
 20
40.5323105467
 30
0.0
 10
43.3250021137
 20
40.9213028068
 30
0.0
 10
43.5074020102
 20
41.404026984
 30
0.0
 10
43.6933402891
 20
41.7755920948
 30
0.0
 10
43.7949503517
 20
41.9602470007
 30
0.0
  0
SPLINE
  5
2CF
100
AcDbEntity
  8
0
100
AcDbSpline
 62
7
  6
BYLAYER
 70
0
 71
3
 72
11
 73
7
 74
0
 42
0.0000001
 43
0.0000001
 44
0.0000000001
 40
0.0
 40
0.0
 40
0.0
 40
0.0
 40
0.2499941513
 40
0.4999900944
 40
0.7499919193
 40
1.0
 40
1.0
 40
1.0
 40
1.0
 10
46.1203478991
 20
47.0177242888
 30
0.0
 10
46.1203478991
 20
46.6458188959
 30
0.0
 10
46.0919575481
 20
45.9017111991
 30
0.0
 10
45.9674423936
 20
44.7920601153
 30
0.0
 10
45.769257767
 20
43.6933295121
 30
0.0
 10
45.5953699713
 20
42.9696953419
 30
0.0
 10
45.4998402628
 20
42.6102470007
 30
0.0
  0
SPLINE
  5
2D0
100
AcDbEntity
  8
0
100
AcDbSpline
 62
7
  6
BYLAYER
 70
0
 71
3
 72
13
 73
9
 74
0
 42
0.0000001
 43
0.0000001
 44
0.0000000001
 40
0.0
 40
0.0
 40
0.0
 40
0.0
 40
0.2606505647
 40
0.5130908169
 40
0.6365954003
 40
0.7586218399
 40
0.8795926661
 40
1.0
 40
1.0
 40
1.0
 40
1.0
 10
45.4457454465
 20
41.9602470007
 30
0.0
 10
45.547355526
 20
41.7755920767
 30
0.0
 10
45.7332938491
 20
41.4040269481
 30
0.0
 10
45.9156936931
 20
40.9213027135
 30
0.0
 10
46.0208311383
 20
40.5323104516
 30
0.0
 10
46.0778609472
 20
40.2412142815
 30
0.0
 10
46.1125555794
 20
39.949139359
 30
0.0
 10
46.1203452933
 20
39.7538712783
 30
0.0
 10
46.1203449789
 20
39.6565083641
 30
0.0
  0
SPLINE
  5
2D1
100
AcDbEntity
  8
0
100
AcDbSpline
 62
7
  6
BYLAYER
 70
0
 71
3
 72
9
 73
5
 74
0
 42
0.0000001
 43
0.0000001
 44
0.0000000001
 40
0.0
 40
0.0
 40
0.0
 40
0.0
 40
0.2456458236
 40
1.0
 40
1.0
 40
1.0
 40
1.0
 10
52.4694130935
 20
56.6451788815
 30
0.0
 10
52.467597539
 20
56.6483239611
 30
0.0
 10
52.460075741
 20
56.661051485
 30
0.0
 10
52.4520454351
 20
56.6734768593
 30
0.0
 10
52.4457454774
 20
56.6826788651
 30
0.0
  0
SPLINE
  5
2D2
100
AcDbEntity
  8
0
100
AcDbSpline
 62
7
  6
BYLAYER
 70
0
 71
3
 72
9
 73
5
 74
0
 42
0.0000001
 43
0.0000001
 44
0.0000000001
 40
0.0
 40
0.0
 40
0.0
 40
0.0
 40
0.2456456716
 40
1.0
 40
1.0
 40
1.0
 40
1.0
 10
50.7712829007
 20
37.3902696985
 30
0.0
 10
50.7730984372
 20
37.3871246191
 30
0.0
 10
50.7806201622
 20
37.3743970852
 30
0.0
 10
50.788650407
 20
37.3619717032
 30
0.0
 10
50.7949503529
 20
37.3527697126
 30
0.0
  0
LINE
  5
2D3
100
AcDbEntity
  8
0
100
AcDbLine
 62
7
  6
BYLAYER
 10
49.648671861
 20
45.7603267037
 11
49.876638777
 21
46.016176567
  0
LINE
  5
2D4
100
AcDbEntity
  8
0
100
AcDbLine
 62
7
  6
BYLAYER
 10
49.648671861
 20
41.2951185565
 11
49.7027288785
 21
41.3700580441
  0
LINE
  5
2D5
100
AcDbEntity
  8
0
100
AcDbLine
 62
7
  6
BYLAYER
 10
49.648671861
 20
45.7603267037
 11
49.4203478991
 21
45.5244960661
  0
LINE
  5
2D6
100
AcDbEntity
  8
0
100
AcDbLine
 62
7
  6
BYLAYER
 10
49.9056619148
 20
47.3513696512
 11
49.648671861
 21
47.6194066002
  0
SPLINE
  5
2D7
100
AcDbEntity
  8
0
100
AcDbSpline
 62
7
  6
BYLAYER
 70
0
 71
3
 72
9
 73
5
 74
0
 42
0.0000001
 43
0.0000001
 44
0.0000000001
 40
0.0
 40
0.0
 40
0.0
 40
0.0
 40
0.2544694054
 40
1.0
 40
1.0
 40
1.0
 40
1.0
 10
50.7949503518
 20
56.6826788651
 30
0.0
 10
50.7928251749
 20
56.679574734
 30
0.0
 10
50.7845835617
 20
56.6673016982
 30
0.0
 10
50.776793
 20
56.6547241011
 30
0.0
 10
50.7712829009
 20
56.6451788792
 30
0.0
  0
LINE
  5
2D8
100
AcDbEntity
  8
0
100
AcDbLine
 62
7
  6
BYLAYER
 10
49.648671861
 20
47.6194066002
 11
49.4203478991
 21
47.8507002629
  0
LINE
  5
2D9
100
AcDbEntity
  8
0
100
AcDbLine
 62
7
  6
BYLAYER
 10
49.4203478991
 20
46.8592456958
 11
49.576713227
 21
47.0177243164
  0
LINE
  5
2DA
100
AcDbEntity
  8
0
100
AcDbLine
 62
7
  6
BYLAYER
 10
49.576713227
 20
47.0177243164
 11
49.9203478991
 21
47.3654899907
  0
SPLINE
  5
2DB
100
AcDbEntity
  8
0
100
AcDbSpline
 62
7
  6
BYLAYER
 70
0
 71
3
 72
9
 73
5
 74
0
 42
0.0000001
 43
0.0000001
 44
0.0000000001
 40
0.0
 40
0.0
 40
0.0
 40
0.0
 40
0.2544691143
 40
1.0
 40
1.0
 40
1.0
 40
1.0
 10
52.4457454762
 20
37.3527697126
 30
0.0
 10
52.4478706551
 20
37.3558738459
 30
0.0
 10
52.4561123005
 20
37.3681468945
 30
0.0
 10
52.4639029413
 20
37.3807244757
 30
0.0
 10
52.4694130943
 20
37.3902696961
 30
0.0
  0
SPLINE
  5
2DC
100
AcDbEntity
  8
0
100
AcDbSpline
 62
7
  6
BYLAYER
 70
0
 71
3
 72
11
 73
7
 74
0
 42
0.0000001
 43
0.0000001
 44
0.0000000001
 40
0.0
 40
0.0
 40
0.0
 40
0.0
 40
0.2499941513
 40
0.4999900944
 40
0.7499919193
 40
1.0
 40
1.0
 40
1.0
 40
1.0
 10
50.1203478991
 20
47.0177242888
 30
0.0
 10
50.1203478991
 20
47.3896296818
 30
0.0
 10
50.1487382502
 20
48.1337373785
 30
0.0
 10
50.2732534047
 20
49.2433884624
 30
0.0
 10
50.4714380312
 20
50.3421190656
 30
0.0
 10
50.645325827
 20
51.0657532358
 30
0.0
 10
50.7408555355
 20
51.425201577
 30
0.0
  0
SPLINE
  5
2DD
100
AcDbEntity
  8
0
100
AcDbSpline
 62
7
  6
BYLAYER
 70
0
 71
3
 72
13
 73
9
 74
0
 42
0.0000001
 43
0.0000001
 44
0.0000000001
 40
0.0
 40
0.0
 40
0.0
 40
0.0
 40
0.2606505638
 40
0.5130908164
 40
0.6365954003
 40
0.7586218401
 40
0.8795926661
 40
1.0
 40
1.0
 40
1.0
 40
1.0
 10
50.7949503529
 20
52.075201577
 30
0.0
 10
50.6933402732
 20
52.2598565015
 30
0.0
 10
50.5074019582
 20
52.6314216366
 30
0.0
 10
50.3250021101
 20
53.1141458722
 30
0.0
 10
50.2198646539
 20
53.5031381346
 30
0.0
 10
50.1628348427
 20
53.7942343068
 30
0.0
 10
50.1281402146
 20
54.0863092317
 30
0.0
 10
50.1203505045
 20
54.2815773136
 30
0.0
 10
50.1203508193
 20
54.3789402284
 30
0.0
  0
SPLINE
  5
2DE
100
AcDbEntity
  8
0
100
AcDbSpline
 62
7
  6
BYLAYER
 70
0
 71
3
 72
11
 73
7
 74
0
 42
0.0000001
 43
0.0000001
 44
0.0000000001
 40
0.0
 40
0.0
 40
0.0
 40
0.0
 40
0.2500022721
 40
0.5000027068
 40
0.7500024686
 40
1.0
 40
1.0
 40
1.0
 40
1.0
 10
52.4998401811
 20
51.425201577
 30
0.0
 10
52.5953676499
 20
51.0657616422
 30
0.0
 10
52.7692465417
 20
50.3421365087
 30
0.0
 10
52.9674351213
 20
49.2434120944
 30
0.0
 10
53.0919540601
 20
48.1337528659
 30
0.0
 10
53.1203478991
 20
47.3896346519
 30
0.0
 10
53.1203478991
 20
47.0177242888
 30
0.0
  0
SPLINE
  5
2DF
100
AcDbEntity
  8
0
100
AcDbSpline
 62
7
  6
BYLAYER
 70
0
 71
3
 72
13
 73
9
 74
0
 42
0.0000001
 43
0.0000001
 44
0.0000000001
 40
0.0
 40
0.0
 40
0.0
 40
0.0
 40
0.1204074335
 40
0.2413786046
 40
0.3634045453
 40
0.4869076091
 40
0.7393475591
 40
1.0
 40
1.0
 40
1.0
 40
1.0
 10
53.1203449814
 20
54.3789401876
 30
0.0
 10
53.1203462364
 20
54.2815771868
 30
0.0
 10
53.1125469287
 20
54.0863087955
 30
0.0
 10
53.0778422138
 20
53.7942355176
 30
0.0
 10
53.0208212392
 20
53.5031395471
 30
0.0
 10
52.9157164091
 20
53.1141402236
 30
0.0
 10
52.7333080931
 20
52.6314167731
 30
0.0
 10
52.5473561514
 20
52.2598578446
 30
0.0
 10
52.4457453396
 20
52.075201577
 30
0.0
  0
SPLINE
  5
2E0
100
AcDbEntity
  8
0
100
AcDbSpline
 62
7
  6
BYLAYER
 70
0
 71
3
 72
13
 73
9
 74
0
 42
0.0000001
 43
0.0000001
 44
0.0000000001
 40
0.0
 40
0.0
 40
0.0
 40
0.0
 40
0.1204073448
 40
0.241378196
 40
0.3634046441
 40
0.4869092234
 40
0.7393494649
 40
1.0
 40
1.0
 40
1.0
 40
1.0
 10
50.1203508193
 20
54.3789402284
 30
0.0
 10
50.1203505051
 20
54.4763031514
 30
0.0
 10
50.1281402696
 20
54.6715712578
 30
0.0
 10
50.162834829
 20
54.9636462244
 30
0.0
 10
50.2198646853
 20
55.2547424109
 30
0.0
 10
50.325002113
 20
55.6437346714
 30
0.0
 10
50.5074020137
 20
56.1264588466
 30
0.0
 10
50.6933402839
 20
56.4980239621
 30
0.0
 10
50.7949503518
 20
56.6826788651
 30
0.0
  0
SPLINE
  5
2E1
100
AcDbEntity
  8
0
100
AcDbSpline
 62
7
  6
BYLAYER
 70
0
 71
3
 72
13
 73
9
 74
0
 42
0.0000001
 43
0.0000001
 44
0.0000000001
 40
0.0
 40
0.0
 40
0.0
 40
0.0
 40
0.2606524721
 40
0.5130924331
 40
0.6365954991
 40
0.7586214311
 40
0.8795925772
 40
1.0
 40
1.0
 40
1.0
 40
1.0
 10
52.4457453404
 20
56.6826788651
 30
0.0
 10
52.5473561672
 20
56.4980225701
 30
0.0
 10
52.733308172
 20
56.1264636208
 30
0.0
 10
52.9157164559
 20
55.6437401021
 30
0.0
 10
53.0208212598
 20
55.2547407554
 30
0.0
 10
53.0778421849
 20
54.963644795
 30
0.0
 10
53.1125469752
 20
54.6715715536
 30
0.0
 10
53.120346239
 20
54.4763031825
 30
0.0
 10
53.1203449814
 20
54.3789401876
 30
0.0
  0
SPLINE
  5
2E2
100
AcDbEntity
  8
0
100
AcDbSpline
 62
7
  6
BYLAYER
 70
0
 71
3
 72
13
 73
9
 74
0
 42
0.0000001
 43
0.0000001
 44
0.0000000001
 40
0.0
 40
0.0
 40
0.0
 40
0.0
 40
0.2606505638
 40
0.5130908164
 40
0.6365954003
 40
0.7586218401
 40
0.8795926661
 40
1.0
 40
1.0
 40
1.0
 40
1.0
 10
50.7949503529
 20
37.3527697126
 30
0.0
 10
50.6933402732
 20
37.5374246371
 30
0.0
 10
50.5074019582
 20
37.9089897723
 30
0.0
 10
50.3250021101
 20
38.3917140078
 30
0.0
 10
50.2198646539
 20
38.7807062703
 30
0.0
 10
50.1628348427
 20
39.0718024424
 30
0.0
 10
50.1281402146
 20
39.3638773674
 30
0.0
 10
50.1203505045
 20
39.5591454492
 30
0.0
 10
50.1203508193
 20
39.6565083641
 30
0.0
  0
SPLINE
  5
2E3
100
AcDbEntity
  8
0
100
AcDbSpline
 62
7
  6
BYLAYER
 70
0
 71
3
 72
13
 73
9
 74
0
 42
0.0000001
 43
0.0000001
 44
0.0000000001
 40
0.0
 40
0.0
 40
0.0
 40
0.0
 40
0.1204073448
 40
0.2413781958
 40
0.3634046441
 40
0.4869092239
 40
0.7393494659
 40
1.0
 40
1.0
 40
1.0
 40
1.0
 10
53.1203449789
 20
39.6565083641
 30
0.0
 10
53.1203452935
 20
39.5591454405
 30
0.0
 10
53.1125555329
 20
39.3638773329
 30
0.0
 10
53.0778609776
 20
39.0718023638
 30
0.0
 10
53.0208311191
 20
38.7807061752
 30
0.0
 10
52.9156936796
 20
38.3917139145
 30
0.0
 10
52.733293779
 20
37.9089897364
 30
0.0
 10
52.5473555082
 20
37.5374246189
 30
0.0
 10
52.4457454453
 20
37.3527697126
 30
0.0
  0
SPLINE
  5
2E4
100
AcDbEntity
  8
0
100
AcDbSpline
 62
7
  6
BYLAYER
 70
0
 71
3
 72
11
 73
7
 74
0
 42
0.0000001
 43
0.0000001
 44
0.0000000001
 40
0.0
 40
0.0
 40
0.0
 40
0.0
 40
0.2500022938
 40
0.5000026912
 40
0.7500024826
 40
1.0
 40
1.0
 40
1.0
 40
1.0
 10
50.7408555355
 20
42.6102470007
 30
0.0
 10
50.6453280156
 20
42.969687107
 30
0.0
 10
50.4714155887
 20
43.6933051319
 30
0.0
 10
50.273274129
 20
44.7920384909
 30
0.0
 10
50.1487204945
 20
45.9016937971
 30
0.0
 10
50.1203478991
 20
46.6458138001
 30
0.0
 10
50.1203478991
 20
47.0177242888
 30
0.0
  0
SPLINE
  5
2E5
100
AcDbEntity
  8
0
100
AcDbSpline
 62
7
  6
BYLAYER
 70
0
 71
3
 72
13
 73
9
 74
0
 42
0.0000001
 43
0.0000001
 44
0.0000000001
 40
0.0
 40
0.0
 40
0.0
 40
0.0
 40
0.1204073448
 40
0.241378196
 40
0.3634046441
 40
0.4869092234
 40
0.7393494649
 40
1.0
 40
1.0
 40
1.0
 40
1.0
 10
50.1203508193
 20
39.6565083641
 30
0.0
 10
50.1203505051
 20
39.7538712871
 30
0.0
 10
50.1281402696
 20
39.9491393935
 30
0.0
 10
50.162834829
 20
40.2412143601
 30
0.0
 10
50.2198646853
 20
40.5323105466
 30
0.0
 10
50.325002113
 20
40.9213028071
 30
0.0
 10
50.5074020137
 20
41.4040269822
 30
0.0
 10
50.6933402839
 20
41.7755920978
 30
0.0
 10
50.7949503518
 20
41.9602470007
 30
0.0
  0
SPLINE
  5
2E6
100
AcDbEntity
  8
0
100
AcDbSpline
 62
7
  6
BYLAYER
 70
0
 71
3
 72
11
 73
7
 74
0
 42
0.0000001
 43
0.0000001
 44
0.0000000001
 40
0.0
 40
0.0
 40
0.0
 40
0.0
 40
0.2499942108
 40
0.4999900508
 40
0.7499919184
 40
1.0
 40
1.0
 40
1.0
 40
1.0
 10
53.1203478991
 20
47.0177242888
 30
0.0
 10
53.1203478991
 20
46.6458189276
 30
0.0
 10
53.0919437848
 20
45.901712496
 30
0.0
 10
52.9674499699
 20
44.7920589878
 30
0.0
 10
52.7692307861
 20
43.6933352083
 30
0.0
 10
52.5953698518
 20
42.9696952283
 30
0.0
 10
52.4998401791
 20
42.6102470007
 30
0.0
  0
SPLINE
  5
2E7
100
AcDbEntity
  8
0
100
AcDbSpline
 62
7
  6
BYLAYER
 70
0
 71
3
 72
13
 73
9
 74
0
 42
0.0000001
 43
0.0000001
 44
0.0000000001
 40
0.0
 40
0.0
 40
0.0
 40
0.0
 40
0.2606505648
 40
0.5130908169
 40
0.6365954003
 40
0.7586218399
 40
0.8795926661
 40
1.0
 40
1.0
 40
1.0
 40
1.0
 10
52.4457454465
 20
41.9602470007
 30
0.0
 10
52.5473555207
 20
41.7755920737
 30
0.0
 10
52.7332938527
 20
41.4040269499
 30
0.0
 10
52.9156936923
 20
40.9213027131
 30
0.0
 10
53.0208311385
 20
40.5323104517
 30
0.0
 10
53.0778609472
 20
40.2412142815
 30
0.0
 10
53.1125555794
 20
39.949139359
 30
0.0
 10
53.1203452933
 20
39.7538712783
 30
0.0
 10
53.1203449789
 20
39.6565083641
 30
0.0
  0
ELLIPSE
  5
2E8
100
AcDbEntity
  8
0
100
AcDbEllipse
 62
7
  6
BYLAYER
 10
44.0827085275
 20
44.8003360866
 30
0.0
 11
8.333433108
 21
8.3279952762
 31
0.0
 40
0.0649774206
 41
-1.3643765566
 42
-1.3016426579
  0
ELLIPSE
  5
2E9
100
AcDbEntity
  8
0
100
AcDbEllipse
 62
7
  6
BYLAYER
 10
44.0827085275
 20
44.8896027833
 30
0.0
 11
8.2557716223
 21
8.2260681246
 31
0.0
 40
0.1528608948
 41
-1.450681815
 42
-1.3879479163
  0
ELLIPSE
  5
2EA
100
AcDbEntity
  8
0
100
AcDbEllipse
 62
7
  6
BYLAYER
 10
44.0827085275
 20
45.0472690562
 30
0.0
 11
8.117466273
 21
8.0434984904
 31
0.0
 40
0.2438041777
 41
-1.536573414
 42
-1.4738395153
  0
ELLIPSE
  5
2EB
100
AcDbEntity
  8
0
100
AcDbEllipse
 62
7
  6
BYLAYER
 10
44.0827085275
 20
45.2682673817
 30
0.0
 11
7.9214559825
 21
7.7813255478
 31
0.0
 40
0.3397569986
 41
-1.6216551135
 42
-1.5589212148
  0
ELLIPSE
  5
2EC
100
AcDbEntity
  8
0
100
AcDbEllipse
 62
7
  6
BYLAYER
 10
44.0827085275
 20
45.5454946915
 30
0.0
 11
7.6732594207
 21
7.439498634
 31
0.0
 40
0.4429672902
 41
-1.7051854317
 42
-1.642451533
  0
ELLIPSE
  5
2ED
100
AcDbEntity
  8
0
100
AcDbEllipse
 62
7
  6
BYLAYER
 10
44.0827085275
 20
45.870040672
 30
0.0
 11
7.3841983811
 21
7.0131458112
 31
0.0
 40
0.5561450433
 41
-1.7854840708
 42
-1.7227501721
  0
ELLIPSE
  5
2EE
100
AcDbEntity
  8
0
100
AcDbEllipse
 62
7
  6
BYLAYER
 10
44.0827085275
 20
46.2314741483
 30
0.0
 11
7.084000063
 21
6.4779641088
 31
0.0
 40
0.6826531162
 41
-1.8575939396
 42
-1.7948600409
  0
ELLIPSE
  5
2EF
100
AcDbEntity
  8
0
100
AcDbEllipse
 62
7
  6
BYLAYER
 10
44.0827085275
 20
46.618178351
 30
0.0
 11
6.9023799451
 21
5.6884471334
 31
0.0
 40
0.8263497679
 41
-1.8974052139
 42
-1.8346713152
  0
ELLIPSE
  5
2F0
100
AcDbEntity
  8
0
100
AcDbEllipse
 62
7
  6
BYLAYER
 10
44.0827085275
 20
49.1992613697
 30
0.0
 11
8.3023008481
 21
-8.2871775495
 31
0.0
 40
0.108650535
 41
1.344829064
 42
1.4075629627
  0
ELLIPSE
  5
2F1
100
AcDbEntity
  8
0
100
AcDbEllipse
 62
7
  6
BYLAYER
 10
44.0827085275
 20
49.075295836
 30
0.0
 11
8.1940587861
 21
-8.1447938309
 31
0.0
 40
0.1978335621
 41
1.4309653653
 42
1.493699264
  0
ELLIPSE
  5
2F2
100
AcDbEntity
  8
0
100
AcDbEllipse
 62
7
  6
BYLAYER
 10
44.0827085275
 20
48.8851982599
 30
0.0
 11
8.0264104398
 21
-7.9223157113
 31
0.0
 40
0.2910225948
 41
1.5165160115
 42
1.5792499103
  0
ELLIPSE
  5
2F3
100
AcDbEntity
  8
0
100
AcDbEllipse
 62
7
  6
BYLAYER
 10
44.0827085275
 20
48.6350785338
 30
0.0
 11
7.8033763488
 21
-7.6204835111
 31
0.0
 40
0.3902986392
 41
1.6009510273
 42
1.663684926
  0
ELLIPSE
  5
2F4
100
AcDbEntity
  8
0
100
AcDbEllipse
 62
7
  6
BYLAYER
 10
44.0827085275
 20
48.3329757115
 30
0.0
 11
7.5327025616
 21
-7.2376102948
 31
0.0
 40
0.4981174544
 41
1.6831832728
 42
1.7459171715
  0
ELLIPSE
  5
2F5
100
AcDbEntity
  8
0
100
AcDbEllipse
 62
7
  6
BYLAYER
 10
44.0827085275
 20
47.0177242888
 30
0.0
 11
8.3509838241
 21
0.0
 31
0.0
 40
0.963433044
 41
-1.2995325731
 42
-1.2367986744
  0
ELLIPSE
  5
2F6
100
AcDbEntity
  8
0
100
AcDbEllipse
 62
7
  6
BYLAYER
 10
44.0827085275
 20
47.9885996262
 30
0.0
 11
7.2319691818
 21
-6.7625506865
 31
0.0
 40
0.6174932746
 41
1.7604441387
 42
1.8231780374
  0
ELLIPSE
  5
2F7
100
AcDbEntity
  8
0
100
AcDbEllipse
 62
7
  6
BYLAYER
 10
44.0827085275
 20
47.6130188088
 30
0.0
 11
6.9578857343
 21
-6.1399374695
 31
0.0
 40
0.7521396115
 41
1.8227587284
 42
1.8854926271
  0
ELLIPSE
  5
2F8
100
AcDbEntity
  8
0
100
AcDbEllipse
 62
7
  6
BYLAYER
 10
44.0827085275
 20
47.2183047357
 30
0.0
 11
7.1167322142
 21
-4.8305503843
 31
0.0
 40
0.9045203251
 41
1.7874137859
 42
1.8501476846
  0
ELLIPSE
  5
2F9
100
AcDbEntity
  8
0
100
AcDbEllipse
 62
7
  6
BYLAYER
 10
44.0827085275
 20
45.1502503178
 30
0.0
 11
8.0264104398
 21
7.9223157113
 31
0.0
 40
0.2910225948
 41
0.9570813372
 42
1.0198152359
  0
ELLIPSE
  5
2FA
100
AcDbEntity
  8
0
100
AcDbEllipse
 62
7
  6
BYLAYER
 10
44.0827085275
 20
44.9601527416
 30
0.0
 11
8.1940587861
 21
8.1447938309
 31
0.0
 40
0.1978335621
 41
1.0426319834
 42
1.1053658821
  0
ELLIPSE
  5
2FB
100
AcDbEntity
  8
0
100
AcDbEllipse
 62
7
  6
BYLAYER
 10
44.0827085275
 20
44.836187208
 30
0.0
 11
8.3023008481
 21
8.2871775495
 31
0.0
 40
0.108650535
 41
1.1287682847
 42
1.1915021834
  0
ELLIPSE
  5
2FC
100
AcDbEntity
  8
0
100
AcDbEllipse
 62
7
  6
BYLAYER
 10
44.0827085275
 20
44.7823380711
 30
0.0
 11
8.3490323781
 21
8.3484285061
 31
0.0
 40
0.0216237981
 41
1.2151798089
 42
1.2779137076
  0
ELLIPSE
  5
2FD
100
AcDbEntity
  8
0
100
AcDbEllipse
 62
7
  6
BYLAYER
 10
44.0827085275
 20
46.817143842
 30
0.0
 11
7.1167322142
 21
4.8305503843
 31
0.0
 40
0.9045203251
 41
0.6861835629
 42
0.7489174616
  0
ELLIPSE
  5
2FE
100
AcDbEntity
  8
0
100
AcDbEllipse
 62
7
  6
BYLAYER
 10
44.0827085275
 20
46.4224297689
 30
0.0
 11
6.9578857343
 21
6.1399374695
 31
0.0
 40
0.7521396115
 41
0.6508386203
 42
0.713572519
  0
ELLIPSE
  5
2FF
100
AcDbEntity
  8
0
100
AcDbEllipse
 62
7
  6
BYLAYER
 10
44.0827085275
 20
49.2351124911
 30
0.0
 11
8.333433108
 21
-8.3279952762
 31
0.0
 40
0.0649774206
 41
-1.2346885895
 42
-1.1719546908
  0
ELLIPSE
  5
300
100
AcDbEntity
  8
0
100
AcDbEllipse
 62
7
  6
BYLAYER
 10
44.0827085275
 20
49.1458457944
 30
0.0
 11
8.2557716223
 21
-8.2260681246
 31
0.0
 40
0.1528608948
 41
-1.1483833311
 42
-1.0856494324
  0
ELLIPSE
  5
301
100
AcDbEntity
  8
0
100
AcDbEllipse
 62
7
  6
BYLAYER
 10
44.0827085275
 20
48.9881795214
 30
0.0
 11
8.117466273
 21
-8.0434984904
 31
0.0
 40
0.2438041777
 41
-1.0624917322
 42
-0.9997578335
  0
ELLIPSE
  5
302
100
AcDbEntity
  8
0
100
AcDbEllipse
 62
7
  6
BYLAYER
 10
44.0827085275
 20
48.767181196
 30
0.0
 11
7.9214559825
 21
-7.7813255478
 31
0.0
 40
0.3397569986
 41
-0.9774100326
 42
-0.9146761339
  0
ELLIPSE
  5
303
100
AcDbEntity
  8
0
100
AcDbEllipse
 62
7
  6
BYLAYER
 10
44.0827085275
 20
48.4899538861
 30
0.0
 11
7.6732594207
 21
-7.439498634
 31
0.0
 40
0.4429672902
 41
-0.8938797144
 42
-0.8311458157
  0
ELLIPSE
  5
304
100
AcDbEntity
  8
0
100
AcDbEllipse
 62
7
  6
BYLAYER
 10
44.0827085275
 20
48.1654079057
 30
0.0
 11
7.3841983811
 21
-7.0131458112
 31
0.0
 40
0.5561450433
 41
-0.8135810753
 42
-0.7508471766
  0
ELLIPSE
  5
305
100
AcDbEntity
  8
0
100
AcDbEllipse
 62
7
  6
BYLAYER
 10
44.0827085275
 20
47.8039744294
 30
0.0
 11
7.084000063
 21
-6.4779641088
 31
0.0
 40
0.6826531162
 41
-0.7414712065
 42
-0.6787373078
  0
ELLIPSE
  5
306
100
AcDbEntity
  8
0
100
AcDbEllipse
 62
7
  6
BYLAYER
 10
44.0827085275
 20
47.4172702267
 30
0.0
 11
6.9023799451
 21
-5.6884471334
 31
0.0
 40
0.8263497679
 41
-0.7016599322
 42
-0.6389260335
  0
ELLIPSE
  5
307
100
AcDbEntity
  8
0
100
AcDbEllipse
 62
7
  6
BYLAYER
 10
44.0827085275
 20
46.0468489515
 30
0.0
 11
7.2319691818
 21
6.7625506865
 31
0.0
 40
0.6174932746
 41
0.71315321
 42
0.7758871087
  0
ELLIPSE
  5
308
100
AcDbEntity
  8
0
100
AcDbEllipse
 62
7
  6
BYLAYER
 10
44.0827085275
 20
45.7024728662
 30
0.0
 11
7.5327025616
 21
7.2376102948
 31
0.0
 40
0.4981174544
 41
0.7904140759
 42
0.8531479746
  0
ELLIPSE
  5
309
100
AcDbEntity
  8
0
100
AcDbEllipse
 62
7
  6
BYLAYER
 10
44.0827085275
 20
45.4003700439
 30
0.0
 11
7.8033763488
 21
7.6204835111
 31
0.0
 40
0.3902986392
 41
0.8726463214
 42
0.9353802201
  0
ELLIPSE
  5
30A
100
AcDbEntity
  8
0
100
AcDbEllipse
 62
7
  6
BYLAYER
 10
52.1579872708
 20
46.618178351
 30
0.0
 11
6.9023799451
 21
-5.6884471334
 31
0.0
 40
0.8263497679
 41
-1.3069213383
 42
-1.2441874396
  0
ELLIPSE
  5
30B
100
AcDbEntity
  8
0
100
AcDbEllipse
 62
7
  6
BYLAYER
 10
52.1579872708
 20
46.2314741483
 30
0.0
 11
7.084000063
 21
-6.4779641088
 31
0.0
 40
0.6826531162
 41
-1.3467326127
 42
-1.283998714
  0
ELLIPSE
  5
30C
100
AcDbEntity
  8
0
100
AcDbEllipse
 62
7
  6
BYLAYER
 10
52.1579872708
 20
45.870040672
 30
0.0
 11
7.3841983811
 21
-7.0131458112
 31
0.0
 40
0.5561450433
 41
-1.4188424815
 42
-1.3561085828
  0
ELLIPSE
  5
30D
100
AcDbEntity
  8
0
100
AcDbEllipse
 62
7
  6
BYLAYER
 10
52.1579872708
 20
45.5454946915
 30
0.0
 11
7.6732594207
 21
-7.439498634
 31
0.0
 40
0.4429672902
 41
-1.4991411205
 42
-1.4364072218
  0
ELLIPSE
  5
30E
100
AcDbEntity
  8
0
100
AcDbEllipse
 62
7
  6
BYLAYER
 10
52.1579872708
 20
45.2682673817
 30
0.0
 11
7.9214559825
 21
-7.7813255478
 31
0.0
 40
0.3397569986
 41
-1.5826714388
 42
-1.5199375401
  0
ELLIPSE
  5
30F
100
AcDbEntity
  8
0
100
AcDbEllipse
 62
7
  6
BYLAYER
 10
52.1579872708
 20
45.0472690562
 30
0.0
 11
8.117466273
 21
-8.0434984904
 31
0.0
 40
0.2438041777
 41
-1.6677531383
 42
-1.6050192396
  0
ELLIPSE
  5
310
100
AcDbEntity
  8
0
100
AcDbEllipse
 62
7
  6
BYLAYER
 10
52.1579872708
 20
44.8896027833
 30
0.0
 11
8.2557716223
 21
-8.2260681246
 31
0.0
 40
0.1528608948
 41
-1.7536447373
 42
-1.6909108386
  0
ELLIPSE
  5
311
100
AcDbEntity
  8
0
100
AcDbEllipse
 62
7
  6
BYLAYER
 10
52.1579872708
 20
44.8003360866
 30
0.0
 11
8.333433108
 21
-8.3279952762
 31
0.0
 40
0.0649774206
 41
-1.8399499957
 42
-1.777216097
  0
ELLIPSE
  5
312
100
AcDbEntity
  8
0
100
AcDbEllipse
 62
7
  6
BYLAYER
 10
52.1579872708
 20
47.0177242888
 30
0.0
 11
8.3509838241
 21
-0.0
 31
0.0
 40
0.963433044
 41
4.378391328
 42
4.4411252267
  0
ELLIPSE
  5
313
100
AcDbEntity
  8
0
100
AcDbEllipse
 62
7
  6
BYLAYER
 10
52.1579872708
 20
47.2183047357
 30
0.0
 11
7.1167322142
 21
4.8305503843
 31
0.0
 40
0.9045203251
 41
1.291444969
 42
1.3541788677
  0
ELLIPSE
  5
314
100
AcDbEntity
  8
0
100
AcDbEllipse
 62
7
  6
BYLAYER
 10
52.1579872708
 20
47.6130188088
 30
0.0
 11
6.9578857343
 21
6.1399374695
 31
0.0
 40
0.7521396115
 41
1.2561000265
 42
1.3188339252
  0
ELLIPSE
  5
315
100
AcDbEntity
  8
0
100
AcDbEllipse
 62
7
  6
BYLAYER
 10
52.1579872708
 20
47.9885996262
 30
0.0
 11
7.2319691818
 21
6.7625506865
 31
0.0
 40
0.6174932746
 41
1.3184146161
 42
1.3811485149
  0
ELLIPSE
  5
316
100
AcDbEntity
  8
0
100
AcDbEllipse
 62
7
  6
BYLAYER
 10
52.1579872708
 20
48.3329757115
 30
0.0
 11
7.5327025616
 21
7.2376102948
 31
0.0
 40
0.4981174544
 41
1.3956754821
 42
1.4584093808
  0
ELLIPSE
  5
317
100
AcDbEntity
  8
0
100
AcDbEllipse
 62
7
  6
BYLAYER
 10
52.1579872708
 20
48.6350785338
 30
0.0
 11
7.8033763488
 21
7.6204835111
 31
0.0
 40
0.3902986392
 41
1.4779077276
 42
1.5406416263
  0
ELLIPSE
  5
318
100
AcDbEntity
  8
0
100
AcDbEllipse
 62
7
  6
BYLAYER
 10
52.1579872708
 20
48.8851982599
 30
0.0
 11
8.0264104398
 21
7.9223157113
 31
0.0
 40
0.2910225948
 41
1.5623427433
 42
1.625076642
  0
ELLIPSE
  5
319
100
AcDbEntity
  8
0
100
AcDbEllipse
 62
7
  6
BYLAYER
 10
52.1579872708
 20
49.075295836
 30
0.0
 11
8.1940587861
 21
8.1447938309
 31
0.0
 40
0.1978335621
 41
1.6478933896
 42
1.7106272883
  0
ELLIPSE
  5
31A
100
AcDbEntity
  8
0
100
AcDbEllipse
 62
7
  6
BYLAYER
 10
52.1579872708
 20
49.1992613697
 30
0.0
 11
8.3023008481
 21
8.2871775495
 31
0.0
 40
0.108650535
 41
1.7340296909
 42
1.7967635896
  0
ELLIPSE
  5
31B
100
AcDbEntity
  8
0
100
AcDbEllipse
 62
7
  6
BYLAYER
 10
52.1579872708
 20
47.4172702267
 30
0.0
 11
6.9023799451
 21
5.6884471334
 31
0.0
 40
0.8263497679
 41
-2.5026666201
 42
-2.4399327214
  0
ELLIPSE
  5
31C
100
AcDbEntity
  8
0
100
AcDbEllipse
 62
7
  6
BYLAYER
 10
52.1579872708
 20
47.8039744294
 30
0.0
 11
7.084000063
 21
6.4779641088
 31
0.0
 40
0.6826531162
 41
-2.4628553458
 42
-2.4001214471
  0
ELLIPSE
  5
31D
100
AcDbEntity
  8
0
100
AcDbEllipse
 62
7
  6
BYLAYER
 10
52.1579872708
 20
48.1654079057
 30
0.0
 11
7.3841983811
 21
7.0131458112
 31
0.0
 40
0.5561450433
 41
-2.390745477
 42
-2.3280115783
  0
ELLIPSE
  5
31E
100
AcDbEntity
  8
0
100
AcDbEllipse
 62
7
  6
BYLAYER
 10
52.1579872708
 20
48.4899538861
 30
0.0
 11
7.6732594207
 21
7.439498634
 31
0.0
 40
0.4429672902
 41
-2.3104468379
 42
-2.2477129392
  0
ELLIPSE
  5
31F
100
AcDbEntity
  8
0
100
AcDbEllipse
 62
7
  6
BYLAYER
 10
52.1579872708
 20
48.767181196
 30
0.0
 11
7.9214559825
 21
7.7813255478
 31
0.0
 40
0.3397569986
 41
-2.2269165197
 42
-2.164182621
  0
ELLIPSE
  5
320
100
AcDbEntity
  8
0
100
AcDbEllipse
 62
7
  6
BYLAYER
 10
52.1579872708
 20
48.9881795214
 30
0.0
 11
8.117466273
 21
8.0434984904
 31
0.0
 40
0.2438041777
 41
-2.1418348201
 42
-2.0791009214
  0
ELLIPSE
  5
321
100
AcDbEntity
  8
0
100
AcDbEllipse
 62
7
  6
BYLAYER
 10
52.1579872708
 20
49.1458457944
 30
0.0
 11
8.2557716223
 21
8.2260681246
 31
0.0
 40
0.1528608948
 41
-2.0559432212
 42
-1.9932093225
  0
ELLIPSE
  5
322
100
AcDbEntity
  8
0
100
AcDbEllipse
 62
7
  6
BYLAYER
 10
52.1579872708
 20
49.2351124911
 30
0.0
 11
8.333433108
 21
8.3279952762
 31
0.0
 40
0.0649774206
 41
-1.9696379628
 42
-1.9069040641
  0
ELLIPSE
  5
323
100
AcDbEntity
  8
0
100
AcDbEllipse
 62
7
  6
BYLAYER
 10
52.1579872708
 20
44.7823380711
 30
0.0
 11
8.3490323781
 21
-8.3484285061
 31
0.0
 40
0.0216237981
 41
1.863678946
 42
1.9264128447
  0
ELLIPSE
  5
324
100
AcDbEntity
  8
0
100
AcDbEllipse
 62
7
  6
BYLAYER
 10
52.1579872708
 20
44.836187208
 30
0.0
 11
8.3023008481
 21
-8.2871775495
 31
0.0
 40
0.108650535
 41
1.9500904702
 42
2.0128243689
  0
ELLIPSE
  5
325
100
AcDbEntity
  8
0
100
AcDbEllipse
 62
7
  6
BYLAYER
 10
52.1579872708
 20
44.9601527416
 30
0.0
 11
8.1940587861
 21
-8.1447938309
 31
0.0
 40
0.1978335621
 41
2.0362267715
 42
2.0989606702
  0
ELLIPSE
  5
326
100
AcDbEntity
  8
0
100
AcDbEllipse
 62
7
  6
BYLAYER
 10
52.1579872708
 20
45.1502503178
 30
0.0
 11
8.0264104398
 21
-7.9223157113
 31
0.0
 40
0.2910225948
 41
2.1217774177
 42
2.1845113164
  0
ELLIPSE
  5
327
100
AcDbEntity
  8
0
100
AcDbEllipse
 62
7
  6
BYLAYER
 10
52.1579872708
 20
45.4003700439
 30
0.0
 11
7.8033763488
 21
-7.6204835111
 31
0.0
 40
0.3902986392
 41
2.2062124334
 42
2.2689463321
  0
ELLIPSE
  5
328
100
AcDbEntity
  8
0
100
AcDbEllipse
 62
7
  6
BYLAYER
 10
52.1579872708
 20
45.7024728662
 30
0.0
 11
7.5327025616
 21
-7.2376102948
 31
0.0
 40
0.4981174544
 41
2.288444679
 42
2.3511785777
  0
ELLIPSE
  5
329
100
AcDbEntity
  8
0
100
AcDbEllipse
 62
7
  6
BYLAYER
 10
52.1579872708
 20
46.0468489515
 30
0.0
 11
7.2319691818
 21
-6.7625506865
 31
0.0
 40
0.6174932746
 41
2.3657055449
 42
2.4284394436
  0
ELLIPSE
  5
32A
100
AcDbEntity
  8
0
100
AcDbEllipse
 62
7
  6
BYLAYER
 10
52.1579872708
 20
46.4224297689
 30
0.0
 11
6.9578857343
 21
-6.1399374695
 31
0.0
 40
0.7521396115
 41
2.4280201346
 42
2.4907540333
  0
ELLIPSE
  5
32B
100
AcDbEntity
  8
0
100
AcDbEllipse
 62
7
  6
BYLAYER
 10
52.1579872708
 20
46.817143842
 30
0.0
 11
7.1167322142
 21
-4.8305503843
 31
0.0
 40
0.9045203251
 41
2.392675192
 42
2.4554090907
  0
ENDSEC
  0
SECTION
  2
OBJECTS
  0
DICTIONARY
  5
C
100
AcDbDictionary
280
0
281
1
  3
ACAD_GROUP
350
D
  3
ACAD_MLINESTYLE
350
17
  3
ACAD_LAYOUT
350
1A
  3
ACAD_PLOTSETTINGS
350
19
  3
ACAD_PLOTSTYLENAME
350
E
  0
DICTIONARY
  5
D
102
{ACAD_REACTORS
330
C
102
}
100
AcDbDictionary
280
0
281
1
  0
ACDBDICTIONARYWDFLT
  5
E
102
{ACAD_REACTORS
330
C
102
}
100
AcDbDictionary
281
1
  3
Normal
350
F
100
AcDbDictionaryWithDefault
340
F
  0
DICTIONARY
  5
17
102
{ACAD_REACTORS
330
C
102
}
100
AcDbDictionary
280
0
281
1
  3
Standard
350
18
  0
DICTIONARY
  5
19
102
{ACAD_REACTORS
330
C
102
}
100
AcDbDictionary
281
1
  0
DICTIONARY
  5
1A
102
{ACAD_REACTORS
330
C
102
}
100
AcDbDictionary
281
1
  3
Model
350
32C
  3
Layout1
350
32D
  0
ACDBPLACEHOLDER
  5
F
102
{ACAD_REACTORS
330
E
102
}
  0
MLINESTYLE
  5
18
102
{ACAD_REACTORS
330
17
102
}
100
AcDbMlineStyle
  2
STANDARD
 70
0
  3

 62
256
 51
90.0
 52
90.0
 71
2
 49
0.5
 62
256
  6
BYLAYER
 49
-0.5
 62
256
  6
BYLAYER
  0
LAYOUT
  5
32C
102
{ACAD_REACTORS
330
1A
102
}
100
AcDbPlotSettings
  1

  2
none_device
  4

  6

 40
0.0
 41
0.0
 42
0.0
 43
0.0
 44
210.0
 45
297.0
 46
0.0
 47
0.0
 48
0.0
 49
0.0
140
0.0
141
0.0
142
1.0
143
1.0
 70
1024
 72
1
 73
0
 74
0
  7

 75
0
147
1.0
148
0.0
149
0.0
100
AcDbLayout
  1
Model
 70
0
 71
0
 10
0.0
 20
0.0
 11
210.0
 21
297.0
 12
0.0
 22
0.0
 32
0.0
 14
0.0
 24
0.0
 34
0.0
 15
0.0
 25
0.0
 35
0.0
146
0.0
 13
0.0
 23
0.0
 33
0.0
 16
1.0
 26
0.0
 36
0.0
 17
0.0
 27
1.0
 37
0.0
 76
0
330
210
345
0
346
0
  0
LAYOUT
  5
32D
102
{ACAD_REACTORS
330
1A
102
}
100
AcDbPlotSettings
  1

  2
none_device
  4

  6

 40
0.0
 41
0.0
 42
0.0
 43
0.0
 44
210.0
 45
297.0
 46
0.0
 47
0.0
 48
0.0
 49
0.0
140
0.0
141
0.0
142
1.0
143
1.0
 70
0
 72
1
 73
0
 74
0
  7

 75
0
147
1.0
148
0.0
149
0.0
100
AcDbLayout
  1
Layout1
 70
0
 71
1
 10
0.0
 20
0.0
 11
210.0
 21
297.0
 12
0.0
 22
0.0
 32
0.0
 14
0.0
 24
0.0
 34
0.0
 15
0.0
 25
0.0
 35
0.0
146
0.0
 13
0.0
 23
0.0
 33
0.0
 16
1.0
 26
0.0
 36
0.0
 17
0.0
 27
1.0
 37
0.0
 76
0
330
211
345
0
346
0
  0
ENDSEC
  0
EOF
