999
DXF file: C:\Users\sesa63760\Dev\_Creo\CAD\MCADPD0004578_3D-CAD\drw0001_7.dxf
999
Pro/ENGINEER 2019471 by Parametric Technology Corporation
  0
SECTION
  2
HEADER
  9
$ACADVER
  1
AC1024
  9
$DWGCODEPAGE
  3
ANSI_1252
  9
$EXTMAX
 10
113.7656654068
 20
160.8971553611
 30
0.0
  9
$EXTMIN
 10
0.0
 20
0.0
 30
0.0
  9
$LIMMIN
 10
0.0
 20
0.0
  9
$LIMMAX
 10
113.7656654068
 20
160.8971553611
  9
$VIEWCTR
 10
56.8828327034
 20
80.4485776805
  9
$VIEWSIZE
 40
160.8971553611
  9
$CLAYER
  8
0
  9
$LTSCALE
 40
10.488110868
  9
$CELTYPE
  6
BYLAYER
  9
$DIMSCALE
 40
1.0
  9
$DIMASZ
 40
1.3543531596
  9
$DIMEXO
 40
1.0
  9
$DIMDLI
 40
7.2463311451
  9
$DIMEXE
 40
1.0
  9
$DIMCEN
 40
1.7162363239
  9
$DIMLFAC
 40
1.0
  9
$DIMBLK
  1
_FILLED
  9
$DIMALT
 70
0
  9
$DIMALTF
 40
0.0393700787
  9
$DIMTXT
 40
1.8960944234
  9
$DIMTOL
 70
1
  9
$DIMLIM
 70
0
  9
$DIMTFAC
 40
1.0
  9
$DIMTP
 40
0.01
  9
$DIMTM
 40
0.01
  9
$DIMGAP
 40
0.625
  9
$DIMDSEP
 70
46
  9
$AUNITS
 70
0
  9
$PDMODE
 70
3
  9
$PDSIZE
 40
0.3125
  9
$HANDSEED
  5
277
  9
$TILEMODE
 70
1
  9
$MEASUREMENT
 70
1
  9
$INSUNITS
 70
4
  0
ENDSEC
  0
SECTION
  2
CLASSES
  0
CLASS
  1
ACDBDICTIONARYWDFLT
  2
AcDbDictionaryWithDefault
  3
AutoCAD 2000
 90
0
 91
1
280
0
281
0
  0
CLASS
  1
ACDBPLACEHOLDER
  2
AcDbPlaceHolder
  3
AutoCAD 2000
 90
0
 91
1
280
0
281
0
  0
CLASS
  1
LAYOUT
  2
AcDbLayout
  3
AutoCAD 2000
 90
0
 91
0
280
0
281
0
  0
ENDSEC
  0
SECTION
  2
TABLES
  0
TABLE
  2
VPORT
  5
8
100
AcDbSymbolTable
 70
2
  0
VPORT
  5
1F4
100
AcDbSymbolTableRecord
100
AcDbViewportTableRecord
  2
*ACTIVE
 70
0
 10
0.0
 20
0.0
 11
1.0
 21
1.0
 12
56.8828327034
 22
80.4485776805
 13
0.0
 23
0.0
 14
1.0
 24
1.0
 15
0.0
 25
0.0
 16
0.0
 26
0.0
 36
1.0
 17
0.0
 27
0.0
 37
0.0
 40
160.8971553611
 41
0.7070707071
 42
50.0
 43
0.0
 44
0.0
 50
0.0
 51
0.0
 71
0
 72
100
 73
1
 74
1
 75
0
 76
0
 77
0
 78
0
  0
ENDTAB
  0
TABLE
  2
LTYPE
  5
5
100
AcDbSymbolTable
 70
6
  0
LTYPE
  5
14
100
AcDbSymbolTableRecord
100
AcDbLinetypeTableRecord
  2
BYBLOCK
 70
0
  3

 72
65
 73
0
 40
0.0
  0
LTYPE
  5
15
100
AcDbSymbolTableRecord
100
AcDbLinetypeTableRecord
  2
BYLAYER
 70
0
  3

 72
65
 73
0
 40
0.0
  0
LTYPE
  5
16
100
AcDbSymbolTableRecord
100
AcDbLinetypeTableRecord
  2
CONTINUOUS
 70
64
  3
Solid line
 72
65
 73
0
 40
0.0
  0
LTYPE
  5
1F5
100
AcDbSymbolTableRecord
100
AcDbLinetypeTableRecord
  2
CENTER
 70
64
  3
____ _ ____ _ ____ _ ____ _ ____ _ ____ _ ____
 72
65
 73
4
 40
0.6
 49
0.375
 74
0
 49
-0.075
 74
0
 49
0.075
 74
0
 49
-0.075
 74
0
  0
LTYPE
  5
1F6
100
AcDbSymbolTableRecord
100
AcDbLinetypeTableRecord
  2
HIDDEN
 70
64
  3
- - - - - - - - - - - - - - - - - - - -
 72
65
 73
2
 40
0.2
 49
0.1
 74
0
 49
-0.1
 74
0
  0
LTYPE
  5
1F7
100
AcDbSymbolTableRecord
100
AcDbLinetypeTableRecord
  2
PHANTOM
 70
64
  3
_____ _ _ _____ _ _ _____ _ _ _____
 72
65
 73
6
 40
0.8
 49
0.45
 74
0
 49
-0.05
 74
0
 49
0.1
 74
0
 49
-0.05
 74
0
 49
0.1
 74
0
 49
-0.05
 74
0
  0
LTYPE
  5
1F8
100
AcDbSymbolTableRecord
100
AcDbLinetypeTableRecord
  2
DOT
 70
64
  3
. . . . . . . . . . . . . . . . . . . .
 72
65
 73
2
 40
0.2
 49
0.1
 74
0
 49
-0.1
 74
0
  0
LTYPE
  5
1F9
100
AcDbSymbolTableRecord
100
AcDbLinetypeTableRecord
  2
DASHED
 70
64
  3
- - - - - - - - - - - - - - - - - - - -
 72
65
 73
2
 40
0.2
 49
0.1
 74
0
 49
-0.1
 74
0
  0
ENDTAB
  0
TABLE
  2
LAYER
  5
2
100
AcDbSymbolTable
 70
36
  0
LAYER
  5
10
100
AcDbSymbolTableRecord
100
AcDbLayerTableRecord
  2
0
 70
0
 62
7
  6
CONTINUOUS
370
-3
390
F
  0
LAYER
  5
1FA
100
AcDbSymbolTableRecord
100
AcDbLayerTableRecord
  2
DEFAULT_1
 70
0
 62
7
  6
CENTER
370
-3
390
F
  0
LAYER
  5
1FB
100
AcDbSymbolTableRecord
100
AcDbLayerTableRecord
  2
DEFAULT_2
 70
0
 62
7
  6
HIDDEN
370
-3
390
F
  0
LAYER
  5
1FC
100
AcDbSymbolTableRecord
100
AcDbLayerTableRecord
  2
DEFAULT_3
 70
0
 62
7
  6
PHANTOM
370
-3
390
F
  0
LAYER
  5
1FD
100
AcDbSymbolTableRecord
100
AcDbLayerTableRecord
  2
00_COMPONENTS
 70
0
 62
7
  6
CONTINUOUS
370
-3
390
F
  0
LAYER
  5
1FE
100
AcDbSymbolTableRecord
100
AcDbLayerTableRecord
  2
01_1_DEFAULT_DATUMS
 70
0
 62
7
  6
CONTINUOUS
370
-3
390
F
  0
LAYER
  5
1FF
100
AcDbSymbolTableRecord
100
AcDbLayerTableRecord
  2
01_PLANES
 70
0
 62
7
  6
CONTINUOUS
370
-3
390
F
  0
LAYER
  5
200
100
AcDbSymbolTableRecord
100
AcDbLayerTableRecord
  2
02_COORD_SYS
 70
0
 62
7
  6
CONTINUOUS
370
-3
390
F
  0
LAYER
  5
201
100
AcDbSymbolTableRecord
100
AcDbLayerTableRecord
  2
03_AXES
 70
0
 62
7
  6
CONTINUOUS
370
-3
390
F
  0
LAYER
  5
202
100
AcDbSymbolTableRecord
100
AcDbLayerTableRecord
  2
04_POINTS
 70
0
 62
7
  6
CONTINUOUS
370
-3
390
F
  0
LAYER
  5
203
100
AcDbSymbolTableRecord
100
AcDbLayerTableRecord
  2
05_CURVES
 70
0
 62
7
  6
CONTINUOUS
370
-3
390
F
  0
LAYER
  5
204
100
AcDbSymbolTableRecord
100
AcDbLayerTableRecord
  2
06_SURFS
 70
0
 62
7
  6
CONTINUOUS
370
-3
390
F
  0
LAYER
  5
205
100
AcDbSymbolTableRecord
100
AcDbLayerTableRecord
  2
07_COSMETICS
 70
0
 62
7
  6
CONTINUOUS
370
-3
390
F
  0
LAYER
  5
206
100
AcDbSymbolTableRecord
100
AcDbLayerTableRecord
  2
10_NOTES
 70
0
 62
7
  6
CONTINUOUS
370
-3
390
F
  0
LAYER
  5
207
100
AcDbSymbolTableRecord
100
AcDbLayerTableRecord
  2
11_NOTES_PUB
 70
0
 62
7
  6
CONTINUOUS
370
-3
390
F
  0
LAYER
  5
208
100
AcDbSymbolTableRecord
100
AcDbLayerTableRecord
  2
13_REF_GTOL
 70
0
 62
7
  6
CONTINUOUS
370
-3
390
F
  0
LAYER
  5
209
100
AcDbSymbolTableRecord
100
AcDbLayerTableRecord
  2
16_MISC
 70
0
 62
7
  6
CONTINUOUS
370
-3
390
F
  0
LAYER
  5
20A
100
AcDbSymbolTableRecord
100
AcDbLayerTableRecord
  2
17_NO_PRINT
 70
0
 62
7
  6
CONTINUOUS
370
-3
390
F
  0
LAYER
  5
20B
100
AcDbSymbolTableRecord
100
AcDbLayerTableRecord
  2
18_DATUM_CAMS_JOINTS
 70
0
 62
7
  6
CONTINUOUS
370
-3
390
F
  0
LAYER
  5
20C
100
AcDbSymbolTableRecord
100
AcDbLayerTableRecord
  2
19_DATUM_FUNCTIONAL
 70
0
 62
7
  6
CONTINUOUS
370
-3
390
F
  0
LAYER
  5
20D
100
AcDbSymbolTableRecord
100
AcDbLayerTableRecord
  2
20_DATUM_KINEMATIC_SCHEME
 70
0
 62
7
  6
CONTINUOUS
370
-3
390
F
  0
ENDTAB
  0
TABLE
  2
STYLE
  5
3
100
AcDbSymbolTable
 70
1
  0
STYLE
  5
11
100
AcDbSymbolTableRecord
100
AcDbTextStyleTableRecord
  2
STANDARD
 70
0
 40
0.0
 41
1.0
 50
0.0
 71
0
 42
0.2
  3
ARIAL.TTF
  4

  0
STYLE
  5
20E
100
AcDbSymbolTableRecord
100
AcDbTextStyleTableRecord
  2
TEXTSTYLE_1
 70
0
 40
0.0
 41
0.8
 50
0.0
 71
0
 42
0.2
  3
gdt
  4

  0
ENDTAB
  0
TABLE
  2
VIEW
  5
6
100
AcDbSymbolTable
 70
0
  0
ENDTAB
  0
TABLE
  2
UCS
  5
7
100
AcDbSymbolTable
 70
0
  0
ENDTAB
  0
TABLE
  2
APPID
  5
9
100
AcDbSymbolTable
 70
1
  0
APPID
  5
20F
100
AcDbSymbolTableRecord
100
AcDbRegAppTableRecord
  2
ACAD
 70
0
  0
ENDTAB
  0
TABLE
  2
BLOCK_RECORD
  5
1
100
AcDbSymbolTable
 70
0
  0
BLOCK_RECORD
  5
210
100
AcDbSymbolTableRecord
100
AcDbBlockTableRecord
  2
*Model_Space
  0
BLOCK_RECORD
  5
211
100
AcDbSymbolTableRecord
100
AcDbBlockTableRecord
  2
*Paper_Space
  0
BLOCK_RECORD
  5
212
100
AcDbSymbolTableRecord
100
AcDbBlockTableRecord
  2
_FILLED
  0
ENDTAB
  0
TABLE
  2
DIMSTYLE
  5
A
100
AcDbSymbolTable
 70
1
100
AcDbDimStyleTable
 71
0
  0
DIMSTYLE
105
213
100
AcDbSymbolTableRecord
100
AcDbDimStyleTableRecord
  2
STANDARD
 70
0
  3

  4

 40
1.0
 41
1.3543531596
 42
1.0
 43
0.38
 44
1.0
 45
0.0
 46
0.0
 47
0.01
 48
0.01
140
1.8960944234
141
0.09
142
0.0
143
25.4
144
1.0
145
0.0
146
1.0
147
0.625
 71
1
 72
0
 73
0
 74
0
 75
0
 76
0
 77
1
 78
8
 79
2
170
0
171
1
172
0
173
0
174
0
175
0
176
0
177
0
178
0
270
2
179
2
271
2
272
2
273
2
274
2
275
0
280
0
281
0
282
0
283
1
284
8
285
0
286
0
287
3
288
0
340
11
278
46
341
212
342
212
343
212
344
212
  0
ENDTAB
  0
ENDSEC
  0
SECTION
  2
BLOCKS
  0
BLOCK
  5
20
100
AcDbEntity
  8
0
100
AcDbBlockBegin
  2
*Model_Space
 70
0
 10
0.0
 20
0.0
 30
0.0
  3
*Model_Space
  1

  0
ENDBLK
  5
21
100
AcDbEntity
  8
0
100
AcDbBlockEnd
  0
BLOCK
  5
1C
100
AcDbEntity
  8
0
100
AcDbBlockBegin
  2
*Paper_Space
 70
0
 10
0.0
 20
0.0
 30
0.0
  3
*Paper_Space
  1

  0
ENDBLK
  5
1D
100
AcDbEntity
  8
0
100
AcDbBlockEnd
  0
BLOCK
  5
214
100
AcDbEntity
  8
0
100
AcDbBlockBegin
  2
_FILLED
 70
64
 10
0.0
 20
0.0
  3
_FILLED
  1

  0
SOLID
  5
215
100
AcDbEntity
  8
0
  6
BYBLOCK
 62
0
100
AcDbTrace
 10
0.0
 20
0.0
 11
-1.0
 21
0.25
 12
-1.0
 22
-0.25
 13
-1.0
 23
-0.25
  0
ENDBLK
  5
216
100
AcDbEntity
  8
0
  6
BYBLOCK
 62
0
100
AcDbBlockEnd
  0
ENDSEC
  0
SECTION
  2
ENTITIES
  0
LINE
  5
217
100
AcDbEntity
  8
0
100
AcDbLine
 62
7
  6
BYLAYER
 10
12.0797692461
 20
52.4924507659
 11
12.0797692461
 21
63.6924507522
  0
LINE
  5
218
100
AcDbEntity
  8
0
100
AcDbLine
 62
7
  6
BYLAYER
 10
12.0797692461
 20
83.3924507549
 11
12.0797692461
 21
109.1924507654
  0
LINE
  5
219
100
AcDbEntity
  8
0
100
AcDbLine
 62
7
  6
BYLAYER
 10
12.1797692461
 20
52.5924507659
 11
12.1797692461
 21
83.3924507511
  0
LINE
  5
21A
100
AcDbEntity
  8
0
100
AcDbLine
 62
7
  6
BYLAYER
 10
13.4149077281
 20
52.5930682141
 11
13.4145013137
 21
74.7415507659
  0
LINE
  5
21B
100
AcDbEntity
  8
0
100
AcDbLine
 62
7
  6
BYLAYER
 10
21.3463013137
 20
74.7415507659
 11
21.3467077281
 21
52.5930682127
  0
LINE
  5
21C
100
AcDbEntity
  8
0
100
AcDbLine
 62
7
  6
BYLAYER
 10
22.3058077226
 20
52.5930682125
 11
22.3054013135
 21
74.7415507659
  0
LINE
  5
21D
100
AcDbEntity
  8
0
100
AcDbLine
 62
7
  6
BYLAYER
 10
13.4148378218
 20
52.5930682128
 11
12.1797692461
 21
52.5924507659
  0
LINE
  5
21E
100
AcDbEntity
  8
0
100
AcDbLine
 62
7
  6
BYLAYER
 10
102.0797692461
 20
52.4924507659
 11
12.0797692461
 21
52.4924507659
  0
LINE
  5
21F
100
AcDbEntity
  8
0
100
AcDbLine
 62
7
  6
BYLAYER
 10
92.8138692461
 20
52.5930681988
 11
91.8547692461
 21
52.593068199
  0
LINE
  5
220
100
AcDbEntity
  8
0
100
AcDbLine
 62
7
  6
BYLAYER
 10
84.1638692461
 20
52.5930682004
 11
83.4457692461
 21
52.5930682005
  0
LINE
  5
221
100
AcDbEntity
  8
0
100
AcDbLine
 62
7
  6
BYLAYER
 10
75.5139692461
 20
52.5930682019
 11
74.7957692461
 21
52.593068202
  0
LINE
  5
222
100
AcDbEntity
  8
0
100
AcDbLine
 62
7
  6
BYLAYER
 10
66.8639692461
 20
52.5930682034
 11
66.1252692461
 21
52.5930682035
  0
LINE
  5
223
100
AcDbEntity
  8
0
100
AcDbLine
 62
7
  6
BYLAYER
 10
58.4343692461
 20
52.5930682049
 11
55.7257745139
 21
52.5930682053
  0
LINE
  5
224
100
AcDbEntity
  8
0
100
AcDbLine
 62
7
  6
BYLAYER
 10
48.0348745139
 20
52.5930682067
 11
47.2961745139
 21
52.5930682068
  0
LINE
  5
225
100
AcDbEntity
  8
0
100
AcDbLine
 62
7
  6
BYLAYER
 10
39.3643745139
 20
52.5930682082
 11
38.6461745139
 21
52.5930682083
  0
LINE
  5
226
100
AcDbEntity
  8
0
100
AcDbLine
 62
7
  6
BYLAYER
 10
30.7143745139
 20
52.5930682097
 11
29.9966378173
 21
52.5930682099
  0
LINE
  5
227
100
AcDbEntity
  8
0
100
AcDbLine
 62
7
  6
BYLAYER
 10
22.3057378173
 20
52.5930682112
 11
21.3466378218
 21
52.5930682114
  0
LINE
  5
228
100
AcDbEntity
  8
0
100
AcDbLine
 62
7
  6
BYLAYER
 10
101.9797692461
 20
52.5924507659
 11
100.7456692461
 21
52.5930681974
  0
LINE
  5
229
100
AcDbEntity
  8
0
100
AcDbLine
 62
7
  6
BYLAYER
 10
29.9963013135
 20
74.7415507659
 11
29.9967077226
 21
52.5930682111
  0
LINE
  5
22A
100
AcDbEntity
  8
0
100
AcDbLine
 62
7
  6
BYLAYER
 10
30.7143745139
 20
52.5930682097
 11
30.7143745139
 21
74.7415507659
  0
LINE
  5
22B
100
AcDbEntity
  8
0
100
AcDbLine
 62
7
  6
BYLAYER
 10
102.0797692461
 20
53.4924507522
 11
101.9797692461
 21
53.4924507522
  0
LINE
  5
22C
100
AcDbEntity
  8
0
100
AcDbLine
 62
7
  6
BYLAYER
 10
12.1797692461
 20
53.4924507522
 11
12.0797692461
 21
53.4924507522
  0
LINE
  5
22D
100
AcDbEntity
  8
0
100
AcDbLine
 62
7
  6
BYLAYER
 10
38.6461745139
 20
74.7415507659
 11
38.6461745139
 21
52.5930682083
  0
LINE
  5
22E
100
AcDbEntity
  8
0
100
AcDbLine
 62
7
  6
BYLAYER
 10
39.3643745139
 20
52.5930682082
 11
39.3643745139
 21
74.7415507659
  0
LINE
  5
22F
100
AcDbEntity
  8
0
100
AcDbLine
 62
7
  6
BYLAYER
 10
100.7456692461
 20
60.4924507659
 11
92.8138692461
 21
60.4924507659
  0
LINE
  5
230
100
AcDbEntity
  8
0
100
AcDbLine
 62
7
  6
BYLAYER
 10
91.8547692461
 20
60.4924507659
 11
84.1638692461
 21
60.4924507659
  0
LINE
  5
231
100
AcDbEntity
  8
0
100
AcDbLine
 62
7
  6
BYLAYER
 10
83.4457692461
 20
60.4924507659
 11
75.5139692461
 21
60.4924507659
  0
LINE
  5
232
100
AcDbEntity
  8
0
100
AcDbLine
 62
7
  6
BYLAYER
 10
74.7957692461
 20
60.4924507659
 11
66.8639692461
 21
60.4924507659
  0
LINE
  5
233
100
AcDbEntity
  8
0
100
AcDbLine
 62
7
  6
BYLAYER
 10
66.1252692461
 20
60.4924507659
 11
58.4343692461
 21
60.4924507659
  0
LINE
  5
234
100
AcDbEntity
  8
0
100
AcDbLine
 62
7
  6
BYLAYER
 10
55.7257745139
 20
60.4924507659
 11
48.0348745139
 21
60.4924507659
  0
LINE
  5
235
100
AcDbEntity
  8
0
100
AcDbLine
 62
7
  6
BYLAYER
 10
47.2961745139
 20
60.4924507659
 11
39.3643745139
 21
60.4924507659
  0
LINE
  5
236
100
AcDbEntity
  8
0
100
AcDbLine
 62
7
  6
BYLAYER
 10
38.6461745139
 20
60.4924507659
 11
30.7143745139
 21
60.4924507659
  0
LINE
  5
237
100
AcDbEntity
  8
0
100
AcDbLine
 62
7
  6
BYLAYER
 10
29.9965868647
 20
60.4924507659
 11
22.3056868647
 21
60.4924507659
  0
LINE
  5
238
100
AcDbEntity
  8
0
100
AcDbLine
 62
7
  6
BYLAYER
 10
21.3465868686
 20
60.4924507659
 11
13.4147868686
 21
60.4924507659
  0
LINE
  5
239
100
AcDbEntity
  8
0
100
AcDbLine
 62
7
  6
BYLAYER
 10
102.0797692461
 20
63.6924507522
 11
101.9797692461
 21
63.6924507522
  0
LINE
  5
23A
100
AcDbEntity
  8
0
100
AcDbLine
 62
7
  6
BYLAYER
 10
12.1797692461
 20
63.6924507522
 11
12.0797692461
 21
63.6924507522
  0
LINE
  5
23B
100
AcDbEntity
  8
0
100
AcDbLine
 62
7
  6
BYLAYER
 10
47.2961745139
 20
74.7415507659
 11
47.2961745139
 21
52.5930682068
  0
LINE
  5
23C
100
AcDbEntity
  8
0
100
AcDbLine
 62
7
  6
BYLAYER
 10
48.0348745139
 20
52.5930682067
 11
48.0348745139
 21
74.7415507659
  0
LINE
  5
23D
100
AcDbEntity
  8
0
100
AcDbLine
 62
7
  6
BYLAYER
 10
50.129740243
 20
101.9798000321
 11
50.1331580743
 21
102.0380615751
  0
LINE
  5
23E
100
AcDbEntity
  8
0
100
AcDbLine
 62
7
  6
BYLAYER
 10
50.8957852345
 20
101.8959438113
 11
50.8957766398
 21
101.192450766
  0
LINE
  5
23F
100
AcDbEntity
  8
0
100
AcDbLine
 62
7
  6
BYLAYER
 10
53.4637147691
 20
101.192450766
 11
53.4637061744
 21
101.8959438166
  0
LINE
  5
240
100
AcDbEntity
  8
0
100
AcDbLine
 62
7
  6
BYLAYER
 10
12.1797692461
 20
74.7415507659
 11
101.9797692461
 21
74.7415507659
  0
LINE
  5
241
100
AcDbEntity
  8
0
100
AcDbLine
 62
7
  6
BYLAYER
 10
12.1797692461
 20
75.5834153543
 11
101.9797692461
 21
75.5834153543
  0
LINE
  5
242
100
AcDbEntity
  8
0
100
AcDbLine
 62
7
  6
BYLAYER
 10
12.1797692461
 20
75.6459456095
 11
101.9797692461
 21
75.6459456095
  0
LINE
  5
243
100
AcDbEntity
  8
0
100
AcDbLine
 62
7
  6
BYLAYER
 10
54.2263221628
 20
102.0382126781
 11
54.2263221628
 21
101.9735200336
  0
LINE
  5
244
100
AcDbEntity
  8
0
100
AcDbLine
 62
7
  6
BYLAYER
 10
55.7257745139
 20
74.7415507659
 11
55.7257745139
 21
52.5930682053
  0
LINE
  5
245
100
AcDbEntity
  8
0
100
AcDbLine
 62
7
  6
BYLAYER
 10
58.4343692461
 20
52.5930682049
 11
58.4343692461
 21
74.7415507659
  0
LINE
  5
246
100
AcDbEntity
  8
0
100
AcDbLine
 62
7
  6
BYLAYER
 10
102.0797692461
 20
83.3924507549
 11
101.9797692461
 21
83.3924507511
  0
LINE
  5
247
100
AcDbEntity
  8
0
100
AcDbLine
 62
7
  6
BYLAYER
 10
12.0797692461
 20
83.3924507522
 11
12.1797692461
 21
83.3924507522
  0
LINE
  5
248
100
AcDbEntity
  8
0
100
AcDbLine
 62
7
  6
BYLAYER
 10
66.1252692461
 20
74.7415507659
 11
66.1252692461
 21
52.5930682035
  0
LINE
  5
249
100
AcDbEntity
  8
0
100
AcDbLine
 62
7
  6
BYLAYER
 10
66.8639692461
 20
52.5930682034
 11
66.8639692461
 21
74.7415507659
  0
LINE
  5
24A
100
AcDbEntity
  8
0
100
AcDbLine
 62
7
  6
BYLAYER
 10
74.7957692461
 20
74.7415507659
 11
74.7957692461
 21
52.593068202
  0
LINE
  5
24B
100
AcDbEntity
  8
0
100
AcDbLine
 62
7
  6
BYLAYER
 10
75.5139692461
 20
52.5930682019
 11
75.5139692461
 21
74.7415507659
  0
LINE
  5
24C
100
AcDbEntity
  8
0
100
AcDbLine
 62
7
  6
BYLAYER
 10
98.4636964046
 20
101.1924507659
 11
95.8957502487
 21
101.1924507659
  0
LINE
  5
24D
100
AcDbEntity
  8
0
100
AcDbLine
 62
7
  6
BYLAYER
 10
53.4637199462
 20
101.1924507659
 11
50.8957737903
 21
101.1924507659
  0
LINE
  5
24E
100
AcDbEntity
  8
0
100
AcDbLine
 62
7
  6
BYLAYER
 10
98.4636826328
 20
101.8959438113
 11
102.0797692461
 21
101.8959483651
  0
LINE
  5
24F
100
AcDbEntity
  8
0
100
AcDbLine
 62
7
  6
BYLAYER
 10
12.0797692461
 20
101.8959483651
 11
50.8957852345
 21
101.8959438113
  0
LINE
  5
250
100
AcDbEntity
  8
0
100
AcDbLine
 62
7
  6
BYLAYER
 10
53.4637061744
 20
101.8959438166
 11
95.8957616929
 21
101.8959438113
  0
LINE
  5
251
100
AcDbEntity
  8
0
100
AcDbLine
 62
7
  6
BYLAYER
 10
12.0797692461
 20
102.2524495699
 11
102.0797692461
 21
102.2524495699
  0
LINE
  5
252
100
AcDbEntity
  8
0
100
AcDbLine
 62
7
  6
BYLAYER
 10
83.4457692461
 20
74.7415507659
 11
83.4457692461
 21
52.5930682005
  0
LINE
  5
253
100
AcDbEntity
  8
0
100
AcDbLine
 62
7
  6
BYLAYER
 10
84.1638692461
 20
52.5930682004
 11
84.1638692461
 21
74.7415507659
  0
LINE
  5
254
100
AcDbEntity
  8
0
100
AcDbLine
 62
7
  6
BYLAYER
 10
12.0797692461
 20
109.1924507654
 11
102.0797692461
 21
109.1924507654
  0
LINE
  5
255
100
AcDbEntity
  8
0
100
AcDbLine
 62
7
  6
BYLAYER
 10
91.8547692461
 20
74.7415507659
 11
91.8547692461
 21
52.593068199
  0
LINE
  5
256
100
AcDbEntity
  8
0
100
AcDbLine
 62
7
  6
BYLAYER
 10
92.8138692461
 20
52.5930681988
 11
92.8138692461
 21
74.7415507659
  0
LINE
  5
257
100
AcDbEntity
  8
0
100
AcDbLine
 62
7
  6
BYLAYER
 10
95.1297221628
 20
101.9797288402
 11
95.1297221628
 21
102.0320088115
  0
LINE
  5
258
100
AcDbEntity
  8
0
100
AcDbLine
 62
7
  6
BYLAYER
 10
95.8957616929
 20
101.8959438113
 11
95.8957530982
 21
101.192450766
  0
LINE
  5
259
100
AcDbEntity
  8
0
100
AcDbLine
 62
7
  6
BYLAYER
 10
98.4636912275
 20
101.192450766
 11
98.4636826328
 21
101.8959438113
  0
LINE
  5
25A
100
AcDbEntity
  8
0
100
AcDbLine
 62
7
  6
BYLAYER
 10
99.2297221628
 20
102.0320086589
 11
99.2297221628
 21
101.9797288402
  0
LINE
  5
25B
100
AcDbEntity
  8
0
100
AcDbLine
 62
7
  6
BYLAYER
 10
100.7456692461
 20
74.7415507659
 11
100.7456692461
 21
52.5930681974
  0
LINE
  5
25C
100
AcDbEntity
  8
0
100
AcDbLine
 62
7
  6
BYLAYER
 10
101.9797692461
 20
52.5924507659
 11
101.9797692461
 21
83.3924507522
  0
LINE
  5
25D
100
AcDbEntity
  8
0
100
AcDbLine
 62
7
  6
BYLAYER
 10
102.0797692461
 20
52.4924507659
 11
102.0797692461
 21
63.6924507522
  0
LINE
  5
25E
100
AcDbEntity
  8
0
100
AcDbLine
 62
7
  6
BYLAYER
 10
102.0797692461
 20
83.3924507522
 11
102.0797692461
 21
109.1924507659
  0
SPLINE
  5
25F
100
AcDbEntity
  8
0
100
AcDbSpline
 62
7
  6
BYLAYER
 70
0
 71
3
 72
29
 73
25
 74
0
 42
0.0000001
 43
0.0000001
 44
0.0000000001
 40
0.0
 40
0.0
 40
0.0
 40
0.0
 40
0.0034966537
 40
0.0110703105
 40
0.023157845
 40
0.0397683812
 40
0.060754473
 40
0.0859319066
 40
0.1479086071
 40
0.2233673387
 40
0.3094413138
 40
0.4028466106
 40
0.4999865192
 40
0.5971261993
 40
0.6905329307
 40
0.7766111068
 40
0.8520757993
 40
0.9140604309
 40
0.9392402096
 40
0.9602287376
 40
0.9768409123
 40
0.9889291392
 40
0.9965032306
 40
1.0
 40
1.0
 40
1.0
 40
1.0
 10
86.5298673991
 20
102.006412893
 30
0.0
 10
86.5298673991
 20
102.0106291302
 30
0.0
 10
86.543897505
 20
102.019439898
 30
0.0
 10
86.5687908158
 20
102.0262540313
 30
0.0
 10
86.612742223
 20
102.0353855411
 30
0.0
 10
86.6716514166
 20
102.0434433172
 30
0.0
 10
86.747074756
 20
102.0517044332
 30
0.0
 10
86.8769242748
 20
102.0628067609
 30
0.0
 10
87.0727108335
 20
102.0747551795
 30
0.0
 10
87.3419704914
 20
102.0860052366
 30
0.0
 10
87.6492736335
 20
102.0944167246
 30
0.0
 10
87.9827827699
 20
102.0996171327
 30
0.0
 10
88.329673017
 20
102.1013739569
 30
0.0
 10
88.6765649953
 20
102.0996178346
 30
0.0
 10
89.0100806721
 20
102.0944189018
 30
0.0
 10
89.3173978306
 20
102.0860080498
 30
0.0
 10
89.5866792775
 20
102.0747573368
 30
0.0
 10
89.782485525
 20
102.0628097368
 30
0.0
 10
89.9123503075
 20
102.051706218
 30
0.0
 10
89.9877814336
 20
102.0434446951
 30
0.0
 10
90.0466962602
 20
102.035386495
 30
0.0
 10
90.0906511646
 20
102.0262542637
 30
0.0
 10
90.1155455589
 20
102.0194399739
 30
0.0
 10
90.1295769265
 20
102.0106292807
 30
0.0
 10
90.1295769265
 20
102.006412904
 30
0.0
  0
SPLINE
  5
260
100
AcDbEntity
  8
0
100
AcDbSpline
 62
7
  6
BYLAYER
 70
0
 71
3
 72
29
 73
25
 74
0
 42
0.0000001
 43
0.0000001
 44
0.0000000001
 40
0.0
 40
0.0
 40
0.0
 40
0.0
 40
0.0034982623
 40
0.0110763842
 40
0.0231604225
 40
0.0397675618
 40
0.0607582585
 40
0.0859317613
 40
0.1479117396
 40
0.2233599991
 40
0.3094409106
 40
0.4028425101
 40
0.4999821787
 40
0.5971223463
 40
0.6905250205
 40
0.776611665
 40
0.8520676859
 40
0.9140565722
 40
0.939233735
 40
0.9602278864
 40
0.9768371543
 40
0.9889224992
 40
0.9965014964
 40
1.0
 40
1.0
 40
1.0
 40
1.0
 10
78.1798378283
 20
102.0019962853
 30
0.0
 10
78.1798378283
 20
102.0055114298
 30
0.0
 10
78.1915519157
 20
102.0128433884
 30
0.0
 10
78.2122891185
 20
102.0185238057
 30
0.0
 10
78.2489159281
 20
102.0261385737
 30
0.0
 10
78.2980022028
 20
102.0328580809
 30
0.0
 10
78.3608533136
 20
102.0397387303
 30
0.0
 10
78.4690643871
 20
102.0489953852
 30
0.0
 10
78.6322094364
 20
102.0589421088
 30
0.0
 10
78.8565914356
 20
102.06832701
 30
0.0
 10
79.1126701779
 20
102.0753314287
 30
0.0
 10
79.3905971938
 20
102.0796640217
 30
0.0
 10
79.6796686926
 20
102.0811339709
 30
0.0
 10
79.9687412841
 20
102.0796654112
 30
0.0
 10
80.2466756413
 20
102.075333095
 30
0.0
 10
80.5027690805
 20
102.0683303385
 30
0.0
 10
80.7271735736
 20
102.0589448705
 30
0.0
 10
80.8903391378
 20
102.048998541
 30
0.0
 10
80.9985662565
 20
102.0397409503
 30
0.0
 10
81.0614267504
 20
102.0328600015
 30
0.0
 10
81.110519744
 20
102.0261397985
 30
0.0
 10
81.1471512555
 20
102.0185245116
 30
0.0
 10
81.1678902068
 20
102.0128439536
 30
0.0
 10
81.1796064973
 20
102.0055121777
 30
0.0
 10
81.1796064973
 20
102.0019967907
 30
0.0
  0
SPLINE
  5
261
100
AcDbEntity
  8
0
100
AcDbSpline
 62
7
  6
BYLAYER
 70
0
 71
3
 72
29
 73
25
 74
0
 42
0.0000001
 43
0.0000001
 44
0.0000000001
 40
0.0
 40
0.0
 40
0.0
 40
0.0
 40
0.0034966537
 40
0.0110703105
 40
0.023157845
 40
0.0397683812
 40
0.060754473
 40
0.0859319066
 40
0.1479086071
 40
0.2233673388
 40
0.3094413138
 40
0.4028466106
 40
0.4999865192
 40
0.5971261993
 40
0.6905329307
 40
0.7766111068
 40
0.8520757992
 40
0.9140604309
 40
0.9392402096
 40
0.9602287375
 40
0.9768409123
 40
0.9889291392
 40
0.9965032306
 40
1.0
 40
1.0
 40
1.0
 40
1.0
 10
69.2264673991
 20
102.006412893
 30
0.0
 10
69.2264673991
 20
102.0106291303
 30
0.0
 10
69.240497505
 20
102.019439898
 30
0.0
 10
69.2653908158
 20
102.0262540313
 30
0.0
 10
69.309342223
 20
102.0353855411
 30
0.0
 10
69.3682514166
 20
102.0434433172
 30
0.0
 10
69.443674756
 20
102.0517044332
 30
0.0
 10
69.5735242748
 20
102.062806761
 30
0.0
 10
69.7693108336
 20
102.0747551795
 30
0.0
 10
70.0385704915
 20
102.0860052366
 30
0.0
 10
70.3458736336
 20
102.0944167246
 30
0.0
 10
70.6793827699
 20
102.0996171327
 30
0.0
 10
71.026273017
 20
102.1013739569
 30
0.0
 10
71.3731649953
 20
102.0996178346
 30
0.0
 10
71.706680672
 20
102.0944189018
 30
0.0
 10
72.0139978305
 20
102.0860080498
 30
0.0
 10
72.2832792775
 20
102.0747573368
 30
0.0
 10
72.4790855249
 20
102.0628097369
 30
0.0
 10
72.6089503074
 20
102.051706218
 30
0.0
 10
72.6843814336
 20
102.0434446952
 30
0.0
 10
72.7432962602
 20
102.035386495
 30
0.0
 10
72.7872511646
 20
102.0262542637
 30
0.0
 10
72.8121455589
 20
102.019439974
 30
0.0
 10
72.8261769266
 20
102.0106292807
 30
0.0
 10
72.8261769266
 20
102.006412904
 30
0.0
  0
SPLINE
  5
262
100
AcDbEntity
  8
0
100
AcDbSpline
 62
7
  6
BYLAYER
 70
0
 71
3
 72
29
 73
25
 74
0
 42
0.0000001
 43
0.0000001
 44
0.0000000001
 40
0.0
 40
0.0
 40
0.0
 40
0.0
 40
0.0034966537
 40
0.0110703105
 40
0.0231578449
 40
0.0397683811
 40
0.060754473
 40
0.0859319066
 40
0.147908607
 40
0.2233673387
 40
0.3094413138
 40
0.4028466106
 40
0.4999865192
 40
0.5971261993
 40
0.6905329307
 40
0.7766111068
 40
0.8520757993
 40
0.9140604309
 40
0.9392402096
 40
0.9602287376
 40
0.9768409123
 40
0.9889291392
 40
0.9965032306
 40
1.0
 40
1.0
 40
1.0
 40
1.0
 10
41.5314144824
 20
102.006412893
 30
0.0
 10
41.5314144824
 20
102.0106291302
 30
0.0
 10
41.5454445883
 20
102.019439898
 30
0.0
 10
41.5703378991
 20
102.0262540313
 30
0.0
 10
41.6142893062
 20
102.0353855411
 30
0.0
 10
41.6731984998
 20
102.0434433172
 30
0.0
 10
41.7486218392
 20
102.0517044332
 30
0.0
 10
41.878471358
 20
102.0628067609
 30
0.0
 10
42.0742579168
 20
102.0747551795
 30
0.0
 10
42.3435175747
 20
102.0860052366
 30
0.0
 10
42.6508207168
 20
102.0944167246
 30
0.0
 10
42.9843298531
 20
102.0996171327
 30
0.0
 10
43.3312201002
 20
102.1013739569
 30
0.0
 10
43.6781120785
 20
102.0996178346
 30
0.0
 10
44.0116277553
 20
102.0944189018
 30
0.0
 10
44.3189449138
 20
102.0860080498
 30
0.0
 10
44.5882263608
 20
102.0747573368
 30
0.0
 10
44.7840326082
 20
102.0628097368
 30
0.0
 10
44.9138973907
 20
102.051706218
 30
0.0
 10
44.9893285169
 20
102.0434446951
 30
0.0
 10
45.0482433434
 20
102.035386495
 30
0.0
 10
45.0921982478
 20
102.0262542637
 30
0.0
 10
45.1170926421
 20
102.0194399739
 30
0.0
 10
45.1311240097
 20
102.0106292807
 30
0.0
 10
45.1311240097
 20
102.006412904
 30
0.0
  0
SPLINE
  5
263
100
AcDbEntity
  8
0
100
AcDbSpline
 62
7
  6
BYLAYER
 70
0
 71
3
 72
29
 73
25
 74
0
 42
0.0000001
 43
0.0000001
 44
0.0000000001
 40
0.0
 40
0.0
 40
0.0
 40
0.0
 40
0.0034982623
 40
0.0110763842
 40
0.0231604225
 40
0.0397675618
 40
0.0607582585
 40
0.0859317613
 40
0.1479117396
 40
0.2233599991
 40
0.3094409106
 40
0.4028425101
 40
0.4999821787
 40
0.5971223463
 40
0.6905250205
 40
0.776611665
 40
0.8520676859
 40
0.9140565722
 40
0.939233735
 40
0.9602278864
 40
0.9768371543
 40
0.9889224992
 40
0.9965014964
 40
1.0
 40
1.0
 40
1.0
 40
1.0
 10
33.1798849115
 20
102.0019962853
 30
0.0
 10
33.1798849115
 20
102.0055114298
 30
0.0
 10
33.1915989989
 20
102.0128433884
 30
0.0
 10
33.2123362017
 20
102.0185238057
 30
0.0
 10
33.2489630113
 20
102.0261385737
 30
0.0
 10
33.298049286
 20
102.0328580809
 30
0.0
 10
33.3609003968
 20
102.0397387303
 30
0.0
 10
33.4691114703
 20
102.0489953852
 30
0.0
 10
33.6322565196
 20
102.0589421088
 30
0.0
 10
33.8566385188
 20
102.06832701
 30
0.0
 10
34.1127172611
 20
102.0753314287
 30
0.0
 10
34.390644277
 20
102.0796640217
 30
0.0
 10
34.6797157759
 20
102.0811339709
 30
0.0
 10
34.9687883673
 20
102.0796654112
 30
0.0
 10
35.2467227246
 20
102.075333095
 30
0.0
 10
35.5028161638
 20
102.0683303385
 30
0.0
 10
35.7272206569
 20
102.0589448705
 30
0.0
 10
35.8903862211
 20
102.048998541
 30
0.0
 10
35.9986133398
 20
102.0397409503
 30
0.0
 10
36.0614738337
 20
102.0328600015
 30
0.0
 10
36.1105668273
 20
102.0261397985
 30
0.0
 10
36.1471983388
 20
102.0185245116
 30
0.0
 10
36.1679372901
 20
102.0128439536
 30
0.0
 10
36.1796535806
 20
102.0055121777
 30
0.0
 10
36.1796535806
 20
102.0019967907
 30
0.0
  0
SPLINE
  5
264
100
AcDbEntity
  8
0
100
AcDbSpline
 62
7
  6
BYLAYER
 70
0
 71
3
 72
29
 73
25
 74
0
 42
0.0000001
 43
0.0000001
 44
0.0000000001
 40
0.0
 40
0.0
 40
0.0
 40
0.0
 40
0.0034966537
 40
0.0110703105
 40
0.023157845
 40
0.0397683812
 40
0.060754473
 40
0.0859319066
 40
0.1479086071
 40
0.2233673387
 40
0.3094413138
 40
0.4028466106
 40
0.4999865192
 40
0.5971261993
 40
0.6905329307
 40
0.7766111068
 40
0.8520757992
 40
0.9140604309
 40
0.9392402096
 40
0.9602287376
 40
0.9768409123
 40
0.9889291392
 40
0.9965032306
 40
1.0
 40
1.0
 40
1.0
 40
1.0
 10
24.2299144824
 20
102.006412893
 30
0.0
 10
24.2299144824
 20
102.0106291303
 30
0.0
 10
24.2439445883
 20
102.019439898
 30
0.0
 10
24.2688378991
 20
102.0262540313
 30
0.0
 10
24.3127893063
 20
102.0353855411
 30
0.0
 10
24.3716984999
 20
102.0434433172
 30
0.0
 10
24.4471218393
 20
102.0517044332
 30
0.0
 10
24.5769713581
 20
102.062806761
 30
0.0
 10
24.7727579168
 20
102.0747551795
 30
0.0
 10
25.0420175747
 20
102.0860052366
 30
0.0
 10
25.3493207168
 20
102.0944167246
 30
0.0
 10
25.6828298531
 20
102.0996171327
 30
0.0
 10
26.0297201002
 20
102.1013739569
 30
0.0
 10
26.3766120785
 20
102.0996178346
 30
0.0
 10
26.7101277553
 20
102.0944189018
 30
0.0
 10
27.0174449138
 20
102.0860080498
 30
0.0
 10
27.2867263607
 20
102.0747573368
 30
0.0
 10
27.4825326081
 20
102.0628097369
 30
0.0
 10
27.6123973907
 20
102.051706218
 30
0.0
 10
27.6878285168
 20
102.0434446952
 30
0.0
 10
27.7467433434
 20
102.035386495
 30
0.0
 10
27.7906982478
 20
102.0262542637
 30
0.0
 10
27.8155926421
 20
102.019439974
 30
0.0
 10
27.8296240097
 20
102.0106292807
 30
0.0
 10
27.8296240097
 20
102.006412904
 30
0.0
  0
SPLINE
  5
265
100
AcDbEntity
  8
0
100
AcDbSpline
 62
7
  6
BYLAYER
 70
0
 71
3
 72
31
 73
27
 74
0
 42
0.0000001
 43
0.0000001
 44
0.0000000001
 40
0.0
 40
0.0
 40
0.0
 40
0.0
 40
0.0034966449
 40
0.0110702826
 40
0.0231577868
 40
0.0397682812
 40
0.0607543204
 40
0.0859316907
 40
0.11508026
 40
0.1479094914
 40
0.2233680336
 40
0.3094417924
 40
0.4028468546
 40
0.4999865192
 40
0.5971259553
 40
0.690532452
 40
0.7766104119
 40
0.8520749148
 40
0.8849084176
 40
0.9140606468
 40
0.9392403622
 40
0.9602288375
 40
0.9768409705
 40
0.988929167
 40
0.9965032394
 40
1.0
 40
1.0
 40
1.0
 40
1.0
 10
60.1264875708
 20
102.0064128926
 30
0.0
 10
60.1264875708
 20
102.0112147183
 30
0.0
 10
60.1424663031
 20
102.0212492032
 30
0.0
 10
60.1708170116
 20
102.0290097512
 30
0.0
 10
60.2208728291
 20
102.0394094723
 30
0.0
 10
60.2879635677
 20
102.0485867054
 30
0.0
 10
60.3738638882
 20
102.0579935011
 30
0.0
 10
60.4768475377
 20
102.0668076961
 30
0.0
 10
60.5962701616
 20
102.0751538929
 30
0.0
 10
60.7846929386
 20
102.0859399845
 30
0.0
 10
61.051392249
 20
102.0970508362
 30
0.0
 10
61.4013639736
 20
102.1066422397
 30
0.0
 10
61.7811975328
 20
102.1125613141
 30
0.0
 10
62.1762661913
 20
102.1145634284
 30
0.0
 10
62.5713368206
 20
102.1125621092
 30
0.0
 10
62.9511778311
 20
102.1066447349
 30
0.0
 10
63.3011655105
 20
102.0970539887
 30
0.0
 10
63.5678846397
 20
102.0859427414
 30
0.0
 10
63.7563265297
 20
102.0751568351
 30
0.0
 10
63.8757633128
 20
102.0668106651
 30
0.0
 10
63.9787584989
 20
102.0579955255
 30
0.0
 10
64.0646676889
 20
102.0485882764
 30
0.0
 10
64.1317648426
 20
102.0394105585
 30
0.0
 10
64.1818246431
 20
102.0290100159
 30
0.0
 10
64.2101765855
 20
102.0212492896
 30
0.0
 10
64.2261567548
 20
102.0112148896
 30
0.0
 10
64.2261567548
 20
102.0064129051
 30
0.0
  0
SPLINE
  5
266
100
AcDbEntity
  8
0
100
AcDbSpline
 62
7
  6
BYLAYER
 70
0
 71
3
 72
31
 73
27
 74
0
 42
0.0000001
 43
0.0000001
 44
0.0000000001
 40
0.0
 40
0.0
 40
0.0
 40
0.0
 40
0.0034966449
 40
0.0110702826
 40
0.0231577868
 40
0.0397682812
 40
0.0607543204
 40
0.0859316907
 40
0.11508026
 40
0.1479094915
 40
0.2233680336
 40
0.3094417924
 40
0.4028468546
 40
0.4999865192
 40
0.5971259552
 40
0.690532452
 40
0.7766104119
 40
0.8520749148
 40
0.8849084176
 40
0.9140606468
 40
0.9392403622
 40
0.9602288375
 40
0.9768409705
 40
0.988929167
 40
0.9965032394
 40
1.0
 40
1.0
 40
1.0
 40
1.0
 10
15.1299346541
 20
102.0064128926
 30
0.0
 10
15.1299346541
 20
102.0112147183
 30
0.0
 10
15.1459133864
 20
102.0212492032
 30
0.0
 10
15.1742640949
 20
102.0290097512
 30
0.0
 10
15.2243199124
 20
102.0394094723
 30
0.0
 10
15.291410651
 20
102.0485867055
 30
0.0
 10
15.3773109715
 20
102.0579935011
 30
0.0
 10
15.480294621
 20
102.0668076961
 30
0.0
 10
15.5997172449
 20
102.0751538929
 30
0.0
 10
15.7881400219
 20
102.0859399845
 30
0.0
 10
16.0548393323
 20
102.0970508362
 30
0.0
 10
16.4048110569
 20
102.1066422397
 30
0.0
 10
16.7846446161
 20
102.1125613141
 30
0.0
 10
17.1797132745
 20
102.1145634284
 30
0.0
 10
17.5747839038
 20
102.1125621092
 30
0.0
 10
17.9546249143
 20
102.1066447349
 30
0.0
 10
18.3046125936
 20
102.0970539887
 30
0.0
 10
18.5713317229
 20
102.0859427414
 30
0.0
 10
18.7597736129
 20
102.0751568351
 30
0.0
 10
18.879210396
 20
102.0668106651
 30
0.0
 10
18.9822055821
 20
102.0579955255
 30
0.0
 10
19.0681147721
 20
102.0485882764
 30
0.0
 10
19.1352119258
 20
102.0394105585
 30
0.0
 10
19.1852717263
 20
102.0290100159
 30
0.0
 10
19.2136236687
 20
102.0212492896
 30
0.0
 10
19.229603838
 20
102.0112148896
 30
0.0
 10
19.229603838
 20
102.0064129051
 30
0.0
  0
SPLINE
  5
267
100
AcDbEntity
  8
0
100
AcDbSpline
 62
7
  6
BYLAYER
 70
0
 71
3
 72
29
 73
25
 74
0
 42
0.0000001
 43
0.0000001
 44
0.0000000001
 40
0.0
 40
0.0
 40
0.0
 40
0.0
 40
0.0054672822
 40
0.0150899534
 40
0.0289237725
 40
0.046891909
 40
0.0688490144
 40
0.094632356
 40
0.1567918899
 40
0.2311785634
 40
0.3151527857
 40
0.4057419046
 40
0.4997027026
 40
0.5936765508
 40
0.6843060072
 40
0.7683467046
 40
0.8428183334
 40
0.9050846182
 40
0.9309346598
 40
0.9529599645
 40
0.9709822047
 40
0.9848456367
 40
0.9944914985
 40
1.0
 40
1.0
 40
1.0
 40
1.0
 10
50.1326002718
 20
102.038062017
 30
0.0
 10
50.1380679989
 20
102.0431740032
 30
0.0
 10
50.1582799628
 20
102.0504729427
 30
0.0
 10
50.1962623722
 20
102.0599007376
 30
0.0
 10
50.2525060949
 20
102.0690756452
 30
0.0
 10
50.3254445765
 20
102.0782402482
 30
0.0
 10
50.4150186275
 20
102.0870375795
 30
0.0
 10
50.564998432
 20
102.0989624989
 30
0.0
 10
50.7869087523
 20
102.1117227611
 30
0.0
 10
51.0885859166
 20
102.1237670686
 30
0.0
 10
51.4293143427
 20
102.1327314743
 30
0.0
 10
51.7969131699
 20
102.1382693646
 30
0.0
 10
52.1782396928
 20
102.1401467906
 30
0.0
 10
52.5596215672
 20
102.138298309
 30
0.0
 10
52.9273849668
 20
102.1327887611
 30
0.0
 10
53.2683765801
 20
102.1238498584
 30
0.0
 10
53.5704086558
 20
102.1118273227
 30
0.0
 10
53.7926732899
 20
102.0990804373
 30
0.0
 10
53.9429871894
 20
102.0871709862
 30
0.0
 10
54.0328196625
 20
102.0783818285
 30
0.0
 10
54.1059756272
 20
102.0692289668
 30
0.0
 10
54.1623506123
 20
102.0600470806
 30
0.0
 10
54.2004986266
 20
102.0506170622
 30
0.0
 10
54.2207492782
 20
102.0432944003
 30
0.0
 10
54.2263221628
 20
102.03821312
 30
0.0
  0
SPLINE
  5
268
100
AcDbEntity
  8
0
100
AcDbSpline
 62
7
  6
BYLAYER
 70
0
 71
3
 72
31
 73
27
 74
0
 42
0.0000001
 43
0.0000001
 44
0.0000000001
 40
0.0
 40
0.0
 40
0.0
 40
0.0
 40
0.0034918113
 40
0.0110680012
 40
0.0231578779
 40
0.0397622502
 40
0.0607371673
 40
0.0859053441
 40
0.1150497848
 40
0.1478785994
 40
0.2233422448
 40
0.3094232342
 40
0.4028380229
 40
0.4999958092
 40
0.5971555477
 40
0.6905759141
 40
0.7766624861
 40
0.8521297816
 40
0.8849581906
 40
0.9141018892
 40
0.9392692357
 40
0.9602419581
 40
0.9768444902
 40
0.9889334077
 40
0.9965085825
 40
1.0
 40
1.0
 40
1.0
 40
1.0
 10
95.1297221628
 20
102.0320088114
 30
0.0
 10
95.1296925917
 20
102.0368043241
 30
0.0
 10
95.1456951155
 20
102.0468684157
 30
0.0
 10
95.1740284898
 20
102.0545979987
 30
0.0
 10
95.2240980026
 20
102.0650121142
 30
0.0
 10
95.2911687957
 20
102.0741886359
 30
0.0
 10
95.3770413234
 20
102.08360232
 30
0.0
 10
95.4799993786
 20
102.0924194514
 30
0.0
 10
95.5994135077
 20
102.1007688841
 30
0.0
 10
95.7878531061
 20
102.111559538
 30
0.0
 10
96.0545918683
 20
102.1226746752
 30
0.0
 10
96.404624154
 20
102.1322704268
 30
0.0
 10
96.7845388412
 20
102.1381918657
 30
0.0
 10
97.1797079115
 20
102.140193973
 30
0.0
 10
97.5748846408
 20
102.1381919878
 30
0.0
 10
97.9548173451
 20
102.1322706958
 30
0.0
 10
98.3048699464
 20
102.1226738235
 30
0.0
 10
98.5716208361
 20
102.1115584702
 30
0.0
 10
98.7600638224
 20
102.1007667353
 30
0.0
 10
98.8794751804
 20
102.0924168
 30
0.0
 10
98.9824281116
 20
102.0836001085
 30
0.0
 10
99.0682938125
 20
102.0741862814
 30
0.0
 10
99.1353579748
 20
102.0650100623
 30
0.0
 10
99.1854217668
 20
102.0545971358
 30
0.0
 10
99.2137532195
 20
102.0468683361
 30
0.0
 10
99.2297518603
 20
102.0368036299
 30
0.0
 10
99.2297221628
 20
102.0320086588
 30
0.0
  0
SPLINE
  5
269
100
AcDbEntity
  8
0
100
AcDbSpline
 62
7
  6
BYLAYER
 70
0
 71
3
 72
15
 73
11
 74
0
 42
0.0000001
 43
0.0000001
 44
0.0000000001
 40
0.0
 40
0.0
 40
0.0
 40
0.0
 40
0.0137438673
 40
0.0340004144
 40
0.0949653793
 40
0.1833422114
 40
0.2985181522
 40
0.4393800783
 40
0.6046658137
 40
1.0
 40
1.0
 40
1.0
 40
1.0
 10
54.2263221628
 20
101.9735200336
 30
0.0
 10
54.2237108786
 20
101.9711541489
 30
0.0
 10
54.2159173247
 20
101.9669146606
 30
0.0
 10
54.1930370544
 20
101.9586867241
 30
0.0
 10
54.1503384203
 20
101.9495474382
 30
0.0
 10
54.0833463507
 20
101.9393100854
 30
0.0
 10
53.995554361
 20
101.9294470605
 30
0.0
 10
53.887956663
 20
101.9199555903
 30
0.0
 10
53.7085409391
 20
101.9073522273
 30
0.0
 10
53.5649725123
 20
101.9002093191
 30
0.0
 10
53.4637061744
 20
101.8959437879
 30
0.0
  0
SPLINE
  5
26A
100
AcDbEntity
  8
0
100
AcDbSpline
 62
7
  6
BYLAYER
 70
0
 71
3
 72
29
 73
25
 74
0
 42
0.0000001
 43
0.0000001
 44
0.0000000001
 40
0.0
 40
0.0
 40
0.0
 40
0.0
 40
0.0034982623
 40
0.0110763842
 40
0.0231604225
 40
0.0397675618
 40
0.0607582585
 40
0.0859317613
 40
0.1479117396
 40
0.2233599991
 40
0.3094409106
 40
0.4028425101
 40
0.4999821787
 40
0.5971223463
 40
0.6905250205
 40
0.776611665
 40
0.8520676859
 40
0.9140565722
 40
0.939233735
 40
0.9602278864
 40
0.9768371543
 40
0.9889224992
 40
0.9965014964
 40
1.0
 40
1.0
 40
1.0
 40
1.0
 10
36.1796535806
 20
102.0019967907
 30
0.0
 10
36.1796535806
 20
101.9984816462
 30
0.0
 10
36.1679394933
 20
101.9911496876
 30
0.0
 10
36.1472022904
 20
101.9854692703
 30
0.0
 10
36.1105754809
 20
101.9778545023
 30
0.0
 10
36.0614892062
 20
101.9711349951
 30
0.0
 10
35.9986380954
 20
101.9642543457
 30
0.0
 10
35.8904270219
 20
101.9549976908
 30
0.0
 10
35.7272819726
 20
101.9450509672
 30
0.0
 10
35.5028999734
 20
101.935666066
 30
0.0
 10
35.2468212311
 20
101.9286616473
 30
0.0
 10
34.9688942152
 20
101.9243290543
 30
0.0
 10
34.6798227163
 20
101.9228591051
 30
0.0
 10
34.3907501248
 20
101.9243276647
 30
0.0
 10
34.1128157675
 20
101.928659981
 30
0.0
 10
33.8567223283
 20
101.9356627375
 30
0.0
 10
33.6323178352
 20
101.9450482055
 30
0.0
 10
33.4691522709
 20
101.954994535
 30
0.0
 10
33.3609251523
 20
101.9642521257
 30
0.0
 10
33.2980646584
 20
101.9711330745
 30
0.0
 10
33.2489716648
 20
101.9778532775
 30
0.0
 10
33.2123401533
 20
101.9854685644
 30
0.0
 10
33.191601202
 20
101.9911491224
 30
0.0
 10
33.1798849115
 20
101.9984808983
 30
0.0
 10
33.1798849115
 20
102.0019962853
 30
0.0
  0
SPLINE
  5
26B
100
AcDbEntity
  8
0
100
AcDbSpline
 62
7
  6
BYLAYER
 70
0
 71
3
 72
29
 73
25
 74
0
 42
0.0000001
 43
0.0000001
 44
0.0000000001
 40
0.0
 40
0.0
 40
0.0
 40
0.0
 40
0.003496653
 40
0.0110703075
 40
0.0231578396
 40
0.0397683743
 40
0.0607544653
 40
0.0859318985
 40
0.1479085987
 40
0.2233673313
 40
0.3094413082
 40
0.4028466077
 40
0.4999865192
 40
0.5971262022
 40
0.6905329362
 40
0.7766111143
 40
0.8520758076
 40
0.914060439
 40
0.9392402173
 40
0.9602287445
 40
0.9768409177
 40
0.9889291421
 40
0.9965032313
 40
1.0
 40
1.0
 40
1.0
 40
1.0
 10
27.8296240097
 20
102.006412904
 30
0.0
 10
27.8296240097
 20
102.0021966676
 30
0.0
 10
27.8155939119
 20
101.9933858983
 30
0.0
 10
27.790700605
 20
101.9865717648
 30
0.0
 10
27.7467492069
 20
101.9774402542
 30
0.0
 10
27.6878400185
 20
101.9693824782
 30
0.0
 10
27.6124166825
 20
101.9611213618
 30
0.0
 10
27.4825671652
 20
101.9500190335
 30
0.0
 10
27.2867806059
 20
101.9380706143
 30
0.0
 10
27.0175209445
 20
101.9268205565
 30
0.0
 10
26.7102177955
 20
101.918409068
 30
0.0
 10
26.3767086497
 20
101.9132086596
 30
0.0
 10
26.0298183919
 20
101.9114518353
 30
0.0
 10
25.6829264029
 20
101.9132079577
 30
0.0
 10
25.3494107167
 20
101.9184068909
 30
0.0
 10
25.0420935513
 20
101.9268177433
 30
0.0
 10
24.7728121008
 20
101.9380684569
 30
0.0
 10
24.5770058528
 20
101.9500160576
 30
0.0
 10
24.4471410718
 20
101.961119577
 30
0.0
 10
24.3717099491
 20
101.9693811002
 30
0.0
 10
24.3127951277
 20
101.9774393003
 30
0.0
 10
24.2688402324
 20
101.9865715324
 30
0.0
 10
24.243945842
 20
101.9933858224
 30
0.0
 10
24.2299144824
 20
102.0021965172
 30
0.0
 10
24.2299144824
 20
102.006412893
 30
0.0
  0
SPLINE
  5
26C
100
AcDbEntity
  8
0
100
AcDbSpline
 62
7
  6
BYLAYER
 70
0
 71
3
 72
31
 73
27
 74
0
 42
0.0000001
 43
0.0000001
 44
0.0000000001
 40
0.0
 40
0.0
 40
0.0
 40
0.0
 40
0.0034966443
 40
0.0110702797
 40
0.0231577815
 40
0.0397682744
 40
0.0607543128
 40
0.0859316827
 40
0.1150802517
 40
0.1479094832
 40
0.2233680262
 40
0.3094417869
 40
0.4028468517
 40
0.4999865192
 40
0.5971259582
 40
0.6905324575
 40
0.7766104193
 40
0.852074923
 40
0.8849084258
 40
0.9140606548
 40
0.9392403699
 40
0.9602288443
 40
0.9768409758
 40
0.9889291699
 40
0.9965032401
 40
1.0
 40
1.0
 40
1.0
 40
1.0
 10
64.2261567548
 20
102.0064129051
 30
0.0
 10
64.2261567548
 20
102.0016110803
 30
0.0
 10
64.2101780317
 20
101.9915765937
 30
0.0
 10
64.1818273276
 20
101.9838160453
 30
0.0
 10
64.1317715203
 20
101.9734163234
 30
0.0
 10
64.0646807875
 20
101.9642390903
 30
0.0
 10
63.978780471
 20
101.9548322942
 30
0.0
 10
63.8757968232
 20
101.9460180989
 30
0.0
 10
63.7563742
 20
101.9376719017
 30
0.0
 10
63.5679514219
 20
101.9268858094
 30
0.0
 10
63.3012521073
 20
101.915774957
 30
0.0
 10
62.9512803749
 20
101.906183553
 30
0.0
 10
62.5714468049
 20
101.9002644783
 30
0.0
 10
62.1763781344
 20
101.8982623639
 30
0.0
 10
61.7813074929
 20
101.9002636831
 30
0.0
 10
61.4014664717
 20
101.9061810578
 30
0.0
 10
61.0514787846
 20
101.9157718045
 30
0.0
 10
60.7847596511
 20
101.9268830525
 30
0.0
 10
60.59631776
 20
101.9376689595
 30
0.0
 10
60.4768809776
 20
101.9460151299
 30
0.0
 10
60.3738857933
 20
101.9548302698
 30
0.0
 10
60.2879766072
 20
101.9642375194
 30
0.0
 10
60.2208794593
 20
101.9734152373
 30
0.0
 10
60.1708196691
 20
101.9838157806
 30
0.0
 10
60.142467731
 20
101.9915765072
 30
0.0
 10
60.1264875708
 20
102.001610909
 30
0.0
 10
60.1264875708
 20
102.0064128926
 30
0.0
  0
SPLINE
  5
26D
100
AcDbEntity
  8
0
100
AcDbSpline
 62
7
  6
BYLAYER
 70
0
 71
3
 72
29
 73
25
 74
0
 42
0.0000001
 43
0.0000001
 44
0.0000000001
 40
0.0
 40
0.0
 40
0.0
 40
0.0
 40
0.003496653
 40
0.0110703075
 40
0.0231578396
 40
0.0397683743
 40
0.0607544654
 40
0.0859318985
 40
0.1479085988
 40
0.2233673313
 40
0.3094413083
 40
0.4028466077
 40
0.4999865192
 40
0.5971262022
 40
0.6905329362
 40
0.7766111142
 40
0.8520758075
 40
0.914060439
 40
0.9392402173
 40
0.9602287444
 40
0.9768409177
 40
0.9889291421
 40
0.9965032313
 40
1.0
 40
1.0
 40
1.0
 40
1.0
 10
90.1295769265
 20
102.006412904
 30
0.0
 10
90.1295769265
 20
102.0021966676
 30
0.0
 10
90.1155468287
 20
101.9933858983
 30
0.0
 10
90.0906535217
 20
101.9865717647
 30
0.0
 10
90.0467021236
 20
101.9774402542
 30
0.0
 10
89.9877929352
 20
101.9693824782
 30
0.0
 10
89.9123695992
 20
101.9611213618
 30
0.0
 10
89.7825200819
 20
101.9500190335
 30
0.0
 10
89.5867335226
 20
101.9380706143
 30
0.0
 10
89.3174738612
 20
101.9268205565
 30
0.0
 10
89.0101707122
 20
101.918409068
 30
0.0
 10
88.6766615664
 20
101.9132086596
 30
0.0
 10
88.3297713087
 20
101.9114518353
 30
0.0
 10
87.9828793197
 20
101.9132079577
 30
0.0
 10
87.6493636335
 20
101.9184068909
 30
0.0
 10
87.3420464681
 20
101.9268177433
 30
0.0
 10
87.0727650176
 20
101.9380684569
 30
0.0
 10
86.8769587697
 20
101.9500160576
 30
0.0
 10
86.7470939886
 20
101.961119577
 30
0.0
 10
86.6716628659
 20
101.9693811002
 30
0.0
 10
86.6127480445
 20
101.9774393003
 30
0.0
 10
86.5687931492
 20
101.9865715324
 30
0.0
 10
86.5438987588
 20
101.9933858223
 30
0.0
 10
86.5298673991
 20
102.0021965172
 30
0.0
 10
86.5298673991
 20
102.006412893
 30
0.0
  0
SPLINE
  5
26E
100
AcDbEntity
  8
0
100
AcDbSpline
 62
7
  6
BYLAYER
 70
0
 71
3
 72
31
 73
27
 74
0
 42
0.0000001
 43
0.0000001
 44
0.0000000001
 40
0.0
 40
0.0
 40
0.0
 40
0.0
 40
0.0034966443
 40
0.0110702797
 40
0.0231577814
 40
0.0397682744
 40
0.0607543127
 40
0.0859316826
 40
0.1150802517
 40
0.1479094832
 40
0.2233680262
 40
0.3094417869
 40
0.4028468517
 40
0.4999865192
 40
0.5971259582
 40
0.6905324575
 40
0.7766104193
 40
0.852074923
 40
0.8849084259
 40
0.9140606548
 40
0.9392403699
 40
0.9602288444
 40
0.9768409758
 40
0.9889291699
 40
0.9965032401
 40
1.0
 40
1.0
 40
1.0
 40
1.0
 10
19.229603838
 20
102.0064129051
 30
0.0
 10
19.229603838
 20
102.0016110803
 30
0.0
 10
19.2136251149
 20
101.9915765937
 30
0.0
 10
19.1852744108
 20
101.9838160454
 30
0.0
 10
19.1352186036
 20
101.9734163234
 30
0.0
 10
19.0681278708
 20
101.9642390903
 30
0.0
 10
18.9822275543
 20
101.9548322943
 30
0.0
 10
18.8792439065
 20
101.9460180989
 30
0.0
 10
18.7598212833
 20
101.9376719017
 30
0.0
 10
18.5713985052
 20
101.9268858094
 30
0.0
 10
18.3046991906
 20
101.915774957
 30
0.0
 10
17.9547274581
 20
101.906183553
 30
0.0
 10
17.5748938882
 20
101.9002644783
 30
0.0
 10
17.1798252176
 20
101.8982623639
 30
0.0
 10
16.7847545762
 20
101.9002636831
 30
0.0
 10
16.4049135549
 20
101.9061810578
 30
0.0
 10
16.0549258678
 20
101.9157718045
 30
0.0
 10
15.7882067343
 20
101.9268830525
 30
0.0
 10
15.5997648432
 20
101.9376689595
 30
0.0
 10
15.4803280608
 20
101.9460151299
 30
0.0
 10
15.3773328765
 20
101.9548302698
 30
0.0
 10
15.2914236904
 20
101.9642375194
 30
0.0
 10
15.2243265425
 20
101.9734152373
 30
0.0
 10
15.1742667523
 20
101.9838157806
 30
0.0
 10
15.1459148143
 20
101.9915765072
 30
0.0
 10
15.1299346541
 20
102.001610909
 30
0.0
 10
15.1299346541
 20
102.0064128926
 30
0.0
  0
SPLINE
  5
26F
100
AcDbEntity
  8
0
100
AcDbSpline
 62
7
  6
BYLAYER
 70
0
 71
3
 72
29
 73
25
 74
0
 42
0.0000001
 43
0.0000001
 44
0.0000000001
 40
0.0
 40
0.0
 40
0.0
 40
0.0
 40
0.0034982623
 40
0.0110763842
 40
0.0231604225
 40
0.0397675617
 40
0.0607582584
 40
0.0859317613
 40
0.1479117396
 40
0.2233599991
 40
0.3094409105
 40
0.4028425101
 40
0.4999821787
 40
0.5971223463
 40
0.6905250206
 40
0.776611665
 40
0.852067686
 40
0.9140565723
 40
0.9392337351
 40
0.9602278865
 40
0.9768371544
 40
0.9889224992
 40
0.9965014964
 40
1.0
 40
1.0
 40
1.0
 40
1.0
 10
81.1796064973
 20
102.0019967907
 30
0.0
 10
81.1796064973
 20
101.9984816462
 30
0.0
 10
81.16789241
 20
101.9911496876
 30
0.0
 10
81.1471552072
 20
101.9854692703
 30
0.0
 10
81.1105283977
 20
101.9778545023
 30
0.0
 10
81.061442123
 20
101.9711349951
 30
0.0
 10
80.9985910122
 20
101.9642543457
 30
0.0
 10
80.8903799387
 20
101.9549976908
 30
0.0
 10
80.7272348894
 20
101.9450509672
 30
0.0
 10
80.5028528902
 20
101.935666066
 30
0.0
 10
80.2467741479
 20
101.9286616473
 30
0.0
 10
79.9688471319
 20
101.9243290543
 30
0.0
 10
79.679775633
 20
101.9228591051
 30
0.0
 10
79.3907030415
 20
101.9243276647
 30
0.0
 10
79.1127686843
 20
101.928659981
 30
0.0
 10
78.856675245
 20
101.9356627375
 30
0.0
 10
78.6322707519
 20
101.9450482055
 30
0.0
 10
78.4691051877
 20
101.954994535
 30
0.0
 10
78.360878069
 20
101.9642521257
 30
0.0
 10
78.2980175751
 20
101.9711330745
 30
0.0
 10
78.2489245815
 20
101.9778532775
 30
0.0
 10
78.2122930701
 20
101.9854685644
 30
0.0
 10
78.1915541188
 20
101.9911491224
 30
0.0
 10
78.1798378283
 20
101.9984808983
 30
0.0
 10
78.1798378283
 20
102.0019962853
 30
0.0
  0
SPLINE
  5
270
100
AcDbEntity
  8
0
100
AcDbSpline
 62
7
  6
BYLAYER
 70
0
 71
3
 72
29
 73
25
 74
0
 42
0.0000001
 43
0.0000001
 44
0.0000000001
 40
0.0
 40
0.0
 40
0.0
 40
0.0
 40
0.003496653
 40
0.0110703075
 40
0.0231578396
 40
0.0397683743
 40
0.0607544653
 40
0.0859318985
 40
0.1479085988
 40
0.2233673313
 40
0.3094413083
 40
0.4028466077
 40
0.4999865192
 40
0.5971262022
 40
0.6905329362
 40
0.7766111143
 40
0.8520758075
 40
0.914060439
 40
0.9392402173
 40
0.9602287444
 40
0.9768409177
 40
0.9889291421
 40
0.9965032313
 40
1.0
 40
1.0
 40
1.0
 40
1.0
 10
72.8261769266
 20
102.006412904
 30
0.0
 10
72.8261769266
 20
102.0021966676
 30
0.0
 10
72.8121468287
 20
101.9933858983
 30
0.0
 10
72.7872535218
 20
101.9865717648
 30
0.0
 10
72.7433021237
 20
101.9774402542
 30
0.0
 10
72.6843929352
 20
101.9693824782
 30
0.0
 10
72.6089695993
 20
101.9611213618
 30
0.0
 10
72.4791200819
 20
101.9500190335
 30
0.0
 10
72.2833335227
 20
101.9380706143
 30
0.0
 10
72.0140738613
 20
101.9268205565
 30
0.0
 10
71.7067707123
 20
101.918409068
 30
0.0
 10
71.3732615665
 20
101.9132086596
 30
0.0
 10
71.0263713087
 20
101.9114518353
 30
0.0
 10
70.6794793197
 20
101.9132079577
 30
0.0
 10
70.3459636334
 20
101.9184068909
 30
0.0
 10
70.038646468
 20
101.9268177433
 30
0.0
 10
69.7693650176
 20
101.9380684569
 30
0.0
 10
69.5735587696
 20
101.9500160576
 30
0.0
 10
69.4436939886
 20
101.961119577
 30
0.0
 10
69.3682628659
 20
101.9693811002
 30
0.0
 10
69.3093480445
 20
101.9774393003
 30
0.0
 10
69.2653931491
 20
101.9865715324
 30
0.0
 10
69.2404987587
 20
101.9933858224
 30
0.0
 10
69.2264673991
 20
102.0021965172
 30
0.0
 10
69.2264673991
 20
102.006412893
 30
0.0
  0
SPLINE
  5
271
100
AcDbEntity
  8
0
100
AcDbSpline
 62
7
  6
BYLAYER
 70
0
 71
3
 72
16
 73
12
 74
0
 42
0.0000001
 43
0.0000001
 44
0.0000000001
 40
0.0
 40
0.0
 40
0.0
 40
0.0
 40
0.2194490972
 40
0.4159017495
 40
0.5864916586
 40
0.7292438686
 40
0.8425335316
 40
0.9252075871
 40
0.9766890729
 40
0.9912457323
 40
1.0
 40
1.0
 40
1.0
 40
1.0
 10
95.8957616929
 20
101.8959437878
 30
0.0
 10
95.8390328388
 20
101.8983333154
 30
0.0
 10
95.7315384689
 20
101.9033522938
 30
0.0
 10
95.5800481922
 20
101.9121643738
 30
0.0
 10
95.4484796705
 20
101.9217691427
 30
0.0
 10
95.3385887717
 20
101.9319753025
 30
0.0
 10
95.2515020822
 20
101.9426393625
 30
0.0
 10
95.1885368053
 20
101.953350431
 30
0.0
 10
95.1509237767
 20
101.9633318251
 30
0.0
 10
95.1337354589
 20
101.9719768349
 30
0.0
 10
95.1297221628
 20
101.9774638049
 30
0.0
 10
95.1297221628
 20
101.9797288402
 30
0.0
  0
SPLINE
  5
272
100
AcDbEntity
  8
0
100
AcDbSpline
 62
7
  6
BYLAYER
 70
0
 71
3
 72
16
 73
12
 74
0
 42
0.0000001
 43
0.0000001
 44
0.0000000001
 40
0.0
 40
0.0
 40
0.0
 40
0.0
 40
0.0087542677
 40
0.0233109272
 40
0.074792413
 40
0.1574664685
 40
0.2707561315
 40
0.4135083415
 40
0.5840982506
 40
0.7805509029
 40
1.0
 40
1.0
 40
1.0
 40
1.0
 10
99.2297221628
 20
101.9797288402
 30
0.0
 10
99.2297221628
 20
101.9774638049
 30
0.0
 10
99.2257088668
 20
101.9719768349
 30
0.0
 10
99.208520549
 20
101.9633318251
 30
0.0
 10
99.1709075204
 20
101.953350431
 30
0.0
 10
99.1079422434
 20
101.9426393625
 30
0.0
 10
99.0208555539
 20
101.9319753025
 30
0.0
 10
98.910964655
 20
101.9217691427
 30
0.0
 10
98.7793961334
 20
101.9121643738
 30
0.0
 10
98.6279058567
 20
101.9033522938
 30
0.0
 10
98.5204114868
 20
101.8983333154
 30
0.0
 10
98.4636826328
 20
101.8959437878
 30
0.0
  0
SPLINE
  5
273
100
AcDbEntity
  8
0
100
AcDbSpline
 62
7
  6
BYLAYER
 70
0
 71
3
 72
16
 73
12
 74
0
 42
0.0000001
 43
0.0000001
 44
0.0000000001
 40
0.0
 40
0.0
 40
0.0
 40
0.0
 40
0.2196964979
 40
0.4163361904
 40
0.5870510194
 40
0.7299210407
 40
0.8433242915
 40
0.925894418
 40
0.9769495917
 40
0.9913110934
 40
1.0
 40
1.0
 40
1.0
 40
1.0
 10
50.8957852345
 20
101.8959437878
 30
0.0
 10
50.8390175279
 20
101.8983349519
 30
0.0
 10
50.7314584835
 20
101.9033569079
 30
0.0
 10
50.579890628
 20
101.9121753835
 30
0.0
 10
50.4482703775
 20
101.9217890899
 30
0.0
 10
50.3383351582
 20
101.9320065536
 30
0.0
 10
50.2512589022
 20
101.942667327
 30
0.0
 10
50.1884170826
 20
101.9533678157
 30
0.0
 10
50.1510374278
 20
101.9633503632
 30
0.0
 10
50.13404132
 20
101.9720529085
 30
0.0
 10
50.1301897041
 20
101.9775539953
 30
0.0
 10
50.1302184244
 20
101.9798009421
 30
0.0
  0
SPLINE
  5
274
100
AcDbEntity
  8
0
100
AcDbSpline
 62
7
  6
BYLAYER
 70
0
 71
3
 72
29
 73
25
 74
0
 42
0.0000001
 43
0.0000001
 44
0.0000000001
 40
0.0
 40
0.0
 40
0.0
 40
0.0
 40
0.003496653
 40
0.0110703075
 40
0.0231578396
 40
0.0397683743
 40
0.0607544653
 40
0.0859318985
 40
0.1479085988
 40
0.2233673313
 40
0.3094413083
 40
0.4028466077
 40
0.4999865192
 40
0.5971262022
 40
0.6905329362
 40
0.7766111142
 40
0.8520758075
 40
0.914060439
 40
0.9392402173
 40
0.9602287444
 40
0.9768409177
 40
0.9889291421
 40
0.9965032313
 40
1.0
 40
1.0
 40
1.0
 40
1.0
 10
45.1311240097
 20
102.006412904
 30
0.0
 10
45.1311240097
 20
102.0021966676
 30
0.0
 10
45.1170939119
 20
101.9933858983
 30
0.0
 10
45.092200605
 20
101.9865717647
 30
0.0
 10
45.0482492068
 20
101.9774402542
 30
0.0
 10
44.9893400184
 20
101.9693824782
 30
0.0
 10
44.9139166824
 20
101.9611213618
 30
0.0
 10
44.7840671651
 20
101.9500190335
 30
0.0
 10
44.5882806059
 20
101.9380706143
 30
0.0
 10
44.3190209445
 20
101.9268205565
 30
0.0
 10
44.0117177954
 20
101.918409068
 30
0.0
 10
43.6782086497
 20
101.9132086596
 30
0.0
 10
43.3313183919
 20
101.9114518353
 30
0.0
 10
42.9844264029
 20
101.9132079577
 30
0.0
 10
42.6509107167
 20
101.9184068909
 30
0.0
 10
42.3435935513
 20
101.9268177433
 30
0.0
 10
42.0743121009
 20
101.9380684569
 30
0.0
 10
41.8785058529
 20
101.9500160576
 30
0.0
 10
41.7486410719
 20
101.961119577
 30
0.0
 10
41.6732099492
 20
101.9693811002
 30
0.0
 10
41.6142951278
 20
101.9774393003
 30
0.0
 10
41.5703402324
 20
101.9865715323
 30
0.0
 10
41.545445842
 20
101.9933858223
 30
0.0
 10
41.5314144824
 20
102.0021965172
 30
0.0
 10
41.5314144824
 20
102.006412893
 30
0.0
  0
ENDSEC
  0
SECTION
  2
OBJECTS
  0
DICTIONARY
  5
C
100
AcDbDictionary
280
0
281
1
  3
ACAD_GROUP
350
D
  3
ACAD_MLINESTYLE
350
17
  3
ACAD_LAYOUT
350
1A
  3
ACAD_PLOTSETTINGS
350
19
  3
ACAD_PLOTSTYLENAME
350
E
  0
DICTIONARY
  5
D
102
{ACAD_REACTORS
330
C
102
}
100
AcDbDictionary
280
0
281
1
  0
ACDBDICTIONARYWDFLT
  5
E
102
{ACAD_REACTORS
330
C
102
}
100
AcDbDictionary
281
1
  3
Normal
350
F
100
AcDbDictionaryWithDefault
340
F
  0
DICTIONARY
  5
17
102
{ACAD_REACTORS
330
C
102
}
100
AcDbDictionary
280
0
281
1
  3
Standard
350
18
  0
DICTIONARY
  5
19
102
{ACAD_REACTORS
330
C
102
}
100
AcDbDictionary
281
1
  0
DICTIONARY
  5
1A
102
{ACAD_REACTORS
330
C
102
}
100
AcDbDictionary
281
1
  3
Model
350
275
  3
Layout1
350
276
  0
ACDBPLACEHOLDER
  5
F
102
{ACAD_REACTORS
330
E
102
}
  0
MLINESTYLE
  5
18
102
{ACAD_REACTORS
330
17
102
}
100
AcDbMlineStyle
  2
STANDARD
 70
0
  3

 62
256
 51
90.0
 52
90.0
 71
2
 49
0.5
 62
256
  6
BYLAYER
 49
-0.5
 62
256
  6
BYLAYER
  0
LAYOUT
  5
275
102
{ACAD_REACTORS
330
1A
102
}
100
AcDbPlotSettings
  1

  2
none_device
  4

  6

 40
0.0
 41
0.0
 42
0.0
 43
0.0
 44
210.0
 45
297.0
 46
0.0
 47
0.0
 48
0.0
 49
0.0
140
0.0
141
0.0
142
1.0
143
1.0
 70
1024
 72
1
 73
0
 74
0
  7

 75
0
147
1.0
148
0.0
149
0.0
100
AcDbLayout
  1
Model
 70
0
 71
0
 10
0.0
 20
0.0
 11
210.0
 21
297.0
 12
0.0
 22
0.0
 32
0.0
 14
0.0
 24
0.0
 34
0.0
 15
0.0
 25
0.0
 35
0.0
146
0.0
 13
0.0
 23
0.0
 33
0.0
 16
1.0
 26
0.0
 36
0.0
 17
0.0
 27
1.0
 37
0.0
 76
0
330
210
345
0
346
0
  0
LAYOUT
  5
276
102
{ACAD_REACTORS
330
1A
102
}
100
AcDbPlotSettings
  1

  2
none_device
  4

  6

 40
0.0
 41
0.0
 42
0.0
 43
0.0
 44
210.0
 45
297.0
 46
0.0
 47
0.0
 48
0.0
 49
0.0
140
0.0
141
0.0
142
1.0
143
1.0
 70
0
 72
1
 73
0
 74
0
  7

 75
0
147
1.0
148
0.0
149
0.0
100
AcDbLayout
  1
Layout1
 70
0
 71
1
 10
0.0
 20
0.0
 11
210.0
 21
297.0
 12
0.0
 22
0.0
 32
0.0
 14
0.0
 24
0.0
 34
0.0
 15
0.0
 25
0.0
 35
0.0
146
0.0
 13
0.0
 23
0.0
 33
0.0
 16
1.0
 26
0.0
 36
0.0
 17
0.0
 27
1.0
 37
0.0
 76
0
330
211
345
0
346
0
  0
ENDSEC
  0
EOF
