999
DXF file: C:\Users\sesa63760\Dev\_Creo\CAD\MCADID0002931_3D-CAD\drw0001_4.dxf
999
Pro/ENGINEER 2019471 by Parametric Technology Corporation
  0
SECTION
  2
HEADER
  9
$ACADVER
  1
AC1024
  9
$DWGCODEPAGE
  3
ANSI_1252
  9
$EXTMAX
 10
30.4959141566
 20
43.1299357357
 30
0.0
  9
$EXTMIN
 10
0.0
 20
0.0
 30
0.0
  9
$LIMMIN
 10
0.0
 20
0.0
  9
$LIMMAX
 10
30.4959141566
 20
43.1299357357
  9
$VIEWCTR
 10
15.2479570783
 20
21.5649678679
  9
$VIEWSIZE
 40
43.1299357357
  9
$CLAYER
  8
0
  9
$LTSCALE
 40
2.811432848
  9
$CELTYPE
  6
BYLAYER
  9
$DIMSCALE
 40
1.0
  9
$DIMASZ
 40
0.3630465971
  9
$DIMEXO
 40
1.0
  9
$DIMDLI
 40
1.9424445131
  9
$DIMEXE
 40
1.0
  9
$DIMCEN
 40
0.4600526478
  9
$DIMLFAC
 40
1.0
  9
$DIMBLK
  1
_FILLED
  9
$DIMALT
 70
0
  9
$DIMALTF
 40
0.0393700787
  9
$DIMTXT
 40
0.5082652359
  9
$DIMTOL
 70
1
  9
$DIMLIM
 70
0
  9
$DIMTFAC
 40
1.0
  9
$DIMTP
 40
0.01
  9
$DIMTM
 40
0.01
  9
$DIMGAP
 40
0.625
  9
$DIMDSEP
 70
46
  9
$AUNITS
 70
0
  9
$PDMODE
 70
3
  9
$PDSIZE
 40
0.3125
  9
$HANDSEED
  5
241
  9
$TILEMODE
 70
1
  9
$MEASUREMENT
 70
1
  9
$INSUNITS
 70
4
  0
ENDSEC
  0
SECTION
  2
CLASSES
  0
CLASS
  1
ACDBDICTIONARYWDFLT
  2
AcDbDictionaryWithDefault
  3
AutoCAD 2000
 90
0
 91
1
280
0
281
0
  0
CLASS
  1
ACDBPLACEHOLDER
  2
AcDbPlaceHolder
  3
AutoCAD 2000
 90
0
 91
1
280
0
281
0
  0
CLASS
  1
LAYOUT
  2
AcDbLayout
  3
AutoCAD 2000
 90
0
 91
0
280
0
281
0
  0
ENDSEC
  0
SECTION
  2
TABLES
  0
TABLE
  2
VPORT
  5
8
100
AcDbSymbolTable
 70
2
  0
VPORT
  5
1F4
100
AcDbSymbolTableRecord
100
AcDbViewportTableRecord
  2
*ACTIVE
 70
0
 10
0.0
 20
0.0
 11
1.0
 21
1.0
 12
15.2479570783
 22
21.5649678679
 13
0.0
 23
0.0
 14
1.0
 24
1.0
 15
0.0
 25
0.0
 16
0.0
 26
0.0
 36
1.0
 17
0.0
 27
0.0
 37
0.0
 40
43.1299357357
 41
0.7070707071
 42
50.0
 43
0.0
 44
0.0
 50
0.0
 51
0.0
 71
0
 72
100
 73
1
 74
1
 75
0
 76
0
 77
0
 78
0
  0
ENDTAB
  0
TABLE
  2
LTYPE
  5
5
100
AcDbSymbolTable
 70
6
  0
LTYPE
  5
14
100
AcDbSymbolTableRecord
100
AcDbLinetypeTableRecord
  2
BYBLOCK
 70
0
  3

 72
65
 73
0
 40
0.0
  0
LTYPE
  5
15
100
AcDbSymbolTableRecord
100
AcDbLinetypeTableRecord
  2
BYLAYER
 70
0
  3

 72
65
 73
0
 40
0.0
  0
LTYPE
  5
16
100
AcDbSymbolTableRecord
100
AcDbLinetypeTableRecord
  2
CONTINUOUS
 70
64
  3
Solid line
 72
65
 73
0
 40
0.0
  0
LTYPE
  5
1F5
100
AcDbSymbolTableRecord
100
AcDbLinetypeTableRecord
  2
CENTER
 70
64
  3
____ _ ____ _ ____ _ ____ _ ____ _ ____ _ ____
 72
65
 73
4
 40
0.6
 49
0.375
 74
0
 49
-0.075
 74
0
 49
0.075
 74
0
 49
-0.075
 74
0
  0
LTYPE
  5
1F6
100
AcDbSymbolTableRecord
100
AcDbLinetypeTableRecord
  2
HIDDEN
 70
64
  3
- - - - - - - - - - - - - - - - - - - -
 72
65
 73
2
 40
0.2
 49
0.1
 74
0
 49
-0.1
 74
0
  0
LTYPE
  5
1F7
100
AcDbSymbolTableRecord
100
AcDbLinetypeTableRecord
  2
PHANTOM
 70
64
  3
_____ _ _ _____ _ _ _____ _ _ _____
 72
65
 73
6
 40
0.8
 49
0.45
 74
0
 49
-0.05
 74
0
 49
0.1
 74
0
 49
-0.05
 74
0
 49
0.1
 74
0
 49
-0.05
 74
0
  0
LTYPE
  5
1F8
100
AcDbSymbolTableRecord
100
AcDbLinetypeTableRecord
  2
DOT
 70
64
  3
. . . . . . . . . . . . . . . . . . . .
 72
65
 73
2
 40
0.2
 49
0.1
 74
0
 49
-0.1
 74
0
  0
LTYPE
  5
1F9
100
AcDbSymbolTableRecord
100
AcDbLinetypeTableRecord
  2
DASHED
 70
64
  3
- - - - - - - - - - - - - - - - - - - -
 72
65
 73
2
 40
0.2
 49
0.1
 74
0
 49
-0.1
 74
0
  0
ENDTAB
  0
TABLE
  2
LAYER
  5
2
100
AcDbSymbolTable
 70
36
  0
LAYER
  5
10
100
AcDbSymbolTableRecord
100
AcDbLayerTableRecord
  2
0
 70
0
 62
7
  6
CONTINUOUS
370
-3
390
F
  0
LAYER
  5
1FA
100
AcDbSymbolTableRecord
100
AcDbLayerTableRecord
  2
DEFAULT_1
 70
0
 62
7
  6
CENTER
370
-3
390
F
  0
LAYER
  5
1FB
100
AcDbSymbolTableRecord
100
AcDbLayerTableRecord
  2
DEFAULT_2
 70
0
 62
7
  6
HIDDEN
370
-3
390
F
  0
LAYER
  5
1FC
100
AcDbSymbolTableRecord
100
AcDbLayerTableRecord
  2
DEFAULT_3
 70
0
 62
7
  6
PHANTOM
370
-3
390
F
  0
LAYER
  5
1FD
100
AcDbSymbolTableRecord
100
AcDbLayerTableRecord
  2
00_COMPONENTS
 70
0
 62
7
  6
CONTINUOUS
370
-3
390
F
  0
LAYER
  5
1FE
100
AcDbSymbolTableRecord
100
AcDbLayerTableRecord
  2
01_1_DEFAULT_DATUMS
 70
0
 62
7
  6
CONTINUOUS
370
-3
390
F
  0
LAYER
  5
1FF
100
AcDbSymbolTableRecord
100
AcDbLayerTableRecord
  2
01_PLANES
 70
0
 62
7
  6
CONTINUOUS
370
-3
390
F
  0
LAYER
  5
200
100
AcDbSymbolTableRecord
100
AcDbLayerTableRecord
  2
02_COORD_SYS
 70
0
 62
7
  6
CONTINUOUS
370
-3
390
F
  0
LAYER
  5
201
100
AcDbSymbolTableRecord
100
AcDbLayerTableRecord
  2
03_AXES
 70
0
 62
7
  6
CONTINUOUS
370
-3
390
F
  0
LAYER
  5
202
100
AcDbSymbolTableRecord
100
AcDbLayerTableRecord
  2
04_POINTS
 70
0
 62
7
  6
CONTINUOUS
370
-3
390
F
  0
LAYER
  5
203
100
AcDbSymbolTableRecord
100
AcDbLayerTableRecord
  2
05_CURVES
 70
0
 62
7
  6
CONTINUOUS
370
-3
390
F
  0
LAYER
  5
204
100
AcDbSymbolTableRecord
100
AcDbLayerTableRecord
  2
06_SURFS
 70
0
 62
7
  6
CONTINUOUS
370
-3
390
F
  0
LAYER
  5
205
100
AcDbSymbolTableRecord
100
AcDbLayerTableRecord
  2
07_COSMETICS
 70
0
 62
7
  6
CONTINUOUS
370
-3
390
F
  0
LAYER
  5
206
100
AcDbSymbolTableRecord
100
AcDbLayerTableRecord
  2
10_NOTES
 70
0
 62
7
  6
CONTINUOUS
370
-3
390
F
  0
LAYER
  5
207
100
AcDbSymbolTableRecord
100
AcDbLayerTableRecord
  2
11_NOTES_PUB
 70
0
 62
7
  6
CONTINUOUS
370
-3
390
F
  0
LAYER
  5
208
100
AcDbSymbolTableRecord
100
AcDbLayerTableRecord
  2
13_REF_GTOL
 70
0
 62
7
  6
CONTINUOUS
370
-3
390
F
  0
LAYER
  5
209
100
AcDbSymbolTableRecord
100
AcDbLayerTableRecord
  2
16_MISC
 70
0
 62
7
  6
CONTINUOUS
370
-3
390
F
  0
LAYER
  5
20A
100
AcDbSymbolTableRecord
100
AcDbLayerTableRecord
  2
17_NO_PRINT
 70
0
 62
7
  6
CONTINUOUS
370
-3
390
F
  0
LAYER
  5
20B
100
AcDbSymbolTableRecord
100
AcDbLayerTableRecord
  2
18_DATUM_CAMS_JOINTS
 70
0
 62
7
  6
CONTINUOUS
370
-3
390
F
  0
LAYER
  5
20C
100
AcDbSymbolTableRecord
100
AcDbLayerTableRecord
  2
19_DATUM_FUNCTIONAL
 70
0
 62
7
  6
CONTINUOUS
370
-3
390
F
  0
LAYER
  5
20D
100
AcDbSymbolTableRecord
100
AcDbLayerTableRecord
  2
20_DATUM_KINEMATIC_SCHEME
 70
0
 62
7
  6
CONTINUOUS
370
-3
390
F
  0
ENDTAB
  0
TABLE
  2
STYLE
  5
3
100
AcDbSymbolTable
 70
1
  0
STYLE
  5
11
100
AcDbSymbolTableRecord
100
AcDbTextStyleTableRecord
  2
STANDARD
 70
0
 40
0.0
 41
1.0
 50
0.0
 71
0
 42
0.2
  3
ARIAL.TTF
  4

  0
STYLE
  5
20E
100
AcDbSymbolTableRecord
100
AcDbTextStyleTableRecord
  2
TEXTSTYLE_1
 70
0
 40
0.0
 41
0.8
 50
0.0
 71
0
 42
0.2
  3
gdt
  4

  0
ENDTAB
  0
TABLE
  2
VIEW
  5
6
100
AcDbSymbolTable
 70
0
  0
ENDTAB
  0
TABLE
  2
UCS
  5
7
100
AcDbSymbolTable
 70
0
  0
ENDTAB
  0
TABLE
  2
APPID
  5
9
100
AcDbSymbolTable
 70
1
  0
APPID
  5
20F
100
AcDbSymbolTableRecord
100
AcDbRegAppTableRecord
  2
ACAD
 70
0
  0
ENDTAB
  0
TABLE
  2
BLOCK_RECORD
  5
1
100
AcDbSymbolTable
 70
0
  0
BLOCK_RECORD
  5
210
100
AcDbSymbolTableRecord
100
AcDbBlockTableRecord
  2
*Model_Space
  0
BLOCK_RECORD
  5
211
100
AcDbSymbolTableRecord
100
AcDbBlockTableRecord
  2
*Paper_Space
  0
BLOCK_RECORD
  5
212
100
AcDbSymbolTableRecord
100
AcDbBlockTableRecord
  2
_FILLED
  0
ENDTAB
  0
TABLE
  2
DIMSTYLE
  5
A
100
AcDbSymbolTable
 70
1
100
AcDbDimStyleTable
 71
0
  0
DIMSTYLE
105
213
100
AcDbSymbolTableRecord
100
AcDbDimStyleTableRecord
  2
STANDARD
 70
0
  3

  4

 40
1.0
 41
0.3630465971
 42
1.0
 43
0.38
 44
1.0
 45
0.0
 46
0.0
 47
0.01
 48
0.01
140
0.5082652359
141
0.09
142
0.0
143
25.4
144
1.0
145
0.0
146
1.0
147
0.625
 71
1
 72
0
 73
0
 74
0
 75
0
 76
0
 77
1
 78
8
 79
2
170
0
171
1
172
0
173
0
174
0
175
0
176
0
177
0
178
0
270
2
179
2
271
2
272
2
273
2
274
2
275
0
280
0
281
0
282
0
283
1
284
8
285
0
286
0
287
3
288
0
340
11
278
46
341
212
342
212
343
212
344
212
  0
ENDTAB
  0
ENDSEC
  0
SECTION
  2
BLOCKS
  0
BLOCK
  5
20
100
AcDbEntity
  8
0
100
AcDbBlockBegin
  2
*Model_Space
 70
0
 10
0.0
 20
0.0
 30
0.0
  3
*Model_Space
  1

  0
ENDBLK
  5
21
100
AcDbEntity
  8
0
100
AcDbBlockEnd
  0
BLOCK
  5
1C
100
AcDbEntity
  8
0
100
AcDbBlockBegin
  2
*Paper_Space
 70
0
 10
0.0
 20
0.0
 30
0.0
  3
*Paper_Space
  1

  0
ENDBLK
  5
1D
100
AcDbEntity
  8
0
100
AcDbBlockEnd
  0
BLOCK
  5
214
100
AcDbEntity
  8
0
100
AcDbBlockBegin
  2
_FILLED
 70
64
 10
0.0
 20
0.0
  3
_FILLED
  1

  0
SOLID
  5
215
100
AcDbEntity
  8
0
  6
BYBLOCK
 62
0
100
AcDbTrace
 10
0.0
 20
0.0
 11
-1.0
 21
0.25
 12
-1.0
 22
-0.25
 13
-1.0
 23
-0.25
  0
ENDBLK
  5
216
100
AcDbEntity
  8
0
  6
BYBLOCK
 62
0
100
AcDbBlockEnd
  0
ENDSEC
  0
SECTION
  2
ENTITIES
  0
LINE
  5
217
100
AcDbEntity
  8
0
100
AcDbLine
 62
7
  6
BYLAYER
 10
24.7163103325
 20
13.8923663203
 11
15.1913103325
 21
13.8923663203
  0
LINE
  5
218
100
AcDbEntity
  8
0
100
AcDbLine
 62
7
  6
BYLAYER
 10
27.8913103325
 20
16.2736163203
 11
12.0163103325
 21
16.2736163203
  0
LINE
  5
219
100
AcDbEntity
  8
0
100
AcDbLine
 62
7
  6
BYLAYER
 10
12.522486937
 20
28.9736163203
 11
12.6052410951
 21
26.9892413203
  0
LINE
  5
21A
100
AcDbEntity
  8
0
100
AcDbLine
 62
7
  6
BYLAYER
 10
12.0163103325
 20
16.2736163203
 11
12.0163103325
 21
22.6236163203
  0
LINE
  5
21B
100
AcDbEntity
  8
0
100
AcDbLine
 62
7
  6
BYLAYER
 10
12.2915012767
 20
28.8258102349
 11
12.2915012767
 21
28.9736163203
  0
LINE
  5
21C
100
AcDbEntity
  8
0
100
AcDbLine
 62
7
  6
BYLAYER
 10
12.6052410951
 20
23.0204913203
 11
12.5886902635
 21
22.6236163203
  0
LINE
  5
21D
100
AcDbEntity
  8
0
100
AcDbLine
 62
7
  6
BYLAYER
 10
15.1913103325
 20
13.8923663203
 11
15.1913103325
 21
16.2736163203
  0
LINE
  5
21E
100
AcDbEntity
  8
0
100
AcDbLine
 62
7
  6
BYLAYER
 10
15.1913103325
 20
22.6236163203
 11
15.1913103325
 21
23.0204913203
  0
LINE
  5
21F
100
AcDbEntity
  8
0
100
AcDbLine
 62
7
  6
BYLAYER
 10
15.1913103325
 20
26.9892413203
 11
15.1913103325
 21
27.5448663203
  0
LINE
  5
220
100
AcDbEntity
  8
0
100
AcDbLine
 62
7
  6
BYLAYER
 10
15.195446243
 20
26.9892413203
 11
15.195446243
 21
23.0204913203
  0
LINE
  5
221
100
AcDbEntity
  8
0
100
AcDbLine
 62
7
  6
BYLAYER
 10
12.0163103325
 20
21.0361163203
 11
7.8865911698
 21
21.0361163203
  0
LINE
  5
222
100
AcDbEntity
  8
0
100
AcDbLine
 62
7
  6
BYLAYER
 10
5.6415271396
 20
21.8298663203
 11
6.3126605227
 21
21.8298663203
  0
LINE
  5
223
100
AcDbEntity
  8
0
100
AcDbLine
 62
7
  6
BYLAYER
 10
12.0163103325
 20
22.6236163203
 11
27.8913103325
 21
22.6236163203
  0
LINE
  5
224
100
AcDbEntity
  8
0
100
AcDbLine
 62
7
  6
BYLAYER
 10
27.3023795699
 20
23.0204913203
 11
24.712174422
 21
23.0204913203
  0
LINE
  5
225
100
AcDbEntity
  8
0
100
AcDbLine
 62
7
  6
BYLAYER
 10
15.195446243
 20
23.0204913203
 11
12.6052410951
 21
23.0204913203
  0
LINE
  5
226
100
AcDbEntity
  8
0
100
AcDbLine
 62
7
  6
BYLAYER
 10
17.8106853325
 20
27.5448663203
 11
17.8106853325
 21
28.1798663203
  0
LINE
  5
227
100
AcDbEntity
  8
0
100
AcDbLine
 62
7
  6
BYLAYER
 10
18.5647478325
 20
28.1798663203
 11
18.5647478325
 21
28.5767413203
  0
LINE
  5
228
100
AcDbEntity
  8
0
100
AcDbLine
 62
7
  6
BYLAYER
 10
21.3428728325
 20
28.5767413203
 11
21.3428728325
 21
28.1798663203
  0
LINE
  5
229
100
AcDbEntity
  8
0
100
AcDbLine
 62
7
  6
BYLAYER
 10
12.6052410951
 20
26.9892413203
 11
15.195446243
 21
26.9892413203
  0
LINE
  5
22A
100
AcDbEntity
  8
0
100
AcDbLine
 62
7
  6
BYLAYER
 10
24.712174422
 20
26.9892413203
 11
27.3023795699
 21
26.9892413203
  0
LINE
  5
22B
100
AcDbEntity
  8
0
100
AcDbLine
 62
7
  6
BYLAYER
 10
22.0969353325
 20
28.1798663203
 11
22.0969353325
 21
27.5448663203
  0
LINE
  5
22C
100
AcDbEntity
  8
0
100
AcDbLine
 62
7
  6
BYLAYER
 10
15.1916395664
 20
27.5448663203
 11
24.7159810986
 21
27.5448663203
  0
LINE
  5
22D
100
AcDbEntity
  8
0
100
AcDbLine
 62
7
  6
BYLAYER
 10
5.6415271396
 20
28.1798663203
 11
6.3129569479
 21
28.1798663203
  0
LINE
  5
22E
100
AcDbEntity
  8
0
100
AcDbLine
 62
7
  6
BYLAYER
 10
17.8106853325
 20
28.1798663203
 11
22.0969353325
 21
28.1798663203
  0
LINE
  5
22F
100
AcDbEntity
  8
0
100
AcDbLine
 62
7
  6
BYLAYER
 10
21.3428728325
 20
28.5767413203
 11
18.5647478325
 21
28.5767413203
  0
LINE
  5
230
100
AcDbEntity
  8
0
100
AcDbLine
 62
7
  6
BYLAYER
 10
7.8865911698
 20
28.9736163203
 11
27.8913102157
 21
28.9736163203
  0
LINE
  5
231
100
AcDbEntity
  8
0
100
AcDbLine
 62
7
  6
BYLAYER
 10
24.712174422
 20
23.0204913203
 11
24.712174422
 21
26.9892413203
  0
LINE
  5
232
100
AcDbEntity
  8
0
100
AcDbLine
 62
7
  6
BYLAYER
 10
24.7163103325
 20
16.2736163203
 11
24.7163103325
 21
13.8923663203
  0
LINE
  5
233
100
AcDbEntity
  8
0
100
AcDbLine
 62
7
  6
BYLAYER
 10
24.7163103325
 20
22.6236163203
 11
24.7163103325
 21
23.0204913203
  0
LINE
  5
234
100
AcDbEntity
  8
0
100
AcDbLine
 62
7
  6
BYLAYER
 10
24.7163103325
 20
26.9892413203
 11
24.7163103325
 21
27.5448663203
  0
LINE
  5
235
100
AcDbEntity
  8
0
100
AcDbLine
 62
7
  6
BYLAYER
 10
27.3023795699
 20
26.9892413203
 11
27.385133728
 21
28.9736163203
  0
LINE
  5
236
100
AcDbEntity
  8
0
100
AcDbLine
 62
7
  6
BYLAYER
 10
27.3189304015
 20
22.6236163203
 11
27.3023795699
 21
23.0204913203
  0
LINE
  5
237
100
AcDbEntity
  8
0
100
AcDbLine
 62
7
  6
BYLAYER
 10
27.8844171484
 20
28.9736163203
 11
27.8844171484
 21
22.6236163203
  0
LINE
  5
238
100
AcDbEntity
  8
0
100
AcDbLine
 62
7
  6
BYLAYER
 10
27.8913103325
 20
16.2736163203
 11
27.8913103325
 21
28.9736163203
  0
SPLINE
  5
239
100
AcDbEntity
  8
0
100
AcDbSpline
 62
7
  6
BYLAYER
 70
0
 71
3
 72
18
 73
14
 74
0
 42
0.0000001
 43
0.0000001
 44
0.0000000001
 40
0.0
 40
0.0
 40
0.0
 40
0.0
 40
0.0514864876
 40
0.1034618942
 40
0.1563834534
 40
0.2106474078
 40
0.2665776667
 40
0.3243987445
 40
0.4460526884
 40
0.5759033775
 40
0.7128600419
 40
0.8550931902
 40
1.0
 40
1.0
 40
1.0
 40
1.0
 10
5.6415271392
 20
21.8299079548
 30
0.0
 10
5.5680019339
 20
21.8299071963
 30
0.0
 10
5.4200474118
 20
21.8401864562
 30
0.0
 10
5.2008903709
 20
21.8864364064
 30
0.0
 10
4.9861269152
 20
21.9628429042
 30
0.0
 10
4.7779213622
 20
22.0686330093
 30
0.0
 10
4.5782992939
 20
22.2027586349
 30
0.0
 10
4.3217566813
 20
22.4209462042
 30
0.0
 10
4.0335942858
 20
22.7600062562
 30
0.0
 10
3.7564582093
 20
23.2435709927
 30
0.0
 10
3.5509689428
 20
23.7929218838
 30
0.0
 10
3.4248146016
 20
24.3873010571
 30
0.0
 10
3.3964631093
 20
24.7979323568
 30
0.0
 10
3.3964631093
 20
25.0048663203
 30
0.0
  0
SPLINE
  5
23A
100
AcDbEntity
  8
0
100
AcDbSpline
 62
7
  6
BYLAYER
 70
0
 71
3
 72
18
 73
14
 74
0
 42
0.0000001
 43
0.0000001
 44
0.0000000001
 40
0.0
 40
0.0
 40
0.0
 40
0.0
 40
0.1449080999
 40
0.2871378658
 40
0.4240918194
 40
0.5539396981
 40
0.6755930588
 40
0.7334152748
 40
0.7893469671
 40
0.8436122885
 40
0.8965355968
 40
0.9485122575
 40
1.0
 40
1.0
 40
1.0
 40
1.0
 10
3.3964631093
 20
25.0048663203
 30
0.0
 10
3.3964631093
 20
25.2118021844
 30
0.0
 10
3.4248137327
 20
25.6224307162
 30
0.0
 10
3.550966666
 20
26.2168031569
 30
0.0
 10
3.7564480582
 20
26.7661435803
 30
0.0
 10
4.0335778683
 20
27.2497016771
 30
0.0
 10
4.3217333958
 20
27.5887636025
 30
0.0
 10
4.578275477
 20
27.8069556944
 30
0.0
 10
4.7778970745
 20
27.9410931599
 30
0.0
 10
4.9861123251
 20
28.0468781989
 30
0.0
 10
5.2008774859
 20
28.1232985326
 30
0.0
 10
5.420042565
 20
28.1695426568
 30
0.0
 10
5.5680001219
 20
28.1798239274
 30
0.0
 10
5.6415271399
 20
28.1798246859
 30
0.0
  0
SPLINE
  5
23B
100
AcDbEntity
  8
0
100
AcDbSpline
 62
7
  6
BYLAYER
 70
0
 71
3
 72
27
 73
23
 74
0
 42
0.0000001
 43
0.0000001
 44
0.0000000001
 40
0.0
 40
0.0
 40
0.0
 40
0.0
 40
0.0257285927
 40
0.0517374029
 40
0.0782134827
 40
0.1053494037
 40
0.1621421924
 40
0.222980889
 40
0.2879118714
 40
0.3564100845
 40
0.4275170032
 40
0.4999963411
 40
0.5724754859
 40
0.643581969
 40
0.7120802997
 40
0.7770124717
 40
0.8378532434
 40
0.8946479249
 40
0.9217848883
 40
0.9482619309
 40
0.9742712737
 40
1.0
 40
1.0
 40
1.0
 40
1.0
 10
7.8865911698
 20
21.0361163203
 30
0.0
 10
7.7947536092
 20
21.0361163203
 30
0.0
 10
7.6098336709
 20
21.0491043553
 30
0.0
 10
7.3358376585
 20
21.1067569586
 30
0.0
 10
7.0672776726
 20
21.202323112
 30
0.0
 10
6.7151257322
 20
21.3812703105
 30
0.0
 10
6.3013163781
 20
21.6990048918
 30
0.0
 10
5.8768026666
 20
22.1987082355
 30
0.0
 10
5.5301616846
 20
22.8032992665
 30
0.0
 10
5.2734635142
 20
23.4898760158
 30
0.0
 10
5.1156579347
 20
24.2329510775
 30
0.0
 10
5.0624101953
 20
25.004825612
 30
0.0
 10
5.1156459412
 20
25.7766993905
 30
0.0
 10
5.2734391795
 20
26.5197751781
 30
0.0
 10
5.5301269991
 20
27.2063590607
 30
0.0
 10
5.8767634182
 20
27.8109667797
 30
0.0
 10
6.3012812872
 20
28.3106907987
 30
0.0
 10
6.715098768
 20
28.628444479
 30
0.0
 10
7.0672609703
 20
28.8074026681
 30
0.0
 10
7.3358294024
 20
28.9029723843
 30
0.0
 10
7.609830825
 20
28.9606273321
 30
0.0
 10
7.7947531324
 20
28.9736163203
 30
0.0
 10
7.8865911698
 20
28.9736163203
 30
0.0
  0
SPLINE
  5
23C
100
AcDbEntity
  8
0
100
AcDbSpline
 62
7
  6
BYLAYER
 70
0
 71
3
 72
23
 73
19
 74
0
 42
0.0000001
 43
0.0000001
 44
0.0000000001
 40
0.0
 40
0.0
 40
0.0
 40
0.0
 40
0.0539157619
 40
0.1107804051
 40
0.1707998375
 40
0.233857766
 40
0.2995661161
 40
0.3673451067
 40
0.4364785616
 40
0.5061629402
 40
0.5755591435
 40
0.6438493104
 40
0.7102806973
 40
0.7742269849
 40
0.8352351987
 40
0.8930858284
 40
0.9478978221
 40
1.0
 40
1.0
 40
1.0
 40
1.0
 10
12.0091250666
 20
21.3194112864
 30
0.0
 10
11.8707396196
 20
21.3976179862
 30
0.0
 10
11.601784269
 20
21.5867725481
 30
0.0
 10
11.2451245317
 20
21.9452732092
 30
0.0
 10
10.93264699
 20
22.3764062547
 30
0.0
 10
10.6713048488
 20
22.8696778474
 30
0.0
 10
10.4671285357
 20
23.4135427795
 30
0.0
 10
10.3246923254
 20
23.9950515958
 30
0.0
 10
10.2472184989
 20
24.6004642732
 30
0.0
 10
10.2366346235
 20
25.2154629805
 30
0.0
 10
10.2931070034
 20
25.8254686637
 30
0.0
 10
10.4152809129
 20
26.4160512787
 30
0.0
 10
10.6004488163
 20
26.9732213194
 30
0.0
 10
10.844330695
 20
27.4838010703
 30
0.0
 10
11.1412990874
 20
27.9357250605
 30
0.0
 10
11.4849633278
 20
28.3182497254
 30
0.0
 10
11.8674585633
 20
28.6215592753
 30
0.0
 10
12.1487392648
 20
28.7691128081
 30
0.0
 10
12.2915012767
 20
28.8258102349
 30
0.0
  0
SPLINE
  5
23D
100
AcDbEntity
  8
0
100
AcDbSpline
 62
7
  6
BYLAYER
 70
0
 71
3
 72
29
 73
25
 74
0
 42
0.0000001
 43
0.0000001
 44
0.0000000001
 40
0.0
 40
0.0
 40
0.0
 40
0.0
 40
0.0256492825
 40
0.0515706631
 40
0.0779447888
 40
0.1049578458
 40
0.1327766602
 40
0.1615226155
 40
0.2219521249
 40
0.2864134185
 40
0.3544340924
 40
0.4251174217
 40
0.4972892234
 40
0.5696313393
 40
0.6408100945
 40
0.7096037277
 40
0.7750327625
 40
0.8365028861
 40
0.865747778
 40
0.8940264184
 40
0.9214303406
 40
0.9481064521
 40
0.9742355391
 40
1.0
 40
1.0
 40
1.0
 40
1.0
 10
12.1522128273
 20
28.9736163203
 30
0.0
 10
12.0618114094
 20
28.9736163203
 30
0.0
 10
11.8798166474
 20
28.9610354329
 30
0.0
 10
11.610041068
 20
28.9051703962
 30
0.0
 10
11.3454510446
 20
28.8125760166
 30
0.0
 10
11.0887781038
 20
28.6843254206
 30
0.0
 10
10.8423265727
 20
28.521740792
 30
0.0
 10
10.5252116716
 20
28.257025059
 30
0.0
 10
10.1674209656
 20
27.8454042073
 30
0.0
 10
9.8204757697
 20
27.2569772232
 30
0.0
 10
9.5596485319
 20
26.5870399432
 30
0.0
 10
9.3940668955
 20
25.8599108876
 30
0.0
 10
9.3294131164
 20
25.1018278709
 30
0.0
 10
9.3679754869
 20
24.34023892
 30
0.0
 10
9.5083680625
 20
23.6027208805
 30
0.0
 10
9.7457621062
 20
22.9158802673
 30
0.0
 10
10.0718326497
 20
22.3046689062
 30
0.0
 10
10.4144848589
 20
21.8693062463
 30
0.0
 10
10.7219843846
 20
21.5830935707
 30
0.0
 10
10.9623610037
 20
21.4036411249
 30
0.0
 10
11.2141546063
 20
21.2578382872
 30
0.0
 10
11.4750368706
 20
21.1469577634
 30
0.0
 10
11.7425355482
 20
21.0724224855
 30
0.0
 10
11.9243522992
 20
21.0471925717
 30
0.0
 10
12.014940891
 20
21.0408929816
 30
0.0
  0
ELLIPSE
  5
23E
100
AcDbEntity
  8
0
100
AcDbEllipse
 62
7
  6
BYLAYER
 10
12.22546429
 20
25.0048663203
 30
0.0
 11
0.0
 21
3.96875
 31
0.0
 40
0.0615433162
 41
-2.2209405195
 42
-0.2737735155
  0
ENDSEC
  0
SECTION
  2
OBJECTS
  0
DICTIONARY
  5
C
100
AcDbDictionary
280
0
281
1
  3
ACAD_GROUP
350
D
  3
ACAD_MLINESTYLE
350
17
  3
ACAD_LAYOUT
350
1A
  3
ACAD_PLOTSETTINGS
350
19
  3
ACAD_PLOTSTYLENAME
350
E
  0
DICTIONARY
  5
D
102
{ACAD_REACTORS
330
C
102
}
100
AcDbDictionary
280
0
281
1
  0
ACDBDICTIONARYWDFLT
  5
E
102
{ACAD_REACTORS
330
C
102
}
100
AcDbDictionary
281
1
  3
Normal
350
F
100
AcDbDictionaryWithDefault
340
F
  0
DICTIONARY
  5
17
102
{ACAD_REACTORS
330
C
102
}
100
AcDbDictionary
280
0
281
1
  3
Standard
350
18
  0
DICTIONARY
  5
19
102
{ACAD_REACTORS
330
C
102
}
100
AcDbDictionary
281
1
  0
DICTIONARY
  5
1A
102
{ACAD_REACTORS
330
C
102
}
100
AcDbDictionary
281
1
  3
Model
350
23F
  3
Layout1
350
240
  0
ACDBPLACEHOLDER
  5
F
102
{ACAD_REACTORS
330
E
102
}
  0
MLINESTYLE
  5
18
102
{ACAD_REACTORS
330
17
102
}
100
AcDbMlineStyle
  2
STANDARD
 70
0
  3

 62
256
 51
90.0
 52
90.0
 71
2
 49
0.5
 62
256
  6
BYLAYER
 49
-0.5
 62
256
  6
BYLAYER
  0
LAYOUT
  5
23F
102
{ACAD_REACTORS
330
1A
102
}
100
AcDbPlotSettings
  1

  2
none_device
  4

  6

 40
0.0
 41
0.0
 42
0.0
 43
0.0
 44
210.0
 45
297.0
 46
0.0
 47
0.0
 48
0.0
 49
0.0
140
0.0
141
0.0
142
1.0
143
1.0
 70
1024
 72
1
 73
0
 74
0
  7

 75
0
147
1.0
148
0.0
149
0.0
100
AcDbLayout
  1
Model
 70
0
 71
0
 10
0.0
 20
0.0
 11
210.0
 21
297.0
 12
0.0
 22
0.0
 32
0.0
 14
0.0
 24
0.0
 34
0.0
 15
0.0
 25
0.0
 35
0.0
146
0.0
 13
0.0
 23
0.0
 33
0.0
 16
1.0
 26
0.0
 36
0.0
 17
0.0
 27
1.0
 37
0.0
 76
0
330
210
345
0
346
0
  0
LAYOUT
  5
240
102
{ACAD_REACTORS
330
1A
102
}
100
AcDbPlotSettings
  1

  2
none_device
  4

  6

 40
0.0
 41
0.0
 42
0.0
 43
0.0
 44
210.0
 45
297.0
 46
0.0
 47
0.0
 48
0.0
 49
0.0
140
0.0
141
0.0
142
1.0
143
1.0
 70
0
 72
1
 73
0
 74
0
  7

 75
0
147
1.0
148
0.0
149
0.0
100
AcDbLayout
  1
Layout1
 70
0
 71
1
 10
0.0
 20
0.0
 11
210.0
 21
297.0
 12
0.0
 22
0.0
 32
0.0
 14
0.0
 24
0.0
 34
0.0
 15
0.0
 25
0.0
 35
0.0
146
0.0
 13
0.0
 23
0.0
 33
0.0
 16
1.0
 26
0.0
 36
0.0
 17
0.0
 27
1.0
 37
0.0
 76
0
330
211
345
0
346
0
  0
ENDSEC
  0
EOF
