  0
SECTION
  2
HEADER
  9
$ACADVER
  1
AC1009
  9
$DWGCODEPAGE
  3
ansi_1250
  9
$INSBASE
 10
0.0
 20
0.0
 30
0.0
  9
$EXTMIN
 10
-0.6373
 20
-0.67
 30
0.0
  9
$EXTMAX
 10
1.1577
 20
0.963858
 30
0.0
  9
$LIMMIN
 10
0.0
 20
0.0
  9
$LIMMAX
 10
0.0
 20
0.0
  9
$ORTHOMODE
 70
     0
  9
$REGENMODE
 70
     1
  9
$FILLMODE
 70
     1
  9
$QTEXTMODE
 70
     0
  9
$MIRRTEXT
 70
     1
  9
$DRAGMODE
 70
     2
  9
$LTSCALE
 40
1.0
  9
$OSMODE
 70
     0
  9
$ATTMODE
 70
     1
  9
$TEXTSIZE
 40
0.2
  9
$TRACEWID
 40
0.05
  9
$TEXTSTYLE
  7
STANDARD
  9
$CLAYER
  8
0
  9
$CELTYPE
  6
CONTINUOUS
  9
$CECOLOR
 62
   256
  9
$DIMSCALE
 40
1.0
  9
$DIMASZ
 40
0.18
  9
$DIMEXO
 40
0.0625
  9
$DIMDLI
 40
0.38
  9
$DIMRND
 40
0.0
  9
$DIMDLE
 40
0.0
  9
$DIMEXE
 40
0.18
  9
$DIMTP
 40
0.0
  9
$DIMTM
 40
0.0
  9
$DIMTXT
 40
0.18
  9
$DIMCEN
 40
0.09
  9
$DIMTSZ
 40
0.0
  9
$DIMTOL
 70
     0
  9
$DIMLIM
 70
     0
  9
$DIMTIH
 70
     1
  9
$DIMTOH
 70
     1
  9
$DIMSE1
 70
     0
  9
$DIMSE2
 70
     0
  9
$DIMTAD
 70
     0
  9
$DIMZIN
 70
     0
  9
$DIMBLK
  1

  9
$DIMASO
 70
     1
  9
$DIMSHO
 70
     1
  9
$DIMPOST
  1

  9
$DIMAPOST
  1

  9
$DIMALT
 70
     0
  9
$DIMALTD
 70
     2
  9
$DIMALTF
 40
25.4
  9
$DIMLFAC
 40
1.0
  9
$DIMTOFL
 70
     0
  9
$DIMTVP
 40
0.0
  9
$DIMTIX
 70
     0
  9
$DIMSOXD
 70
     0
  9
$DIMSAH
 70
     0
  9
$DIMBLK1
  1

  9
$DIMBLK2
  1

  9
$DIMSTYLE
  2
STANDARD
  9
$DIMCLRD
 70
     0
  9
$DIMCLRE
 70
     0
  9
$DIMCLRT
 70
     0
  9
$DIMTFAC
 40
1.0
  9
$DIMGAP
 40
0.09
  9
$LUNITS
 70
     2
  9
$LUPREC
 70
     4
  9
$AXISMODE
 70
     0
  9
$AXISUNIT
 10
0.0
 20
0.0
  9
$SKETCHINC
 40
0.1
  9
$FILLETRAD
 40
0.0
  9
$AUNITS
 70
     0
  9
$AUPREC
 70
     0
  9
$MENU
  1
acad
  9
$ELEVATION
 40
0.0
  9
$PELEVATION
 40
0.0
  9
$THICKNESS
 40
0.0
  9
$LIMCHECK
 70
     0
  9
$BLIPMODE
 70
     1
  9
$CHAMFERA
 40
0.0
  9
$CHAMFERB
 40
0.0
  9
$SKPOLY
 70
     0
  9
$TDCREATE
 40
0.000000000
  9
$TDUPDATE
 40
0.000000000
  9
$TDINDWG
 40
0.0000000000
  9
$TDUSRTIMER
 40
0.0000000000
  9
$USRTIMER
 70
     1
  9
$ANGBASE
 50
0.0
  9
$ANGDIR
 70
     0
  9
$PDMODE
 70
     0
  9
$PDSIZE
 40
0.0
  9
$PLINEWID
 40
0.0
  9
$COORDS
 70
     0
  9
$SPLFRAME
 70
     0
  9
$SPLINETYPE
 70
     6
  9
$SPLINESEGS
 70
     8
  9
$ATTDIA
 70
     0
  9
$ATTREQ
 70
     1
  9
$HANDLING
 70
     1
  9
$HANDSEED
  5
1F7
  9
$SURFTAB1
 70
     6
  9
$SURFTAB2
 70
     6
  9
$SURFTYPE
 70
     6
  9
$SURFU
 70
     6
  9
$SURFV
 70
     6
  9
$UCSNAME
  2

  9
$UCSORG
 10
0.0
 20
0.0
 30
0.0
  9
$UCSXDIR
 10
1.0
 20
0.0
 30
0.0
  9
$UCSYDIR
 10
0.0
 20
1.0
 30
0.0
  9
$PUCSNAME
  2

  9
$PUCSORG
 10
0.0
 20
0.0
 30
0.0
  9
$PUCSXDIR
 10
1.0
 20
0.0
 30
0.0
  9
$PUCSYDIR
 10
0.0
 20
1.0
 30
0.0
  9
$USERI1
 70
     0
  9
$USERI2
 70
     0
  9
$USERI3
 70
     0
  9
$USERI4
 70
     0
  9
$USERI5
 70
     0
  9
$USERR1
 40
0.0
  9
$USERR2
 40
0.0
  9
$USERR3
 40
0.0
  9
$USERR4
 40
0.0
  9
$USERR5
 40
0.0
  9
$WORLDVIEW
 70
     1
  9
$SHADEDGE
 70
     3
  9
$SHADEDIF
 70
    70
  9
$TILEMODE
 70
     1
  9
$MAXACTVP
 70
    16
  9
$PINSBASE
 10
0.0
 20
0.0
 30
0.0
  9
$PLIMCHECK
 70
     0
  9
$PEXTMIN
 10
1.000000E+20
 20
1.000000E+20
 30
1.000000E+20
  9
$PEXTMAX
 10
-1.000000E+20
 20
-1.000000E+20
 30
-1.000000E+20
  9
$PLIMMIN
 10
0.0
 20
0.0
  9
$PLIMMAX
 10
12.0
 20
9.0
  9
$UNITMODE
 70
     0
  9
$VISRETAIN
 70
     0
  9
$PLINEGEN
 70
     1
  9
$PSLTSCALE
 70
     0
  9
$TREEDEPTH
 70
  3020
  0
ENDSEC
  0
SECTION
  2
TABLES
  0
TABLE
  2
VPORT
 70
     1
  0
VPORT
  2
*ACTIVE
 70
     0
 10
0.0
 20
0.0
 11
1.0
 21
1.0
 12
6.591288
 22
4.579184
 13
0.0
 23
0.0
 14
1.0
 24
1.0
 15
0.0
 25
0.0
 16
0.0
 26
0.0
 36
1.0
 17
0.0
 27
0.0
 37
0.0
 40
9.158369
 41
0.688564
 42
50.0
 43
0.0
 44
0.0
 50
0.0
 51
0.0
 71
     0
 72
   100
 73
     1
 74
     1
 75
     0
 76
     0
 77
     0
 78
     0
  0
ENDTAB
  0
TABLE
  2
LTYPE
 70
     5
  0
LTYPE
  2
CONTINUOUS
 70
    64
  3
Solid line
 72
    65
 73
     0
 40
0.0
  0
LTYPE
  2
CENTER
 70
    64
  3
Center ____ _ ____ _ ____ _ ____ _ ____ _ ____
 72
    65
 73
     4
 40
50.8
 49
31.75
 49
-6.35
 49
6.35
 49
-6.35
  0
LTYPE
  2
HIDDEN
 70
    64
  3
Hidden __ __ __ __ __ __ __ __ __ __ __ __ __ __
 72
    65
 73
     2
 40
9.525
 49
6.35
 49
-3.175
  0
LTYPE
  2
CENTER2
 70
    64
  3
Center (.5x) ___ _ ___ _ ___ _ ___ _ ___ _ ___
 72
    65
 73
     4
 40
28.575
 49
19.05
 49
-3.175
 49
3.175
 49
-3.175
  0
LTYPE
  2
HIDDEN2
 70
    64
  3
Hidden (.5x) _ _ _ _ _ _ _ _ _ _ _ _ _ _ _ _ _
 72
    65
 73
     2
 40
4.7625
 49
3.175
 49
-1.5875
  0
ENDTAB
  0
TABLE
  2
LAYER
 70
     1
  0
LAYER
  2
0
 70
     0
 62
     7
  6
CONTINUOUS
  0
ENDTAB
  0
TABLE
  2
STYLE
 70
     1
  0
STYLE
  2
STANDARD
 70
     0
 40
0.0
 41
1.0
 50
0.0
 71
     0
 42
0.0
  3
txt
  4

  0
ENDTAB
  0
TABLE
  2
VIEW
 70
     0
  0
ENDTAB
  0
TABLE
  2
UCS
 70
     0
  0
ENDTAB
  0
TABLE
  2
APPID
 70
     1
  0
APPID
  2
ACAD
 70
     0
  0
ENDTAB
  0
TABLE
  2
DIMSTYLE
 70
     1
  0
DIMSTYLE
  2
STANDARD
 70
     0
  3

  4

  5

  6

  7

 40
1.0
 41
0.18
 42
0.0625
 43
0.38
 44
0.18
 45
0.0
 46
0.0
 47
0.0
 48
0.0
 71
     0
 72
     0
 73
     1
 74
     1
 75
     0
 76
     0
 77
     0
 78
     0
140
0.18
141
0.09
142
0.0
143
25.4
144
1.0
145
0.0
146
1.0
147
0.09
170
     0
171
     2
172
     0
173
     0
174
     0
175
     0
176
     0
177
     0
178
     0
  0
ENDTAB
  0
ENDSEC
  0
SECTION
  2
BLOCKS
  0
ENDSEC
  0
SECTION
  2
ENTITIES
  0
LINE
  8
0
  6
CONTINUOUS
 62
     7
  5
125
 10
0.314961
 20
-0.276304
 30
0.0
 11
0.314961
 21
-0.608649
 31
0.0
  0
ARC
  8
0
  6
CONTINUOUS
 62
     7
  5
126
 10
-0.018834
 20
0.727625
 30
0.0
 40
0.026906
 50
45.572996
 51
146.418621
  0
ARC
  8
0
  6
CONTINUOUS
 62
     7
  5
127
 10
-0.018834
 20
-0.55
 30
0.0
 40
0.026906
 50
180.0
 51
314.427004
  0
LINE
  8
0
  6
CONTINUOUS
 62
     7
  5
128
 10
-0.045741
 20
0.727622
 30
0.0
 11
-0.045737
 21
0.72805
 31
0.0
  0
LINE
  8
0
  6
CONTINUOUS
 62
     7
  5
129
 10
-0.045737
 20
0.72805
 30
0.0
 11
-0.045727
 21
0.728484
 31
0.0
  0
LINE
  8
0
  6
CONTINUOUS
 62
     7
  5
12A
 10
-0.045727
 20
0.728484
 30
0.0
 11
-0.045709
 21
0.728923
 31
0.0
  0
LINE
  8
0
  6
CONTINUOUS
 62
     7
  5
12B
 10
-0.045709
 20
0.728923
 30
0.0
 11
-0.045684
 21
0.729366
 31
0.0
  0
LINE
  8
0
  6
CONTINUOUS
 62
     7
  5
12C
 10
-0.045684
 20
0.729366
 30
0.0
 11
-0.045651
 21
0.729814
 31
0.0
  0
LINE
  8
0
  6
CONTINUOUS
 62
     7
  5
12D
 10
-0.045651
 20
0.729814
 30
0.0
 11
-0.045611
 21
0.730264
 31
0.0
  0
LINE
  8
0
  6
CONTINUOUS
 62
     7
  5
12E
 10
-0.045611
 20
0.730264
 30
0.0
 11
-0.045562
 21
0.730718
 31
0.0
  0
LINE
  8
0
  6
CONTINUOUS
 62
     7
  5
12F
 10
-0.045562
 20
0.730718
 30
0.0
 11
-0.045505
 21
0.731173
 31
0.0
  0
LINE
  8
0
  6
CONTINUOUS
 62
     7
  5
130
 10
-0.045505
 20
0.731173
 30
0.0
 11
-0.045441
 21
0.731629
 31
0.0
  0
LINE
  8
0
  6
CONTINUOUS
 62
     7
  5
131
 10
-0.045441
 20
0.731629
 30
0.0
 11
-0.045368
 21
0.732085
 31
0.0
  0
LINE
  8
0
  6
CONTINUOUS
 62
     7
  5
132
 10
-0.045368
 20
0.732085
 30
0.0
 11
-0.045287
 21
0.732542
 31
0.0
  0
LINE
  8
0
  6
CONTINUOUS
 62
     7
  5
133
 10
-0.045287
 20
0.732542
 30
0.0
 11
-0.045198
 21
0.732997
 31
0.0
  0
LINE
  8
0
  6
CONTINUOUS
 62
     7
  5
134
 10
-0.045198
 20
0.732997
 30
0.0
 11
-0.045102
 21
0.73345
 31
0.0
  0
LINE
  8
0
  6
CONTINUOUS
 62
     7
  5
135
 10
-0.045102
 20
0.73345
 30
0.0
 11
-0.044998
 21
0.733901
 31
0.0
  0
LINE
  8
0
  6
CONTINUOUS
 62
     7
  5
136
 10
-0.044998
 20
0.733901
 30
0.0
 11
-0.044886
 21
0.734349
 31
0.0
  0
LINE
  8
0
  6
CONTINUOUS
 62
     7
  5
137
 10
-0.044886
 20
0.734349
 30
0.0
 11
-0.044767
 21
0.734793
 31
0.0
  0
LINE
  8
0
  6
CONTINUOUS
 62
     7
  5
138
 10
-0.044767
 20
0.734793
 30
0.0
 11
-0.044642
 21
0.735232
 31
0.0
  0
LINE
  8
0
  6
CONTINUOUS
 62
     7
  5
139
 10
-0.044642
 20
0.735232
 30
0.0
 11
-0.04451
 21
0.735667
 31
0.0
  0
LINE
  8
0
  6
CONTINUOUS
 62
     7
  5
13A
 10
-0.04451
 20
0.735667
 30
0.0
 11
-0.044372
 21
0.736096
 31
0.0
  0
LINE
  8
0
  6
CONTINUOUS
 62
     7
  5
13B
 10
-0.044372
 20
0.736096
 30
0.0
 11
-0.044227
 21
0.736518
 31
0.0
  0
LINE
  8
0
  6
CONTINUOUS
 62
     7
  5
13C
 10
-0.044227
 20
0.736518
 30
0.0
 11
-0.044078
 21
0.736934
 31
0.0
  0
LINE
  8
0
  6
CONTINUOUS
 62
     7
  5
13D
 10
-0.044078
 20
0.736934
 30
0.0
 11
-0.043924
 21
0.737342
 31
0.0
  0
LINE
  8
0
  6
CONTINUOUS
 62
     7
  5
13E
 10
-0.043924
 20
0.737342
 30
0.0
 11
-0.043765
 21
0.737742
 31
0.0
  0
LINE
  8
0
  6
CONTINUOUS
 62
     7
  5
13F
 10
-0.043765
 20
0.737742
 30
0.0
 11
-0.043601
 21
0.738136
 31
0.0
  0
LINE
  8
0
  6
CONTINUOUS
 62
     7
  5
140
 10
-0.043601
 20
0.738136
 30
0.0
 11
-0.043429
 21
0.738532
 31
0.0
  0
LINE
  8
0
  6
CONTINUOUS
 62
     7
  5
141
 10
-0.043429
 20
0.738532
 30
0.0
 11
-0.043249
 21
0.73893
 31
0.0
  0
LINE
  8
0
  6
CONTINUOUS
 62
     7
  5
142
 10
-0.043249
 20
0.73893
 30
0.0
 11
-0.04306
 21
0.73933
 31
0.0
  0
LINE
  8
0
  6
CONTINUOUS
 62
     7
  5
143
 10
-0.04306
 20
0.73933
 30
0.0
 11
-0.042862
 21
0.739731
 31
0.0
  0
LINE
  8
0
  6
CONTINUOUS
 62
     7
  5
144
 10
-0.042862
 20
0.739731
 30
0.0
 11
-0.042655
 21
0.740132
 31
0.0
  0
LINE
  8
0
  6
CONTINUOUS
 62
     7
  5
145
 10
-0.042655
 20
0.740132
 30
0.0
 11
-0.042441
 21
0.740533
 31
0.0
  0
LINE
  8
0
  6
CONTINUOUS
 62
     7
  5
146
 10
-0.042441
 20
0.740533
 30
0.0
 11
-0.042218
 21
0.740932
 31
0.0
  0
LINE
  8
0
  6
CONTINUOUS
 62
     7
  5
147
 10
-0.042218
 20
0.740932
 30
0.0
 11
-0.041987
 21
0.74133
 31
0.0
  0
LINE
  8
0
  6
CONTINUOUS
 62
     7
  5
148
 10
-0.041987
 20
0.74133
 30
0.0
 11
-0.041749
 21
0.741725
 31
0.0
  0
LINE
  8
0
  6
CONTINUOUS
 62
     7
  5
149
 10
-0.041749
 20
0.741725
 30
0.0
 11
-0.041503
 21
0.742117
 31
0.0
  0
LINE
  8
0
  6
CONTINUOUS
 62
     7
  5
14A
 10
-0.041503
 20
0.742117
 30
0.0
 11
-0.04125
 21
0.742505
 31
0.0
  0
LINE
  8
0
  6
CONTINUOUS
 62
     7
  5
14B
 10
-0.04125
 20
-0.600394
 30
0.0
 11
-0.04125
 21
-0.564882
 31
0.0
  0
LINE
  8
0
  6
CONTINUOUS
 62
     7
  5
14C
 10
-0.11
 20
-0.408195
 30
0.0
 11
-0.045741
 21
-0.408195
 31
0.0
  0
LINE
  8
0
  6
CONTINUOUS
 62
     7
  5
14D
 10
-0.045741
 20
-0.544141
 30
0.0
 11
-0.11
 21
-0.544141
 31
0.0
  0
LINE
  8
0
  6
CONTINUOUS
 62
     7
  5
14E
 10
-0.11
 20
-0.600394
 30
0.0
 11
-0.11
 21
-0.544141
 31
0.0
  0
LINE
  8
0
  6
CONTINUOUS
 62
     7
  5
14F
 10
-0.11
 20
-0.544141
 30
0.0
 11
-0.11
 21
-0.408195
 31
0.0
  0
LINE
  8
0
  6
CONTINUOUS
 62
     7
  5
150
 10
-0.04125
 20
0.742505
 30
0.0
 11
-0.04125
 21
0.85
 31
0.0
  0
LINE
  8
0
  6
CONTINUOUS
 62
     7
  5
151
 10
-0.04125
 20
0.85
 30
0.0
 11
-0.11
 21
0.85
 31
0.0
  0
LINE
  8
0
  6
CONTINUOUS
 62
     7
  5
152
 10
-0.11
 20
0.85
 30
0.0
 11
-0.11
 21
0.6
 31
0.0
  0
LINE
  8
0
  6
CONTINUOUS
 62
     7
  5
153
 10
-0.11
 20
0.6
 30
0.0
 11
-0.045741
 21
0.6
 31
0.0
  0
LINE
  8
0
  6
CONTINUOUS
 62
     7
  5
154
 10
-0.04125
 20
0.742507
 30
0.0
 11
-0.04125
 21
0.85
 31
0.0
  0
LINE
  8
0
  6
CONTINUOUS
 62
     7
  5
155
 10
0.0
 20
-0.67
 30
0.0
 11
0.0
 21
-0.57
 31
0.0
  0
LINE
  8
0
  6
CONTINUOUS
 62
     7
  5
156
 10
0.0
 20
0.896929
 30
0.0
 11
0.0
 21
0.963858
 31
0.0
  0
LINE
  8
0
  6
CONTINUOUS
 62
     7
  5
157
 10
0.08
 20
0.963858
 30
0.0
 11
0.08
 21
0.83
 31
0.0
  0
LINE
  8
0
  6
CONTINUOUS
 62
     7
  5
158
 10
0.070866
 20
0.896929
 30
0.0
 11
0.070866
 21
0.784691
 31
0.0
  0
LINE
  8
0
  6
CONTINUOUS
 62
     7
  5
159
 10
0.0
 20
0.896929
 30
0.0
 11
0.070866
 21
0.896929
 31
0.0
  0
LINE
  8
0
  6
CONTINUOUS
 62
     7
  5
15A
 10
0.19685
 20
-0.188386
 30
0.0
 11
0.314961
 21
-0.276304
 31
0.0
  0
LINE
  8
0
  6
CONTINUOUS
 62
     7
  5
15B
 10
0.0
 20
-0.67
 30
0.0
 11
0.0
 21
0.896929
 31
0.0
  0
LINE
  8
0
  6
CONTINUOUS
 62
     7
  5
15C
 10
0.070866
 20
0.784691
 30
0.0
 11
0.19685
 21
0.70039
 31
0.0
  0
LINE
  8
0
  6
CONTINUOUS
 62
     7
  5
15D
 10
0.19685
 20
0.70039
 30
0.0
 11
0.19685
 21
-0.188386
 31
0.0
  0
LINE
  8
0
  6
CONTINUOUS
 62
     7
  5
15E
 10
0.314961
 20
-0.608649
 30
0.0
 11
0.048418
 21
-0.67
 31
0.0
  0
LINE
  8
0
  6
CONTINUOUS
 62
     7
  5
15F
 10
0.048418
 20
-0.67
 30
0.0
 11
0.0
 21
-0.67
 31
0.0
  0
LINE
  8
0
  6
CONTINUOUS
 62
     7
  5
160
 10
0.6087
 20
-0.6299
 30
0.0
 11
0.314961
 21
-0.578106
 31
0.0
  0
LINE
  8
0
  6
CONTINUOUS
 62
     7
  5
161
 10
0.314961
 20
-0.464713
 30
0.0
 11
0.764268
 21
-0.6299
 31
0.0
  0
LINE
  8
0
  6
CONTINUOUS
 62
     7
  5
162
 10
0.19685
 20
0.4799
 30
0.0
 11
0.356268
 21
0.4799
 31
0.0
  0
LINE
  8
0
  6
CONTINUOUS
 62
     7
  5
163
 10
0.19685
 20
0.371492
 30
0.0
 11
0.2287
 21
0.3599
 31
0.0
  0
LINE
  8
0
  6
CONTINUOUS
 62
     7
  5
164
 10
0.2287
 20
-0.212094
 30
0.0
 11
0.2287
 21
0.433
 31
0.0
  0
LINE
  8
0
  6
CONTINUOUS
 62
     7
  5
165
 10
0.314961
 20
-0.507026
 30
0.0
 11
0.536121
 21
-0.546023
 31
0.0
  0
LINE
  8
0
  6
CONTINUOUS
 62
     7
  5
166
 10
0.723638
 20
-0.614962
 30
0.0
 11
0.7087
 21
-0.6299
 31
0.0
  0
LINE
  8
0
  6
CONTINUOUS
 62
     7
  5
167
 10
0.7087
 20
-0.6299
 30
0.0
 11
0.6087
 21
-0.6299
 31
0.0
  0
LINE
  8
0
  6
CONTINUOUS
 62
     7
  5
168
 10
1.1577
 20
0.56691
 30
0.0
 11
1.048598
 21
0.6299
 31
0.0
  0
LINE
  8
0
  6
CONTINUOUS
 62
     7
  5
169
 10
0.764268
 20
0.6299
 30
0.0
 11
0.2287
 21
0.433
 31
0.0
  0
LINE
  8
0
  6
CONTINUOUS
 62
     7
  5
16A
 10
0.764268
 20
0.6299
 30
0.0
 11
1.048598
 21
0.6299
 31
0.0
  0
LINE
  8
0
  6
CONTINUOUS
 62
     7
  5
16B
 10
0.764268
 20
-0.6299
 30
0.0
 11
1.048598
 21
-0.6299
 31
0.0
  0
LINE
  8
0
  6
CONTINUOUS
 62
     7
  5
16C
 10
1.048598
 20
-0.6299
 30
0.0
 11
1.1577
 21
-0.56691
 31
0.0
  0
LINE
  8
0
  6
CONTINUOUS
 62
     7
  5
16D
 10
1.1577
 20
0.56691
 30
0.0
 11
1.1577
 21
-0.56691
 31
0.0
  0
LINE
  8
0
  6
CONTINUOUS
 62
     7
  5
16E
 10
0.19685
 20
0.08268
 30
0.0
 11
0.2287
 21
0.08268
 31
0.0
  0
LINE
  8
0
  6
CONTINUOUS
 62
     7
  5
16F
 10
-0.3069
 20
0.08268
 30
0.0
 11
-0.045741
 21
0.08268
 31
0.0
  0
LINE
  8
0
  6
CONTINUOUS
 62
     7
  5
170
 10
-0.3069
 20
-0.08268
 30
0.0
 11
-0.312575
 21
-0.081994
 31
0.0
  0
LINE
  8
0
  6
CONTINUOUS
 62
     7
  5
171
 10
-0.312575
 20
-0.081994
 30
0.0
 11
-0.317856
 21
-0.080064
 31
0.0
  0
LINE
  8
0
  6
CONTINUOUS
 62
     7
  5
172
 10
-0.317856
 20
-0.080064
 30
0.0
 11
-0.322765
 21
-0.076993
 31
0.0
  0
LINE
  8
0
  6
CONTINUOUS
 62
     7
  5
173
 10
-0.322765
 20
-0.076993
 30
0.0
 11
-0.326925
 21
-0.073204
 31
0.0
  0
LINE
  8
0
  6
CONTINUOUS
 62
     7
  5
174
 10
-0.326925
 20
-0.073204
 30
0.0
 11
-0.330516
 21
-0.068783
 31
0.0
  0
LINE
  8
0
  6
CONTINUOUS
 62
     7
  5
175
 10
-0.330516
 20
-0.068783
 30
0.0
 11
-0.333601
 21
-0.063803
 31
0.0
  0
LINE
  8
0
  6
CONTINUOUS
 62
     7
  5
176
 10
-0.333601
 20
-0.063803
 30
0.0
 11
-0.336032
 21
-0.058771
 31
0.0
  0
LINE
  8
0
  6
CONTINUOUS
 62
     7
  5
177
 10
-0.336032
 20
-0.058771
 30
0.0
 11
-0.337983
 21
-0.053672
 31
0.0
  0
LINE
  8
0
  6
CONTINUOUS
 62
     7
  5
178
 10
-0.337983
 20
-0.053672
 30
0.0
 11
-0.339605
 21
-0.048336
 31
0.0
  0
LINE
  8
0
  6
CONTINUOUS
 62
     7
  5
179
 10
-0.339605
 20
-0.048336
 30
0.0
 11
-0.340928
 21
-0.042811
 31
0.0
  0
LINE
  8
0
  6
CONTINUOUS
 62
     7
  5
17A
 10
-0.340928
 20
-0.042811
 30
0.0
 11
-0.341984
 21
-0.037144
 31
0.0
  0
LINE
  8
0
  6
CONTINUOUS
 62
     7
  5
17B
 10
-0.341984
 20
-0.037144
 30
0.0
 11
-0.342807
 21
-0.031381
 31
0.0
  0
LINE
  8
0
  6
CONTINUOUS
 62
     7
  5
17C
 10
-0.342807
 20
-0.031381
 30
0.0
 11
-0.343428
 21
-0.025567
 31
0.0
  0
LINE
  8
0
  6
CONTINUOUS
 62
     7
  5
17D
 10
-0.343428
 20
-0.025567
 30
0.0
 11
-0.34388
 21
-0.019749
 31
0.0
  0
LINE
  8
0
  6
CONTINUOUS
 62
     7
  5
17E
 10
-0.34388
 20
-0.019749
 30
0.0
 11
-0.34419
 21
-0.013971
 31
0.0
  0
LINE
  8
0
  6
CONTINUOUS
 62
     7
  5
17F
 10
-0.34419
 20
-0.013971
 30
0.0
 11
-0.34438
 21
-0.008278
 31
0.0
  0
LINE
  8
0
  6
CONTINUOUS
 62
     7
  5
180
 10
-0.34438
 20
-0.008278
 30
0.0
 11
-0.344468
 21
-0.002717
 31
0.0
  0
LINE
  8
0
  6
CONTINUOUS
 62
     7
  5
181
 10
-0.344468
 20
-0.002717
 30
0.0
 11
-0.344468
 21
0.002717
 31
0.0
  0
LINE
  8
0
  6
CONTINUOUS
 62
     7
  5
182
 10
-0.344468
 20
0.002717
 30
0.0
 11
-0.34438
 21
0.008278
 31
0.0
  0
LINE
  8
0
  6
CONTINUOUS
 62
     7
  5
183
 10
-0.34438
 20
0.008278
 30
0.0
 11
-0.34419
 21
0.013971
 31
0.0
  0
LINE
  8
0
  6
CONTINUOUS
 62
     7
  5
184
 10
-0.34419
 20
0.013971
 30
0.0
 11
-0.34388
 21
0.019749
 31
0.0
  0
LINE
  8
0
  6
CONTINUOUS
 62
     7
  5
185
 10
-0.34388
 20
0.019749
 30
0.0
 11
-0.343428
 21
0.025567
 31
0.0
  0
LINE
  8
0
  6
CONTINUOUS
 62
     7
  5
186
 10
-0.343428
 20
0.025567
 30
0.0
 11
-0.342807
 21
0.031381
 31
0.0
  0
LINE
  8
0
  6
CONTINUOUS
 62
     7
  5
187
 10
-0.342807
 20
0.031381
 30
0.0
 11
-0.341984
 21
0.037144
 31
0.0
  0
LINE
  8
0
  6
CONTINUOUS
 62
     7
  5
188
 10
-0.341984
 20
0.037144
 30
0.0
 11
-0.340928
 21
0.042811
 31
0.0
  0
LINE
  8
0
  6
CONTINUOUS
 62
     7
  5
189
 10
-0.340928
 20
0.042811
 30
0.0
 11
-0.339605
 21
0.048336
 31
0.0
  0
LINE
  8
0
  6
CONTINUOUS
 62
     7
  5
18A
 10
-0.339605
 20
0.048336
 30
0.0
 11
-0.337983
 21
0.053672
 31
0.0
  0
LINE
  8
0
  6
CONTINUOUS
 62
     7
  5
18B
 10
-0.337983
 20
0.053672
 30
0.0
 11
-0.336032
 21
0.058771
 31
0.0
  0
LINE
  8
0
  6
CONTINUOUS
 62
     7
  5
18C
 10
-0.336032
 20
0.058771
 30
0.0
 11
-0.333601
 21
0.063803
 31
0.0
  0
LINE
  8
0
  6
CONTINUOUS
 62
     7
  5
18D
 10
-0.333601
 20
0.063803
 30
0.0
 11
-0.330516
 21
0.068783
 31
0.0
  0
LINE
  8
0
  6
CONTINUOUS
 62
     7
  5
18E
 10
-0.330516
 20
0.068783
 30
0.0
 11
-0.326925
 21
0.073204
 31
0.0
  0
LINE
  8
0
  6
CONTINUOUS
 62
     7
  5
18F
 10
-0.326925
 20
0.073204
 30
0.0
 11
-0.322765
 21
0.076993
 31
0.0
  0
LINE
  8
0
  6
CONTINUOUS
 62
     7
  5
190
 10
-0.322765
 20
0.076993
 30
0.0
 11
-0.317856
 21
0.080064
 31
0.0
  0
LINE
  8
0
  6
CONTINUOUS
 62
     7
  5
191
 10
-0.317856
 20
0.080064
 30
0.0
 11
-0.312575
 21
0.081994
 31
0.0
  0
LINE
  8
0
  6
CONTINUOUS
 62
     7
  5
192
 10
-0.312575
 20
0.081994
 30
0.0
 11
-0.3069
 21
0.08268
 31
0.0
  0
LINE
  8
0
  6
CONTINUOUS
 62
     7
  5
193
 10
-0.045741
 20
-0.08268
 30
0.0
 11
-0.3069
 21
-0.08268
 31
0.0
  0
LINE
  8
0
  6
CONTINUOUS
 62
     7
  5
194
 10
0.2287
 20
-0.08268
 30
0.0
 11
0.19685
 21
-0.08268
 31
0.0
  0
LINE
  8
0
  6
CONTINUOUS
 62
     7
  5
195
 10
-0.3463
 20
0.0984
 30
0.0
 11
-0.3463
 21
0.07872
 31
0.0
  0
LINE
  8
0
  6
CONTINUOUS
 62
     7
  5
196
 10
-0.3463
 20
0.07872
 30
0.0
 11
-0.3463
 21
-0.07872
 31
0.0
  0
LINE
  8
0
  6
CONTINUOUS
 62
     7
  5
197
 10
-0.3463
 20
-0.07872
 30
0.0
 11
-0.3463
 21
-0.0984
 31
0.0
  0
LINE
  8
0
  6
CONTINUOUS
 62
     7
  5
198
 10
-0.59794
 20
0.07872
 30
0.0
 11
-0.3463
 21
0.07872
 31
0.0
  0
LINE
  8
0
  6
CONTINUOUS
 62
     7
  5
199
 10
-0.6373
 20
0.0
 30
0.0
 11
-0.637268
 21
0.00194
 31
0.0
  0
LINE
  8
0
  6
CONTINUOUS
 62
     7
  5
19A
 10
-0.637268
 20
0.00194
 30
0.0
 11
-0.637174
 21
0.003866
 31
0.0
  0
LINE
  8
0
  6
CONTINUOUS
 62
     7
  5
19B
 10
-0.637174
 20
0.003866
 30
0.0
 11
-0.637018
 21
0.005781
 31
0.0
  0
LINE
  8
0
  6
CONTINUOUS
 62
     7
  5
19C
 10
-0.637018
 20
0.005781
 30
0.0
 11
-0.636802
 21
0.007688
 31
0.0
  0
LINE
  8
0
  6
CONTINUOUS
 62
     7
  5
19D
 10
-0.636802
 20
0.007688
 30
0.0
 11
-0.636526
 21
0.009591
 31
0.0
  0
LINE
  8
0
  6
CONTINUOUS
 62
     7
  5
19E
 10
-0.636526
 20
0.009591
 30
0.0
 11
-0.636192
 21
0.011492
 31
0.0
  0
LINE
  8
0
  6
CONTINUOUS
 62
     7
  5
19F
 10
-0.636192
 20
0.011492
 30
0.0
 11
-0.6358
 21
0.013394
 31
0.0
  0
LINE
  8
0
  6
CONTINUOUS
 62
     7
  5
1A0
 10
-0.6358
 20
0.013394
 30
0.0
 11
-0.63535
 21
0.015299
 31
0.0
  0
LINE
  8
0
  6
CONTINUOUS
 62
     7
  5
1A1
 10
-0.63535
 20
0.015299
 30
0.0
 11
-0.634843
 21
0.017211
 31
0.0
  0
LINE
  8
0
  6
CONTINUOUS
 62
     7
  5
1A2
 10
-0.634843
 20
0.017211
 30
0.0
 11
-0.634278
 21
0.019131
 31
0.0
  0
LINE
  8
0
  6
CONTINUOUS
 62
     7
  5
1A3
 10
-0.634278
 20
0.019131
 30
0.0
 11
-0.633655
 21
0.021063
 31
0.0
  0
LINE
  8
0
  6
CONTINUOUS
 62
     7
  5
1A4
 10
-0.633655
 20
0.021063
 30
0.0
 11
-0.632975
 21
0.02301
 31
0.0
  0
LINE
  8
0
  6
CONTINUOUS
 62
     7
  5
1A5
 10
-0.632975
 20
0.02301
 30
0.0
 11
-0.632236
 21
0.024973
 31
0.0
  0
LINE
  8
0
  6
CONTINUOUS
 62
     7
  5
1A6
 10
-0.632236
 20
0.024973
 30
0.0
 11
-0.631438
 21
0.026955
 31
0.0
  0
LINE
  8
0
  6
CONTINUOUS
 62
     7
  5
1A7
 10
-0.631438
 20
0.026955
 30
0.0
 11
-0.63058
 21
0.02896
 31
0.0
  0
LINE
  8
0
  6
CONTINUOUS
 62
     7
  5
1A8
 10
-0.63058
 20
0.02896
 30
0.0
 11
-0.629661
 21
0.03099
 31
0.0
  0
LINE
  8
0
  6
CONTINUOUS
 62
     7
  5
1A9
 10
-0.629661
 20
0.03099
 30
0.0
 11
-0.62868
 21
0.033047
 31
0.0
  0
LINE
  8
0
  6
CONTINUOUS
 62
     7
  5
1AA
 10
-0.62868
 20
0.033047
 30
0.0
 11
-0.627637
 21
0.035135
 31
0.0
  0
LINE
  8
0
  6
CONTINUOUS
 62
     7
  5
1AB
 10
-0.627637
 20
0.035135
 30
0.0
 11
-0.626528
 21
0.037256
 31
0.0
  0
LINE
  8
0
  6
CONTINUOUS
 62
     7
  5
1AC
 10
-0.626528
 20
0.037256
 30
0.0
 11
-0.625353
 21
0.039414
 31
0.0
  0
LINE
  8
0
  6
CONTINUOUS
 62
     7
  5
1AD
 10
-0.625353
 20
0.039414
 30
0.0
 11
-0.62411
 21
0.041611
 31
0.0
  0
LINE
  8
0
  6
CONTINUOUS
 62
     7
  5
1AE
 10
-0.62411
 20
0.041611
 30
0.0
 11
-0.622796
 21
0.043851
 31
0.0
  0
LINE
  8
0
  6
CONTINUOUS
 62
     7
  5
1AF
 10
-0.622796
 20
0.043851
 30
0.0
 11
-0.621411
 21
0.046138
 31
0.0
  0
LINE
  8
0
  6
CONTINUOUS
 62
     7
  5
1B0
 10
-0.621411
 20
0.046138
 30
0.0
 11
-0.61995
 21
0.048474
 31
0.0
  0
LINE
  8
0
  6
CONTINUOUS
 62
     7
  5
1B1
 10
-0.61995
 20
0.048474
 30
0.0
 11
-0.618411
 21
0.050864
 31
0.0
  0
LINE
  8
0
  6
CONTINUOUS
 62
     7
  5
1B2
 10
-0.618411
 20
0.050864
 30
0.0
 11
-0.616792
 21
0.053312
 31
0.0
  0
LINE
  8
0
  6
CONTINUOUS
 62
     7
  5
1B3
 10
-0.616792
 20
0.053312
 30
0.0
 11
-0.615089
 21
0.055822
 31
0.0
  0
LINE
  8
0
  6
CONTINUOUS
 62
     7
  5
1B4
 10
-0.615089
 20
0.055822
 30
0.0
 11
-0.613298
 21
0.058398
 31
0.0
  0
LINE
  8
0
  6
CONTINUOUS
 62
     7
  5
1B5
 10
-0.613298
 20
0.058398
 30
0.0
 11
-0.611416
 21
0.061044
 31
0.0
  0
LINE
  8
0
  6
CONTINUOUS
 62
     7
  5
1B6
 10
-0.611416
 20
0.061044
 30
0.0
 11
-0.609438
 21
0.063767
 31
0.0
  0
LINE
  8
0
  6
CONTINUOUS
 62
     7
  5
1B7
 10
-0.609438
 20
0.063767
 30
0.0
 11
-0.60736
 21
0.066571
 31
0.0
  0
LINE
  8
0
  6
CONTINUOUS
 62
     7
  5
1B8
 10
-0.60736
 20
0.066571
 30
0.0
 11
-0.605177
 21
0.069462
 31
0.0
  0
LINE
  8
0
  6
CONTINUOUS
 62
     7
  5
1B9
 10
-0.605177
 20
0.069462
 30
0.0
 11
-0.602883
 21
0.072446
 31
0.0
  0
LINE
  8
0
  6
CONTINUOUS
 62
     7
  5
1BA
 10
-0.602883
 20
0.072446
 30
0.0
 11
-0.600473
 21
0.07553
 31
0.0
  0
LINE
  8
0
  6
CONTINUOUS
 62
     7
  5
1BB
 10
-0.600473
 20
0.07553
 30
0.0
 11
-0.59794
 21
0.07872
 31
0.0
  0
LINE
  8
0
  6
CONTINUOUS
 62
     7
  5
1BC
 10
-0.59794
 20
-0.07872
 30
0.0
 11
-0.600473
 21
-0.07553
 31
0.0
  0
LINE
  8
0
  6
CONTINUOUS
 62
     7
  5
1BD
 10
-0.600473
 20
-0.07553
 30
0.0
 11
-0.602883
 21
-0.072446
 31
0.0
  0
LINE
  8
0
  6
CONTINUOUS
 62
     7
  5
1BE
 10
-0.602883
 20
-0.072446
 30
0.0
 11
-0.605177
 21
-0.069462
 31
0.0
  0
LINE
  8
0
  6
CONTINUOUS
 62
     7
  5
1BF
 10
-0.605177
 20
-0.069462
 30
0.0
 11
-0.60736
 21
-0.066571
 31
0.0
  0
LINE
  8
0
  6
CONTINUOUS
 62
     7
  5
1C0
 10
-0.60736
 20
-0.066571
 30
0.0
 11
-0.609438
 21
-0.063767
 31
0.0
  0
LINE
  8
0
  6
CONTINUOUS
 62
     7
  5
1C1
 10
-0.609438
 20
-0.063767
 30
0.0
 11
-0.611416
 21
-0.061044
 31
0.0
  0
LINE
  8
0
  6
CONTINUOUS
 62
     7
  5
1C2
 10
-0.611416
 20
-0.061044
 30
0.0
 11
-0.613298
 21
-0.058398
 31
0.0
  0
LINE
  8
0
  6
CONTINUOUS
 62
     7
  5
1C3
 10
-0.613298
 20
-0.058398
 30
0.0
 11
-0.615089
 21
-0.055822
 31
0.0
  0
LINE
  8
0
  6
CONTINUOUS
 62
     7
  5
1C4
 10
-0.615089
 20
-0.055822
 30
0.0
 11
-0.616792
 21
-0.053312
 31
0.0
  0
LINE
  8
0
  6
CONTINUOUS
 62
     7
  5
1C5
 10
-0.616792
 20
-0.053312
 30
0.0
 11
-0.618411
 21
-0.050864
 31
0.0
  0
LINE
  8
0
  6
CONTINUOUS
 62
     7
  5
1C6
 10
-0.618411
 20
-0.050864
 30
0.0
 11
-0.61995
 21
-0.048474
 31
0.0
  0
LINE
  8
0
  6
CONTINUOUS
 62
     7
  5
1C7
 10
-0.61995
 20
-0.048474
 30
0.0
 11
-0.621411
 21
-0.046138
 31
0.0
  0
LINE
  8
0
  6
CONTINUOUS
 62
     7
  5
1C8
 10
-0.621411
 20
-0.046138
 30
0.0
 11
-0.622796
 21
-0.043851
 31
0.0
  0
LINE
  8
0
  6
CONTINUOUS
 62
     7
  5
1C9
 10
-0.622796
 20
-0.043851
 30
0.0
 11
-0.62411
 21
-0.041611
 31
0.0
  0
LINE
  8
0
  6
CONTINUOUS
 62
     7
  5
1CA
 10
-0.62411
 20
-0.041611
 30
0.0
 11
-0.625353
 21
-0.039414
 31
0.0
  0
LINE
  8
0
  6
CONTINUOUS
 62
     7
  5
1CB
 10
-0.625353
 20
-0.039414
 30
0.0
 11
-0.626528
 21
-0.037256
 31
0.0
  0
LINE
  8
0
  6
CONTINUOUS
 62
     7
  5
1CC
 10
-0.626528
 20
-0.037256
 30
0.0
 11
-0.627637
 21
-0.035135
 31
0.0
  0
LINE
  8
0
  6
CONTINUOUS
 62
     7
  5
1CD
 10
-0.627637
 20
-0.035135
 30
0.0
 11
-0.62868
 21
-0.033047
 31
0.0
  0
LINE
  8
0
  6
CONTINUOUS
 62
     7
  5
1CE
 10
-0.62868
 20
-0.033047
 30
0.0
 11
-0.629661
 21
-0.03099
 31
0.0
  0
LINE
  8
0
  6
CONTINUOUS
 62
     7
  5
1CF
 10
-0.629661
 20
-0.03099
 30
0.0
 11
-0.63058
 21
-0.02896
 31
0.0
  0
LINE
  8
0
  6
CONTINUOUS
 62
     7
  5
1D0
 10
-0.63058
 20
-0.02896
 30
0.0
 11
-0.631438
 21
-0.026955
 31
0.0
  0
LINE
  8
0
  6
CONTINUOUS
 62
     7
  5
1D1
 10
-0.631438
 20
-0.026955
 30
0.0
 11
-0.632236
 21
-0.024973
 31
0.0
  0
LINE
  8
0
  6
CONTINUOUS
 62
     7
  5
1D2
 10
-0.632236
 20
-0.024973
 30
0.0
 11
-0.632975
 21
-0.02301
 31
0.0
  0
LINE
  8
0
  6
CONTINUOUS
 62
     7
  5
1D3
 10
-0.632975
 20
-0.02301
 30
0.0
 11
-0.633655
 21
-0.021063
 31
0.0
  0
LINE
  8
0
  6
CONTINUOUS
 62
     7
  5
1D4
 10
-0.633655
 20
-0.021063
 30
0.0
 11
-0.634278
 21
-0.019131
 31
0.0
  0
LINE
  8
0
  6
CONTINUOUS
 62
     7
  5
1D5
 10
-0.634278
 20
-0.019131
 30
0.0
 11
-0.634843
 21
-0.017211
 31
0.0
  0
LINE
  8
0
  6
CONTINUOUS
 62
     7
  5
1D6
 10
-0.634843
 20
-0.017211
 30
0.0
 11
-0.63535
 21
-0.015299
 31
0.0
  0
LINE
  8
0
  6
CONTINUOUS
 62
     7
  5
1D7
 10
-0.63535
 20
-0.015299
 30
0.0
 11
-0.6358
 21
-0.013394
 31
0.0
  0
LINE
  8
0
  6
CONTINUOUS
 62
     7
  5
1D8
 10
-0.6358
 20
-0.013394
 30
0.0
 11
-0.636192
 21
-0.011492
 31
0.0
  0
LINE
  8
0
  6
CONTINUOUS
 62
     7
  5
1D9
 10
-0.636192
 20
-0.011492
 30
0.0
 11
-0.636526
 21
-0.009591
 31
0.0
  0
LINE
  8
0
  6
CONTINUOUS
 62
     7
  5
1DA
 10
-0.636526
 20
-0.009591
 30
0.0
 11
-0.636802
 21
-0.007688
 31
0.0
  0
LINE
  8
0
  6
CONTINUOUS
 62
     7
  5
1DB
 10
-0.636802
 20
-0.007688
 30
0.0
 11
-0.637018
 21
-0.005781
 31
0.0
  0
LINE
  8
0
  6
CONTINUOUS
 62
     7
  5
1DC
 10
-0.637018
 20
-0.005781
 30
0.0
 11
-0.637174
 21
-0.003866
 31
0.0
  0
LINE
  8
0
  6
CONTINUOUS
 62
     7
  5
1DD
 10
-0.637174
 20
-0.003866
 30
0.0
 11
-0.637268
 21
-0.00194
 31
0.0
  0
LINE
  8
0
  6
CONTINUOUS
 62
     7
  5
1DE
 10
-0.637268
 20
-0.00194
 30
0.0
 11
-0.6373
 21
0.0
 31
0.0
  0
LINE
  8
0
  6
CONTINUOUS
 62
     7
  5
1DF
 10
-0.3463
 20
-0.07872
 30
0.0
 11
-0.59794
 21
-0.07872
 31
0.0
  0
LINE
  8
0
  6
CONTINUOUS
 62
     7
  5
1E0
 10
-0.59794
 20
-0.07872
 30
0.0
 11
-0.59794
 21
-0.0984
 31
0.0
  0
LINE
  8
0
  6
CONTINUOUS
 62
     7
  5
1E1
 10
-0.6373
 20
0.0
 30
0.0
 11
-0.6373
 21
-0.05904
 31
0.0
  0
LINE
  8
0
  6
CONTINUOUS
 62
     7
  5
1E2
 10
-0.6373
 20
0.05904
 30
0.0
 11
-0.6373
 21
0.0
 31
0.0
  0
LINE
  8
0
  6
CONTINUOUS
 62
     7
  5
1E3
 10
-0.59794
 20
0.0984
 30
0.0
 11
-0.59794
 21
0.07872
 31
0.0
  0
ARC
  8
0
  6
CONTINUOUS
 62
     7
  5
1E4
 10
-0.018834
 20
0.727625
 30
0.0
 40
0.026906
 50
45.572996
 51
146.418621
  0
LINE
  8
0
  6
CONTINUOUS
 62
     7
  5
1E5
 10
-0.045741
 20
0.727622
 30
0.0
 11
-0.045741
 21
0.667625
 31
0.0
  0
LINE
  8
0
  6
CONTINUOUS
 62
     7
  5
1E6
 10
-0.045741
 20
0.667625
 30
0.0
 11
-0.045741
 21
-0.49
 31
0.0
  0
LINE
  8
0
  6
CONTINUOUS
 62
     7
  5
1E7
 10
-0.045741
 20
-0.49
 30
0.0
 11
-0.045741
 21
-0.55
 31
0.0
  0
LINE
  8
0
  6
CONTINUOUS
 62
     7
  5
1E8
 10
-0.11
 20
-0.600394
 30
0.0
 11
-0.04125
 21
-0.600394
 31
0.0
  0
LINE
  8
0
  6
CONTINUOUS
 62
     7
  5
1E9
 10
0.08
 20
0.963858
 30
0.0
 11
0.0
 21
0.963858
 31
0.0
  0
LINE
  8
0
  6
CONTINUOUS
 62
     7
  5
1EA
 10
0.070866
 20
0.83
 30
0.0
 11
0.08
 21
0.83
 31
0.0
  0
LINE
  8
0
  6
CONTINUOUS
 62
     7
  5
1EB
 10
0.19685
 20
-0.1378
 30
0.0
 11
0.2287
 21
-0.1378
 31
0.0
  0
LINE
  8
0
  6
CONTINUOUS
 62
     7
  5
1EC
 10
-0.3069
 20
-0.1378
 30
0.0
 11
-0.045741
 21
-0.1378
 31
0.0
  0
ARC
  8
0
  6
CONTINUOUS
 62
     7
  5
1ED
 10
-0.3069
 20
-0.0984
 30
0.0
 40
0.0394
 50
180.0
 51
270.0
  0
ARC
  8
0
  6
CONTINUOUS
 62
     7
  5
1EE
 10
-0.3069
 20
0.0984
 30
0.0
 40
0.0394
 50
90.0
 51
180.0
  0
LINE
  8
0
  6
CONTINUOUS
 62
     7
  5
1EF
 10
-0.59794
 20
-0.0984
 30
0.0
 11
-0.3463
 21
-0.0984
 31
0.0
  0
LINE
  8
0
  6
CONTINUOUS
 62
     7
  5
1F0
 10
-0.6373
 20
-0.05904
 30
0.0
 11
-0.59794
 21
-0.0984
 31
0.0
  0
LINE
  8
0
  6
CONTINUOUS
 62
     7
  5
1F1
 10
-0.59794
 20
0.0984
 30
0.0
 11
-0.6373
 21
0.05904
 31
0.0
  0
LINE
  8
0
  6
CONTINUOUS
 62
     7
  5
1F2
 10
-0.3463
 20
0.0984
 30
0.0
 11
-0.59794
 21
0.0984
 31
0.0
  0
LINE
  8
0
  6
CONTINUOUS
 62
     7
  5
1F3
 10
-0.045741
 20
0.1378
 30
0.0
 11
-0.3069
 21
0.1378
 31
0.0
  0
LINE
  8
0
  6
CONTINUOUS
 62
     7
  5
1F4
 10
0.2287
 20
0.1378
 30
0.0
 11
0.19685
 21
0.1378
 31
0.0
  0
ENDSEC
  0
EOF
