999
DXF file: C:\Users\sesa63760\Dev\_Creo\CAD\MCADUE0001898_3D-CAD\drw0001_4.dxf
999
Pro/ENGINEER 2019471 by Parametric Technology Corporation
  0
SECTION
  2
HEADER
  9
$ACADVER
  1
AC1024
  9
$DWGCODEPAGE
  3
ANSI_1252
  9
$EXTMAX
 10
954.168589487
 20
1349.4670051315
 30
0.0
  9
$EXTMIN
 10
0.0
 20
0.0
 30
0.0
  9
$LIMMIN
 10
0.0
 20
0.0
  9
$LIMMAX
 10
954.168589487
 20
1349.4670051315
  9
$VIEWCTR
 10
477.0842947435
 20
674.7335025658
  9
$VIEWSIZE
 40
1349.4670051315
  9
$CLAYER
  8
0
  9
$LTSCALE
 40
87.9652566308
  9
$CELTYPE
  6
BYLAYER
  9
$DIMSCALE
 40
1.0
  9
$DIMASZ
 40
11.3591498748
  9
$DIMEXO
 40
1.0
  9
$DIMDLI
 40
60.7759954904
  9
$DIMEXE
 40
1.0
  9
$DIMCEN
 40
14.3943147214
  9
$DIMLFAC
 40
1.0
  9
$DIMBLK
  1
_FILLED
  9
$DIMALT
 70
0
  9
$DIMALTF
 40
0.0393700787
  9
$DIMTXT
 40
15.9028098248
  9
$DIMTOL
 70
1
  9
$DIMLIM
 70
0
  9
$DIMTFAC
 40
1.0
  9
$DIMTP
 40
0.01
  9
$DIMTM
 40
0.01
  9
$DIMGAP
 40
0.625
  9
$DIMDSEP
 70
46
  9
$AUNITS
 70
0
  9
$PDMODE
 70
3
  9
$PDSIZE
 40
0.3125
  9
$HANDSEED
  5
60D
  9
$TILEMODE
 70
1
  9
$MEASUREMENT
 70
1
  9
$INSUNITS
 70
4
  0
ENDSEC
  0
SECTION
  2
CLASSES
  0
CLASS
  1
ACDBDICTIONARYWDFLT
  2
AcDbDictionaryWithDefault
  3
AutoCAD 2000
 90
0
 91
1
280
0
281
0
  0
CLASS
  1
ACDBPLACEHOLDER
  2
AcDbPlaceHolder
  3
AutoCAD 2000
 90
0
 91
1
280
0
281
0
  0
CLASS
  1
LAYOUT
  2
AcDbLayout
  3
AutoCAD 2000
 90
0
 91
0
280
0
281
0
  0
ENDSEC
  0
SECTION
  2
TABLES
  0
TABLE
  2
VPORT
  5
8
100
AcDbSymbolTable
 70
2
  0
VPORT
  5
1F4
100
AcDbSymbolTableRecord
100
AcDbViewportTableRecord
  2
*ACTIVE
 70
0
 10
0.0
 20
0.0
 11
1.0
 21
1.0
 12
477.0842947435
 22
674.7335025658
 13
0.0
 23
0.0
 14
1.0
 24
1.0
 15
0.0
 25
0.0
 16
0.0
 26
0.0
 36
1.0
 17
0.0
 27
0.0
 37
0.0
 40
1349.4670051315
 41
0.7070707071
 42
50.0
 43
0.0
 44
0.0
 50
0.0
 51
0.0
 71
0
 72
100
 73
1
 74
1
 75
0
 76
0
 77
0
 78
0
  0
ENDTAB
  0
TABLE
  2
LTYPE
  5
5
100
AcDbSymbolTable
 70
6
  0
LTYPE
  5
14
100
AcDbSymbolTableRecord
100
AcDbLinetypeTableRecord
  2
BYBLOCK
 70
0
  3

 72
65
 73
0
 40
0.0
  0
LTYPE
  5
15
100
AcDbSymbolTableRecord
100
AcDbLinetypeTableRecord
  2
BYLAYER
 70
0
  3

 72
65
 73
0
 40
0.0
  0
LTYPE
  5
16
100
AcDbSymbolTableRecord
100
AcDbLinetypeTableRecord
  2
CONTINUOUS
 70
64
  3
Solid line
 72
65
 73
0
 40
0.0
  0
LTYPE
  5
1F5
100
AcDbSymbolTableRecord
100
AcDbLinetypeTableRecord
  2
CENTER
 70
64
  3
____ _ ____ _ ____ _ ____ _ ____ _ ____ _ ____
 72
65
 73
4
 40
0.6
 49
0.375
 74
0
 49
-0.075
 74
0
 49
0.075
 74
0
 49
-0.075
 74
0
  0
LTYPE
  5
1F6
100
AcDbSymbolTableRecord
100
AcDbLinetypeTableRecord
  2
HIDDEN
 70
64
  3
- - - - - - - - - - - - - - - - - - - -
 72
65
 73
2
 40
0.2
 49
0.1
 74
0
 49
-0.1
 74
0
  0
LTYPE
  5
1F7
100
AcDbSymbolTableRecord
100
AcDbLinetypeTableRecord
  2
PHANTOM
 70
64
  3
_____ _ _ _____ _ _ _____ _ _ _____
 72
65
 73
6
 40
0.8
 49
0.45
 74
0
 49
-0.05
 74
0
 49
0.1
 74
0
 49
-0.05
 74
0
 49
0.1
 74
0
 49
-0.05
 74
0
  0
LTYPE
  5
1F8
100
AcDbSymbolTableRecord
100
AcDbLinetypeTableRecord
  2
DOT
 70
64
  3
. . . . . . . . . . . . . . . . . . . .
 72
65
 73
2
 40
0.2
 49
0.1
 74
0
 49
-0.1
 74
0
  0
LTYPE
  5
1F9
100
AcDbSymbolTableRecord
100
AcDbLinetypeTableRecord
  2
DASHED
 70
64
  3
- - - - - - - - - - - - - - - - - - - -
 72
65
 73
2
 40
0.2
 49
0.1
 74
0
 49
-0.1
 74
0
  0
ENDTAB
  0
TABLE
  2
LAYER
  5
2
100
AcDbSymbolTable
 70
36
  0
LAYER
  5
10
100
AcDbSymbolTableRecord
100
AcDbLayerTableRecord
  2
0
 70
0
 62
7
  6
CONTINUOUS
370
-3
390
F
  0
LAYER
  5
1FA
100
AcDbSymbolTableRecord
100
AcDbLayerTableRecord
  2
DEFAULT_1
 70
0
 62
7
  6
CENTER
370
-3
390
F
  0
LAYER
  5
1FB
100
AcDbSymbolTableRecord
100
AcDbLayerTableRecord
  2
DEFAULT_2
 70
0
 62
8
  6
HIDDEN
370
-3
390
F
  0
LAYER
  5
1FC
100
AcDbSymbolTableRecord
100
AcDbLayerTableRecord
  2
DEFAULT_3
 70
0
 62
7
  6
PHANTOM
370
-3
390
F
  0
LAYER
  5
1FD
100
AcDbSymbolTableRecord
100
AcDbLayerTableRecord
  2
00_COMPONENTS
 70
0
 62
7
  6
CONTINUOUS
370
-3
390
F
  0
LAYER
  5
1FE
100
AcDbSymbolTableRecord
100
AcDbLayerTableRecord
  2
01_1_DEFAULT_DATUMS
 70
0
 62
7
  6
CONTINUOUS
370
-3
390
F
  0
LAYER
  5
1FF
100
AcDbSymbolTableRecord
100
AcDbLayerTableRecord
  2
01_PLANES
 70
0
 62
7
  6
CONTINUOUS
370
-3
390
F
  0
LAYER
  5
200
100
AcDbSymbolTableRecord
100
AcDbLayerTableRecord
  2
02_COORD_SYS
 70
0
 62
7
  6
CONTINUOUS
370
-3
390
F
  0
LAYER
  5
201
100
AcDbSymbolTableRecord
100
AcDbLayerTableRecord
  2
03_AXES
 70
0
 62
7
  6
CONTINUOUS
370
-3
390
F
  0
LAYER
  5
202
100
AcDbSymbolTableRecord
100
AcDbLayerTableRecord
  2
04_POINTS
 70
0
 62
7
  6
CONTINUOUS
370
-3
390
F
  0
LAYER
  5
203
100
AcDbSymbolTableRecord
100
AcDbLayerTableRecord
  2
05_CURVES
 70
0
 62
7
  6
CONTINUOUS
370
-3
390
F
  0
LAYER
  5
204
100
AcDbSymbolTableRecord
100
AcDbLayerTableRecord
  2
06_SURFS
 70
0
 62
7
  6
CONTINUOUS
370
-3
390
F
  0
LAYER
  5
205
100
AcDbSymbolTableRecord
100
AcDbLayerTableRecord
  2
07_COSMETICS
 70
0
 62
7
  6
CONTINUOUS
370
-3
390
F
  0
LAYER
  5
206
100
AcDbSymbolTableRecord
100
AcDbLayerTableRecord
  2
10_NOTES
 70
0
 62
7
  6
CONTINUOUS
370
-3
390
F
  0
LAYER
  5
207
100
AcDbSymbolTableRecord
100
AcDbLayerTableRecord
  2
11_NOTES_PUB
 70
0
 62
7
  6
CONTINUOUS
370
-3
390
F
  0
LAYER
  5
208
100
AcDbSymbolTableRecord
100
AcDbLayerTableRecord
  2
13_REF_GTOL
 70
0
 62
7
  6
CONTINUOUS
370
-3
390
F
  0
LAYER
  5
209
100
AcDbSymbolTableRecord
100
AcDbLayerTableRecord
  2
16_MISC
 70
0
 62
7
  6
CONTINUOUS
370
-3
390
F
  0
LAYER
  5
20A
100
AcDbSymbolTableRecord
100
AcDbLayerTableRecord
  2
17_NO_PRINT
 70
0
 62
7
  6
CONTINUOUS
370
-3
390
F
  0
LAYER
  5
20B
100
AcDbSymbolTableRecord
100
AcDbLayerTableRecord
  2
18_DATUM_CAMS_JOINTS
 70
0
 62
7
  6
CONTINUOUS
370
-3
390
F
  0
LAYER
  5
20C
100
AcDbSymbolTableRecord
100
AcDbLayerTableRecord
  2
19_DATUM_FUNCTIONAL
 70
0
 62
7
  6
CONTINUOUS
370
-3
390
F
  0
LAYER
  5
20D
100
AcDbSymbolTableRecord
100
AcDbLayerTableRecord
  2
20_DATUM_KINEMATIC_SCHEME
 70
0
 62
7
  6
CONTINUOUS
370
-3
390
F
  0
LAYER
  5
20E
100
AcDbSymbolTableRecord
100
AcDbLayerTableRecord
  2
_1
 70
0
 62
7
  6
CONTINUOUS
370
-3
390
F
  0
ENDTAB
  0
TABLE
  2
STYLE
  5
3
100
AcDbSymbolTable
 70
1
  0
STYLE
  5
11
100
AcDbSymbolTableRecord
100
AcDbTextStyleTableRecord
  2
STANDARD
 70
0
 40
0.0
 41
0.8
 50
0.0
 71
0
 42
0.2
  3
txt
  4

  0
STYLE
  5
20F
100
AcDbSymbolTableRecord
100
AcDbTextStyleTableRecord
  2
TEXTSTYLE_1
 70
0
 40
0.0
 41
0.8
 50
0.0
 71
0
 42
0.2
  3
gdt
  4

  0
ENDTAB
  0
TABLE
  2
VIEW
  5
6
100
AcDbSymbolTable
 70
0
  0
ENDTAB
  0
TABLE
  2
UCS
  5
7
100
AcDbSymbolTable
 70
0
  0
ENDTAB
  0
TABLE
  2
APPID
  5
9
100
AcDbSymbolTable
 70
1
  0
APPID
  5
210
100
AcDbSymbolTableRecord
100
AcDbRegAppTableRecord
  2
ACAD
 70
0
  0
ENDTAB
  0
TABLE
  2
BLOCK_RECORD
  5
1
100
AcDbSymbolTable
 70
0
  0
BLOCK_RECORD
  5
211
100
AcDbSymbolTableRecord
100
AcDbBlockTableRecord
  2
*Model_Space
  0
BLOCK_RECORD
  5
212
100
AcDbSymbolTableRecord
100
AcDbBlockTableRecord
  2
*Paper_Space
  0
BLOCK_RECORD
  5
213
100
AcDbSymbolTableRecord
100
AcDbBlockTableRecord
  2
_FILLED
  0
ENDTAB
  0
TABLE
  2
DIMSTYLE
  5
A
100
AcDbSymbolTable
 70
1
100
AcDbDimStyleTable
 71
0
  0
DIMSTYLE
105
214
100
AcDbSymbolTableRecord
100
AcDbDimStyleTableRecord
  2
STANDARD
 70
0
  3

  4

 40
1.0
 41
11.3591498748
 42
1.0
 43
0.38
 44
1.0
 45
0.0
 46
0.0
 47
0.01
 48
0.01
140
15.9028098248
141
0.09
142
0.0
143
25.4
144
1.0
145
0.0
146
1.0
147
0.625
 71
1
 72
0
 73
0
 74
0
 75
0
 76
0
 77
1
 78
8
 79
2
170
0
171
1
172
0
173
0
174
0
175
0
176
0
177
0
178
0
270
2
179
2
271
2
272
2
273
2
274
2
275
0
280
0
281
0
282
0
283
1
284
8
285
0
286
0
287
3
288
0
340
11
278
46
341
213
342
213
343
213
344
213
  0
ENDTAB
  0
ENDSEC
  0
SECTION
  2
BLOCKS
  0
BLOCK
  5
20
100
AcDbEntity
  8
0
100
AcDbBlockBegin
  2
*Model_Space
 70
0
 10
0.0
 20
0.0
 30
0.0
  3
*Model_Space
  1

  0
ENDBLK
  5
21
100
AcDbEntity
  8
0
100
AcDbBlockEnd
  0
BLOCK
  5
1C
100
AcDbEntity
  8
0
100
AcDbBlockBegin
  2
*Paper_Space
 70
0
 10
0.0
 20
0.0
 30
0.0
  3
*Paper_Space
  1

  0
ENDBLK
  5
1D
100
AcDbEntity
  8
0
100
AcDbBlockEnd
  0
BLOCK
  5
215
100
AcDbEntity
  8
0
100
AcDbBlockBegin
  2
_FILLED
 70
64
 10
0.0
 20
0.0
  3
_FILLED
  1

  0
SOLID
  5
216
100
AcDbEntity
  8
0
  6
BYBLOCK
 62
0
100
AcDbTrace
 10
0.0
 20
0.0
 11
-1.0
 21
0.25
 12
-1.0
 22
-0.25
 13
-1.0
 23
-0.25
  0
ENDBLK
  5
217
100
AcDbEntity
  8
0
  6
BYBLOCK
 62
0
100
AcDbBlockEnd
  0
ENDSEC
  0
SECTION
  2
ENTITIES
  0
LINE
  5
218
100
AcDbEntity
  8
_1
100
AcDbLine
 62
7
  6
CONTINUOUS
 10
106.2438196433
 20
1002.1097366426
 11
106.320709449
 21
1002.2942047652
  0
LINE
  5
219
100
AcDbEntity
  8
_1
100
AcDbLine
 62
7
  6
CONTINUOUS
 10
106.2438196433
 20
339.0985964869
 11
106.320709449
 21
338.9141283644
  0
LINE
  5
21A
100
AcDbEntity
  8
_1
100
AcDbLine
 62
7
  6
CONTINUOUS
 10
107.7822645461
 20
1002.2942047652
 11
107.7438196433
 21
1002.1097366667
  0
LINE
  5
21B
100
AcDbEntity
  8
_1
100
AcDbLine
 62
7
  6
CONTINUOUS
 10
118.0392900446
 20
935.8541665648
 11
117.6062773427
 21
935.1041665648
  0
LINE
  5
21C
100
AcDbEntity
  8
_1
100
AcDbLine
 62
7
  6
CONTINUOUS
 10
116.3072392371
 20
932.8541665648
 11
115.8742265352
 21
932.1041665648
  0
LINE
  5
21D
100
AcDbEntity
  8
_1
100
AcDbLine
 62
7
  6
CONTINUOUS
 10
118.9053154484
 20
930.3541665648
 11
119.3383281503
 21
931.1041665648
  0
LINE
  5
21E
100
AcDbEntity
  8
_1
100
AcDbLine
 62
7
  6
CONTINUOUS
 10
120.637366256
 20
933.3541665648
 11
121.0703789579
 21
934.1041665648
  0
LINE
  5
21F
100
AcDbEntity
  8
_1
100
AcDbLine
 62
7
  6
CONTINUOUS
 10
112.6678575557
 20
928.4845793899
 11
113.4526128651
 21
929.1788722387
  0
LINE
  5
220
100
AcDbEntity
  8
_1
100
AcDbLine
 62
7
  6
CONTINUOUS
 10
112.8581401889
 20
928.1191756209
 11
113.6986368879
 21
928.8627842853
  0
LINE
  5
221
100
AcDbEntity
  8
_1
100
AcDbLine
 62
7
  6
CONTINUOUS
 10
113.7043741568
 20
928.4662261618
 11
113.2518499309
 21
928.0658665464
  0
LINE
  5
222
100
AcDbEntity
  8
_1
100
AcDbLine
 62
7
  6
CONTINUOUS
 10
107.7822645461
 20
1003.7557598623
 11
107.9667326685
 21
1003.832649668
  0
LINE
  5
223
100
AcDbEntity
  8
_1
100
AcDbLine
 62
7
  6
CONTINUOUS
 10
107.7822645461
 20
337.4525732672
 11
107.9667326685
 21
337.3756834616
  0
LINE
  5
224
100
AcDbEntity
  8
_1
100
AcDbLine
 62
7
  6
CONTINUOUS
 10
116.6986018989
 20
925.9625649929
 11
116.8396928312
 21
926.6560490811
  0
LINE
  5
225
100
AcDbEntity
  8
_1
100
AcDbLine
 62
7
  6
CONTINUOUS
 10
117.1859908746
 20
926.8493595223
 11
116.9622552303
 21
925.7496636969
  0
LINE
  5
226
100
AcDbEntity
  8
_1
100
AcDbLine
 62
7
  6
CONTINUOUS
 10
117.5827430835
 20
926.7943404453
 11
117.3586575178
 21
925.6929247016
  0
LINE
  5
227
100
AcDbEntity
  8
_1
100
AcDbLine
 62
7
  6
CONTINUOUS
 10
112.1305744914
 20
929.5865549026
 11
112.6668574988
 21
929.9151895522
  0
LINE
  5
228
100
AcDbEntity
  8
_1
100
AcDbLine
 62
7
  6
CONTINUOUS
 10
113.0205638759
 20
929.7791473682
 11
112.0637099208
 21
929.1927865104
  0
LINE
  5
229
100
AcDbEntity
  8
_1
100
AcDbLine
 62
7
  6
CONTINUOUS
 10
113.2509098261
 20
929.4514582514
 11
112.3556965361
 21
928.9028708417
  0
LINE
  5
22A
100
AcDbEntity
  8
_1
100
AcDbLine
 62
7
  6
CONTINUOUS
 10
124.1367604753
 20
936.5373411234
 11
124.7348973792
 21
936.8621029645
  0
LINE
  5
22B
100
AcDbEntity
  8
_1
100
AcDbLine
 62
7
  6
CONTINUOUS
 10
125.0639536503
 20
936.6984807271
 11
124.0777232741
 21
936.1630013232
  0
LINE
  5
22C
100
AcDbEntity
  8
_1
100
AcDbLine
 62
7
  6
CONTINUOUS
 10
125.2341102339
 20
936.3359882111
 11
124.2463373987
 21
935.7996713203
  0
LINE
  5
22D
100
AcDbEntity
  8
_1
100
AcDbLine
 62
7
  6
CONTINUOUS
 10
106.2438196433
 20
602.1097366858
 11
106.2438196433
 21
339.0985964437
  0
LINE
  5
22E
100
AcDbEntity
  8
_1
100
AcDbLine
 62
7
  6
CONTINUOUS
 10
106.2438196433
 20
739.0985964437
 11
106.2438196433
 21
1002.1097366858
  0
LINE
  5
22F
100
AcDbEntity
  8
_1
100
AcDbLine
 62
7
  6
CONTINUOUS
 10
106.3207094489
 20
338.9141283643
 11
106.3207094489
 21
602.2942047652
  0
LINE
  5
230
100
AcDbEntity
  8
_1
100
AcDbLine
 62
7
  6
CONTINUOUS
 10
107.7822645461
 20
338.9141283643
 11
107.7822645461
 21
337.4525732671
  0
LINE
  5
231
100
AcDbEntity
  8
_1
100
AcDbLine
 62
7
  6
CONTINUOUS
 10
107.7822645461
 20
602.2942047652
 11
107.7822645461
 21
603.7557598624
  0
LINE
  5
232
100
AcDbEntity
  8
_1
100
AcDbLine
 62
7
  6
CONTINUOUS
 10
107.7822645461
 20
737.4525732671
 11
107.7822645461
 21
739.0985964627
  0
LINE
  5
233
100
AcDbEntity
  8
_1
100
AcDbLine
 62
7
  6
CONTINUOUS
 10
107.7822645461
 20
1002.1097366667
 11
107.7822645461
 21
1003.7557598624
  0
LINE
  5
234
100
AcDbEntity
  8
_1
100
AcDbLine
 62
7
  6
CONTINUOUS
 10
108.1272869444
 20
600.4876272697
 11
108.1272869444
 21
557.4876272696
  0
LINE
  5
235
100
AcDbEntity
  8
_1
100
AcDbLine
 62
7
  6
CONTINUOUS
 10
108.1272869444
 20
383.7207058599
 11
108.1272869444
 21
340.7207058599
  0
LINE
  5
236
100
AcDbEntity
  8
_1
100
AcDbLine
 62
7
  6
CONTINUOUS
 10
109.1344211782
 20
557.4876272696
 11
109.1344211782
 21
383.7207058599
  0
LINE
  5
237
100
AcDbEntity
  8
_1
100
AcDbLine
 62
7
  6
CONTINUOUS
 10
109.2438196433
 20
740.3756834616
 11
109.2438196433
 21
1000.832649668
  0
LINE
  5
238
100
AcDbEntity
  8
_1
100
AcDbLine
 62
7
  6
CONTINUOUS
 10
109.5888420416
 20
339.2591507627
 11
109.5888420416
 21
383.7207058599
  0
LINE
  5
239
100
AcDbEntity
  8
_1
100
AcDbLine
 62
7
  6
CONTINUOUS
 10
109.5888420416
 20
557.4876272696
 11
109.5888420416
 21
601.9491823669
  0
LINE
  5
23A
100
AcDbEntity
  8
_1
100
AcDbLine
 62
7
  6
CONTINUOUS
 10
111.5703463402
 20
383.7207058599
 11
111.5703463402
 21
557.4876272696
  0
LINE
  5
23B
100
AcDbEntity
  8
_1
100
AcDbLine
 62
7
  6
CONTINUOUS
 10
118.472302737
 20
411.0394825846
 11
118.4723025966
 21
411.1041650072
  0
LINE
  5
23C
100
AcDbEntity
  8
_1
100
AcDbLine
 62
7
  6
CONTINUOUS
 10
118.4723027029
 20
405.3688544317
 11
118.4723027923
 21
405.3041699909
  0
LINE
  5
23D
100
AcDbEntity
  8
_1
100
AcDbLine
 62
7
  6
CONTINUOUS
 10
118.472302737
 20
536.0394825846
 11
118.4723025966
 21
536.1041650072
  0
LINE
  5
23E
100
AcDbEntity
  8
_1
100
AcDbLine
 62
7
  6
CONTINUOUS
 10
118.4723027029
 20
530.3688544317
 11
118.4723027923
 21
530.3041699909
  0
LINE
  5
23F
100
AcDbEntity
  8
_1
100
AcDbLine
 62
7
  6
CONTINUOUS
 10
117.8902386491
 20
925.632358682
 11
117.9196610147
 21
926.7559534958
  0
LINE
  5
240
100
AcDbEntity
  8
_1
100
AcDbLine
 62
7
  6
CONTINUOUS
 10
118.3186210896
 20
926.7203126098
 11
118.2892446684
 21
925.5984723481
  0
LINE
  5
241
100
AcDbEntity
  8
_1
100
AcDbLine
 62
7
  6
CONTINUOUS
 10
118.6132902655
 20
926.4820149937
 11
118.5838855806
 21
925.3590953803
  0
LINE
  5
242
100
AcDbEntity
  8
_1
100
AcDbLine
 62
7
  6
CONTINUOUS
 10
117.8902386491
 20
800.632358682
 11
117.9196610147
 21
801.7559534958
  0
LINE
  5
243
100
AcDbEntity
  8
_1
100
AcDbLine
 62
7
  6
CONTINUOUS
 10
118.3186210896
 20
801.7203126098
 11
118.2892446684
 21
800.5984723481
  0
LINE
  5
244
100
AcDbEntity
  8
_1
100
AcDbLine
 62
7
  6
CONTINUOUS
 10
118.6132902655
 20
801.4820149937
 11
118.5838855806
 21
800.3590953803
  0
LINE
  5
245
100
AcDbEntity
  8
_1
100
AcDbLine
 62
7
  6
CONTINUOUS
 10
116.6986018989
 20
800.9625649929
 11
116.8396928312
 21
801.6560490811
  0
LINE
  5
246
100
AcDbEntity
  8
_1
100
AcDbLine
 62
7
  6
CONTINUOUS
 10
117.1859908746
 20
801.8493595223
 11
116.9622552303
 21
800.7496636969
  0
LINE
  5
247
100
AcDbEntity
  8
_1
100
AcDbLine
 62
7
  6
CONTINUOUS
 10
117.5827430835
 20
801.7943404453
 11
117.3586575178
 21
800.6929247016
  0
LINE
  5
248
100
AcDbEntity
  8
_1
100
AcDbLine
 62
7
  6
CONTINUOUS
 10
118.0392900446
 20
810.8541665648
 11
117.6062773427
 21
810.1041665648
  0
LINE
  5
249
100
AcDbEntity
  8
_1
100
AcDbLine
 62
7
  6
CONTINUOUS
 10
116.3072392371
 20
807.8541665648
 11
115.8742265352
 21
807.1041665648
  0
LINE
  5
24A
100
AcDbEntity
  8
_1
100
AcDbLine
 62
7
  6
CONTINUOUS
 10
118.9053154484
 20
805.3541665648
 11
119.3383281503
 21
806.1041665648
  0
LINE
  5
24B
100
AcDbEntity
  8
_1
100
AcDbLine
 62
7
  6
CONTINUOUS
 10
120.637366256
 20
808.3541665648
 11
121.0703789579
 21
809.1041665648
  0
LINE
  5
24C
100
AcDbEntity
  8
_1
100
AcDbLine
 62
7
  6
CONTINUOUS
 10
117.9196610147
 20
814.4523796337
 11
117.8902386491
 21
815.5759744475
  0
LINE
  5
24D
100
AcDbEntity
  8
_1
100
AcDbLine
 62
7
  6
CONTINUOUS
 10
118.2892446684
 20
815.6098607815
 11
118.3186210896
 21
814.4880205197
  0
LINE
  5
24E
100
AcDbEntity
  8
_1
100
AcDbLine
 62
7
  6
CONTINUOUS
 10
118.5838855806
 20
815.8492377492
 11
118.6132902655
 21
814.7263181359
  0
LINE
  5
24F
100
AcDbEntity
  8
_1
100
AcDbLine
 62
7
  6
CONTINUOUS
 10
117.9196610147
 20
939.4523796337
 11
117.8902386491
 21
940.5759744475
  0
LINE
  5
250
100
AcDbEntity
  8
_1
100
AcDbLine
 62
7
  6
CONTINUOUS
 10
118.2892446684
 20
940.6098607815
 11
118.3186210896
 21
939.4880205197
  0
LINE
  5
251
100
AcDbEntity
  8
_1
100
AcDbLine
 62
7
  6
CONTINUOUS
 10
118.5838855806
 20
940.8492377492
 11
118.6132902655
 21
939.7263181359
  0
LINE
  5
252
100
AcDbEntity
  8
_1
100
AcDbLine
 62
7
  6
CONTINUOUS
 10
123.9438196433
 20
387.7207058599
 11
123.9438196433
 21
405.751716832
  0
LINE
  5
253
100
AcDbEntity
  8
_1
100
AcDbLine
 62
7
  6
CONTINUOUS
 10
123.9438196433
 20
410.4566162975
 11
123.9438196433
 21
530.751716832
  0
LINE
  5
254
100
AcDbEntity
  8
_1
100
AcDbLine
 62
7
  6
CONTINUOUS
 10
123.9438196433
 20
535.4566162975
 11
123.9438196433
 21
553.4876272696
  0
LINE
  5
255
100
AcDbEntity
  8
_1
100
AcDbLine
 62
7
  6
CONTINUOUS
 10
126.9723027465
 20
569.3541665648
 11
126.9723027465
 21
535.7155028813
  0
LINE
  5
256
100
AcDbEntity
  8
_1
100
AcDbLine
 62
7
  6
CONTINUOUS
 10
126.9723027465
 20
530.4928302482
 11
126.9723027465
 21
410.7155028813
  0
LINE
  5
257
100
AcDbEntity
  8
_1
100
AcDbLine
 62
7
  6
CONTINUOUS
 10
126.9723027465
 20
405.4928302482
 11
126.9723027465
 21
369.8541665648
  0
LINE
  5
258
100
AcDbEntity
  8
_1
100
AcDbLine
 62
7
  6
CONTINUOUS
 10
139.9723027465
 20
369.8541665648
 11
139.9723027465
 21
569.3541665648
  0
LINE
  5
259
100
AcDbEntity
  8
_1
100
AcDbLine
 62
7
  6
CONTINUOUS
 10
141.4723027465
 20
355.3541665648
 11
141.4723027465
 21
368.3541665648
  0
LINE
  5
25A
100
AcDbEntity
  8
_1
100
AcDbLine
 62
7
  6
CONTINUOUS
 10
141.4723027465
 20
570.8541665648
 11
141.4723027465
 21
583.8541665648
  0
LINE
  5
25B
100
AcDbEntity
  8
_1
100
AcDbLine
 62
7
  6
CONTINUOUS
 10
112.6678575557
 20
803.4845793899
 11
113.4526128651
 21
804.1788722387
  0
LINE
  5
25C
100
AcDbEntity
  8
_1
100
AcDbLine
 62
7
  6
CONTINUOUS
 10
112.8581401889
 20
803.1191756209
 11
113.6986368879
 21
803.8627842853
  0
LINE
  5
25D
100
AcDbEntity
  8
_1
100
AcDbLine
 62
7
  6
CONTINUOUS
 10
113.7043741568
 20
803.4662261618
 11
113.2518499309
 21
803.0658665464
  0
LINE
  5
25E
100
AcDbEntity
  8
_1
100
AcDbLine
 62
7
  6
CONTINUOUS
 10
124.381552291
 20
935.4886983581
 11
125.447449088
 21
935.8453424375
  0
LINE
  5
25F
100
AcDbEntity
  8
_1
100
AcDbLine
 62
7
  6
CONTINUOUS
 10
125.5965128204
 20
935.4736784887
 11
124.532280477
 21
935.1175913277
  0
LINE
  5
260
100
AcDbEntity
  8
_1
100
AcDbLine
 62
7
  6
CONTINUOUS
 10
124.8476162171
 20
934.905903467
 11
125.9115748189
 21
935.2618990353
  0
LINE
  5
261
100
AcDbEntity
  8
_1
100
AcDbLine
 62
7
  6
CONTINUOUS
 10
123.9438196433
 20
553.4876272696
 11
119.9438196433
 21
557.4876272696
  0
LINE
  5
262
100
AcDbEntity
  8
_1
100
AcDbLine
 62
7
  6
CONTINUOUS
 10
107.7438196433
 20
739.0985964627
 11
107.7822645461
 21
738.9141283644
  0
LINE
  5
263
100
AcDbEntity
  8
_1
100
AcDbLine
 62
7
  6
CONTINUOUS
 10
116.8396928312
 20
814.5522840484
 11
116.7015138743
 21
815.2314553198
  0
LINE
  5
264
100
AcDbEntity
  8
_1
100
AcDbLine
 62
7
  6
CONTINUOUS
 10
117.1859908746
 20
814.3589736072
 11
116.9622552303
 21
815.4586694326
  0
LINE
  5
265
100
AcDbEntity
  8
_1
100
AcDbLine
 62
7
  6
CONTINUOUS
 10
117.3586575178
 20
815.515408428
 11
117.5827430835
 21
814.4139926842
  0
LINE
  5
266
100
AcDbEntity
  8
_1
100
AcDbLine
 62
7
  6
CONTINUOUS
 10
159.5888420416
 20
601.9225552513
 11
159.5888420416
 21
600.4610001542
  0
LINE
  5
267
100
AcDbEntity
  8
_1
100
AcDbLine
 62
7
  6
CONTINUOUS
 10
159.5888420416
 20
339.2857778783
 11
159.5888420416
 21
340.7473329754
  0
LINE
  5
268
100
AcDbEntity
  8
_1
100
AcDbLine
 62
7
  6
CONTINUOUS
 10
164.0888420416
 20
600.9102755068
 11
164.0888420416
 21
599.4487204096
  0
LINE
  5
269
100
AcDbEntity
  8
_1
100
AcDbLine
 62
7
  6
CONTINUOUS
 10
164.0888420416
 20
340.2980576228
 11
164.0888420416
 21
341.7596127199
  0
LINE
  5
26A
100
AcDbEntity
  8
_1
100
AcDbLine
 62
7
  6
CONTINUOUS
 10
184.7579722727
 20
338.0485470794
 11
184.7579722727
 21
339.5101021765
  0
LINE
  5
26B
100
AcDbEntity
  8
_1
100
AcDbLine
 62
7
  6
CONTINUOUS
 10
186.7579722727
 20
339.5101021765
 11
186.7579722727
 21
338.0485470794
  0
LINE
  5
26C
100
AcDbEntity
  8
_1
100
AcDbLine
 62
7
  6
CONTINUOUS
 10
106.320709449
 20
602.2942047652
 11
106.2438196433
 21
602.1097366428
  0
LINE
  5
26D
100
AcDbEntity
  8
_1
100
AcDbLine
 62
7
  6
CONTINUOUS
 10
109.2438196433
 20
740.3756834616
 11
107.7822645461
 21
738.9141283643
  0
LINE
  5
26E
100
AcDbEntity
  8
_1
100
AcDbLine
 62
7
  6
CONTINUOUS
 10
112.1305744914
 20
804.5865549026
 11
112.6668574988
 21
804.9151895522
  0
LINE
  5
26F
100
AcDbEntity
  8
_1
100
AcDbLine
 62
7
  6
CONTINUOUS
 10
113.0205638759
 20
804.7791473682
 11
112.0637099208
 21
804.1927865104
  0
LINE
  5
270
100
AcDbEntity
  8
_1
100
AcDbLine
 62
7
  6
CONTINUOUS
 10
113.2509098261
 20
804.4514582514
 11
112.3556965361
 21
803.9028708417
  0
LINE
  5
271
100
AcDbEntity
  8
_1
100
AcDbLine
 62
7
  6
CONTINUOUS
 10
107.9667326255
 20
337.3756834616
 11
870.9778728676
 21
337.3756834616
  0
LINE
  5
272
100
AcDbEntity
  8
_1
100
AcDbLine
 62
7
  6
CONTINUOUS
 10
871.1623409469
 20
337.4525732672
 11
107.7822645461
 21
337.4525732672
  0
LINE
  5
273
100
AcDbEntity
  8
_1
100
AcDbLine
 62
7
  6
CONTINUOUS
 10
184.7579722727
 20
338.0485470794
 11
186.7579722727
 21
338.0485470794
  0
LINE
  5
274
100
AcDbEntity
  8
_1
100
AcDbLine
 62
7
  6
CONTINUOUS
 10
782.1866332203
 20
338.0485470794
 11
784.1866332203
 21
338.0485470794
  0
LINE
  5
275
100
AcDbEntity
  8
_1
100
AcDbLine
 62
7
  6
CONTINUOUS
 10
872.6238960441
 20
338.9141283644
 11
871.1623409469
 21
338.9141283644
  0
LINE
  5
276
100
AcDbEntity
  8
_1
100
AcDbLine
 62
7
  6
CONTINUOUS
 10
107.7822645461
 20
338.9141283644
 11
106.3207094489
 21
338.9141283644
  0
LINE
  5
277
100
AcDbEntity
  8
_1
100
AcDbLine
 62
7
  6
CONTINUOUS
 10
109.5888420416
 20
339.2857778783
 11
159.5888420416
 21
339.2857778783
  0
LINE
  5
278
100
AcDbEntity
  8
_1
100
AcDbLine
 62
7
  6
CONTINUOUS
 10
819.3557634514
 20
339.2857778783
 11
869.3557634514
 21
339.2857778783
  0
LINE
  5
279
100
AcDbEntity
  8
_1
100
AcDbLine
 62
7
  6
CONTINUOUS
 10
184.7579722727
 20
339.5101021765
 11
186.7579722727
 21
339.5101021765
  0
LINE
  5
27A
100
AcDbEntity
  8
_1
100
AcDbLine
 62
7
  6
CONTINUOUS
 10
782.1866332203
 20
339.5101021765
 11
784.1866332203
 21
339.5101021765
  0
LINE
  5
27B
100
AcDbEntity
  8
_1
100
AcDbLine
 62
7
  6
CONTINUOUS
 10
784.1866332203
 20
339.8481555141
 11
782.1866332203
 21
339.8481555141
  0
LINE
  5
27C
100
AcDbEntity
  8
_1
100
AcDbLine
 62
7
  6
CONTINUOUS
 10
186.7579722727
 20
339.8481555141
 11
184.7579722727
 21
339.8481555141
  0
LINE
  5
27D
100
AcDbEntity
  8
_1
100
AcDbLine
 62
7
  6
CONTINUOUS
 10
814.8557634514
 20
340.2980576227
 11
164.0888420416
 21
340.2980576227
  0
LINE
  5
27E
100
AcDbEntity
  8
_1
100
AcDbLine
 62
7
  6
CONTINUOUS
 10
109.5888420416
 20
340.7207058599
 11
108.1272869444
 21
340.7207058599
  0
LINE
  5
27F
100
AcDbEntity
  8
_1
100
AcDbLine
 62
7
  6
CONTINUOUS
 10
869.3557634514
 20
340.7207058599
 11
870.8173185486
 21
340.7207058599
  0
LINE
  5
280
100
AcDbEntity
  8
_1
100
AcDbLine
 62
7
  6
CONTINUOUS
 10
109.5888420416
 20
340.7473329754
 11
159.5888420416
 21
340.7473329754
  0
LINE
  5
281
100
AcDbEntity
  8
_1
100
AcDbLine
 62
7
  6
CONTINUOUS
 10
819.3557634514
 20
340.7473329754
 11
869.3557634514
 21
340.7473329754
  0
LINE
  5
282
100
AcDbEntity
  8
_1
100
AcDbLine
 62
7
  6
CONTINUOUS
 10
814.8557634514
 20
341.75961272
 11
164.0888420416
 21
341.75961272
  0
LINE
  5
283
100
AcDbEntity
  8
_1
100
AcDbLine
 62
7
  6
CONTINUOUS
 10
141.4723027465
 20
355.3541665648
 11
837.4723027465
 21
355.3541665648
  0
LINE
  5
284
100
AcDbEntity
  8
_1
100
AcDbLine
 62
7
  6
CONTINUOUS
 10
837.4723027465
 20
368.3541665648
 11
141.4723027465
 21
368.3541665648
  0
LINE
  5
285
100
AcDbEntity
  8
_1
100
AcDbLine
 62
7
  6
CONTINUOUS
 10
851.9723027465
 20
369.8541665648
 11
838.9723027465
 21
369.8541665648
  0
LINE
  5
286
100
AcDbEntity
  8
_1
100
AcDbLine
 62
7
  6
CONTINUOUS
 10
139.9723027465
 20
369.8541665648
 11
126.9723027465
 21
369.8541665648
  0
LINE
  5
287
100
AcDbEntity
  8
_1
100
AcDbLine
 62
7
  6
CONTINUOUS
 10
108.1272869444
 20
600.4876272697
 11
106.3207094489
 21
602.2942047652
  0
LINE
  5
288
100
AcDbEntity
  8
_1
100
AcDbLine
 62
7
  6
CONTINUOUS
 10
107.7822645461
 20
602.2942047652
 11
109.5888420416
 21
600.4876272697
  0
LINE
  5
289
100
AcDbEntity
  8
_1
100
AcDbLine
 62
7
  6
CONTINUOUS
 10
107.7822645461
 20
603.7557598624
 11
109.5888420416
 21
601.9491823669
  0
LINE
  5
28A
100
AcDbEntity
  8
_1
100
AcDbLine
 62
7
  6
CONTINUOUS
 10
106.320709449
 20
738.9141283644
 11
106.2438196433
 21
739.0985964868
  0
LINE
  5
28B
100
AcDbEntity
  8
_1
100
AcDbLine
 62
7
  6
CONTINUOUS
 10
116.8396928312
 20
939.5522840484
 11
116.7015138743
 21
940.2314553198
  0
LINE
  5
28C
100
AcDbEntity
  8
_1
100
AcDbLine
 62
7
  6
CONTINUOUS
 10
117.1859908746
 20
939.3589736072
 11
116.9622552303
 21
940.4586694326
  0
LINE
  5
28D
100
AcDbEntity
  8
_1
100
AcDbLine
 62
7
  6
CONTINUOUS
 10
117.3586575178
 20
940.515408428
 11
117.5827430835
 21
939.4139926842
  0
LINE
  5
28E
100
AcDbEntity
  8
_1
100
AcDbLine
 62
7
  6
CONTINUOUS
 10
194.7579722728
 20
601.6982309531
 11
194.7579722728
 21
603.1597860502
  0
LINE
  5
28F
100
AcDbEntity
  8
_1
100
AcDbLine
 62
7
  6
CONTINUOUS
 10
196.7579722728
 20
603.1597860502
 11
196.7579722728
 21
601.6982309531
  0
LINE
  5
290
100
AcDbEntity
  8
_1
100
AcDbLine
 62
7
  6
CONTINUOUS
 10
124.1367604753
 20
811.5373411234
 11
124.7348973792
 21
811.8621029645
  0
LINE
  5
291
100
AcDbEntity
  8
_1
100
AcDbLine
 62
7
  6
CONTINUOUS
 10
125.0639536503
 20
811.6984807271
 11
124.0777232741
 21
811.1630013232
  0
LINE
  5
292
100
AcDbEntity
  8
_1
100
AcDbLine
 62
7
  6
CONTINUOUS
 10
125.2341102339
 20
811.3359882111
 11
124.2463373987
 21
810.7996713203
  0
LINE
  5
293
100
AcDbEntity
  8
_1
100
AcDbLine
 62
7
  6
CONTINUOUS
 10
870.8173185486
 20
383.7207058599
 11
859.0007858497
 21
383.7207058599
  0
LINE
  5
294
100
AcDbEntity
  8
_1
100
AcDbLine
 62
7
  6
CONTINUOUS
 10
119.9438196433
 20
383.7207058599
 11
108.1272869444
 21
383.7207058599
  0
LINE
  5
295
100
AcDbEntity
  8
_1
100
AcDbLine
 62
7
  6
CONTINUOUS
 10
860.9723027465
 20
402.6041665648
 11
859.9723027465
 21
402.6041665648
  0
LINE
  5
296
100
AcDbEntity
  8
_1
100
AcDbLine
 62
7
  6
CONTINUOUS
 10
118.9723027465
 20
402.6041665648
 11
117.9723027465
 21
402.6041665648
  0
LINE
  5
297
100
AcDbEntity
  8
_1
100
AcDbLine
 62
7
  6
CONTINUOUS
 10
124.381552291
 20
810.4886983581
 11
125.447449088
 21
810.8453424375
  0
LINE
  5
298
100
AcDbEntity
  8
_1
100
AcDbLine
 62
7
  6
CONTINUOUS
 10
125.5965128204
 20
810.4736784887
 11
124.532280477
 21
810.1175913277
  0
LINE
  5
299
100
AcDbEntity
  8
_1
100
AcDbLine
 62
7
  6
CONTINUOUS
 10
124.8476162171
 20
809.905903467
 11
125.9115748189
 21
810.2618990353
  0
LINE
  5
29A
100
AcDbEntity
  8
_1
100
AcDbLine
 62
7
  6
CONTINUOUS
 10
164.0888420416
 20
340.2980576227
 11
159.5888420416
 21
339.2857778782
  0
LINE
  5
29B
100
AcDbEntity
  8
_1
100
AcDbLine
 62
7
  6
CONTINUOUS
 10
159.5888420416
 20
340.7473329754
 11
164.0888420416
 21
341.7596127199
  0
LINE
  5
29C
100
AcDbEntity
  8
_1
100
AcDbLine
 62
7
  6
CONTINUOUS
 10
117.9723027465
 20
413.6041665648
 11
118.9723027465
 21
413.6041665648
  0
LINE
  5
29D
100
AcDbEntity
  8
_1
100
AcDbLine
 62
7
  6
CONTINUOUS
 10
859.9723027465
 20
413.6041665648
 11
860.9723027465
 21
413.6041665648
  0
LINE
  5
29E
100
AcDbEntity
  8
_1
100
AcDbLine
 62
7
  6
CONTINUOUS
 10
814.8557634514
 20
340.2980576228
 11
819.3557634514
 21
339.2857778783
  0
LINE
  5
29F
100
AcDbEntity
  8
_1
100
AcDbLine
 62
7
  6
CONTINUOUS
 10
814.8557634514
 20
341.7596127199
 11
819.3557634514
 21
340.7473329754
  0
LINE
  5
2A0
100
AcDbEntity
  8
_1
100
AcDbLine
 62
7
  6
CONTINUOUS
 10
115.8742265352
 20
809.1041665648
 11
116.3072392371
 21
808.3541665648
  0
LINE
  5
2A1
100
AcDbEntity
  8
_1
100
AcDbLine
 62
7
  6
CONTINUOUS
 10
117.6062773427
 20
806.1041665648
 11
118.0392900446
 21
805.3541665648
  0
LINE
  5
2A2
100
AcDbEntity
  8
_1
100
AcDbLine
 62
7
  6
CONTINUOUS
 10
121.0703789579
 20
807.1041665648
 11
120.637366256
 21
807.8541665648
  0
LINE
  5
2A3
100
AcDbEntity
  8
_1
100
AcDbLine
 62
7
  6
CONTINUOUS
 10
119.3383281503
 20
810.1041665648
 11
118.9053154484
 21
810.8541665648
  0
LINE
  5
2A4
100
AcDbEntity
  8
_1
100
AcDbLine
 62
7
  6
CONTINUOUS
 10
115.8742265352
 20
934.1041665648
 11
116.3072392371
 21
933.3541665648
  0
LINE
  5
2A5
100
AcDbEntity
  8
_1
100
AcDbLine
 62
7
  6
CONTINUOUS
 10
117.6062773427
 20
931.1041665648
 11
118.0392900446
 21
930.3541665648
  0
LINE
  5
2A6
100
AcDbEntity
  8
_1
100
AcDbLine
 62
7
  6
CONTINUOUS
 10
121.0703789579
 20
932.1041665648
 11
120.637366256
 21
932.8541665648
  0
LINE
  5
2A7
100
AcDbEntity
  8
_1
100
AcDbLine
 62
7
  6
CONTINUOUS
 10
119.3383281503
 20
935.1041665648
 11
118.9053154484
 21
935.8541665648
  0
LINE
  5
2A8
100
AcDbEntity
  8
_1
100
AcDbLine
 62
7
  6
CONTINUOUS
 10
866.381552291
 20
935.4886983581
 11
867.447449088
 21
935.8453424375
  0
LINE
  5
2A9
100
AcDbEntity
  8
_1
100
AcDbLine
 62
7
  6
CONTINUOUS
 10
867.5965128204
 20
935.4736784887
 11
866.532280477
 21
935.1175913277
  0
LINE
  5
2AA
100
AcDbEntity
  8
_1
100
AcDbLine
 62
7
  6
CONTINUOUS
 10
866.8476162171
 20
934.905903467
 11
867.9115748189
 21
935.2618990353
  0
LINE
  5
2AB
100
AcDbEntity
  8
_1
100
AcDbLine
 62
7
  6
CONTINUOUS
 10
814.8557634514
 20
599.4487204096
 11
819.3557634514
 21
600.4610001542
  0
LINE
  5
2AC
100
AcDbEntity
  8
_1
100
AcDbLine
 62
7
  6
CONTINUOUS
 10
814.8557634514
 20
600.9102755068
 11
819.3557634514
 21
601.9225552513
  0
LINE
  5
2AD
100
AcDbEntity
  8
_1
100
AcDbLine
 62
7
  6
CONTINUOUS
 10
860.9723027465
 20
527.6041665648
 11
859.9723027465
 21
527.6041665648
  0
LINE
  5
2AE
100
AcDbEntity
  8
_1
100
AcDbLine
 62
7
  6
CONTINUOUS
 10
118.9723027465
 20
527.6041665648
 11
117.9723027465
 21
527.6041665648
  0
LINE
  5
2AF
100
AcDbEntity
  8
_1
100
AcDbLine
 62
7
  6
CONTINUOUS
 10
117.9723027465
 20
538.6041665648
 11
118.9723027465
 21
538.6041665648
  0
LINE
  5
2B0
100
AcDbEntity
  8
_1
100
AcDbLine
 62
7
  6
CONTINUOUS
 10
859.9723027465
 20
538.6041665648
 11
860.9723027465
 21
538.6041665648
  0
LINE
  5
2B1
100
AcDbEntity
  8
_1
100
AcDbLine
 62
7
  6
CONTINUOUS
 10
164.0888420416
 20
599.4487204096
 11
159.5888420416
 21
600.4610001541
  0
LINE
  5
2B2
100
AcDbEntity
  8
_1
100
AcDbLine
 62
7
  6
CONTINUOUS
 10
159.5888420416
 20
601.9225552513
 11
164.0888420416
 21
600.9102755068
  0
LINE
  5
2B3
100
AcDbEntity
  8
_1
100
AcDbLine
 62
7
  6
CONTINUOUS
 10
113.4526128651
 20
812.0294608909
 11
112.6745247964
 21
812.7178550634
  0
LINE
  5
2B4
100
AcDbEntity
  8
_1
100
AcDbLine
 62
7
  6
CONTINUOUS
 10
112.8581401889
 20
813.0891575087
 11
113.6986368879
 21
812.3455488442
  0
LINE
  5
2B5
100
AcDbEntity
  8
_1
100
AcDbLine
 62
7
  6
CONTINUOUS
 10
113.7043741568
 20
812.7421069677
 11
113.2550223308
 21
813.1396598808
  0
LINE
  5
2B6
100
AcDbEntity
  8
_1
100
AcDbLine
 62
7
  6
CONTINUOUS
 10
108.1272869444
 20
557.4876272696
 11
119.9438196433
 21
557.4876272696
  0
LINE
  5
2B7
100
AcDbEntity
  8
_1
100
AcDbLine
 62
7
  6
CONTINUOUS
 10
859.0007858497
 20
557.4876272696
 11
870.8173185486
 21
557.4876272696
  0
LINE
  5
2B8
100
AcDbEntity
  8
_1
100
AcDbLine
 62
7
  6
CONTINUOUS
 10
126.9723027465
 20
569.3541665648
 11
139.9723027465
 21
569.3541665648
  0
LINE
  5
2B9
100
AcDbEntity
  8
_1
100
AcDbLine
 62
7
  6
CONTINUOUS
 10
838.9723027465
 20
569.3541665648
 11
851.9723027465
 21
569.3541665648
  0
LINE
  5
2BA
100
AcDbEntity
  8
_1
100
AcDbLine
 62
7
  6
CONTINUOUS
 10
141.4723027465
 20
570.8541665648
 11
837.4723027465
 21
570.8541665648
  0
LINE
  5
2BB
100
AcDbEntity
  8
_1
100
AcDbLine
 62
7
  6
CONTINUOUS
 10
107.9667326687
 20
603.832649668
 11
107.7822645461
 21
603.7557598623
  0
LINE
  5
2BC
100
AcDbEntity
  8
_1
100
AcDbLine
 62
7
  6
CONTINUOUS
 10
478.9723027465
 20
580.4568707876
 11
477.4723027465
 21
580.4568707876
  0
LINE
  5
2BD
100
AcDbEntity
  8
_1
100
AcDbLine
 62
7
  6
CONTINUOUS
 10
499.9723027465
 20
580.4568707876
 11
501.4723027465
 21
580.4568707876
  0
LINE
  5
2BE
100
AcDbEntity
  8
_1
100
AcDbLine
 62
7
  6
CONTINUOUS
 10
837.4723027465
 20
583.8541665648
 11
501.4723027465
 21
583.8541665648
  0
LINE
  5
2BF
100
AcDbEntity
  8
_1
100
AcDbLine
 62
7
  6
CONTINUOUS
 10
499.9723027465
 20
583.8541665648
 11
478.9723027465
 21
583.8541665648
  0
LINE
  5
2C0
100
AcDbEntity
  8
_1
100
AcDbLine
 62
7
  6
CONTINUOUS
 10
477.4723027465
 20
583.8541665648
 11
141.4723027465
 21
583.8541665648
  0
LINE
  5
2C1
100
AcDbEntity
  8
_1
100
AcDbLine
 62
7
  6
CONTINUOUS
 10
477.4723027465
 20
596.703297813
 11
478.9723027465
 21
596.703297813
  0
LINE
  5
2C2
100
AcDbEntity
  8
_1
100
AcDbLine
 62
7
  6
CONTINUOUS
 10
499.9723027465
 20
596.703297813
 11
501.4723027465
 21
596.703297813
  0
LINE
  5
2C3
100
AcDbEntity
  8
_1
100
AcDbLine
 62
7
  6
CONTINUOUS
 10
498.4723027465
 20
598.3206550392
 11
480.4723027465
 21
598.3206550392
  0
LINE
  5
2C4
100
AcDbEntity
  8
_1
100
AcDbLine
 62
7
  6
CONTINUOUS
 10
164.0888420416
 20
599.4487204096
 11
814.8557634514
 21
599.4487204096
  0
LINE
  5
2C5
100
AcDbEntity
  8
_1
100
AcDbLine
 62
7
  6
CONTINUOUS
 10
869.3557634514
 20
600.4610001541
 11
819.3557634514
 21
600.4610001541
  0
LINE
  5
2C6
100
AcDbEntity
  8
_1
100
AcDbLine
 62
7
  6
CONTINUOUS
 10
159.5888420416
 20
600.4610001541
 11
109.5888420416
 21
600.4610001541
  0
LINE
  5
2C7
100
AcDbEntity
  8
_1
100
AcDbLine
 62
7
  6
CONTINUOUS
 10
109.5888420416
 20
600.4876272697
 11
108.1272869444
 21
600.4876272697
  0
LINE
  5
2C8
100
AcDbEntity
  8
_1
100
AcDbLine
 62
7
  6
CONTINUOUS
 10
869.3557634514
 20
600.4876272696
 11
870.8173185486
 21
600.4876272696
  0
LINE
  5
2C9
100
AcDbEntity
  8
_1
100
AcDbLine
 62
7
  6
CONTINUOUS
 10
164.0888420416
 20
600.9102755068
 11
814.8557634514
 21
600.9102755068
  0
LINE
  5
2CA
100
AcDbEntity
  8
_1
100
AcDbLine
 62
7
  6
CONTINUOUS
 10
194.7579722728
 20
601.3601776155
 11
196.7579722728
 21
601.3601776155
  0
LINE
  5
2CB
100
AcDbEntity
  8
_1
100
AcDbLine
 62
7
  6
CONTINUOUS
 10
792.1866332203
 20
601.3601776155
 11
794.1866332203
 21
601.3601776155
  0
LINE
  5
2CC
100
AcDbEntity
  8
_1
100
AcDbLine
 62
7
  6
CONTINUOUS
 10
794.1866332203
 20
601.698230953
 11
792.1866332203
 21
601.698230953
  0
LINE
  5
2CD
100
AcDbEntity
  8
_1
100
AcDbLine
 62
7
  6
CONTINUOUS
 10
196.7579722728
 20
601.698230953
 11
194.7579722728
 21
601.698230953
  0
LINE
  5
2CE
100
AcDbEntity
  8
_1
100
AcDbLine
 62
7
  6
CONTINUOUS
 10
869.3557634514
 20
601.9225552513
 11
819.3557634514
 21
601.9225552513
  0
LINE
  5
2CF
100
AcDbEntity
  8
_1
100
AcDbLine
 62
7
  6
CONTINUOUS
 10
159.5888420416
 20
601.9225552513
 11
109.5888420416
 21
601.9225552513
  0
LINE
  5
2D0
100
AcDbEntity
  8
_1
100
AcDbLine
 62
7
  6
CONTINUOUS
 10
106.3207094489
 20
602.2942047651
 11
107.7822645461
 21
602.2942047651
  0
LINE
  5
2D1
100
AcDbEntity
  8
_1
100
AcDbLine
 62
7
  6
CONTINUOUS
 10
871.1623409469
 20
602.2942047651
 11
872.6238960441
 21
602.2942047651
  0
LINE
  5
2D2
100
AcDbEntity
  8
_1
100
AcDbLine
 62
7
  6
CONTINUOUS
 10
794.1866332203
 20
603.1597860502
 11
792.1866332203
 21
603.1597860502
  0
LINE
  5
2D3
100
AcDbEntity
  8
_1
100
AcDbLine
 62
7
  6
CONTINUOUS
 10
196.7579722728
 20
603.1597860502
 11
194.7579722728
 21
603.1597860502
  0
LINE
  5
2D4
100
AcDbEntity
  8
_1
100
AcDbLine
 62
7
  6
CONTINUOUS
 10
107.7822645461
 20
603.7557598624
 11
487.525656364
 21
603.7557598624
  0
LINE
  5
2D5
100
AcDbEntity
  8
_1
100
AcDbLine
 62
7
  6
CONTINUOUS
 10
491.4318444174
 20
603.7557598624
 11
871.1623409469
 21
603.7557598624
  0
LINE
  5
2D6
100
AcDbEntity
  8
_1
100
AcDbLine
 62
7
  6
CONTINUOUS
 10
870.9778728676
 20
603.832649668
 11
491.168738362
 21
603.832649668
  0
LINE
  5
2D7
100
AcDbEntity
  8
_1
100
AcDbLine
 62
7
  6
CONTINUOUS
 10
487.7757217464
 20
603.832649668
 11
107.9667326255
 21
603.832649668
  0
LINE
  5
2D8
100
AcDbEntity
  8
_1
100
AcDbLine
 62
7
  6
CONTINUOUS
 10
107.9667326687
 20
737.3756834616
 11
107.7822645461
 21
737.4525732672
  0
LINE
  5
2D9
100
AcDbEntity
  8
_1
100
AcDbLine
 62
7
  6
CONTINUOUS
 10
112.6668574988
 20
811.2931435773
 11
112.1231008414
 21
811.6263580854
  0
LINE
  5
2DA
100
AcDbEntity
  8
_1
100
AcDbLine
 62
7
  6
CONTINUOUS
 10
113.0205638759
 20
811.4291857613
 11
112.0637099208
 21
812.0155466191
  0
LINE
  5
2DB
100
AcDbEntity
  8
_1
100
AcDbLine
 62
7
  6
CONTINUOUS
 10
112.3467703054
 20
812.310932289
 11
113.2509098261
 21
811.7568748781
  0
LINE
  5
2DC
100
AcDbEntity
  8
_1
100
AcDbLine
 62
7
  6
CONTINUOUS
 10
119.9438196433
 20
383.7207058599
 11
123.9438196433
 21
387.7207058599
  0
LINE
  5
2DD
100
AcDbEntity
  8
_1
100
AcDbLine
 62
7
  6
CONTINUOUS
 10
106.3207094489
 20
338.9141283643
 11
108.1272869444
 21
340.7207058599
  0
LINE
  5
2DE
100
AcDbEntity
  8
_1
100
AcDbLine
 62
7
  6
CONTINUOUS
 10
109.5888420416
 20
340.7207058599
 11
107.7822645461
 21
338.9141283643
  0
LINE
  5
2DF
100
AcDbEntity
  8
_1
100
AcDbLine
 62
7
  6
CONTINUOUS
 10
107.7822645461
 20
337.4525732671
 11
109.5888420417
 21
339.2591507627
  0
LINE
  5
2E0
100
AcDbEntity
  8
_1
100
AcDbLine
 62
7
  6
CONTINUOUS
 10
854.1305744914
 20
929.5865549026
 11
854.6668574988
 21
929.9151895522
  0
LINE
  5
2E1
100
AcDbEntity
  8
_1
100
AcDbLine
 62
7
  6
CONTINUOUS
 10
855.0205638759
 20
929.7791473682
 11
854.0637099208
 21
929.1927865104
  0
LINE
  5
2E2
100
AcDbEntity
  8
_1
100
AcDbLine
 62
7
  6
CONTINUOUS
 10
855.2509098261
 20
929.4514582514
 11
854.3556965361
 21
928.9028708417
  0
LINE
  5
2E3
100
AcDbEntity
  8
_1
100
AcDbLine
 62
7
  6
CONTINUOUS
 10
866.1367604753
 20
936.5373411234
 11
866.7348973792
 21
936.8621029645
  0
LINE
  5
2E4
100
AcDbEntity
  8
_1
100
AcDbLine
 62
7
  6
CONTINUOUS
 10
867.0639536503
 20
936.6984807271
 11
866.0777232741
 21
936.1630013232
  0
LINE
  5
2E5
100
AcDbEntity
  8
_1
100
AcDbLine
 62
7
  6
CONTINUOUS
 10
867.2341102339
 20
936.3359882111
 11
866.2463373987
 21
935.7996713203
  0
LINE
  5
2E6
100
AcDbEntity
  8
_1
100
AcDbLine
 62
7
  6
CONTINUOUS
 10
124.7430363829
 20
804.3418110466
 11
124.1367604753
 21
804.6709920062
  0
LINE
  5
2E7
100
AcDbEntity
  8
_1
100
AcDbLine
 62
7
  6
CONTINUOUS
 10
125.0639536503
 20
804.5098524024
 11
124.0777232741
 21
805.0453318063
  0
LINE
  5
2E8
100
AcDbEntity
  8
_1
100
AcDbLine
 62
7
  6
CONTINUOUS
 10
124.2463373987
 20
805.4086618092
 11
125.2341102339
 21
804.8723449184
  0
LINE
  5
2E9
100
AcDbEntity
  8
_1
100
AcDbLine
 62
7
  6
CONTINUOUS
 10
113.4526128651
 20
937.0294608909
 11
112.6745247964
 21
937.7178550634
  0
LINE
  5
2EA
100
AcDbEntity
  8
_1
100
AcDbLine
 62
7
  6
CONTINUOUS
 10
112.8581401889
 20
938.0891575087
 11
113.6986368879
 21
937.3455488442
  0
LINE
  5
2EB
100
AcDbEntity
  8
_1
100
AcDbLine
 62
7
  6
CONTINUOUS
 10
113.7043741568
 20
937.7421069677
 11
113.2550223308
 21
938.1396598808
  0
LINE
  5
2EC
100
AcDbEntity
  8
_1
100
AcDbLine
 62
7
  6
CONTINUOUS
 10
107.7822645461
 20
1002.2942047652
 11
109.2438196433
 21
1000.8326496679
  0
LINE
  5
2ED
100
AcDbEntity
  8
_1
100
AcDbLine
 62
7
  6
CONTINUOUS
 10
477.4723027465
 20
580.4568707876
 11
477.4723027465
 21
599.1777594108
  0
LINE
  5
2EE
100
AcDbEntity
  8
_1
100
AcDbLine
 62
7
  6
CONTINUOUS
 10
478.9723027465
 20
580.4568707876
 11
478.9723027465
 21
596.703297813
  0
LINE
  5
2EF
100
AcDbEntity
  8
_1
100
AcDbLine
 62
7
  6
CONTINUOUS
 10
480.4723027465
 20
598.3206550392
 11
480.4723027465
 21
599.4487204096
  0
LINE
  5
2F0
100
AcDbEntity
  8
_1
100
AcDbLine
 62
7
  6
CONTINUOUS
 10
866.381552291
 20
810.4886983581
 11
867.447449088
 21
810.8453424375
  0
LINE
  5
2F1
100
AcDbEntity
  8
_1
100
AcDbLine
 62
7
  6
CONTINUOUS
 10
867.5965128204
 20
810.4736784887
 11
866.532280477
 21
810.1175913277
  0
LINE
  5
2F2
100
AcDbEntity
  8
_1
100
AcDbLine
 62
7
  6
CONTINUOUS
 10
866.8476162171
 20
809.905903467
 11
867.9115748189
 21
810.2618990353
  0
LINE
  5
2F3
100
AcDbEntity
  8
_1
100
AcDbLine
 62
7
  6
CONTINUOUS
 10
870.9778728486
 20
738.8756834616
 11
871.1623409469
 21
738.9141283644
  0
LINE
  5
2F4
100
AcDbEntity
  8
_1
100
AcDbLine
 62
7
  6
CONTINUOUS
 10
107.7822645461
 20
738.9141283644
 11
107.9667326445
 21
738.8756834616
  0
LINE
  5
2F5
100
AcDbEntity
  8
_1
100
AcDbLine
 62
7
  6
CONTINUOUS
 10
498.4723027465
 20
599.4487204096
 11
498.4723027465
 21
598.3206550392
  0
LINE
  5
2F6
100
AcDbEntity
  8
_1
100
AcDbLine
 62
7
  6
CONTINUOUS
 10
499.9723027465
 20
596.703297813
 11
499.9723027465
 21
580.4568707876
  0
LINE
  5
2F7
100
AcDbEntity
  8
_1
100
AcDbLine
 62
7
  6
CONTINUOUS
 10
501.4723027465
 20
599.1777594108
 11
501.4723027465
 21
580.4568707876
  0
LINE
  5
2F8
100
AcDbEntity
  8
_1
100
AcDbLine
 62
7
  6
CONTINUOUS
 10
871.1623409469
 20
1002.2942047652
 11
869.7007858497
 21
1000.832649668
  0
LINE
  5
2F9
100
AcDbEntity
  8
_1
100
AcDbLine
 62
7
  6
CONTINUOUS
 10
125.4474491307
 20
805.362990797
 11
124.3815523483
 21
805.71963491
  0
LINE
  5
2FA
100
AcDbEntity
  8
_1
100
AcDbLine
 62
7
  6
CONTINUOUS
 10
124.532280477
 20
806.0907418018
 11
125.5965128204
 21
805.7346546408
  0
LINE
  5
2FB
100
AcDbEntity
  8
_1
100
AcDbLine
 62
7
  6
CONTINUOUS
 10
124.8476162171
 20
806.3024296626
 11
125.9115748189
 21
805.9464340942
  0
LINE
  5
2FC
100
AcDbEntity
  8
_1
100
AcDbLine
 62
7
  6
CONTINUOUS
 10
112.6668574988
 20
936.2931435773
 11
112.1231008414
 21
936.6263580854
  0
LINE
  5
2FD
100
AcDbEntity
  8
_1
100
AcDbLine
 62
7
  6
CONTINUOUS
 10
113.0205638759
 20
936.4291857613
 11
112.0637099208
 21
937.0155466191
  0
LINE
  5
2FE
100
AcDbEntity
  8
_1
100
AcDbLine
 62
7
  6
CONTINUOUS
 10
112.3467703054
 20
937.310932289
 11
113.2509098261
 21
936.7568748781
  0
LINE
  5
2FF
100
AcDbEntity
  8
_1
100
AcDbLine
 62
7
  6
CONTINUOUS
 10
871.1623409469
 20
337.4525732672
 11
869.3557634514
 21
339.2591507627
  0
LINE
  5
300
100
AcDbEntity
  8
_1
100
AcDbLine
 62
7
  6
CONTINUOUS
 10
871.1623409469
 20
338.9141283644
 11
869.3557634514
 21
340.7207058599
  0
LINE
  5
301
100
AcDbEntity
  8
_1
100
AcDbLine
 62
7
  6
CONTINUOUS
 10
870.8173185486
 20
340.7207058599
 11
872.6238960441
 21
338.9141283644
  0
LINE
  5
302
100
AcDbEntity
  8
_1
100
AcDbLine
 62
7
  6
CONTINUOUS
 10
854.6678575557
 20
928.4845793899
 11
855.4526128651
 21
929.1788722387
  0
LINE
  5
303
100
AcDbEntity
  8
_1
100
AcDbLine
 62
7
  6
CONTINUOUS
 10
854.8581401889
 20
928.1191756208
 11
855.6986368879
 21
928.8627842853
  0
LINE
  5
304
100
AcDbEntity
  8
_1
100
AcDbLine
 62
7
  6
CONTINUOUS
 10
855.7043741568
 20
928.4662261618
 11
855.2518499309
 21
928.0658665464
  0
LINE
  5
305
100
AcDbEntity
  8
_1
100
AcDbLine
 62
7
  6
CONTINUOUS
 10
866.1367604753
 20
811.5373411234
 11
866.7348973792
 21
811.8621029645
  0
LINE
  5
306
100
AcDbEntity
  8
_1
100
AcDbLine
 62
7
  6
CONTINUOUS
 10
867.0639536503
 20
811.6984807271
 11
866.0777232741
 21
811.1630013232
  0
LINE
  5
307
100
AcDbEntity
  8
_1
100
AcDbLine
 62
7
  6
CONTINUOUS
 10
867.2341102339
 20
811.3359882111
 11
866.2463373987
 21
810.7996713203
  0
LINE
  5
308
100
AcDbEntity
  8
_1
100
AcDbLine
 62
7
  6
CONTINUOUS
 10
870.9778728676
 20
737.3756834616
 11
107.9667326255
 21
737.3756834616
  0
LINE
  5
309
100
AcDbEntity
  8
_1
100
AcDbLine
 62
7
  6
CONTINUOUS
 10
106.3207094489
 20
738.9141283644
 11
107.9667326445
 21
738.9141283643
  0
LINE
  5
30A
100
AcDbEntity
  8
_1
100
AcDbLine
 62
7
  6
CONTINUOUS
 10
870.9778728486
 20
738.9141283643
 11
872.6238960441
 21
738.9141283644
  0
LINE
  5
30B
100
AcDbEntity
  8
_1
100
AcDbLine
 62
7
  6
CONTINUOUS
 10
869.7007858497
 20
740.3756834616
 11
109.2438196433
 21
740.3756834616
  0
LINE
  5
30C
100
AcDbEntity
  8
_1
100
AcDbLine
 62
7
  6
CONTINUOUS
 10
124.7430363829
 20
929.3418110466
 11
124.1367604753
 21
929.6709920062
  0
LINE
  5
30D
100
AcDbEntity
  8
_1
100
AcDbLine
 62
7
  6
CONTINUOUS
 10
125.0639536503
 20
929.5098524024
 11
124.0777232741
 21
930.0453318063
  0
LINE
  5
30E
100
AcDbEntity
  8
_1
100
AcDbLine
 62
7
  6
CONTINUOUS
 10
124.2463373987
 20
930.4086618092
 11
125.2341102339
 21
929.8723449184
  0
LINE
  5
30F
100
AcDbEntity
  8
_1
100
AcDbLine
 62
7
  6
CONTINUOUS
 10
855.0007858497
 20
387.7207058599
 11
859.0007858497
 21
383.7207058599
  0
LINE
  5
310
100
AcDbEntity
  8
_1
100
AcDbLine
 62
7
  6
CONTINUOUS
 10
854.1305744914
 20
804.5865549026
 11
854.6668574988
 21
804.9151895522
  0
LINE
  5
311
100
AcDbEntity
  8
_1
100
AcDbLine
 62
7
  6
CONTINUOUS
 10
855.0205638759
 20
804.7791473682
 11
854.0637099208
 21
804.1927865104
  0
LINE
  5
312
100
AcDbEntity
  8
_1
100
AcDbLine
 62
7
  6
CONTINUOUS
 10
855.2509098261
 20
804.4514582514
 11
854.3556965361
 21
803.9028708417
  0
LINE
  5
313
100
AcDbEntity
  8
_1
100
AcDbLine
 62
7
  6
CONTINUOUS
 10
871.1623409469
 20
737.4525732672
 11
870.9778728245
 21
737.3756834616
  0
LINE
  5
314
100
AcDbEntity
  8
_1
100
AcDbLine
 62
7
  6
CONTINUOUS
 10
871.1623409469
 20
603.7557598623
 11
870.9778728245
 21
603.832649668
  0
LINE
  5
315
100
AcDbEntity
  8
_1
100
AcDbLine
 62
7
  6
CONTINUOUS
 10
116.3072392371
 20
806.3541665648
 11
117.1732646408
 21
806.3541665648
  0
LINE
  5
316
100
AcDbEntity
  8
_1
100
AcDbLine
 62
7
  6
CONTINUOUS
 10
119.7713408522
 20
806.3541665648
 11
120.637366256
 21
806.3541665648
  0
LINE
  5
317
100
AcDbEntity
  8
_1
100
AcDbLine
 62
7
  6
CONTINUOUS
 10
858.3072392371
 20
806.3541665648
 11
859.1732646408
 21
806.3541665648
  0
LINE
  5
318
100
AcDbEntity
  8
_1
100
AcDbLine
 62
7
  6
CONTINUOUS
 10
861.7713408522
 20
806.3541665648
 11
862.637366256
 21
806.3541665648
  0
LINE
  5
319
100
AcDbEntity
  8
_1
100
AcDbLine
 62
7
  6
CONTINUOUS
 10
862.637366256
 20
809.8541665648
 11
861.7713408522
 21
809.8541665648
  0
LINE
  5
31A
100
AcDbEntity
  8
_1
100
AcDbLine
 62
7
  6
CONTINUOUS
 10
859.1732646408
 20
809.8541665648
 11
858.3072392371
 21
809.8541665648
  0
LINE
  5
31B
100
AcDbEntity
  8
_1
100
AcDbLine
 62
7
  6
CONTINUOUS
 10
120.637366256
 20
809.8541665648
 11
119.7713408522
 21
809.8541665648
  0
LINE
  5
31C
100
AcDbEntity
  8
_1
100
AcDbLine
 62
7
  6
CONTINUOUS
 10
117.1732646408
 20
809.8541665648
 11
116.3072392371
 21
809.8541665648
  0
LINE
  5
31D
100
AcDbEntity
  8
_1
100
AcDbLine
 62
7
  6
CONTINUOUS
 10
125.4474491307
 20
930.362990797
 11
124.3815523483
 21
930.71963491
  0
LINE
  5
31E
100
AcDbEntity
  8
_1
100
AcDbLine
 62
7
  6
CONTINUOUS
 10
124.532280477
 20
931.0907418018
 11
125.5965128204
 21
930.7346546408
  0
LINE
  5
31F
100
AcDbEntity
  8
_1
100
AcDbLine
 62
7
  6
CONTINUOUS
 10
124.8476162171
 20
931.3024296626
 11
125.9115748189
 21
930.9464340942
  0
LINE
  5
320
100
AcDbEntity
  8
_1
100
AcDbLine
 62
7
  6
CONTINUOUS
 10
854.6678575557
 20
803.4845793899
 11
855.4526128651
 21
804.1788722387
  0
LINE
  5
321
100
AcDbEntity
  8
_1
100
AcDbLine
 62
7
  6
CONTINUOUS
 10
854.8581401889
 20
803.1191756208
 11
855.6986368879
 21
803.8627842853
  0
LINE
  5
322
100
AcDbEntity
  8
_1
100
AcDbLine
 62
7
  6
CONTINUOUS
 10
855.7043741568
 20
803.4662261618
 11
855.2518499309
 21
803.0658665464
  0
LINE
  5
323
100
AcDbEntity
  8
_1
100
AcDbLine
 62
7
  6
CONTINUOUS
 10
860.0392900446
 20
935.8541665648
 11
859.6062773427
 21
935.1041665648
  0
LINE
  5
324
100
AcDbEntity
  8
_1
100
AcDbLine
 62
7
  6
CONTINUOUS
 10
858.3072392371
 20
932.8541665648
 11
857.8742265352
 21
932.1041665648
  0
LINE
  5
325
100
AcDbEntity
  8
_1
100
AcDbLine
 62
7
  6
CONTINUOUS
 10
860.9053154484
 20
930.3541665648
 11
861.3383281503
 21
931.1041665648
  0
LINE
  5
326
100
AcDbEntity
  8
_1
100
AcDbLine
 62
7
  6
CONTINUOUS
 10
862.637366256
 20
933.3541665648
 11
863.0703789579
 21
934.1041665648
  0
LINE
  5
327
100
AcDbEntity
  8
_1
100
AcDbLine
 62
7
  6
CONTINUOUS
 10
860.0392900446
 20
810.8541665648
 11
859.6062773427
 21
810.1041665648
  0
LINE
  5
328
100
AcDbEntity
  8
_1
100
AcDbLine
 62
7
  6
CONTINUOUS
 10
858.3072392371
 20
807.8541665648
 11
857.8742265352
 21
807.1041665648
  0
LINE
  5
329
100
AcDbEntity
  8
_1
100
AcDbLine
 62
7
  6
CONTINUOUS
 10
860.9053154484
 20
805.3541665648
 11
861.3383281503
 21
806.1041665648
  0
LINE
  5
32A
100
AcDbEntity
  8
_1
100
AcDbLine
 62
7
  6
CONTINUOUS
 10
862.637366256
 20
808.3541665648
 11
863.0703789579
 21
809.1041665648
  0
LINE
  5
32B
100
AcDbEntity
  8
_1
100
AcDbLine
 62
7
  6
CONTINUOUS
 10
116.3072392371
 20
931.3541665648
 11
117.1732646408
 21
931.3541665648
  0
LINE
  5
32C
100
AcDbEntity
  8
_1
100
AcDbLine
 62
7
  6
CONTINUOUS
 10
119.7713408522
 20
931.3541665648
 11
120.637366256
 21
931.3541665648
  0
LINE
  5
32D
100
AcDbEntity
  8
_1
100
AcDbLine
 62
7
  6
CONTINUOUS
 10
858.3072392371
 20
931.3541665648
 11
859.1732646408
 21
931.3541665648
  0
LINE
  5
32E
100
AcDbEntity
  8
_1
100
AcDbLine
 62
7
  6
CONTINUOUS
 10
861.7713408522
 20
931.3541665648
 11
862.637366256
 21
931.3541665648
  0
LINE
  5
32F
100
AcDbEntity
  8
_1
100
AcDbLine
 62
7
  6
CONTINUOUS
 10
862.637366256
 20
934.8541665648
 11
861.7713408522
 21
934.8541665648
  0
LINE
  5
330
100
AcDbEntity
  8
_1
100
AcDbLine
 62
7
  6
CONTINUOUS
 10
859.1732646408
 20
934.8541665648
 11
858.3072392371
 21
934.8541665648
  0
LINE
  5
331
100
AcDbEntity
  8
_1
100
AcDbLine
 62
7
  6
CONTINUOUS
 10
120.637366256
 20
934.8541665648
 11
119.7713408522
 21
934.8541665648
  0
LINE
  5
332
100
AcDbEntity
  8
_1
100
AcDbLine
 62
7
  6
CONTINUOUS
 10
117.1732646408
 20
934.8541665648
 11
116.3072392371
 21
934.8541665648
  0
LINE
  5
333
100
AcDbEntity
  8
_1
100
AcDbLine
 62
7
  6
CONTINUOUS
 10
867.4474491307
 20
805.362990797
 11
866.3815523483
 21
805.71963491
  0
LINE
  5
334
100
AcDbEntity
  8
_1
100
AcDbLine
 62
7
  6
CONTINUOUS
 10
866.532280477
 20
806.0907418018
 11
867.5965128204
 21
805.7346546408
  0
LINE
  5
335
100
AcDbEntity
  8
_1
100
AcDbLine
 62
7
  6
CONTINUOUS
 10
866.8476162171
 20
806.3024296626
 11
867.9115748189
 21
805.9464340942
  0
LINE
  5
336
100
AcDbEntity
  8
_1
100
AcDbLine
 62
7
  6
CONTINUOUS
 10
782.1866332203
 20
338.0485470794
 11
782.1866332203
 21
339.5101021765
  0
LINE
  5
337
100
AcDbEntity
  8
_1
100
AcDbLine
 62
7
  6
CONTINUOUS
 10
784.1866332203
 20
339.5101021765
 11
784.1866332203
 21
338.0485470794
  0
LINE
  5
338
100
AcDbEntity
  8
_1
100
AcDbLine
 62
7
  6
CONTINUOUS
 10
792.1866332203
 20
601.6982309531
 11
792.1866332203
 21
603.1597860502
  0
LINE
  5
339
100
AcDbEntity
  8
_1
100
AcDbLine
 62
7
  6
CONTINUOUS
 10
794.1866332203
 20
603.1597860502
 11
794.1866332203
 21
601.6982309531
  0
LINE
  5
33A
100
AcDbEntity
  8
_1
100
AcDbLine
 62
7
  6
CONTINUOUS
 10
866.7430363829
 20
804.3418110466
 11
866.1367604753
 21
804.6709920062
  0
LINE
  5
33B
100
AcDbEntity
  8
_1
100
AcDbLine
 62
7
  6
CONTINUOUS
 10
867.0639536503
 20
804.5098524024
 11
866.0777232741
 21
805.0453318063
  0
LINE
  5
33C
100
AcDbEntity
  8
_1
100
AcDbLine
 62
7
  6
CONTINUOUS
 10
866.2463373987
 20
805.4086618092
 11
867.2341102339
 21
804.8723449184
  0
LINE
  5
33D
100
AcDbEntity
  8
_1
100
AcDbLine
 62
7
  6
CONTINUOUS
 10
814.8557634514
 20
600.9102755067
 11
814.8557634514
 21
599.4487204096
  0
LINE
  5
33E
100
AcDbEntity
  8
_1
100
AcDbLine
 62
7
  6
CONTINUOUS
 10
814.8557634514
 20
341.7596127199
 11
814.8557634514
 21
340.2980576228
  0
LINE
  5
33F
100
AcDbEntity
  8
_1
100
AcDbLine
 62
7
  6
CONTINUOUS
 10
819.3557634514
 20
339.2857778783
 11
819.3557634514
 21
340.7473329754
  0
LINE
  5
340
100
AcDbEntity
  8
_1
100
AcDbLine
 62
7
  6
CONTINUOUS
 10
819.3557634514
 20
600.4610001542
 11
819.3557634514
 21
601.9225552513
  0
LINE
  5
341
100
AcDbEntity
  8
_1
100
AcDbLine
 62
7
  6
CONTINUOUS
 10
858.6986018989
 20
925.9625649929
 11
858.8396928312
 21
926.6560490811
  0
LINE
  5
342
100
AcDbEntity
  8
_1
100
AcDbLine
 62
7
  6
CONTINUOUS
 10
859.1859908746
 20
926.8493595223
 11
858.9622552303
 21
925.7496636969
  0
LINE
  5
343
100
AcDbEntity
  8
_1
100
AcDbLine
 62
7
  6
CONTINUOUS
 10
859.5827430835
 20
926.7943404453
 11
859.3586575178
 21
925.6929247016
  0
LINE
  5
344
100
AcDbEntity
  8
_1
100
AcDbLine
 62
7
  6
CONTINUOUS
 10
858.6986018989
 20
800.9625649929
 11
858.8396928312
 21
801.6560490811
  0
LINE
  5
345
100
AcDbEntity
  8
_1
100
AcDbLine
 62
7
  6
CONTINUOUS
 10
859.1859908746
 20
801.8493595223
 11
858.9622552303
 21
800.7496636969
  0
LINE
  5
346
100
AcDbEntity
  8
_1
100
AcDbLine
 62
7
  6
CONTINUOUS
 10
859.5827430835
 20
801.7943404453
 11
859.3586575178
 21
800.6929247016
  0
LINE
  5
347
100
AcDbEntity
  8
_1
100
AcDbLine
 62
7
  6
CONTINUOUS
 10
872.7007858497
 20
739.0985964869
 11
872.6238960441
 21
738.9141283644
  0
LINE
  5
348
100
AcDbEntity
  8
_1
100
AcDbLine
 62
7
  6
CONTINUOUS
 10
869.3557634514
 20
601.9491823669
 11
871.1623409469
 21
603.7557598624
  0
LINE
  5
349
100
AcDbEntity
  8
_1
100
AcDbLine
 62
7
  6
CONTINUOUS
 10
869.3557634514
 20
600.4876272696
 11
871.1623409469
 21
602.2942047652
  0
LINE
  5
34A
100
AcDbEntity
  8
_1
100
AcDbLine
 62
7
  6
CONTINUOUS
 10
872.6238960441
 20
602.2942047652
 11
870.8173185486
 21
600.4876272696
  0
LINE
  5
34B
100
AcDbEntity
  8
_1
100
AcDbLine
 62
7
  6
CONTINUOUS
 10
859.0007858497
 20
557.4876272696
 11
855.0007858497
 21
553.4876272696
  0
LINE
  5
34C
100
AcDbEntity
  8
_1
100
AcDbLine
 62
7
  6
CONTINUOUS
 10
109.2438196433
 20
1000.832649668
 11
869.7007858497
 21
1000.832649668
  0
LINE
  5
34D
100
AcDbEntity
  8
_1
100
AcDbLine
 62
7
  6
CONTINUOUS
 10
106.3207094489
 20
1002.2942047651
 11
107.9667326444
 21
1002.2942047652
  0
LINE
  5
34E
100
AcDbEntity
  8
_1
100
AcDbLine
 62
7
  6
CONTINUOUS
 10
870.9778728485
 20
1002.2942047652
 11
872.6238960441
 21
1002.2942047651
  0
LINE
  5
34F
100
AcDbEntity
  8
_1
100
AcDbLine
 62
7
  6
CONTINUOUS
 10
107.9667326255
 20
1003.832649668
 11
870.9778728676
 21
1003.832649668
  0
LINE
  5
350
100
AcDbEntity
  8
_1
100
AcDbLine
 62
7
  6
CONTINUOUS
 10
854.6668574988
 20
811.2931435773
 11
854.1231008414
 21
811.6263580854
  0
LINE
  5
351
100
AcDbEntity
  8
_1
100
AcDbLine
 62
7
  6
CONTINUOUS
 10
855.0205638759
 20
811.4291857613
 11
854.0637099208
 21
812.0155466191
  0
LINE
  5
352
100
AcDbEntity
  8
_1
100
AcDbLine
 62
7
  6
CONTINUOUS
 10
854.3467703054
 20
812.310932289
 11
855.2509098261
 21
811.7568748781
  0
LINE
  5
353
100
AcDbEntity
  8
_1
100
AcDbLine
 62
7
  6
CONTINUOUS
 10
869.7007858497
 20
740.3756834616
 11
871.1623409469
 21
738.9141283644
  0
LINE
  5
354
100
AcDbEntity
  8
_1
100
AcDbLine
 62
7
  6
CONTINUOUS
 10
872.7007858497
 20
602.1097366426
 11
872.6238960441
 21
602.2942047652
  0
LINE
  5
355
100
AcDbEntity
  8
_1
100
AcDbLine
 62
7
  6
CONTINUOUS
 10
859.9196610147
 20
814.4523796337
 11
859.8902386491
 21
815.5759744475
  0
LINE
  5
356
100
AcDbEntity
  8
_1
100
AcDbLine
 62
7
  6
CONTINUOUS
 10
860.2892446684
 20
815.6098607815
 11
860.3186210896
 21
814.4880205197
  0
LINE
  5
357
100
AcDbEntity
  8
_1
100
AcDbLine
 62
7
  6
CONTINUOUS
 10
860.5838855806
 20
815.8492377492
 11
860.6132902655
 21
814.7263181359
  0
LINE
  5
358
100
AcDbEntity
  8
_1
100
AcDbLine
 62
7
  6
CONTINUOUS
 10
837.4723027465
 20
583.8541665648
 11
837.4723027465
 21
570.8541665648
  0
LINE
  5
359
100
AcDbEntity
  8
_1
100
AcDbLine
 62
7
  6
CONTINUOUS
 10
837.4723027465
 20
368.3541665648
 11
837.4723027465
 21
355.3541665648
  0
LINE
  5
35A
100
AcDbEntity
  8
_1
100
AcDbLine
 62
7
  6
CONTINUOUS
 10
838.9723027465
 20
569.3541665648
 11
838.9723027465
 21
369.8541665648
  0
LINE
  5
35B
100
AcDbEntity
  8
_1
100
AcDbLine
 62
7
  6
CONTINUOUS
 10
851.9723027465
 20
369.8541665648
 11
851.9723027465
 21
569.3541665648
  0
LINE
  5
35C
100
AcDbEntity
  8
_1
100
AcDbLine
 62
7
  6
CONTINUOUS
 10
855.0007858497
 20
387.7207058599
 11
855.0007858497
 21
405.751716832
  0
LINE
  5
35D
100
AcDbEntity
  8
_1
100
AcDbLine
 62
7
  6
CONTINUOUS
 10
855.0007858497
 20
410.4566162975
 11
855.0007858497
 21
530.751716832
  0
LINE
  5
35E
100
AcDbEntity
  8
_1
100
AcDbLine
 62
7
  6
CONTINUOUS
 10
855.0007858497
 20
535.4566162975
 11
855.0007858497
 21
553.4876272696
  0
LINE
  5
35F
100
AcDbEntity
  8
_1
100
AcDbLine
 62
7
  6
CONTINUOUS
 10
860.472302737
 20
411.0394825846
 11
860.4723025966
 21
411.1041650072
  0
LINE
  5
360
100
AcDbEntity
  8
_1
100
AcDbLine
 62
7
  6
CONTINUOUS
 10
860.4723027029
 20
405.3688544317
 11
860.4723027923
 21
405.3041699909
  0
LINE
  5
361
100
AcDbEntity
  8
_1
100
AcDbLine
 62
7
  6
CONTINUOUS
 10
860.472302737
 20
536.0394825846
 11
860.4723025966
 21
536.1041650072
  0
LINE
  5
362
100
AcDbEntity
  8
_1
100
AcDbLine
 62
7
  6
CONTINUOUS
 10
860.4723027029
 20
530.3688544317
 11
860.4723027923
 21
530.3041699909
  0
LINE
  5
363
100
AcDbEntity
  8
_1
100
AcDbLine
 62
7
  6
CONTINUOUS
 10
859.8902386491
 20
925.632358682
 11
859.9196610147
 21
926.7559534958
  0
LINE
  5
364
100
AcDbEntity
  8
_1
100
AcDbLine
 62
7
  6
CONTINUOUS
 10
860.3186210896
 20
926.7203126098
 11
860.2892446684
 21
925.5984723481
  0
LINE
  5
365
100
AcDbEntity
  8
_1
100
AcDbLine
 62
7
  6
CONTINUOUS
 10
860.6132902655
 20
926.4820149937
 11
860.5838855806
 21
925.3590953803
  0
LINE
  5
366
100
AcDbEntity
  8
_1
100
AcDbLine
 62
7
  6
CONTINUOUS
 10
859.8902386491
 20
800.632358682
 11
859.9196610147
 21
801.7559534958
  0
LINE
  5
367
100
AcDbEntity
  8
_1
100
AcDbLine
 62
7
  6
CONTINUOUS
 10
860.3186210896
 20
801.7203126098
 11
860.2892446684
 21
800.5984723481
  0
LINE
  5
368
100
AcDbEntity
  8
_1
100
AcDbLine
 62
7
  6
CONTINUOUS
 10
860.6132902655
 20
801.4820149937
 11
860.5838855806
 21
800.3590953803
  0
LINE
  5
369
100
AcDbEntity
  8
_1
100
AcDbLine
 62
7
  6
CONTINUOUS
 10
871.1623409469
 20
738.9141283644
 11
871.2007858497
 21
739.0985964628
  0
LINE
  5
36A
100
AcDbEntity
  8
_1
100
AcDbLine
 62
7
  6
CONTINUOUS
 10
867.4474491307
 20
930.362990797
 11
866.3815523483
 21
930.71963491
  0
LINE
  5
36B
100
AcDbEntity
  8
_1
100
AcDbLine
 62
7
  6
CONTINUOUS
 10
866.532280477
 20
931.0907418018
 11
867.5965128204
 21
930.7346546408
  0
LINE
  5
36C
100
AcDbEntity
  8
_1
100
AcDbLine
 62
7
  6
CONTINUOUS
 10
866.8476162171
 20
931.3024296626
 11
867.9115748189
 21
930.9464340942
  0
LINE
  5
36D
100
AcDbEntity
  8
_1
100
AcDbLine
 62
7
  6
CONTINUOUS
 10
855.4526128651
 20
812.0294608909
 11
854.6745247964
 21
812.7178550634
  0
LINE
  5
36E
100
AcDbEntity
  8
_1
100
AcDbLine
 62
7
  6
CONTINUOUS
 10
854.8581401889
 20
813.0891575087
 11
855.6986368879
 21
812.3455488442
  0
LINE
  5
36F
100
AcDbEntity
  8
_1
100
AcDbLine
 62
7
  6
CONTINUOUS
 10
855.7043741568
 20
812.7421069677
 11
855.2550223308
 21
813.1396598808
  0
LINE
  5
370
100
AcDbEntity
  8
_1
100
AcDbLine
 62
7
  6
CONTINUOUS
 10
859.9196610147
 20
939.4523796337
 11
859.8902386491
 21
940.5759744475
  0
LINE
  5
371
100
AcDbEntity
  8
_1
100
AcDbLine
 62
7
  6
CONTINUOUS
 10
860.2892446684
 20
940.6098607815
 11
860.3186210896
 21
939.4880205197
  0
LINE
  5
372
100
AcDbEntity
  8
_1
100
AcDbLine
 62
7
  6
CONTINUOUS
 10
860.5838855806
 20
940.8492377492
 11
860.6132902655
 21
939.7263181359
  0
LINE
  5
373
100
AcDbEntity
  8
_1
100
AcDbLine
 62
7
  6
CONTINUOUS
 10
867.3742591528
 20
557.4876272696
 11
867.3742591528
 21
383.7207058599
  0
LINE
  5
374
100
AcDbEntity
  8
_1
100
AcDbLine
 62
7
  6
CONTINUOUS
 10
869.3557634514
 20
383.7207058599
 11
869.3557634514
 21
339.2591507627
  0
LINE
  5
375
100
AcDbEntity
  8
_1
100
AcDbLine
 62
7
  6
CONTINUOUS
 10
869.3557634514
 20
557.4876272696
 11
869.3557634514
 21
601.9491823669
  0
LINE
  5
376
100
AcDbEntity
  8
_1
100
AcDbLine
 62
7
  6
CONTINUOUS
 10
869.7007858497
 20
1000.832649668
 11
869.7007858497
 21
740.3756834616
  0
LINE
  5
377
100
AcDbEntity
  8
_1
100
AcDbLine
 62
7
  6
CONTINUOUS
 10
869.8101843148
 20
383.7207058599
 11
869.8101843148
 21
557.4876272696
  0
LINE
  5
378
100
AcDbEntity
  8
_1
100
AcDbLine
 62
7
  6
CONTINUOUS
 10
870.8173185486
 20
340.7207058599
 11
870.8173185486
 21
383.7207058599
  0
LINE
  5
379
100
AcDbEntity
  8
_1
100
AcDbLine
 62
7
  6
CONTINUOUS
 10
870.8173185486
 20
557.4876272696
 11
870.8173185486
 21
600.4876272697
  0
LINE
  5
37A
100
AcDbEntity
  8
_1
100
AcDbLine
 62
7
  6
CONTINUOUS
 10
871.1623409469
 20
739.0985964628
 11
871.1623409469
 21
737.4525732672
  0
LINE
  5
37B
100
AcDbEntity
  8
_1
100
AcDbLine
 62
7
  6
CONTINUOUS
 10
871.1623409469
 20
338.9141283644
 11
871.1623409469
 21
337.4525732672
  0
LINE
  5
37C
100
AcDbEntity
  8
_1
100
AcDbLine
 62
7
  6
CONTINUOUS
 10
871.1623409469
 20
602.2942047652
 11
871.1623409469
 21
603.7557598624
  0
LINE
  5
37D
100
AcDbEntity
  8
_1
100
AcDbLine
 62
7
  6
CONTINUOUS
 10
871.1623409469
 20
1002.1097366669
 11
871.1623409469
 21
1003.7557598624
  0
LINE
  5
37E
100
AcDbEntity
  8
_1
100
AcDbLine
 62
7
  6
CONTINUOUS
 10
872.6238960441
 20
602.2942047652
 11
872.6238960441
 21
338.9141283644
  0
LINE
  5
37F
100
AcDbEntity
  8
_1
100
AcDbLine
 62
7
  6
CONTINUOUS
 10
872.7007858497
 20
1002.1097366858
 11
872.7007858497
 21
739.0985964437
  0
LINE
  5
380
100
AcDbEntity
  8
_1
100
AcDbLine
 62
7
  6
CONTINUOUS
 10
872.7007858497
 20
339.0985964437
 11
872.7007858497
 21
602.1097366858
  0
LINE
  5
381
100
AcDbEntity
  8
_1
100
AcDbLine
 62
7
  6
CONTINUOUS
 10
107.9667326444
 20
1002.332649668
 11
107.7822645461
 21
1002.2942047651
  0
LINE
  5
382
100
AcDbEntity
  8
_1
100
AcDbLine
 62
7
  6
CONTINUOUS
 10
871.1623409469
 20
1002.2942047651
 11
870.9778728485
 21
1002.332649668
  0
LINE
  5
383
100
AcDbEntity
  8
_1
100
AcDbLine
 62
7
  6
CONTINUOUS
 10
866.7430363829
 20
929.3418110466
 11
866.1367604753
 21
929.6709920062
  0
LINE
  5
384
100
AcDbEntity
  8
_1
100
AcDbLine
 62
7
  6
CONTINUOUS
 10
867.0639536503
 20
929.5098524024
 11
866.0777232741
 21
930.0453318063
  0
LINE
  5
385
100
AcDbEntity
  8
_1
100
AcDbLine
 62
7
  6
CONTINUOUS
 10
866.2463373987
 20
930.4086618092
 11
867.2341102339
 21
929.8723449184
  0
LINE
  5
386
100
AcDbEntity
  8
_1
100
AcDbLine
 62
7
  6
CONTINUOUS
 10
857.8742265352
 20
809.1041665648
 11
858.3072392371
 21
808.3541665648
  0
LINE
  5
387
100
AcDbEntity
  8
_1
100
AcDbLine
 62
7
  6
CONTINUOUS
 10
859.6062773427
 20
806.1041665648
 11
860.0392900446
 21
805.3541665648
  0
LINE
  5
388
100
AcDbEntity
  8
_1
100
AcDbLine
 62
7
  6
CONTINUOUS
 10
863.0703789579
 20
807.1041665648
 11
862.637366256
 21
807.8541665648
  0
LINE
  5
389
100
AcDbEntity
  8
_1
100
AcDbLine
 62
7
  6
CONTINUOUS
 10
861.3383281503
 20
810.1041665648
 11
860.9053154484
 21
810.8541665648
  0
LINE
  5
38A
100
AcDbEntity
  8
_1
100
AcDbLine
 62
7
  6
CONTINUOUS
 10
858.8396928312
 20
814.5522840484
 11
858.7015138743
 21
815.2314553198
  0
LINE
  5
38B
100
AcDbEntity
  8
_1
100
AcDbLine
 62
7
  6
CONTINUOUS
 10
859.1859908746
 20
814.3589736072
 11
858.9622552303
 21
815.4586694326
  0
LINE
  5
38C
100
AcDbEntity
  8
_1
100
AcDbLine
 62
7
  6
CONTINUOUS
 10
859.3586575178
 20
815.515408428
 11
859.5827430835
 21
814.4139926842
  0
LINE
  5
38D
100
AcDbEntity
  8
_1
100
AcDbLine
 62
7
  6
CONTINUOUS
 10
854.6668574988
 20
936.2931435773
 11
854.1231008414
 21
936.6263580854
  0
LINE
  5
38E
100
AcDbEntity
  8
_1
100
AcDbLine
 62
7
  6
CONTINUOUS
 10
855.0205638759
 20
936.4291857613
 11
854.0637099208
 21
937.0155466191
  0
LINE
  5
38F
100
AcDbEntity
  8
_1
100
AcDbLine
 62
7
  6
CONTINUOUS
 10
854.3467703054
 20
937.310932289
 11
855.2509098261
 21
936.7568748781
  0
LINE
  5
390
100
AcDbEntity
  8
_1
100
AcDbLine
 62
7
  6
CONTINUOUS
 10
855.4526128651
 20
937.0294608909
 11
854.6745247964
 21
937.7178550634
  0
LINE
  5
391
100
AcDbEntity
  8
_1
100
AcDbLine
 62
7
  6
CONTINUOUS
 10
854.8581401889
 20
938.0891575087
 11
855.6986368879
 21
937.3455488442
  0
LINE
  5
392
100
AcDbEntity
  8
_1
100
AcDbLine
 62
7
  6
CONTINUOUS
 10
855.7043741568
 20
937.7421069677
 11
855.2550223308
 21
938.1396598808
  0
LINE
  5
393
100
AcDbEntity
  8
_1
100
AcDbLine
 62
7
  6
CONTINUOUS
 10
871.2007858497
 20
1002.1097366669
 11
871.1623409469
 21
1002.2942047652
  0
LINE
  5
394
100
AcDbEntity
  8
_1
100
AcDbLine
 62
7
  6
CONTINUOUS
 10
858.8396928312
 20
939.5522840484
 11
858.7015138743
 21
940.2314553198
  0
LINE
  5
395
100
AcDbEntity
  8
_1
100
AcDbLine
 62
7
  6
CONTINUOUS
 10
859.1859908746
 20
939.3589736072
 11
858.9622552303
 21
940.4586694326
  0
LINE
  5
396
100
AcDbEntity
  8
_1
100
AcDbLine
 62
7
  6
CONTINUOUS
 10
859.3586575178
 20
940.515408428
 11
859.5827430835
 21
939.4139926842
  0
LINE
  5
397
100
AcDbEntity
  8
_1
100
AcDbLine
 62
7
  6
CONTINUOUS
 10
872.6238960441
 20
338.9141283644
 11
872.7007858497
 21
339.0985964868
  0
LINE
  5
398
100
AcDbEntity
  8
_1
100
AcDbLine
 62
7
  6
CONTINUOUS
 10
870.9778728243
 20
337.3756834616
 11
871.1623409469
 21
337.4525732672
  0
LINE
  5
399
100
AcDbEntity
  8
_1
100
AcDbLine
 62
7
  6
CONTINUOUS
 10
870.9778728243
 20
1003.832649668
 11
871.1623409469
 21
1003.7557598623
  0
LINE
  5
39A
100
AcDbEntity
  8
_1
100
AcDbLine
 62
7
  6
CONTINUOUS
 10
857.8742265352
 20
934.1041665648
 11
858.3072392371
 21
933.3541665648
  0
LINE
  5
39B
100
AcDbEntity
  8
_1
100
AcDbLine
 62
7
  6
CONTINUOUS
 10
859.6062773427
 20
931.1041665648
 11
860.0392900446
 21
930.3541665648
  0
LINE
  5
39C
100
AcDbEntity
  8
_1
100
AcDbLine
 62
7
  6
CONTINUOUS
 10
863.0703789579
 20
932.1041665648
 11
862.637366256
 21
932.8541665648
  0
LINE
  5
39D
100
AcDbEntity
  8
_1
100
AcDbLine
 62
7
  6
CONTINUOUS
 10
861.3383281503
 20
935.1041665648
 11
860.9053154484
 21
935.8541665648
  0
LINE
  5
39E
100
AcDbEntity
  8
_1
100
AcDbLine
 62
7
  6
CONTINUOUS
 10
872.6238960441
 20
1002.2942047652
 11
872.7007858497
 21
1002.1097366428
  0
ARC
  5
39F
100
AcDbEntity
  8
_1
100
AcDbCircle
 62
7
  6
CONTINUOUS
 10
141.4723027465
 20
369.8541665648
 40
14.5
100
AcDbArc
 50
180.0
 51
270.0
  0
ARC
  5
3A0
100
AcDbEntity
  8
_1
100
AcDbCircle
 62
7
  6
CONTINUOUS
 10
141.4723027465
 20
369.8541665648
 40
1.5
100
AcDbArc
 50
180.0
 51
270.0
  0
ARC
  5
3A1
100
AcDbEntity
  8
_1
100
AcDbCircle
 62
7
  6
CONTINUOUS
 10
104.1963723692
 20
398.350325338
 40
21.7576589315
100
AcDbArc
 50
15.5665115718
 51
16.4451281554
  0
ARC
  5
3A2
100
AcDbEntity
  8
_1
100
AcDbCircle
 62
7
  6
CONTINUOUS
 10
104.1963723708
 20
417.858007791
 40
21.7576589298
100
AcDbArc
 50
343.5548718445
 51
344.4334884282
  0
ARC
  5
3A3
100
AcDbEntity
  8
_1
100
AcDbCircle
 62
7
  6
CONTINUOUS
 10
115.9551470921
 20
391.1806252286
 40
21.5679817601
100
AcDbArc
 50
62.8944998142
 51
63.4472114555
  0
ARC
  5
3A4
100
AcDbEntity
  8
_1
100
AcDbCircle
 62
7
  6
CONTINUOUS
 10
118.0609406797
 20
407.8666665648
 40
3.275
100
AcDbArc
 50
340.417406054
 51
79.582592053
  0
ARC
  5
3A5
100
AcDbEntity
  8
_1
100
AcDbCircle
 62
7
  6
CONTINUOUS
 10
118.8836648133
 20
407.8666665648
 40
3.275
100
AcDbArc
 50
100.4174382055
 51
199.5825617946
  0
ARC
  5
3A6
100
AcDbEntity
  8
_1
100
AcDbCircle
 62
7
  6
CONTINUOUS
 10
120.2043535541
 20
407.1041665648
 40
1.0
100
AcDbArc
 50
319.582561795
 51
340.4173329089
  0
ARC
  5
3A7
100
AcDbEntity
  8
_1
100
AcDbCircle
 62
7
  6
CONTINUOUS
 10
116.740251939
 20
407.1041665648
 40
1.0
100
AcDbArc
 50
199.5825617952
 51
220.4174382053
  0
ARC
  5
3A8
100
AcDbEntity
  8
_1
100
AcDbCircle
 62
7
  6
CONTINUOUS
 10
116.2294454602
 20
406.8092523012
 40
0.3454795391
100
AcDbArc
 50
201.9688272201
 51
218.0311493469
  0
ARC
  5
3A9
100
AcDbEntity
  8
_1
100
AcDbCircle
 62
7
  6
CONTINUOUS
 10
120.7151640671
 20
406.8092499898
 40
0.3454749344
100
AcDbArc
 50
321.9687360943
 51
338.0312519978
  0
ARC
  5
3AA
100
AcDbEntity
  8
_1
100
AcDbCircle
 62
7
  6
CONTINUOUS
 10
115.955147089
 20
425.0277079071
 40
21.5679817671
100
AcDbArc
 50
296.5527885446
 51
297.1055001857
  0
ARC
  5
3AB
100
AcDbEntity
  8
_1
100
AcDbCircle
 62
7
  6
CONTINUOUS
 10
117.9723027465
 20
408.1041665648
 40
5.5
100
AcDbArc
 50
90.0
 51
270.0
  0
ARC
  5
3AC
100
AcDbEntity
  8
_1
100
AcDbCircle
 62
7
  6
CONTINUOUS
 10
118.4558386238
 20
408.579272433
 40
3.2155847518
100
AcDbArc
 50
319.7763510965
 51
321.928627681
  0
ARC
  5
3AD
100
AcDbEntity
  8
_1
100
AcDbCircle
 62
7
  6
CONTINUOUS
 10
118.4722718591
 20
410.6952512472
 40
0.3442298223
100
AcDbArc
 50
89.994858904
 51
98.0551074297
  0
ARC
  5
3AE
100
AcDbEntity
  8
_1
100
AcDbCircle
 62
7
  6
CONTINUOUS
 10
118.4723027465
 20
408.1041665648
 40
8.9451439192
100
AcDbArc
 50
343.1013071964
 51
16.8986928036
  0
ARC
  5
3AF
100
AcDbEntity
  8
_1
100
AcDbCircle
 62
7
  6
CONTINUOUS
 10
118.4723027465
 20
408.1041665648
 40
7.7458749268
100
AcDbArc
 50
313.8046928075
 51
329.6398637852
  0
ARC
  5
3B0
100
AcDbEntity
  8
_1
100
AcDbCircle
 62
7
  6
CONTINUOUS
 10
118.4723027465
 20
408.1041665648
 40
7.7458749268
100
AcDbArc
 50
30.3601362148
 51
46.1953071925
  0
ARC
  5
3B1
100
AcDbEntity
  8
_1
100
AcDbCircle
 62
7
  6
CONTINUOUS
 10
118.4723027465
 20
408.1041665648
 40
7.6558879367
100
AcDbArc
 50
342.7083069292
 51
17.2916930708
  0
ARC
  5
3B2
100
AcDbEntity
  8
_1
100
AcDbCircle
 62
7
  6
CONTINUOUS
 10
118.4723027465
 20
408.1041665648
 40
7.5
100
AcDbArc
 50
22.2828280899
 51
30.9267073016
  0
ARC
  5
3B3
100
AcDbEntity
  8
_1
100
AcDbCircle
 62
7
  6
CONTINUOUS
 10
118.4723027465
 20
408.1041665648
 40
7.4944453864
100
AcDbArc
 50
334.4544237215
 51
338.5455762785
  0
ARC
  5
3B4
100
AcDbEntity
  8
_1
100
AcDbCircle
 62
7
  6
CONTINUOUS
 10
118.4723027465
 20
408.1041665648
 40
7.4944453864
100
AcDbArc
 50
21.4544228553
 51
25.5455762785
  0
ARC
  5
3B5
100
AcDbEntity
  8
_1
100
AcDbCircle
 62
7
  6
CONTINUOUS
 10
118.4723027465
 20
408.1041665648
 40
7.2761746225
100
AcDbArc
 50
321.2791552296
 51
38.7208447704
  0
ARC
  5
3B6
100
AcDbEntity
  8
_1
100
AcDbCircle
 62
7
  6
CONTINUOUS
 10
118.4723027465
 20
408.1041665648
 40
6.5
100
AcDbArc
 50
329.2356461913
 51
30.7761915239
  0
CIRCLE
  5
3B7
100
AcDbEntity
  8
_1
100
AcDbCircle
 62
7
  6
CONTINUOUS
 10
118.4723027465
 20
408.1041665648
 40
5.25
  0
CIRCLE
  5
3B8
100
AcDbEntity
  8
_1
100
AcDbCircle
 62
7
  6
CONTINUOUS
 10
118.4723027465
 20
408.1041665648
 40
4.0
  0
CIRCLE
  5
3B9
100
AcDbEntity
  8
_1
100
AcDbCircle
 62
7
  6
CONTINUOUS
 10
118.4723027465
 20
408.1041665648
 40
3.0
  0
CIRCLE
  5
3BA
100
AcDbEntity
  8
_1
100
AcDbCircle
 62
7
  6
CONTINUOUS
 10
118.4723027465
 20
408.1041665648
 40
1.5
  0
ARC
  5
3BB
100
AcDbEntity
  8
_1
100
AcDbCircle
 62
7
  6
CONTINUOUS
 10
118.4723027465
 20
408.5791665648
 40
3.275
100
AcDbArc
 50
220.4174382056
 51
319.5825617945
  0
ARC
  5
3BC
100
AcDbEntity
  8
_1
100
AcDbCircle
 62
7
  6
CONTINUOUS
 10
118.4888118713
 20
408.579307972
 40
3.2156420971
100
AcDbArc
 50
218.0713759131
 51
220.2236090176
  0
ARC
  5
3BD
100
AcDbEntity
  8
_1
100
AcDbCircle
 62
7
  6
CONTINUOUS
 10
118.9723027465
 20
408.1041665648
 40
5.5
100
AcDbArc
 50
270.0
 51
334.6771659281
  0
ARC
  5
3BE
100
AcDbEntity
  8
_1
100
AcDbCircle
 62
7
  6
CONTINUOUS
 10
118.9723027465
 20
408.1041665648
 40
5.5
100
AcDbArc
 50
25.3228340719
 51
90.0
  0
ARC
  5
3BF
100
AcDbEntity
  8
_1
100
AcDbCircle
 62
7
  6
CONTINUOUS
 10
118.4723027465
 20
410.1041665648
 40
1.0
100
AcDbArc
 50
79.5826608917
 51
100.4174382051
  0
ARC
  5
3C0
100
AcDbEntity
  8
_1
100
AcDbCircle
 62
7
  6
CONTINUOUS
 10
118.4723332105
 20
410.6952443874
 40
0.3442369323
100
AcDbArc
 50
81.9449368023
 51
90.0050705143
  0
ARC
  5
3C1
100
AcDbEntity
  8
_1
100
AcDbCircle
 62
7
  6
CONTINUOUS
 10
180.958694232
 20
338.9484674245
 40
0.2007219929
100
AcDbArc
 50
180.0331484969
 51
189.4800709682
  0
ARC
  5
3C2
100
AcDbEntity
  8
_1
100
AcDbCircle
 62
7
  6
CONTINUOUS
 10
190.5572503198
 20
338.9484674241
 40
0.2007219865
100
AcDbArc
 50
350.5199394416
 51
359.9668516008
  0
ARC
  5
3C3
100
AcDbEntity
  8
_1
100
AcDbCircle
 62
7
  6
CONTINUOUS
 10
104.1963723698
 20
523.3503253382
 40
21.7576589308
100
AcDbArc
 50
15.5665115718
 51
16.4451281554
  0
ARC
  5
3C4
100
AcDbEntity
  8
_1
100
AcDbCircle
 62
7
  6
CONTINUOUS
 10
104.1963723712
 20
542.8580077909
 40
21.7576589294
100
AcDbArc
 50
343.5548718445
 51
344.4334884282
  0
ARC
  5
3C5
100
AcDbEntity
  8
_1
100
AcDbCircle
 62
7
  6
CONTINUOUS
 10
115.9551470937
 20
516.1806252317
 40
21.5679817566
100
AcDbArc
 50
62.8944998142
 51
63.4472114556
  0
ARC
  5
3C6
100
AcDbEntity
  8
_1
100
AcDbCircle
 62
7
  6
CONTINUOUS
 10
118.0609406797
 20
532.8666665648
 40
3.275
100
AcDbArc
 50
340.417406054
 51
79.582592053
  0
ARC
  5
3C7
100
AcDbEntity
  8
_1
100
AcDbCircle
 62
7
  6
CONTINUOUS
 10
118.8836648133
 20
532.8666665648
 40
3.275
100
AcDbArc
 50
100.4174382055
 51
199.5825617946
  0
ARC
  5
3C8
100
AcDbEntity
  8
_1
100
AcDbCircle
 62
7
  6
CONTINUOUS
 10
120.2043535541
 20
532.1041665648
 40
1.0
100
AcDbArc
 50
319.582561795
 51
340.4173329089
  0
ARC
  5
3C9
100
AcDbEntity
  8
_1
100
AcDbCircle
 62
7
  6
CONTINUOUS
 10
116.740251939
 20
532.1041665648
 40
1.0
100
AcDbArc
 50
199.5825617952
 51
220.4174382053
  0
ARC
  5
3CA
100
AcDbEntity
  8
_1
100
AcDbCircle
 62
7
  6
CONTINUOUS
 10
116.2294454575
 20
531.8092522996
 40
0.3454795359
100
AcDbArc
 50
201.9688271467
 51
218.0311494203
  0
ARC
  5
3CB
100
AcDbEntity
  8
_1
100
AcDbCircle
 62
7
  6
CONTINUOUS
 10
120.7151640587
 20
531.8092499946
 40
0.3454749439
100
AcDbArc
 50
321.968736318
 51
338.0312517741
  0
ARC
  5
3CC
100
AcDbEntity
  8
_1
100
AcDbCircle
 62
7
  6
CONTINUOUS
 10
115.9551470906
 20
550.0277079041
 40
21.5679817636
100
AcDbArc
 50
296.5527885445
 51
297.1055001857
  0
ARC
  5
3CD
100
AcDbEntity
  8
_1
100
AcDbCircle
 62
7
  6
CONTINUOUS
 10
117.9723027465
 20
533.1041665648
 40
5.5
100
AcDbArc
 50
90.0
 51
270.0
  0
ARC
  5
3CE
100
AcDbEntity
  8
_1
100
AcDbCircle
 62
7
  6
CONTINUOUS
 10
118.4558386233
 20
533.5792724334
 40
3.2155847524
100
AcDbArc
 50
319.7763510967
 51
321.9286276808
  0
ARC
  5
3CF
100
AcDbEntity
  8
_1
100
AcDbCircle
 62
7
  6
CONTINUOUS
 10
118.4722718591
 20
535.6952512472
 40
0.3442298222
100
AcDbArc
 50
89.9948589034
 51
98.0551074308
  0
ARC
  5
3D0
100
AcDbEntity
  8
_1
100
AcDbCircle
 62
7
  6
CONTINUOUS
 10
118.4723027465
 20
533.1041665648
 40
8.9451439192
100
AcDbArc
 50
343.1013071964
 51
16.8986928036
  0
ARC
  5
3D1
100
AcDbEntity
  8
_1
100
AcDbCircle
 62
7
  6
CONTINUOUS
 10
118.4723027465
 20
533.1041665648
 40
7.7458749268
100
AcDbArc
 50
313.8046928075
 51
329.6398637852
  0
ARC
  5
3D2
100
AcDbEntity
  8
_1
100
AcDbCircle
 62
7
  6
CONTINUOUS
 10
118.4723027465
 20
533.1041665648
 40
7.7458749268
100
AcDbArc
 50
30.3601362148
 51
46.1953071925
  0
ARC
  5
3D3
100
AcDbEntity
  8
_1
100
AcDbCircle
 62
7
  6
CONTINUOUS
 10
118.4723027465
 20
533.1041665648
 40
7.6558879367
100
AcDbArc
 50
342.7083069292
 51
17.2916930708
  0
ARC
  5
3D4
100
AcDbEntity
  8
_1
100
AcDbCircle
 62
7
  6
CONTINUOUS
 10
118.4723027465
 20
533.1041665648
 40
7.5
100
AcDbArc
 50
22.2828280899
 51
30.9267073016
  0
ARC
  5
3D5
100
AcDbEntity
  8
_1
100
AcDbCircle
 62
7
  6
CONTINUOUS
 10
118.4723027465
 20
533.1041665648
 40
7.4944453864
100
AcDbArc
 50
334.4544237215
 51
338.5455762785
  0
ARC
  5
3D6
100
AcDbEntity
  8
_1
100
AcDbCircle
 62
7
  6
CONTINUOUS
 10
118.4723027465
 20
533.1041665648
 40
7.4944453864
100
AcDbArc
 50
21.4544228553
 51
25.5455762785
  0
ARC
  5
3D7
100
AcDbEntity
  8
_1
100
AcDbCircle
 62
7
  6
CONTINUOUS
 10
118.4723027465
 20
533.1041665648
 40
7.2761746225
100
AcDbArc
 50
321.2791552296
 51
38.7208447704
  0
ARC
  5
3D8
100
AcDbEntity
  8
_1
100
AcDbCircle
 62
7
  6
CONTINUOUS
 10
118.4723027465
 20
533.1041665648
 40
6.5
100
AcDbArc
 50
329.2356461913
 51
30.7761915239
  0
CIRCLE
  5
3D9
100
AcDbEntity
  8
_1
100
AcDbCircle
 62
7
  6
CONTINUOUS
 10
118.4723027465
 20
533.1041665648
 40
5.25
  0
CIRCLE
  5
3DA
100
AcDbEntity
  8
_1
100
AcDbCircle
 62
7
  6
CONTINUOUS
 10
118.4723027465
 20
533.1041665648
 40
4.0
  0
CIRCLE
  5
3DB
100
AcDbEntity
  8
_1
100
AcDbCircle
 62
7
  6
CONTINUOUS
 10
118.4723027465
 20
533.1041665648
 40
3.0
  0
CIRCLE
  5
3DC
100
AcDbEntity
  8
_1
100
AcDbCircle
 62
7
  6
CONTINUOUS
 10
118.4723027465
 20
533.1041665648
 40
1.5
  0
ARC
  5
3DD
100
AcDbEntity
  8
_1
100
AcDbCircle
 62
7
  6
CONTINUOUS
 10
118.4723027465
 20
533.5791665648
 40
3.275
100
AcDbArc
 50
220.4174382056
 51
319.5825617945
  0
ARC
  5
3DE
100
AcDbEntity
  8
_1
100
AcDbCircle
 62
7
  6
CONTINUOUS
 10
118.4888118716
 20
533.5793079722
 40
3.2156420975
100
AcDbArc
 50
218.0713759132
 51
220.2236090175
  0
ARC
  5
3DF
100
AcDbEntity
  8
_1
100
AcDbCircle
 62
7
  6
CONTINUOUS
 10
118.9723027465
 20
533.1041665648
 40
5.5
100
AcDbArc
 50
270.0
 51
334.6771659281
  0
ARC
  5
3E0
100
AcDbEntity
  8
_1
100
AcDbCircle
 62
7
  6
CONTINUOUS
 10
118.9723027465
 20
533.1041665648
 40
5.5
100
AcDbArc
 50
25.3228340719
 51
90.0
  0
ARC
  5
3E1
100
AcDbEntity
  8
_1
100
AcDbCircle
 62
7
  6
CONTINUOUS
 10
118.4723027465
 20
535.1041665648
 40
1.0
100
AcDbArc
 50
79.5826608917
 51
100.4174382051
  0
ARC
  5
3E2
100
AcDbEntity
  8
_1
100
AcDbCircle
 62
7
  6
CONTINUOUS
 10
118.4723332105
 20
535.6952443873
 40
0.3442369324
100
AcDbArc
 50
81.9449368029
 51
90.0050705141
  0
ARC
  5
3E3
100
AcDbEntity
  8
_1
100
AcDbCircle
 62
7
  6
CONTINUOUS
 10
141.4723027465
 20
569.3541665648
 40
14.5
100
AcDbArc
 50
90.0
 51
180.0
  0
ARC
  5
3E4
100
AcDbEntity
  8
_1
100
AcDbCircle
 62
7
  6
CONTINUOUS
 10
141.4723027465
 20
569.3541665648
 40
1.5
100
AcDbArc
 50
90.0
 51
180.0
  0
ARC
  5
3E5
100
AcDbEntity
  8
_1
100
AcDbCircle
 62
7
  6
CONTINUOUS
 10
200.5572503135
 20
602.2598657051
 40
0.2007219929
100
AcDbArc
 50
0.0331484967
 51
9.4800709653
  0
ARC
  5
3E6
100
AcDbEntity
  8
_1
100
AcDbCircle
 62
7
  6
CONTINUOUS
 10
190.9586942257
 20
602.2598657054
 40
0.2007219865
100
AcDbArc
 50
170.5199394442
 51
179.9668516008
  0
ARC
  5
3E7
100
AcDbEntity
  8
_1
100
AcDbCircle
 62
7
  6
CONTINUOUS
 10
489.4703934495
 20
614.8601007526
 40
13.0539580228
100
AcDbArc
 50
266.5795030024
 51
270.0083801909
  0
ARC
  5
3E8
100
AcDbEntity
  8
_1
100
AcDbCircle
 62
7
  6
CONTINUOUS
 10
480.5175247819
 20
599.1774650427
 40
3.0452220496
100
AcDbArc
 50
174.821286298
 51
179.9944614716
  0
ARC
  5
3E9
100
AcDbEntity
  8
_1
100
AcDbCircle
 62
7
  6
CONTINUOUS
 10
106.25376169
 20
816.4206487499
 40
18.5832306936
100
AcDbArc
 50
343.5651864709
 51
344.5924040234
  0
ARC
  5
3EA
100
AcDbEntity
  8
_1
100
AcDbCircle
 62
7
  6
CONTINUOUS
 10
106.25376169
 20
799.7876843797
 40
18.5832306936
100
AcDbArc
 50
15.4075959766
 51
16.4348135291
  0
ARC
  5
3EB
100
AcDbEntity
  8
_1
100
AcDbCircle
 62
7
  6
CONTINUOUS
 10
106.9548475989
 20
798.8632819627
 40
18.5685958616
100
AcDbArc
 50
56.5649216593
 51
57.5631181247
  0
ARC
  5
3EC
100
AcDbEntity
  8
_1
100
AcDbCircle
 62
7
  6
CONTINUOUS
 10
106.9548539311
 20
817.3450414541
 40
18.5685842672
100
AcDbArc
 50
302.4368820831
 51
303.4350785485
  0
ARC
  5
3ED
100
AcDbEntity
  8
_1
100
AcDbCircle
 62
7
  6
CONTINUOUS
 10
111.4605757628
 20
727.9805794337
 40
12.5330424221
100
AcDbArc
 50
107.9608710822
 51
108.5734687244
  0
ARC
  5
3EE
100
AcDbEntity
  8
_1
100
AcDbCircle
 62
7
  6
CONTINUOUS
 10
110.6268691468
 20
730.449870657
 40
9.9268098965
100
AcDbArc
 50
108.5517423817
 51
109.7867776936
  0
ARC
  5
3EF
100
AcDbEntity
  8
_1
100
AcDbCircle
 62
7
  6
CONTINUOUS
 10
106.2537616918
 20
941.4206487493
 40
18.5832306917
100
AcDbArc
 50
343.5651864709
 51
344.5924040235
  0
ARC
  5
3F0
100
AcDbEntity
  8
_1
100
AcDbCircle
 62
7
  6
CONTINUOUS
 10
106.2537616906
 20
924.7876843798
 40
18.583230693
100
AcDbArc
 50
15.4075959765
 51
16.4348135291
  0
ARC
  5
3F1
100
AcDbEntity
  8
_1
100
AcDbCircle
 62
7
  6
CONTINUOUS
 10
106.9548475996
 20
923.8632819638
 40
18.5685958602
100
AcDbArc
 50
56.5649216592
 51
57.5631181247
  0
ARC
  5
3F2
100
AcDbEntity
  8
_1
100
AcDbCircle
 62
7
  6
CONTINUOUS
 10
106.95485393
 20
942.3450414557
 40
18.5685842692
100
AcDbArc
 50
302.4368820831
 51
303.4350785484
  0
ARC
  5
3F3
100
AcDbEntity
  8
_1
100
AcDbCircle
 62
7
  6
CONTINUOUS
 10
96.9531795865
 20
998.6501978624
 40
12.4230909336
100
AcDbArc
 50
17.9589373091
 51
18.6384900994
  0
ARC
  5
3F4
100
AcDbEntity
  8
_1
100
AcDbCircle
 62
7
  6
CONTINUOUS
 10
99.3986140818
 20
999.4779886367
 40
9.8413517215
100
AcDbArc
 50
18.6220402554
 51
19.7901243836
  0
ARC
  5
3F5
100
AcDbEntity
  8
_1
100
AcDbCircle
 62
7
  6
CONTINUOUS
 10
117.379288432
 20
793.3643585217
 40
18.583230692
100
AcDbArc
 50
103.565186471
 51
104.5924040235
  0
ARC
  5
3F6
100
AcDbEntity
  8
_1
100
AcDbCircle
 62
7
  6
CONTINUOUS
 10
116.2282167337
 20
793.509369204
 40
18.5685356656
100
AcDbArc
 50
62.4369666282
 51
63.4350794163
  0
ARC
  5
3F7
100
AcDbEntity
  8
_1
100
AcDbCircle
 62
7
  6
CONTINUOUS
 10
116.3072392371
 20
806.8541665648
 40
0.5
100
AcDbArc
 50
150.0
 51
270.0
  0
ARC
  5
3F8
100
AcDbEntity
  8
_1
100
AcDbCircle
 62
7
  6
CONTINUOUS
 10
117.1732646408
 20
805.8541665648
 40
0.5
100
AcDbArc
 50
30.0
 51
90.0
  0
ARC
  5
3F9
100
AcDbEntity
  8
_1
100
AcDbCircle
 62
7
  6
CONTINUOUS
 10
118.4723027465
 20
805.6041665648
 40
0.5
100
AcDbArc
 50
210.0
 51
330.0
  0
ARC
  5
3FA
100
AcDbEntity
  8
_1
100
AcDbCircle
 62
7
  6
CONTINUOUS
 10
120.637366256
 20
806.8541665648
 40
0.5
100
AcDbArc
 50
270.0
 51
30.0
  0
ARC
  5
3FB
100
AcDbEntity
  8
_1
100
AcDbCircle
 62
7
  6
CONTINUOUS
 10
119.7713408522
 20
805.8541665648
 40
0.5
100
AcDbArc
 50
90.0
 51
150.0
  0
ARC
  5
3FC
100
AcDbEntity
  8
_1
100
AcDbCircle
 62
7
  6
CONTINUOUS
 10
117.1732646408
 20
810.3541665648
 40
0.5
100
AcDbArc
 50
270.0
 51
330.0000000001
  0
ARC
  5
3FD
100
AcDbEntity
  8
_1
100
AcDbCircle
 62
7
  6
CONTINUOUS
 10
116.3072392371
 20
809.3541665648
 40
0.5
100
AcDbArc
 50
90.0
 51
210.0
  0
ARC
  5
3FE
100
AcDbEntity
  8
_1
100
AcDbCircle
 62
7
  6
CONTINUOUS
 10
115.8742265352
 20
808.1041665648
 40
0.5
100
AcDbArc
 50
330.0
 51
30.0
  0
ARC
  5
3FF
100
AcDbEntity
  8
_1
100
AcDbCircle
 62
7
  6
CONTINUOUS
 10
117.3792884317
 20
822.8439746068
 40
18.5832306909
100
AcDbArc
 50
255.4075959764
 51
256.434813529
  0
ARC
  5
400
100
AcDbEntity
  8
_1
100
AcDbCircle
 62
7
  6
CONTINUOUS
 10
116.2282085739
 20
822.6989800109
 40
18.568553702
100
AcDbArc
 50
296.5649209069
 51
297.563033695
  0
CIRCLE
  5
401
100
AcDbEntity
  8
_1
100
AcDbCircle
 62
7
  6
CONTINUOUS
 10
118.4723027465
 20
808.1041665648
 40
7.5
  0
ARC
  5
402
100
AcDbEntity
  8
_1
100
AcDbCircle
 62
7
  6
CONTINUOUS
 10
118.4723027465
 20
808.1041665648
 40
6.6515888492
100
AcDbArc
 50
104.2082283517
 51
135.7917716483
  0
ARC
  5
403
100
AcDbEntity
  8
_1
100
AcDbCircle
 62
7
  6
CONTINUOUS
 10
118.4723027465
 20
808.1041665648
 40
6.6515888492
100
AcDbArc
 50
224.2082283517
 51
255.7917716483
  0
ARC
  5
404
100
AcDbEntity
  8
_1
100
AcDbCircle
 62
7
  6
CONTINUOUS
 10
118.4723027465
 20
808.1041665648
 40
6.6250190726
100
AcDbArc
 50
344.2190979027
 51
15.7809020973
  0
ARC
  5
405
100
AcDbEntity
  8
_1
100
AcDbCircle
 62
7
  6
CONTINUOUS
 10
118.4723027465
 20
808.1041665648
 40
6.6236522336
100
AcDbArc
 50
30.6754332562
 51
89.3245667438
  0
ARC
  5
406
100
AcDbEntity
  8
_1
100
AcDbCircle
 62
7
  6
CONTINUOUS
 10
118.4723027465
 20
808.1041665648
 40
6.6236522336
100
AcDbArc
 50
150.6754332562
 51
209.3245667438
  0
ARC
  5
407
100
AcDbEntity
  8
_1
100
AcDbCircle
 62
7
  6
CONTINUOUS
 10
118.4723027465
 20
808.1041665648
 40
6.6236522336
100
AcDbArc
 50
270.6754332562
 51
329.3245667438
  0
ARC
  5
408
100
AcDbEntity
  8
_1
100
AcDbCircle
 62
7
  6
CONTINUOUS
 10
118.4723027465
 20
808.1041665648
 40
6.3722226932
100
AcDbArc
 50
141.9753231955
 51
145.0246768045
  0
ARC
  5
409
100
AcDbEntity
  8
_1
100
AcDbCircle
 62
7
  6
CONTINUOUS
 10
118.4723027465
 20
808.1041665648
 40
6.3722226932
100
AcDbArc
 50
94.9753231955
 51
98.0246768045
  0
ARC
  5
40A
100
AcDbEntity
  8
_1
100
AcDbCircle
 62
7
  6
CONTINUOUS
 10
118.4723027465
 20
808.1041665648
 40
6.3722226932
100
AcDbArc
 50
214.9753231955
 51
218.0246768045
  0
ARC
  5
40B
100
AcDbEntity
  8
_1
100
AcDbCircle
 62
7
  6
CONTINUOUS
 10
118.4723027465
 20
808.1041665648
 40
6.3722226932
100
AcDbArc
 50
261.9753231955
 51
265.0246768045
  0
ARC
  5
40C
100
AcDbEntity
  8
_1
100
AcDbCircle
 62
7
  6
CONTINUOUS
 10
118.4723027465
 20
808.1041665648
 40
6.3722226932
100
AcDbArc
 50
334.9753231955
 51
338.0246781527
  0
ARC
  5
40D
100
AcDbEntity
  8
_1
100
AcDbCircle
 62
7
  6
CONTINUOUS
 10
118.4723027465
 20
808.1041665648
 40
6.3722226932
100
AcDbArc
 50
21.9753231955
 51
25.0246768045
  0
ARC
  5
40E
100
AcDbEntity
  8
_1
100
AcDbCircle
 62
7
  6
CONTINUOUS
 10
118.4723027465
 20
808.1041665648
 40
6.25
100
AcDbArc
 50
256.2278837589
 51
343.8011703569
  0
ARC
  5
40F
100
AcDbEntity
  8
_1
100
AcDbCircle
 62
7
  6
CONTINUOUS
 10
118.4723027465
 20
808.1041665648
 40
6.25
100
AcDbArc
 50
16.1931246879
 51
103.7811215249
  0
ARC
  5
410
100
AcDbEntity
  8
_1
100
AcDbCircle
 62
7
  6
CONTINUOUS
 10
118.4723027465
 20
808.1041665648
 40
6.25
100
AcDbArc
 50
136.1620150111
 51
223.8345633335
  0
ARC
  5
411
100
AcDbEntity
  8
_1
100
AcDbCircle
 62
7
  6
CONTINUOUS
 10
118.4723027465
 20
808.1041665648
 40
6.0
100
AcDbArc
 50
136.0848087094
 51
223.9773739175
  0
ARC
  5
412
100
AcDbEntity
  8
_1
100
AcDbCircle
 62
7
  6
CONTINUOUS
 10
118.4723027465
 20
808.1041665648
 40
6.0
100
AcDbArc
 50
256.0784956962
 51
343.926063003
  0
ARC
  5
413
100
AcDbEntity
  8
_1
100
AcDbCircle
 62
7
  6
CONTINUOUS
 10
118.4723027465
 20
808.1041665648
 40
6.0
100
AcDbArc
 50
16.0326771447
 51
103.9170388554
  0
ARC
  5
414
100
AcDbEntity
  8
_1
100
AcDbCircle
 62
7
  6
CONTINUOUS
 10
118.4723027465
 20
808.1041665648
 40
5.6515888492
100
AcDbArc
 50
104.3333742897
 51
135.6666515099
  0
ARC
  5
415
100
AcDbEntity
  8
_1
100
AcDbCircle
 62
7
  6
CONTINUOUS
 10
118.4723027465
 20
808.1041665648
 40
5.6515888492
100
AcDbArc
 50
224.3333742897
 51
255.6666515099
  0
ARC
  5
416
100
AcDbEntity
  8
_1
100
AcDbCircle
 62
7
  6
CONTINUOUS
 10
118.4723027465
 20
808.1041665648
 40
5.6250190726
100
AcDbArc
 50
344.3467584224
 51
15.6532308084
  0
CIRCLE
  5
417
100
AcDbEntity
  8
_1
100
AcDbCircle
 62
7
  6
CONTINUOUS
 10
118.4723027465
 20
808.1041665648
 40
5.5434781454
  0
ARC
  5
418
100
AcDbEntity
  8
_1
100
AcDbCircle
 62
7
  6
CONTINUOUS
 10
118.4723027465
 20
810.6041665648
 40
0.5
100
AcDbArc
 50
30.0
 51
150.0
  0
ARC
  5
419
100
AcDbEntity
  8
_1
100
AcDbCircle
 62
7
  6
CONTINUOUS
 10
121.0703789579
 20
808.1041665648
 40
0.5
100
AcDbArc
 50
150.0
 51
210.0
  0
ARC
  5
41A
100
AcDbEntity
  8
_1
100
AcDbCircle
 62
7
  6
CONTINUOUS
 10
119.7713408522
 20
810.3541665648
 40
0.5
100
AcDbArc
 50
209.9999999999
 51
270.0
  0
ARC
  5
41B
100
AcDbEntity
  8
_1
100
AcDbCircle
 62
7
  6
CONTINUOUS
 10
120.637366256
 20
809.3541665648
 40
0.5
100
AcDbArc
 50
330.0
 51
90.0
  0
ARC
  5
41C
100
AcDbEntity
  8
_1
100
AcDbCircle
 62
7
  6
CONTINUOUS
 10
131.783858116
 20
801.6808407064
 40
18.5832306919
100
AcDbArc
 50
135.4075959764
 51
136.434813529
  0
ARC
  5
41D
100
AcDbEntity
  8
_1
100
AcDbCircle
 62
7
  6
CONTINUOUS
 10
132.2338711397
 20
802.7502001209
 40
18.5685958621
100
AcDbArc
 50
176.5649216592
 51
177.5631181246
  0
ARC
  5
41E
100
AcDbEntity
  8
_1
100
AcDbCircle
 62
7
  6
CONTINUOUS
 10
131.7838581161
 20
814.5274924233
 40
18.5832306921
100
AcDbArc
 50
223.5651864709
 51
224.5924040235
  0
ARC
  5
41F
100
AcDbEntity
  8
_1
100
AcDbCircle
 62
7
  6
CONTINUOUS
 10
132.2338563804
 20
813.4581322087
 40
18.5685810814
100
AcDbArc
 50
182.4368821402
 51
183.4350786056
  0
ARC
  5
420
100
AcDbEntity
  8
_1
100
AcDbCircle
 62
7
  6
CONTINUOUS
 10
117.3792884323
 20
918.3643585206
 40
18.5832306931
100
AcDbArc
 50
103.565186471
 51
104.5924040235
  0
ARC
  5
421
100
AcDbEntity
  8
_1
100
AcDbCircle
 62
7
  6
CONTINUOUS
 10
116.2282167337
 20
918.5093692041
 40
18.5685356655
100
AcDbArc
 50
62.4369666282
 51
63.4350794163
  0
ARC
  5
422
100
AcDbEntity
  8
_1
100
AcDbCircle
 62
7
  6
CONTINUOUS
 10
116.3072392371
 20
931.8541665648
 40
0.5
100
AcDbArc
 50
150.0
 51
270.0
  0
ARC
  5
423
100
AcDbEntity
  8
_1
100
AcDbCircle
 62
7
  6
CONTINUOUS
 10
117.1732646408
 20
930.8541665648
 40
0.5
100
AcDbArc
 50
30.0
 51
90.0
  0
ARC
  5
424
100
AcDbEntity
  8
_1
100
AcDbCircle
 62
7
  6
CONTINUOUS
 10
118.4723027465
 20
930.6041665648
 40
0.5
100
AcDbArc
 50
210.0
 51
330.0
  0
ARC
  5
425
100
AcDbEntity
  8
_1
100
AcDbCircle
 62
7
  6
CONTINUOUS
 10
120.637366256
 20
931.8541665648
 40
0.5
100
AcDbArc
 50
270.0
 51
30.0
  0
ARC
  5
426
100
AcDbEntity
  8
_1
100
AcDbCircle
 62
7
  6
CONTINUOUS
 10
119.7713408522
 20
930.8541665648
 40
0.5
100
AcDbArc
 50
90.0
 51
150.0
  0
ARC
  5
427
100
AcDbEntity
  8
_1
100
AcDbCircle
 62
7
  6
CONTINUOUS
 10
117.1732646408
 20
935.3541665648
 40
0.5
100
AcDbArc
 50
270.0
 51
330.0000000001
  0
ARC
  5
428
100
AcDbEntity
  8
_1
100
AcDbCircle
 62
7
  6
CONTINUOUS
 10
116.3072392371
 20
934.3541665648
 40
0.5
100
AcDbArc
 50
90.0
 51
210.0
  0
ARC
  5
429
100
AcDbEntity
  8
_1
100
AcDbCircle
 62
7
  6
CONTINUOUS
 10
115.8742265352
 20
933.1041665648
 40
0.5
100
AcDbArc
 50
330.0
 51
30.0
  0
ARC
  5
42A
100
AcDbEntity
  8
_1
100
AcDbCircle
 62
7
  6
CONTINUOUS
 10
117.3792884323
 20
947.8439746089
 40
18.5832306931
100
AcDbArc
 50
255.4075959765
 51
256.434813529
  0
ARC
  5
42B
100
AcDbEntity
  8
_1
100
AcDbCircle
 62
7
  6
CONTINUOUS
 10
116.2282085739
 20
947.6989800109
 40
18.568553702
100
AcDbArc
 50
296.5649209069
 51
297.563033695
  0
CIRCLE
  5
42C
100
AcDbEntity
  8
_1
100
AcDbCircle
 62
7
  6
CONTINUOUS
 10
118.4723027465
 20
933.1041665648
 40
7.5
  0
ARC
  5
42D
100
AcDbEntity
  8
_1
100
AcDbCircle
 62
7
  6
CONTINUOUS
 10
118.4723027465
 20
933.1041665648
 40
6.6515888492
100
AcDbArc
 50
104.2082283517
 51
135.7917716483
  0
ARC
  5
42E
100
AcDbEntity
  8
_1
100
AcDbCircle
 62
7
  6
CONTINUOUS
 10
118.4723027465
 20
933.1041665648
 40
6.6515888492
100
AcDbArc
 50
224.2082283517
 51
255.7917716483
  0
ARC
  5
42F
100
AcDbEntity
  8
_1
100
AcDbCircle
 62
7
  6
CONTINUOUS
 10
118.4723027465
 20
933.1041665648
 40
6.6250190726
100
AcDbArc
 50
344.2190979027
 51
15.7809020973
  0
ARC
  5
430
100
AcDbEntity
  8
_1
100
AcDbCircle
 62
7
  6
CONTINUOUS
 10
118.4723027465
 20
933.1041665648
 40
6.6236522336
100
AcDbArc
 50
30.6754332562
 51
89.3245667438
  0
ARC
  5
431
100
AcDbEntity
  8
_1
100
AcDbCircle
 62
7
  6
CONTINUOUS
 10
118.4723027465
 20
933.1041665648
 40
6.6236522336
100
AcDbArc
 50
150.6754332562
 51
209.3245667438
  0
ARC
  5
432
100
AcDbEntity
  8
_1
100
AcDbCircle
 62
7
  6
CONTINUOUS
 10
118.4723027465
 20
933.1041665648
 40
6.6236522336
100
AcDbArc
 50
270.6754332562
 51
329.3245667438
  0
ARC
  5
433
100
AcDbEntity
  8
_1
100
AcDbCircle
 62
7
  6
CONTINUOUS
 10
118.4723027465
 20
933.1041665648
 40
6.3722226932
100
AcDbArc
 50
141.9753231955
 51
145.0246768045
  0
ARC
  5
434
100
AcDbEntity
  8
_1
100
AcDbCircle
 62
7
  6
CONTINUOUS
 10
118.4723027465
 20
933.1041665648
 40
6.3722226932
100
AcDbArc
 50
94.9753231955
 51
98.0246768045
  0
ARC
  5
435
100
AcDbEntity
  8
_1
100
AcDbCircle
 62
7
  6
CONTINUOUS
 10
118.4723027465
 20
933.1041665648
 40
6.3722226932
100
AcDbArc
 50
214.9753231955
 51
218.0246768045
  0
ARC
  5
436
100
AcDbEntity
  8
_1
100
AcDbCircle
 62
7
  6
CONTINUOUS
 10
118.4723027465
 20
933.1041665648
 40
6.3722226932
100
AcDbArc
 50
261.9753231955
 51
265.0246768045
  0
ARC
  5
437
100
AcDbEntity
  8
_1
100
AcDbCircle
 62
7
  6
CONTINUOUS
 10
118.4723027465
 20
933.1041665648
 40
6.3722226932
100
AcDbArc
 50
334.9753231955
 51
338.0246781527
  0
ARC
  5
438
100
AcDbEntity
  8
_1
100
AcDbCircle
 62
7
  6
CONTINUOUS
 10
118.4723027465
 20
933.1041665648
 40
6.3722226932
100
AcDbArc
 50
21.9753231955
 51
25.0246768045
  0
ARC
  5
439
100
AcDbEntity
  8
_1
100
AcDbCircle
 62
7
  6
CONTINUOUS
 10
118.4723027465
 20
933.1041665648
 40
6.25
100
AcDbArc
 50
256.2278837589
 51
343.8011703569
  0
ARC
  5
43A
100
AcDbEntity
  8
_1
100
AcDbCircle
 62
7
  6
CONTINUOUS
 10
118.4723027465
 20
933.1041665648
 40
6.25
100
AcDbArc
 50
16.1931246879
 51
103.7811215249
  0
ARC
  5
43B
100
AcDbEntity
  8
_1
100
AcDbCircle
 62
7
  6
CONTINUOUS
 10
118.4723027465
 20
933.1041665648
 40
6.25
100
AcDbArc
 50
136.1620150111
 51
223.8345633335
  0
ARC
  5
43C
100
AcDbEntity
  8
_1
100
AcDbCircle
 62
7
  6
CONTINUOUS
 10
118.4723027465
 20
933.1041665648
 40
6.0
100
AcDbArc
 50
136.0848087094
 51
223.9773739175
  0
ARC
  5
43D
100
AcDbEntity
  8
_1
100
AcDbCircle
 62
7
  6
CONTINUOUS
 10
118.4723027465
 20
933.1041665648
 40
6.0
100
AcDbArc
 50
256.0784956962
 51
343.926063003
  0
ARC
  5
43E
100
AcDbEntity
  8
_1
100
AcDbCircle
 62
7
  6
CONTINUOUS
 10
118.4723027465
 20
933.1041665648
 40
6.0
100
AcDbArc
 50
16.0326771447
 51
103.9170388554
  0
ARC
  5
43F
100
AcDbEntity
  8
_1
100
AcDbCircle
 62
7
  6
CONTINUOUS
 10
118.4723027465
 20
933.1041665648
 40
5.6515888492
100
AcDbArc
 50
104.3333742897
 51
135.6666515099
  0
ARC
  5
440
100
AcDbEntity
  8
_1
100
AcDbCircle
 62
7
  6
CONTINUOUS
 10
118.4723027465
 20
933.1041665648
 40
5.6515888492
100
AcDbArc
 50
224.3333742897
 51
255.6666515099
  0
ARC
  5
441
100
AcDbEntity
  8
_1
100
AcDbCircle
 62
7
  6
CONTINUOUS
 10
118.4723027465
 20
933.1041665648
 40
5.6250190726
100
AcDbArc
 50
344.3467584224
 51
15.6532308084
  0
CIRCLE
  5
442
100
AcDbEntity
  8
_1
100
AcDbCircle
 62
7
  6
CONTINUOUS
 10
118.4723027465
 20
933.1041665648
 40
5.5434781454
  0
ARC
  5
443
100
AcDbEntity
  8
_1
100
AcDbCircle
 62
7
  6
CONTINUOUS
 10
118.4723027465
 20
935.6041665648
 40
0.5
100
AcDbArc
 50
30.0
 51
150.0
  0
ARC
  5
444
100
AcDbEntity
  8
_1
100
AcDbCircle
 62
7
  6
CONTINUOUS
 10
121.0703789579
 20
933.1041665648
 40
0.5
100
AcDbArc
 50
150.0
 51
210.0
  0
ARC
  5
445
100
AcDbEntity
  8
_1
100
AcDbCircle
 62
7
  6
CONTINUOUS
 10
119.7713408522
 20
935.3541665648
 40
0.5
100
AcDbArc
 50
209.9999999999
 51
270.0
  0
ARC
  5
446
100
AcDbEntity
  8
_1
100
AcDbCircle
 62
7
  6
CONTINUOUS
 10
120.637366256
 20
934.3541665648
 40
0.5
100
AcDbArc
 50
330.0
 51
90.0
  0
ARC
  5
447
100
AcDbEntity
  8
_1
100
AcDbCircle
 62
7
  6
CONTINUOUS
 10
131.7838581165
 20
926.6808407058
 40
18.5832306927
100
AcDbArc
 50
135.4075959765
 51
136.434813529
  0
ARC
  5
448
100
AcDbEntity
  8
_1
100
AcDbCircle
 62
7
  6
CONTINUOUS
 10
132.2338711398
 20
927.7502001209
 40
18.5685958622
100
AcDbArc
 50
176.5649216592
 51
177.5631181246
  0
ARC
  5
449
100
AcDbEntity
  8
_1
100
AcDbCircle
 62
7
  6
CONTINUOUS
 10
131.7838581161
 20
939.5274924233
 40
18.5832306921
100
AcDbArc
 50
223.5651864709
 51
224.5924040235
  0
ARC
  5
44A
100
AcDbEntity
  8
_1
100
AcDbCircle
 62
7
  6
CONTINUOUS
 10
132.2338563803
 20
938.4581322087
 40
18.5685810813
100
AcDbArc
 50
182.4368821402
 51
183.4350786056
  0
ARC
  5
44B
100
AcDbEntity
  8
_1
100
AcDbCircle
 62
7
  6
CONTINUOUS
 10
498.42708027
 20
599.1774650562
 40
3.0452224907
100
AcDbArc
 50
0.0055382732
 51
5.1787103421
  0
ARC
  5
44C
100
AcDbEntity
  8
_1
100
AcDbCircle
 62
7
  6
CONTINUOUS
 10
489.8237815679
 20
605.6069780982
 40
2.2392682884
100
AcDbArc
 50
280.7990587703
 51
282.3511454569
  0
ARC
  5
44D
100
AcDbEntity
  8
_1
100
AcDbCircle
 62
7
  6
CONTINUOUS
 10
490.0026480944
 20
602.801117806
 40
0.663061895
100
AcDbArc
 50
69.0561851921
 51
70.0844696907
  0
ARC
  5
44E
100
AcDbEntity
  8
_1
100
AcDbCircle
 62
7
  6
CONTINUOUS
 10
778.3873551797
 20
338.9484674245
 40
0.2007219929
100
AcDbArc
 50
180.0331484972
 51
189.4800709673
  0
ARC
  5
44F
100
AcDbEntity
  8
_1
100
AcDbCircle
 62
7
  6
CONTINUOUS
 10
787.9859112674
 20
338.9484674241
 40
0.2007219865
100
AcDbArc
 50
350.5199394422
 51
359.9668516002
  0
CIRCLE
  5
450
100
AcDbEntity
  8
_1
100
AcDbCircle
 62
7
  6
CONTINUOUS
 10
773.0007858497
 20
422.2207058599
 40
4.5
  0
CIRCLE
  5
451
100
AcDbEntity
  8
_1
100
AcDbCircle
 62
7
  6
CONTINUOUS
 10
773.0007858044
 20
422.2207058574
 40
4.2499999324
  0
CIRCLE
  5
452
100
AcDbEntity
  8
_1
100
AcDbCircle
 62
7
  6
CONTINUOUS
 10
773.0007858497
 20
422.2207058599
 40
4.0
  0
ARC
  5
453
100
AcDbEntity
  8
_1
100
AcDbCircle
 62
7
  6
CONTINUOUS
 10
837.4723027465
 20
369.8541665648
 40
14.5
100
AcDbArc
 50
270.0
 51
360.0
  0
ARC
  5
454
100
AcDbEntity
  8
_1
100
AcDbCircle
 62
7
  6
CONTINUOUS
 10
837.4723027465
 20
369.8541665648
 40
1.5
100
AcDbArc
 50
270.0
 51
360.0
  0
ARC
  5
455
100
AcDbEntity
  8
_1
100
AcDbCircle
 62
7
  6
CONTINUOUS
 10
859.163193649
 20
390.8639275797
 40
21.7576589338
100
AcDbArc
 50
103.5548718447
 51
104.4334884281
  0
ARC
  5
456
100
AcDbEntity
  8
_1
100
AcDbCircle
 62
7
  6
CONTINUOUS
 10
860.0609406797
 20
407.8666665648
 40
3.275
100
AcDbArc
 50
340.417406054
 51
79.582592053
  0
ARC
  5
457
100
AcDbEntity
  8
_1
100
AcDbCircle
 62
7
  6
CONTINUOUS
 10
860.8836648133
 20
407.8666665648
 40
3.275
100
AcDbArc
 50
100.4174382055
 51
199.5825617946
  0
ARC
  5
458
100
AcDbEntity
  8
_1
100
AcDbCircle
 62
7
  6
CONTINUOUS
 10
862.2043535541
 20
407.1041665648
 40
1.0
100
AcDbArc
 50
319.582561795
 51
340.4173329089
  0
ARC
  5
459
100
AcDbEntity
  8
_1
100
AcDbCircle
 62
7
  6
CONTINUOUS
 10
858.740251939
 20
407.1041665648
 40
1.0
100
AcDbArc
 50
199.5825617953
 51
220.4174382053
  0
ARC
  5
45A
100
AcDbEntity
  8
_1
100
AcDbCircle
 62
7
  6
CONTINUOUS
 10
858.2294454581
 20
406.8092523
 40
0.3454795367
100
AcDbArc
 50
201.9688271639
 51
218.0311494032
  0
ARC
  5
45B
100
AcDbEntity
  8
_1
100
AcDbCircle
 62
7
  6
CONTINUOUS
 10
862.7151640653
 20
406.8092499908
 40
0.3454749365
100
AcDbArc
 50
321.968736143
 51
338.031251949
  0
ARC
  5
45C
100
AcDbEntity
  8
_1
100
AcDbCircle
 62
7
  6
CONTINUOUS
 10
859.9723027465
 20
408.1041665648
 40
5.5
100
AcDbArc
 50
205.3228340719
 51
270.0
  0
ARC
  5
45D
100
AcDbEntity
  8
_1
100
AcDbCircle
 62
7
  6
CONTINUOUS
 10
859.9723027465
 20
408.1041665648
 40
5.5
100
AcDbArc
 50
90.0
 51
154.6771659281
  0
ARC
  5
45E
100
AcDbEntity
  8
_1
100
AcDbCircle
 62
7
  6
CONTINUOUS
 10
859.1631936477
 20
425.3444055447
 40
21.7576589286
100
AcDbArc
 50
255.5665115718
 51
256.4451281554
  0
ARC
  5
45F
100
AcDbEntity
  8
_1
100
AcDbCircle
 62
7
  6
CONTINUOUS
 10
860.4723027465
 20
408.1041665648
 40
8.9451439192
100
AcDbArc
 50
129.4821899166
 51
136.8986928036
  0
ARC
  5
460
100
AcDbEntity
  8
_1
100
AcDbCircle
 62
7
  6
CONTINUOUS
 10
860.4723027465
 20
408.1041665648
 40
8.9451439192
100
AcDbArc
 50
223.1013071964
 51
230.5178100834
  0
ARC
  5
461
100
AcDbEntity
  8
_1
100
AcDbCircle
 62
7
  6
CONTINUOUS
 10
860.4723027465
 20
408.1041665648
 40
8.9276941709
100
AcDbArc
 50
222.9924086854
 51
230.4226578617
  0
ARC
  5
462
100
AcDbEntity
  8
_1
100
AcDbCircle
 62
7
  6
CONTINUOUS
 10
860.4723027465
 20
408.1041665648
 40
8.9276941709
100
AcDbArc
 50
129.5773421383
 51
137.0075913146
  0
ARC
  5
463
100
AcDbEntity
  8
_1
100
AcDbCircle
 62
7
  6
CONTINUOUS
 10
860.4723027465
 20
408.1041665648
 40
7.7458749268
100
AcDbArc
 50
150.3601362149
 51
209.6398637851
  0
ARC
  5
464
100
AcDbEntity
  8
_1
100
AcDbCircle
 62
7
  6
CONTINUOUS
 10
860.4723027465
 20
408.1041665648
 40
7.6558879367
100
AcDbArc
 50
222.7083069292
 51
223.9733442842
  0
ARC
  5
465
100
AcDbEntity
  8
_1
100
AcDbCircle
 62
7
  6
CONTINUOUS
 10
860.4723027465
 20
408.1041665648
 40
7.6558879367
100
AcDbArc
 50
136.0266557158
 51
137.2916930708
  0
ARC
  5
466
100
AcDbEntity
  8
_1
100
AcDbCircle
 62
7
  6
CONTINUOUS
 10
860.4723027465
 20
408.1041665648
 40
7.5
100
AcDbArc
 50
211.569483878
 51
221.8189684484
  0
ARC
  5
467
100
AcDbEntity
  8
_1
100
AcDbCircle
 62
7
  6
CONTINUOUS
 10
860.4723027465
 20
408.1041665648
 40
7.5
100
AcDbArc
 50
138.2452292389
 51
148.4223961745
  0
ARC
  5
468
100
AcDbEntity
  8
_1
100
AcDbCircle
 62
7
  6
CONTINUOUS
 10
860.4723027465
 20
408.1041665648
 40
7.4944453864
100
AcDbArc
 50
141.4544237215
 51
145.5455762785
  0
ARC
  5
469
100
AcDbEntity
  8
_1
100
AcDbCircle
 62
7
  6
CONTINUOUS
 10
860.4723027465
 20
408.1041665648
 40
7.4944453864
100
AcDbArc
 50
214.4544237215
 51
218.5455762785
  0
ARC
  5
46A
100
AcDbEntity
  8
_1
100
AcDbCircle
 62
7
  6
CONTINUOUS
 10
860.4723027465
 20
408.1041665648
 40
7.2761746225
100
AcDbArc
 50
141.2791552296
 51
218.7208447704
  0
ARC
  5
46B
100
AcDbEntity
  8
_1
100
AcDbCircle
 62
7
  6
CONTINUOUS
 10
860.4723027465
 20
408.1041665648
 40
6.5
100
AcDbArc
 50
149.2356461913
 51
210.7761915239
  0
CIRCLE
  5
46C
100
AcDbEntity
  8
_1
100
AcDbCircle
 62
7
  6
CONTINUOUS
 10
860.4723027465
 20
408.1041665648
 40
5.25
  0
CIRCLE
  5
46D
100
AcDbEntity
  8
_1
100
AcDbCircle
 62
7
  6
CONTINUOUS
 10
860.4723027465
 20
408.1041665648
 40
4.0
  0
ARC
  5
46E
100
AcDbEntity
  8
_1
100
AcDbCircle
 62
7
  6
CONTINUOUS
 10
860.4723027465
 20
408.5791665648
 40
3.275
100
AcDbArc
 50
220.4174382056
 51
319.5825617945
  0
ARC
  5
46F
100
AcDbEntity
  8
_1
100
AcDbCircle
 62
7
  6
CONTINUOUS
 10
860.4888118708
 20
408.5793079715
 40
3.2156420964
100
AcDbArc
 50
218.0713759122
 51
220.2236090172
  0
ARC
  5
470
100
AcDbEntity
  8
_1
100
AcDbCircle
 62
7
  6
CONTINUOUS
 10
860.4558386252
 20
408.5792724318
 40
3.21558475
100
AcDbArc
 50
319.7763510965
 51
321.9286276823
  0
CIRCLE
  5
471
100
AcDbEntity
  8
_1
100
AcDbCircle
 62
7
  6
CONTINUOUS
 10
860.4723027465
 20
408.1041665648
 40
3.0
  0
CIRCLE
  5
472
100
AcDbEntity
  8
_1
100
AcDbCircle
 62
7
  6
CONTINUOUS
 10
860.4723027465
 20
408.1041665648
 40
1.5
  0
ARC
  5
473
100
AcDbEntity
  8
_1
100
AcDbCircle
 62
7
  6
CONTINUOUS
 10
860.4723027465
 20
410.1041665648
 40
1.0
100
AcDbArc
 50
79.5826608917
 51
100.4174382051
  0
ARC
  5
474
100
AcDbEntity
  8
_1
100
AcDbCircle
 62
7
  6
CONTINUOUS
 10
860.4722718592
 20
410.6952512461
 40
0.3442298233
100
AcDbArc
 50
81.9449368047
 51
98.0551074177
  0
ARC
  5
475
100
AcDbEntity
  8
_1
100
AcDbCircle
 62
7
  6
CONTINUOUS
 10
860.9723027465
 20
408.1041665648
 40
5.5
100
AcDbArc
 50
270.0
 51
90.0
  0
ARC
  5
476
100
AcDbEntity
  8
_1
100
AcDbCircle
 62
7
  6
CONTINUOUS
 10
876.3870973011
 20
401.8223166373
 40
21.5679817685
100
AcDbArc
 50
176.5527885421
 51
177.1055001832
  0
ARC
  5
477
100
AcDbEntity
  8
_1
100
AcDbCircle
 62
7
  6
CONTINUOUS
 10
876.3870973009
 20
414.3860164922
 40
21.5679817683
100
AcDbArc
 50
182.8944998168
 51
183.4472114579
  0
ARC
  5
478
100
AcDbEntity
  8
_1
100
AcDbCircle
 62
7
  6
CONTINUOUS
 10
797.985911261
 20
602.2598657051
 40
0.2007219929
100
AcDbArc
 50
0.0331484972
 51
9.4800709652
  0
ARC
  5
479
100
AcDbEntity
  8
_1
100
AcDbCircle
 62
7
  6
CONTINUOUS
 10
788.3873551732
 20
602.2598657054
 40
0.2007219865
100
AcDbArc
 50
170.5199394441
 51
179.9668516012
  0
ARC
  5
47A
100
AcDbEntity
  8
_1
100
AcDbCircle
 62
7
  6
CONTINUOUS
 10
859.1631936486
 20
515.8639275812
 40
21.7576589323
100
AcDbArc
 50
103.5548718446
 51
104.4334884282
  0
ARC
  5
47B
100
AcDbEntity
  8
_1
100
AcDbCircle
 62
7
  6
CONTINUOUS
 10
860.0609406797
 20
532.8666665648
 40
3.275
100
AcDbArc
 50
340.417406054
 51
79.582592053
  0
ARC
  5
47C
100
AcDbEntity
  8
_1
100
AcDbCircle
 62
7
  6
CONTINUOUS
 10
860.8836648133
 20
532.8666665648
 40
3.275
100
AcDbArc
 50
100.4174382055
 51
199.5825617946
  0
ARC
  5
47D
100
AcDbEntity
  8
_1
100
AcDbCircle
 62
7
  6
CONTINUOUS
 10
862.2043535541
 20
532.1041665648
 40
1.0
100
AcDbArc
 50
319.582561795
 51
340.4173329089
  0
ARC
  5
47E
100
AcDbEntity
  8
_1
100
AcDbCircle
 62
7
  6
CONTINUOUS
 10
858.740251939
 20
532.1041665648
 40
1.0
100
AcDbArc
 50
199.5825617952
 51
220.4174382053
  0
ARC
  5
47F
100
AcDbEntity
  8
_1
100
AcDbCircle
 62
7
  6
CONTINUOUS
 10
858.2294454587
 20
531.8092523003
 40
0.3454795373
100
AcDbArc
 50
201.968827178
 51
218.0311493891
  0
ARC
  5
480
100
AcDbEntity
  8
_1
100
AcDbCircle
 62
7
  6
CONTINUOUS
 10
862.7151640628
 20
531.8092499923
 40
0.3454749393
100
AcDbArc
 50
321.9687362097
 51
338.0312518824
  0
ARC
  5
481
100
AcDbEntity
  8
_1
100
AcDbCircle
 62
7
  6
CONTINUOUS
 10
859.9723027465
 20
533.1041665648
 40
5.5
100
AcDbArc
 50
205.3228340719
 51
270.0
  0
ARC
  5
482
100
AcDbEntity
  8
_1
100
AcDbCircle
 62
7
  6
CONTINUOUS
 10
859.9723027465
 20
533.1041665648
 40
5.5
100
AcDbArc
 50
90.0
 51
154.6771659281
  0
ARC
  5
483
100
AcDbEntity
  8
_1
100
AcDbCircle
 62
7
  6
CONTINUOUS
 10
859.1631936482
 20
550.3444055469
 40
21.7576589308
100
AcDbArc
 50
255.5665115718
 51
256.4451281554
  0
ARC
  5
484
100
AcDbEntity
  8
_1
100
AcDbCircle
 62
7
  6
CONTINUOUS
 10
860.4723027465
 20
533.1041665648
 40
8.9451439192
100
AcDbArc
 50
129.4821899166
 51
136.8986928036
  0
ARC
  5
485
100
AcDbEntity
  8
_1
100
AcDbCircle
 62
7
  6
CONTINUOUS
 10
860.4723027465
 20
533.1041665648
 40
8.9451439192
100
AcDbArc
 50
223.1013071964
 51
230.5178100834
  0
ARC
  5
486
100
AcDbEntity
  8
_1
100
AcDbCircle
 62
7
  6
CONTINUOUS
 10
860.4723027465
 20
533.1041665648
 40
8.9276941709
100
AcDbArc
 50
222.9924086854
 51
230.4226578617
  0
ARC
  5
487
100
AcDbEntity
  8
_1
100
AcDbCircle
 62
7
  6
CONTINUOUS
 10
860.4723027465
 20
533.1041665648
 40
8.9276941709
100
AcDbArc
 50
129.5773421383
 51
137.0075913146
  0
ARC
  5
488
100
AcDbEntity
  8
_1
100
AcDbCircle
 62
7
  6
CONTINUOUS
 10
860.4723027465
 20
533.1041665648
 40
7.7458749268
100
AcDbArc
 50
150.3601362149
 51
209.6398637851
  0
ARC
  5
489
100
AcDbEntity
  8
_1
100
AcDbCircle
 62
7
  6
CONTINUOUS
 10
860.4723027465
 20
533.1041665648
 40
7.6558879367
100
AcDbArc
 50
222.7083069292
 51
223.9733442842
  0
ARC
  5
48A
100
AcDbEntity
  8
_1
100
AcDbCircle
 62
7
  6
CONTINUOUS
 10
860.4723027465
 20
533.1041665648
 40
7.6558879367
100
AcDbArc
 50
136.0266557158
 51
137.2916930708
  0
ARC
  5
48B
100
AcDbEntity
  8
_1
100
AcDbCircle
 62
7
  6
CONTINUOUS
 10
860.4723027465
 20
533.1041665648
 40
7.5
100
AcDbArc
 50
211.569483878
 51
221.8189684484
  0
ARC
  5
48C
100
AcDbEntity
  8
_1
100
AcDbCircle
 62
7
  6
CONTINUOUS
 10
860.4723027465
 20
533.1041665648
 40
7.5
100
AcDbArc
 50
138.2452292389
 51
148.4223961745
  0
ARC
  5
48D
100
AcDbEntity
  8
_1
100
AcDbCircle
 62
7
  6
CONTINUOUS
 10
860.4723027465
 20
533.1041665648
 40
7.4944453864
100
AcDbArc
 50
141.4544237215
 51
145.5455762785
  0
ARC
  5
48E
100
AcDbEntity
  8
_1
100
AcDbCircle
 62
7
  6
CONTINUOUS
 10
860.4723027465
 20
533.1041665648
 40
7.4944453864
100
AcDbArc
 50
214.4544237215
 51
218.5455762785
  0
ARC
  5
48F
100
AcDbEntity
  8
_1
100
AcDbCircle
 62
7
  6
CONTINUOUS
 10
860.4723027465
 20
533.1041665648
 40
7.2761746225
100
AcDbArc
 50
141.2791552296
 51
218.7208447704
  0
ARC
  5
490
100
AcDbEntity
  8
_1
100
AcDbCircle
 62
7
  6
CONTINUOUS
 10
860.4723027465
 20
533.1041665648
 40
6.5
100
AcDbArc
 50
149.2356461913
 51
210.7761915239
  0
CIRCLE
  5
491
100
AcDbEntity
  8
_1
100
AcDbCircle
 62
7
  6
CONTINUOUS
 10
860.4723027465
 20
533.1041665648
 40
5.25
  0
CIRCLE
  5
492
100
AcDbEntity
  8
_1
100
AcDbCircle
 62
7
  6
CONTINUOUS
 10
860.4723027465
 20
533.1041665648
 40
4.0
  0
ARC
  5
493
100
AcDbEntity
  8
_1
100
AcDbCircle
 62
7
  6
CONTINUOUS
 10
860.4723027465
 20
533.5791665648
 40
3.275
100
AcDbArc
 50
220.4174382056
 51
319.5825617945
  0
ARC
  5
494
100
AcDbEntity
  8
_1
100
AcDbCircle
 62
7
  6
CONTINUOUS
 10
860.4888118706
 20
533.5793079714
 40
3.2156420962
100
AcDbArc
 50
218.0713759121
 51
220.2236090172
  0
ARC
  5
495
100
AcDbEntity
  8
_1
100
AcDbCircle
 62
7
  6
CONTINUOUS
 10
860.4558386255
 20
533.5792724315
 40
3.2155847495
100
AcDbArc
 50
319.7763510964
 51
321.9286276824
  0
CIRCLE
  5
496
100
AcDbEntity
  8
_1
100
AcDbCircle
 62
7
  6
CONTINUOUS
 10
860.4723027465
 20
533.1041665648
 40
3.0
  0
CIRCLE
  5
497
100
AcDbEntity
  8
_1
100
AcDbCircle
 62
7
  6
CONTINUOUS
 10
860.4723027465
 20
533.1041665648
 40
1.5
  0
ARC
  5
498
100
AcDbEntity
  8
_1
100
AcDbCircle
 62
7
  6
CONTINUOUS
 10
860.4723027465
 20
535.1041665648
 40
1.0
100
AcDbArc
 50
79.5826608917
 51
100.4174382051
  0
ARC
  5
499
100
AcDbEntity
  8
_1
100
AcDbCircle
 62
7
  6
CONTINUOUS
 10
860.4722718592
 20
535.6952512462
 40
0.3442298233
100
AcDbArc
 50
81.9449368
 51
98.0551074183
  0
ARC
  5
49A
100
AcDbEntity
  8
_1
100
AcDbCircle
 62
7
  6
CONTINUOUS
 10
860.9723027465
 20
533.1041665648
 40
5.5
100
AcDbArc
 50
270.0
 51
90.0
  0
ARC
  5
49B
100
AcDbEntity
  8
_1
100
AcDbCircle
 62
7
  6
CONTINUOUS
 10
876.3870973009
 20
526.8223166373
 40
21.5679817683
100
AcDbArc
 50
176.5527885421
 51
177.1055001832
  0
ARC
  5
49C
100
AcDbEntity
  8
_1
100
AcDbCircle
 62
7
  6
CONTINUOUS
 10
876.3870973007
 20
539.3860164922
 40
21.5679817681
100
AcDbArc
 50
182.8944998168
 51
183.4472114579
  0
ARC
  5
49D
100
AcDbEntity
  8
_1
100
AcDbCircle
 62
7
  6
CONTINUOUS
 10
837.4723027465
 20
569.3541665648
 40
14.5
100
AcDbArc
 50
0.0
 51
90.0
  0
ARC
  5
49E
100
AcDbEntity
  8
_1
100
AcDbCircle
 62
7
  6
CONTINUOUS
 10
837.4723027465
 20
569.3541665648
 40
1.5
100
AcDbArc
 50
0.0
 51
90.0
  0
ARC
  5
49F
100
AcDbEntity
  8
_1
100
AcDbCircle
 62
7
  6
CONTINUOUS
 10
848.2537616887
 20
799.7876843793
 40
18.583230695
100
AcDbArc
 50
15.4075959766
 51
16.434813529
  0
ARC
  5
4A0
100
AcDbEntity
  8
_1
100
AcDbCircle
 62
7
  6
CONTINUOUS
 10
848.9548476005
 20
798.8632819652
 40
18.5685958586
100
AcDbArc
 50
56.5649216592
 51
57.5631181248
  0
ARC
  5
4A1
100
AcDbEntity
  8
_1
100
AcDbCircle
 62
7
  6
CONTINUOUS
 10
848.2537616872
 20
816.4206487507
 40
18.5832306965
100
AcDbArc
 50
343.565186471
 51
344.5924040234
  0
ARC
  5
4A2
100
AcDbEntity
  8
_1
100
AcDbCircle
 62
7
  6
CONTINUOUS
 10
848.9548539302
 20
817.3450414554
 40
18.5685842688
100
AcDbArc
 50
302.4368820831
 51
303.4350785484
  0
ARC
  5
4A3
100
AcDbEntity
  8
_1
100
AcDbCircle
 62
7
  6
CONTINUOUS
 10
859.3792884313
 20
793.3643585243
 40
18.5832306893
100
AcDbArc
 50
103.5651864709
 51
104.5924040236
  0
ARC
  5
4A4
100
AcDbEntity
  8
_1
100
AcDbCircle
 62
7
  6
CONTINUOUS
 10
858.2282167344
 20
793.5093692055
 40
18.568535664
100
AcDbArc
 50
62.4369666281
 51
63.4350794163
  0
ARC
  5
4A5
100
AcDbEntity
  8
_1
100
AcDbCircle
 62
7
  6
CONTINUOUS
 10
858.3072392371
 20
806.8541665648
 40
0.5
100
AcDbArc
 50
149.9999999999
 51
270.0
  0
ARC
  5
4A6
100
AcDbEntity
  8
_1
100
AcDbCircle
 62
7
  6
CONTINUOUS
 10
859.1732646408
 20
805.8541665648
 40
0.5
100
AcDbArc
 50
30.0
 51
90.0
  0
ARC
  5
4A7
100
AcDbEntity
  8
_1
100
AcDbCircle
 62
7
  6
CONTINUOUS
 10
860.4723027465
 20
805.6041665648
 40
0.5
100
AcDbArc
 50
210.0
 51
330.0
  0
ARC
  5
4A8
100
AcDbEntity
  8
_1
100
AcDbCircle
 62
7
  6
CONTINUOUS
 10
862.637366256
 20
806.8541665648
 40
0.5
100
AcDbArc
 50
270.0000000001
 51
30.0
  0
ARC
  5
4A9
100
AcDbEntity
  8
_1
100
AcDbCircle
 62
7
  6
CONTINUOUS
 10
861.7713408522
 20
805.8541665648
 40
0.5
100
AcDbArc
 50
90.0
 51
150.0
  0
ARC
  5
4AA
100
AcDbEntity
  8
_1
100
AcDbCircle
 62
7
  6
CONTINUOUS
 10
859.1732646408
 20
810.3541665648
 40
0.5
100
AcDbArc
 50
270.0
 51
330.0000000001
  0
ARC
  5
4AB
100
AcDbEntity
  8
_1
100
AcDbCircle
 62
7
  6
CONTINUOUS
 10
858.3072392371
 20
809.3541665648
 40
0.5
100
AcDbArc
 50
90.0
 51
210.0
  0
ARC
  5
4AC
100
AcDbEntity
  8
_1
100
AcDbCircle
 62
7
  6
CONTINUOUS
 10
857.8742265352
 20
808.1041665648
 40
0.5
100
AcDbArc
 50
330.0
 51
30.0
  0
ARC
  5
4AD
100
AcDbEntity
  8
_1
100
AcDbCircle
 62
7
  6
CONTINUOUS
 10
859.3792884317
 20
822.8439746068
 40
18.5832306909
100
AcDbArc
 50
255.4075959764
 51
256.434813529
  0
ARC
  5
4AE
100
AcDbEntity
  8
_1
100
AcDbCircle
 62
7
  6
CONTINUOUS
 10
858.2282085741
 20
822.6989800104
 40
18.5685537014
100
AcDbArc
 50
296.5649209069
 51
297.563033695
  0
CIRCLE
  5
4AF
100
AcDbEntity
  8
_1
100
AcDbCircle
 62
7
  6
CONTINUOUS
 10
860.4723027465
 20
808.1041665648
 40
7.5
  0
ARC
  5
4B0
100
AcDbEntity
  8
_1
100
AcDbCircle
 62
7
  6
CONTINUOUS
 10
860.4723027465
 20
808.1041665648
 40
6.6515888492
100
AcDbArc
 50
104.2082283517
 51
135.7917716483
  0
ARC
  5
4B1
100
AcDbEntity
  8
_1
100
AcDbCircle
 62
7
  6
CONTINUOUS
 10
860.4723027465
 20
808.1041665648
 40
6.6515888492
100
AcDbArc
 50
224.2082283517
 51
255.7917716483
  0
ARC
  5
4B2
100
AcDbEntity
  8
_1
100
AcDbCircle
 62
7
  6
CONTINUOUS
 10
860.4723027465
 20
808.1041665648
 40
6.6250190726
100
AcDbArc
 50
344.2190979027
 51
15.7809020973
  0
ARC
  5
4B3
100
AcDbEntity
  8
_1
100
AcDbCircle
 62
7
  6
CONTINUOUS
 10
860.4723027465
 20
808.1041665648
 40
6.6236522336
100
AcDbArc
 50
30.6754332562
 51
89.3245667438
  0
ARC
  5
4B4
100
AcDbEntity
  8
_1
100
AcDbCircle
 62
7
  6
CONTINUOUS
 10
860.4723027465
 20
808.1041665648
 40
6.6236522336
100
AcDbArc
 50
150.6754332562
 51
209.3245667438
  0
ARC
  5
4B5
100
AcDbEntity
  8
_1
100
AcDbCircle
 62
7
  6
CONTINUOUS
 10
860.4723027465
 20
808.1041665648
 40
6.6236522336
100
AcDbArc
 50
270.6754332562
 51
329.3245667438
  0
ARC
  5
4B6
100
AcDbEntity
  8
_1
100
AcDbCircle
 62
7
  6
CONTINUOUS
 10
860.4723027465
 20
808.1041665648
 40
6.3722226932
100
AcDbArc
 50
141.9753231955
 51
145.0246768045
  0
ARC
  5
4B7
100
AcDbEntity
  8
_1
100
AcDbCircle
 62
7
  6
CONTINUOUS
 10
860.4723027465
 20
808.1041665648
 40
6.3722226932
100
AcDbArc
 50
94.9753231955
 51
98.0246768045
  0
ARC
  5
4B8
100
AcDbEntity
  8
_1
100
AcDbCircle
 62
7
  6
CONTINUOUS
 10
860.4723027465
 20
808.1041665648
 40
6.3722226932
100
AcDbArc
 50
214.9753231955
 51
218.0246768045
  0
ARC
  5
4B9
100
AcDbEntity
  8
_1
100
AcDbCircle
 62
7
  6
CONTINUOUS
 10
860.4723027465
 20
808.1041665648
 40
6.3722226932
100
AcDbArc
 50
261.9753231955
 51
265.0246768045
  0
ARC
  5
4BA
100
AcDbEntity
  8
_1
100
AcDbCircle
 62
7
  6
CONTINUOUS
 10
860.4723027465
 20
808.1041665648
 40
6.3722226932
100
AcDbArc
 50
334.9753231955
 51
338.0246781527
  0
ARC
  5
4BB
100
AcDbEntity
  8
_1
100
AcDbCircle
 62
7
  6
CONTINUOUS
 10
860.4723027465
 20
808.1041665648
 40
6.3722226932
100
AcDbArc
 50
21.9753231955
 51
25.0246768045
  0
ARC
  5
4BC
100
AcDbEntity
  8
_1
100
AcDbCircle
 62
7
  6
CONTINUOUS
 10
860.4723027465
 20
808.1041665648
 40
6.25
100
AcDbArc
 50
256.2278837589
 51
343.8011703569
  0
ARC
  5
4BD
100
AcDbEntity
  8
_1
100
AcDbCircle
 62
7
  6
CONTINUOUS
 10
860.4723027465
 20
808.1041665648
 40
6.25
100
AcDbArc
 50
16.1931246879
 51
103.7811215249
  0
ARC
  5
4BE
100
AcDbEntity
  8
_1
100
AcDbCircle
 62
7
  6
CONTINUOUS
 10
860.4723027465
 20
808.1041665648
 40
6.25
100
AcDbArc
 50
136.1620150111
 51
223.8345633335
  0
ARC
  5
4BF
100
AcDbEntity
  8
_1
100
AcDbCircle
 62
7
  6
CONTINUOUS
 10
860.4723027465
 20
808.1041665648
 40
6.0
100
AcDbArc
 50
136.0848087094
 51
223.9773739175
  0
ARC
  5
4C0
100
AcDbEntity
  8
_1
100
AcDbCircle
 62
7
  6
CONTINUOUS
 10
860.4723027465
 20
808.1041665648
 40
6.0
100
AcDbArc
 50
256.0784956962
 51
343.926063003
  0
ARC
  5
4C1
100
AcDbEntity
  8
_1
100
AcDbCircle
 62
7
  6
CONTINUOUS
 10
860.4723027465
 20
808.1041665648
 40
6.0
100
AcDbArc
 50
16.0326771447
 51
103.9170388554
  0
ARC
  5
4C2
100
AcDbEntity
  8
_1
100
AcDbCircle
 62
7
  6
CONTINUOUS
 10
860.4723027465
 20
808.1041665648
 40
5.6515888492
100
AcDbArc
 50
104.3333742897
 51
135.6666515099
  0
ARC
  5
4C3
100
AcDbEntity
  8
_1
100
AcDbCircle
 62
7
  6
CONTINUOUS
 10
860.4723027465
 20
808.1041665648
 40
5.6515888492
100
AcDbArc
 50
224.3333742897
 51
255.6666515099
  0
ARC
  5
4C4
100
AcDbEntity
  8
_1
100
AcDbCircle
 62
7
  6
CONTINUOUS
 10
860.4723027465
 20
808.1041665648
 40
5.6250190726
100
AcDbArc
 50
344.3467584224
 51
15.6532308084
  0
CIRCLE
  5
4C5
100
AcDbEntity
  8
_1
100
AcDbCircle
 62
7
  6
CONTINUOUS
 10
860.4723027465
 20
808.1041665648
 40
5.5434781454
  0
ARC
  5
4C6
100
AcDbEntity
  8
_1
100
AcDbCircle
 62
7
  6
CONTINUOUS
 10
860.4723027465
 20
810.6041665648
 40
0.5
100
AcDbArc
 50
30.0
 51
149.9999999999
  0
ARC
  5
4C7
100
AcDbEntity
  8
_1
100
AcDbCircle
 62
7
  6
CONTINUOUS
 10
863.0703789579
 20
808.1041665648
 40
0.5
100
AcDbArc
 50
149.9999999999
 51
210.0
  0
ARC
  5
4C8
100
AcDbEntity
  8
_1
100
AcDbCircle
 62
7
  6
CONTINUOUS
 10
861.7713408522
 20
810.3541665648
 40
0.5
100
AcDbArc
 50
210.0
 51
270.0
  0
ARC
  5
4C9
100
AcDbEntity
  8
_1
100
AcDbCircle
 62
7
  6
CONTINUOUS
 10
862.637366256
 20
809.3541665648
 40
0.5
100
AcDbArc
 50
330.0
 51
89.9999999999
  0
ARC
  5
4CA
100
AcDbEntity
  8
_1
100
AcDbCircle
 62
7
  6
CONTINUOUS
 10
848.253761689
 20
924.7876843794
 40
18.5832306947
100
AcDbArc
 50
15.4075959766
 51
16.434813529
  0
ARC
  5
4CB
100
AcDbEntity
  8
_1
100
AcDbCircle
 62
7
  6
CONTINUOUS
 10
848.9548475999
 20
923.8632819644
 40
18.5685958596
100
AcDbArc
 50
56.5649216593
 51
57.5631181248
  0
ARC
  5
4CC
100
AcDbEntity
  8
_1
100
AcDbCircle
 62
7
  6
CONTINUOUS
 10
848.2537616902
 20
941.4206487498
 40
18.5832306934
100
AcDbArc
 50
343.565186471
 51
344.5924040235
  0
ARC
  5
4CD
100
AcDbEntity
  8
_1
100
AcDbCircle
 62
7
  6
CONTINUOUS
 10
848.9548539304
 20
942.3450414552
 40
18.5685842685
100
AcDbArc
 50
302.4368820831
 51
303.4350785484
  0
ARC
  5
4CE
100
AcDbEntity
  8
_1
100
AcDbCircle
 62
7
  6
CONTINUOUS
 10
859.3792884321
 20
918.3643585211
 40
18.5832306925
100
AcDbArc
 50
103.565186471
 51
104.5924040235
  0
ARC
  5
4CF
100
AcDbEntity
  8
_1
100
AcDbCircle
 62
7
  6
CONTINUOUS
 10
858.228216733
 20
918.5093692027
 40
18.5685356671
100
AcDbArc
 50
62.4369666282
 51
63.4350794163
  0
ARC
  5
4D0
100
AcDbEntity
  8
_1
100
AcDbCircle
 62
7
  6
CONTINUOUS
 10
858.3072392371
 20
931.8541665648
 40
0.5
100
AcDbArc
 50
149.9999999999
 51
270.0
  0
ARC
  5
4D1
100
AcDbEntity
  8
_1
100
AcDbCircle
 62
7
  6
CONTINUOUS
 10
859.1732646408
 20
930.8541665648
 40
0.5
100
AcDbArc
 50
30.0
 51
90.0
  0
ARC
  5
4D2
100
AcDbEntity
  8
_1
100
AcDbCircle
 62
7
  6
CONTINUOUS
 10
860.4723027465
 20
930.6041665648
 40
0.5
100
AcDbArc
 50
210.0
 51
330.0
  0
ARC
  5
4D3
100
AcDbEntity
  8
_1
100
AcDbCircle
 62
7
  6
CONTINUOUS
 10
862.637366256
 20
931.8541665648
 40
0.5
100
AcDbArc
 50
270.0000000001
 51
30.0
  0
ARC
  5
4D4
100
AcDbEntity
  8
_1
100
AcDbCircle
 62
7
  6
CONTINUOUS
 10
861.7713408522
 20
930.8541665648
 40
0.5
100
AcDbArc
 50
90.0
 51
150.0
  0
ARC
  5
4D5
100
AcDbEntity
  8
_1
100
AcDbCircle
 62
7
  6
CONTINUOUS
 10
859.1732646408
 20
935.3541665648
 40
0.5
100
AcDbArc
 50
270.0
 51
330.0000000001
  0
ARC
  5
4D6
100
AcDbEntity
  8
_1
100
AcDbCircle
 62
7
  6
CONTINUOUS
 10
858.3072392371
 20
934.3541665648
 40
0.5
100
AcDbArc
 50
90.0
 51
210.0
  0
ARC
  5
4D7
100
AcDbEntity
  8
_1
100
AcDbCircle
 62
7
  6
CONTINUOUS
 10
857.8742265352
 20
933.1041665648
 40
0.5
100
AcDbArc
 50
330.0
 51
30.0
  0
ARC
  5
4D8
100
AcDbEntity
  8
_1
100
AcDbCircle
 62
7
  6
CONTINUOUS
 10
859.3792884323
 20
947.8439746089
 40
18.5832306931
100
AcDbArc
 50
255.4075959765
 51
256.434813529
  0
ARC
  5
4D9
100
AcDbEntity
  8
_1
100
AcDbCircle
 62
7
  6
CONTINUOUS
 10
858.2282085741
 20
947.6989800104
 40
18.5685537014
100
AcDbArc
 50
296.5649209069
 51
297.563033695
  0
CIRCLE
  5
4DA
100
AcDbEntity
  8
_1
100
AcDbCircle
 62
7
  6
CONTINUOUS
 10
860.4723027465
 20
933.1041665648
 40
7.5
  0
ARC
  5
4DB
100
AcDbEntity
  8
_1
100
AcDbCircle
 62
7
  6
CONTINUOUS
 10
860.4723027465
 20
933.1041665648
 40
6.6515888492
100
AcDbArc
 50
104.2082283517
 51
135.7917716483
  0
ARC
  5
4DC
100
AcDbEntity
  8
_1
100
AcDbCircle
 62
7
  6
CONTINUOUS
 10
860.4723027465
 20
933.1041665648
 40
6.6515888492
100
AcDbArc
 50
224.2082283517
 51
255.7917716483
  0
ARC
  5
4DD
100
AcDbEntity
  8
_1
100
AcDbCircle
 62
7
  6
CONTINUOUS
 10
860.4723027465
 20
933.1041665648
 40
6.6250190726
100
AcDbArc
 50
344.2190979027
 51
15.7809020973
  0
ARC
  5
4DE
100
AcDbEntity
  8
_1
100
AcDbCircle
 62
7
  6
CONTINUOUS
 10
860.4723027465
 20
933.1041665648
 40
6.6236522336
100
AcDbArc
 50
30.6754332562
 51
89.3245667438
  0
ARC
  5
4DF
100
AcDbEntity
  8
_1
100
AcDbCircle
 62
7
  6
CONTINUOUS
 10
860.4723027465
 20
933.1041665648
 40
6.6236522336
100
AcDbArc
 50
150.6754332562
 51
209.3245667438
  0
ARC
  5
4E0
100
AcDbEntity
  8
_1
100
AcDbCircle
 62
7
  6
CONTINUOUS
 10
860.4723027465
 20
933.1041665648
 40
6.6236522336
100
AcDbArc
 50
270.6754332562
 51
329.3245667438
  0
ARC
  5
4E1
100
AcDbEntity
  8
_1
100
AcDbCircle
 62
7
  6
CONTINUOUS
 10
860.4723027465
 20
933.1041665648
 40
6.3722226932
100
AcDbArc
 50
141.9753231955
 51
145.0246768045
  0
ARC
  5
4E2
100
AcDbEntity
  8
_1
100
AcDbCircle
 62
7
  6
CONTINUOUS
 10
860.4723027465
 20
933.1041665648
 40
6.3722226932
100
AcDbArc
 50
94.9753231955
 51
98.0246768045
  0
ARC
  5
4E3
100
AcDbEntity
  8
_1
100
AcDbCircle
 62
7
  6
CONTINUOUS
 10
860.4723027465
 20
933.1041665648
 40
6.3722226932
100
AcDbArc
 50
214.9753231955
 51
218.0246768045
  0
ARC
  5
4E4
100
AcDbEntity
  8
_1
100
AcDbCircle
 62
7
  6
CONTINUOUS
 10
860.4723027465
 20
933.1041665648
 40
6.3722226932
100
AcDbArc
 50
261.9753231955
 51
265.0246768045
  0
ARC
  5
4E5
100
AcDbEntity
  8
_1
100
AcDbCircle
 62
7
  6
CONTINUOUS
 10
860.4723027465
 20
933.1041665648
 40
6.3722226932
100
AcDbArc
 50
334.9753231955
 51
338.0246781527
  0
ARC
  5
4E6
100
AcDbEntity
  8
_1
100
AcDbCircle
 62
7
  6
CONTINUOUS
 10
860.4723027465
 20
933.1041665648
 40
6.3722226932
100
AcDbArc
 50
21.9753231955
 51
25.0246768045
  0
ARC
  5
4E7
100
AcDbEntity
  8
_1
100
AcDbCircle
 62
7
  6
CONTINUOUS
 10
860.4723027465
 20
933.1041665648
 40
6.25
100
AcDbArc
 50
256.2278837589
 51
343.8011703569
  0
ARC
  5
4E8
100
AcDbEntity
  8
_1
100
AcDbCircle
 62
7
  6
CONTINUOUS
 10
860.4723027465
 20
933.1041665648
 40
6.25
100
AcDbArc
 50
16.1931246879
 51
103.7811215249
  0
ARC
  5
4E9
100
AcDbEntity
  8
_1
100
AcDbCircle
 62
7
  6
CONTINUOUS
 10
860.4723027465
 20
933.1041665648
 40
6.25
100
AcDbArc
 50
136.1620150111
 51
223.8345633335
  0
ARC
  5
4EA
100
AcDbEntity
  8
_1
100
AcDbCircle
 62
7
  6
CONTINUOUS
 10
860.4723027465
 20
933.1041665648
 40
6.0
100
AcDbArc
 50
136.0848087094
 51
223.9773739175
  0
ARC
  5
4EB
100
AcDbEntity
  8
_1
100
AcDbCircle
 62
7
  6
CONTINUOUS
 10
860.4723027465
 20
933.1041665648
 40
6.0
100
AcDbArc
 50
256.0784956962
 51
343.926063003
  0
ARC
  5
4EC
100
AcDbEntity
  8
_1
100
AcDbCircle
 62
7
  6
CONTINUOUS
 10
860.4723027465
 20
933.1041665648
 40
6.0
100
AcDbArc
 50
16.0326771447
 51
103.9170388554
  0
ARC
  5
4ED
100
AcDbEntity
  8
_1
100
AcDbCircle
 62
7
  6
CONTINUOUS
 10
860.4723027465
 20
933.1041665648
 40
5.6515888492
100
AcDbArc
 50
104.3333742897
 51
135.6666515099
  0
ARC
  5
4EE
100
AcDbEntity
  8
_1
100
AcDbCircle
 62
7
  6
CONTINUOUS
 10
860.4723027465
 20
933.1041665648
 40
5.6515888492
100
AcDbArc
 50
224.3333742897
 51
255.6666515099
  0
ARC
  5
4EF
100
AcDbEntity
  8
_1
100
AcDbCircle
 62
7
  6
CONTINUOUS
 10
860.4723027465
 20
933.1041665648
 40
5.6250190726
100
AcDbArc
 50
344.3467584224
 51
15.6532308084
  0
CIRCLE
  5
4F0
100
AcDbEntity
  8
_1
100
AcDbCircle
 62
7
  6
CONTINUOUS
 10
860.4723027465
 20
933.1041665648
 40
5.5434781454
  0
ARC
  5
4F1
100
AcDbEntity
  8
_1
100
AcDbCircle
 62
7
  6
CONTINUOUS
 10
860.4723027465
 20
935.6041665648
 40
0.5
100
AcDbArc
 50
30.0
 51
149.9999999999
  0
ARC
  5
4F2
100
AcDbEntity
  8
_1
100
AcDbCircle
 62
7
  6
CONTINUOUS
 10
863.0703789579
 20
933.1041665648
 40
0.5
100
AcDbArc
 50
149.9999999999
 51
210.0
  0
ARC
  5
4F3
100
AcDbEntity
  8
_1
100
AcDbCircle
 62
7
  6
CONTINUOUS
 10
861.7713408522
 20
935.3541665648
 40
0.5
100
AcDbArc
 50
210.0
 51
270.0
  0
ARC
  5
4F4
100
AcDbEntity
  8
_1
100
AcDbCircle
 62
7
  6
CONTINUOUS
 10
862.637366256
 20
934.3541665648
 40
0.5
100
AcDbArc
 50
330.0
 51
89.9999999999
  0
ARC
  5
4F5
100
AcDbEntity
  8
_1
100
AcDbCircle
 62
7
  6
CONTINUOUS
 10
873.7838581178
 20
814.527492425
 40
18.5832306945
100
AcDbArc
 50
223.565186471
 51
224.5924040235
  0
ARC
  5
4F6
100
AcDbEntity
  8
_1
100
AcDbCircle
 62
7
  6
CONTINUOUS
 10
873.7838581148
 20
801.6808407075
 40
18.5832306903
100
AcDbArc
 50
135.4075959764
 51
136.4348135291
  0
ARC
  5
4F7
100
AcDbEntity
  8
_1
100
AcDbCircle
 62
7
  6
CONTINUOUS
 10
874.2338711421
 20
802.7502001208
 40
18.5685958646
100
AcDbArc
 50
176.5649216593
 51
177.5631181245
  0
ARC
  5
4F8
100
AcDbEntity
  8
_1
100
AcDbCircle
 62
7
  6
CONTINUOUS
 10
874.2338563781
 20
813.4581322086
 40
18.5685810791
100
AcDbArc
 50
182.4368821402
 51
183.4350786057
  0
ARC
  5
4F9
100
AcDbEntity
  8
_1
100
AcDbCircle
 62
7
  6
CONTINUOUS
 10
881.9914259013
 20
742.5581352653
 40
12.423090928
100
AcDbArc
 50
197.958937309
 51
198.6384900996
  0
ARC
  5
4FA
100
AcDbEntity
  8
_1
100
AcDbCircle
 62
7
  6
CONTINUOUS
 10
879.5459914096
 20
741.7303444922
 40
9.8413517198
100
AcDbArc
 50
198.6220402553
 51
199.7901243838
  0
ARC
  5
4FB
100
AcDbEntity
  8
_1
100
AcDbCircle
 62
7
  6
CONTINUOUS
 10
873.7838581178
 20
939.527492425
 40
18.5832306945
100
AcDbArc
 50
223.565186471
 51
224.5924040235
  0
ARC
  5
4FC
100
AcDbEntity
  8
_1
100
AcDbCircle
 62
7
  6
CONTINUOUS
 10
873.7838581154
 20
926.680840707
 40
18.5832306911
100
AcDbArc
 50
135.4075959765
 51
136.4348135291
  0
ARC
  5
4FD
100
AcDbEntity
  8
_1
100
AcDbCircle
 62
7
  6
CONTINUOUS
 10
874.2338711421
 20
927.7502001208
 40
18.5685958645
100
AcDbArc
 50
176.5649216593
 51
177.5631181245
  0
ARC
  5
4FE
100
AcDbEntity
  8
_1
100
AcDbCircle
 62
7
  6
CONTINUOUS
 10
874.2338563781
 20
938.4581322086
 40
18.5685810791
100
AcDbArc
 50
182.4368821401
 51
183.4350786057
  0
ARC
  5
4FF
100
AcDbEntity
  8
_1
100
AcDbCircle
 62
7
  6
CONTINUOUS
 10
867.5183340452
 20
1013.1232897217
 40
12.4230909304
100
AcDbArc
 50
287.958937309
 51
288.6384900994
  0
ARC
  5
500
100
AcDbEntity
  8
_1
100
AcDbCircle
 62
7
  6
CONTINUOUS
 10
868.3461248182
 20
1010.6778552302
 40
9.8413517223
100
AcDbArc
 50
288.6220402554
 51
289.7901243835
  0
SPLINE
  5
501
100
AcDbEntity
  8
_1
100
AcDbSpline
 62
7
  6
CONTINUOUS
 70
0
 71
3
 72
11
 73
7
 74
0
 42
0.0000001
 43
0.0000001
 44
0.0000000001
 40
0.0
 40
0.0
 40
0.0
 40
0.0
 40
0.217754067
 40
0.4627179929
 40
0.7265352472
 40
1.0
 40
1.0
 40
1.0
 40
1.0
 10
491.5659091515
 20
601.9976489088
 30
0.0
 10
491.4166034216
 20
601.9649232468
 30
0.0
 10
491.0963780749
 20
601.9087597038
 30
0.0
 10
490.5895517491
 20
601.8502746863
 30
0.0
 10
490.0414490928
 20
601.8142181523
 30
0.0
 10
489.664258426
 20
601.8061428694
 30
0.0
 10
489.4723027465
 20
601.8061428694
 30
0.0
  0
SPLINE
  5
502
100
AcDbEntity
  8
_1
100
AcDbSpline
 62
7
  6
CONTINUOUS
 70
0
 71
3
 72
15
 73
11
 74
0
 42
0.0000001
 43
0.0000001
 44
0.0000000001
 40
0.0
 40
0.0
 40
0.0
 40
0.0
 40
0.1176538193
 40
0.2562334075
 40
0.5584516873
 40
0.7039653217
 40
0.8334505496
 40
0.9368469527
 40
0.9747405559
 40
1.0
 40
1.0
 40
1.0
 40
1.0
 10
490.2385357495
 20
603.4202699291
 30
0.0
 10
490.1721933342
 20
603.4057286288
 30
0.0
 10
490.0260160797
 20
603.3817780073
 30
0.0
 10
489.7049839324
 20
603.3511246018
 30
0.0
 10
489.3657538447
 20
603.3471245985
 30
0.0
 10
489.0331208621
 20
603.3689860382
 30
0.0
 10
488.8163381595
 20
603.3967210781
 30
0.0
 10
488.662880225
 20
603.4281214272
 30
0.0
 10
488.5709500122
 20
603.4564314442
 30
0.0
 10
488.5369541453
 20
603.469819148
 30
0.0
 10
488.5238358671
 20
603.476185249
 30
0.0
  0
SPLINE
  5
503
100
AcDbEntity
  8
_1
100
AcDbSpline
 62
7
  6
CONTINUOUS
 70
0
 71
3
 72
17
 73
13
 74
0
 42
0.0000001
 43
0.0000001
 44
0.0000000001
 40
0.0
 40
0.0
 40
0.0
 40
0.0
 40
0.3748610351
 40
0.5377777041
 40
0.6789404559
 40
0.7953981093
 40
0.8438471546
 40
0.8857286453
 40
0.921300041
 40
0.9512028089
 40
0.9767155602
 40
1.0
 40
1.0
 40
1.0
 40
1.0
 10
488.6915488837
 20
601.8293977323
 30
0.0
 10
488.3906950792
 20
601.84764047
 30
0.0
 10
487.9594953041
 20
601.8890868906
 30
0.0
 10
487.421659843
 20
601.9842829206
 30
0.0
 10
487.0930831591
 20
602.0651256224
 30
0.0
 10
486.8596544035
 20
602.1450739574
 30
0.0
 10
486.7091719302
 20
602.2162111647
 30
0.0
 10
486.6219960769
 20
602.2680620155
 30
0.0
 10
486.553795201
 20
602.321489689
 30
0.0
 10
486.5048660197
 20
602.3766252577
 30
0.0
 10
486.4759145287
 20
602.4339572419
 30
0.0
 10
486.4713172086
 20
602.4739821291
 30
0.0
 10
486.4727510961
 20
602.4926489529
 30
0.0
  0
SPLINE
  5
504
100
AcDbEntity
  8
_1
100
AcDbSpline
 62
7
  6
CONTINUOUS
 70
0
 71
3
 72
15
 73
11
 74
0
 42
0.0000001
 43
0.0000001
 44
0.0000000001
 40
0.0
 40
0.0
 40
0.0
 40
0.0
 40
0.0230258838
 40
0.0545625598
 40
0.088065792
 40
0.1321118904
 40
0.2483417056
 40
0.3972099533
 40
0.5743385168
 40
1.0
 40
1.0
 40
1.0
 40
1.0
 10
490.4295417509
 20
603.480016189
 30
0.0
 10
490.430788177
 20
603.4810395444
 30
0.0
 10
490.4363115722
 20
603.4849498507
 30
0.0
 10
490.4264538785
 20
603.4787853355
 30
0.0
 10
490.4211101824
 20
603.476379124
 30
0.0
 10
490.4080598555
 20
603.470165577
 30
0.0
 10
490.388491597
 20
603.4623425174
 30
0.0
 10
490.3590269147
 20
603.4519741625
 30
0.0
 10
490.3087544834
 20
603.43670031
 30
0.0
 10
490.2676573319
 20
603.4266529599
 30
0.0
 10
490.2385357495
 20
603.4202699291
 30
0.0
  0
SPLINE
  5
505
100
AcDbEntity
  8
_1
100
AcDbSpline
 62
7
  6
CONTINUOUS
 70
0
 71
3
 72
15
 73
11
 74
0
 42
0.0000001
 43
0.0000001
 44
0.0000000001
 40
0.0
 40
0.0
 40
0.0
 40
0.0
 40
0.0639202028
 40
0.1372242288
 40
0.2275521912
 40
0.3385829795
 40
0.4716524944
 40
0.6267956994
 40
0.8033423685
 40
1.0
 40
1.0
 40
1.0
 40
1.0
 10
492.4718536031
 20
602.4926489497
 30
0.0
 10
492.4736289083
 20
602.4695489872
 30
0.0
 10
492.4651652756
 20
602.4185456646
 30
0.0
 10
492.4190658009
 20
602.3483332237
 30
0.0
 10
492.3440497349
 20
602.2818473535
 30
0.0
 10
492.2405701836
 20
602.2179624012
 30
0.0
 10
492.1091904852
 20
602.1567673584
 30
0.0
 10
491.9508824796
 20
602.0987519818
 30
0.0
 10
491.7671139437
 20
602.0445316639
 30
0.0
 10
491.6355354509
 20
602.0129099892
 30
0.0
 10
491.5659091515
 20
601.9976489088
 30
0.0
  0
SPLINE
  5
506
100
AcDbEntity
  8
_1
100
AcDbSpline
 62
7
  6
CONTINUOUS
 70
0
 71
3
 72
18
 73
14
 74
0
 42
0.0000001
 43
0.0000001
 44
0.0000000001
 40
0.0
 40
0.0
 40
0.0
 40
0.0
 40
0.1221080086
 40
0.2562036593
 40
0.3929142332
 40
0.521190852
 40
0.5800863854
 40
0.6358905276
 40
0.7463951905
 40
0.8061618908
 40
0.869213641
 40
0.934181137
 40
1.0
 40
1.0
 40
1.0
 40
1.0
 10
487.9826561998
 20
603.8962776269
 30
0.0
 10
488.1900454997
 20
603.9417343695
 30
0.0
 10
488.6319212218
 20
604.0064371254
 30
0.0
 10
489.3146215711
 20
604.0447541762
 30
0.0
 10
490.0090418562
 20
604.0301956836
 30
0.0
 10
490.5701488302
 20
603.9728958889
 30
0.0
 10
490.985696342
 20
603.8946021249
 30
0.0
 10
491.364370148
 20
603.7952976408
 30
0.0
 10
491.731525282
 20
603.6400942579
 30
0.0
 10
492.0543861013
 20
603.3902014422
 30
0.0
 10
492.2659307342
 20
603.1376370873
 30
0.0
 10
492.4162511796
 20
602.8322892194
 30
0.0
 10
492.4630953873
 20
602.606754276
 30
0.0
 10
492.4718554712
 20
602.4926489572
 30
0.0
  0
SPLINE
  5
507
100
AcDbEntity
  8
_1
100
AcDbSpline
 62
7
  6
CONTINUOUS
 70
0
 71
3
 72
15
 73
11
 74
0
 42
0.0000001
 43
0.0000001
 44
0.0000000001
 40
0.0
 40
0.0
 40
0.0
 40
0.0
 40
0.137249794
 40
0.273133734
 40
0.405999769
 40
0.5335870947
 40
0.6541964656
 40
0.7692080551
 40
0.8829964599
 40
1.0
 40
1.0
 40
1.0
 40
1.0
 10
486.4727500218
 20
602.4926489572
 30
0.0
 10
486.4805286327
 20
602.5939700039
 30
0.0
 10
486.5191870732
 20
602.7945696723
 30
0.0
 10
486.6414108575
 20
603.0717752619
 30
0.0
 10
486.8158812271
 20
603.3104401741
 30
0.0
 10
487.025486431
 20
603.5017725065
 30
0.0
 10
487.2532509034
 20
603.6467729232
 30
0.0
 10
487.4891110385
 20
603.7545458258
 30
0.0
 10
487.7321362409
 20
603.8361546959
 30
0.0
 10
487.8980360768
 20
603.8777301167
 30
0.0
 10
487.9826561998
 20
603.8962776269
 30
0.0
  0
SPLINE
  5
508
100
AcDbEntity
  8
_1
100
AcDbSpline
 62
7
  6
CONTINUOUS
 70
0
 71
3
 72
30
 73
26
 74
0
 42
0.0000001
 43
0.0000001
 44
0.0000000001
 40
0.0
 40
0.0
 40
0.0
 40
0.0
 40
0.0616414435
 40
0.0875024434
 40
0.1098718135
 40
0.1287395466
 40
0.1442650464
 40
0.1569161267
 40
0.1676929952
 40
0.1782271305
 40
0.1902583971
 40
0.2049609236
 40
0.222919128
 40
0.2443589409
 40
0.2693055042
 40
0.2976663736
 40
0.3292678326
 40
0.4012016184
 40
0.4827574573
 40
0.5710679391
 40
0.662947716
 40
0.7550509136
 40
0.8440215555
 40
0.9266419449
 40
1.0
 40
1.0
 40
1.0
 40
1.0
 10
488.2510323436
 20
603.8932177964
 30
0.0
 10
488.1765318681
 20
603.876888367
 30
0.0
 10
488.0713876894
 20
603.8500205129
 30
0.0
 10
487.9433459321
 20
603.804057385
 30
0.0
 10
487.8675760435
 20
603.7698488821
 30
0.0
 10
487.8068644269
 20
603.7341672208
 30
0.0
 10
487.7615629264
 20
603.6971119033
 30
0.0
 10
487.7318400414
 20
603.6583373184
 30
0.0
 10
487.7193265826
 20
603.6168828541
 30
0.0
 10
487.7267107209
 20
603.5748918199
 30
0.0
 10
487.7521792835
 20
603.535464421
 30
0.0
 10
487.7933760049
 20
603.4980298445
 30
0.0
 10
487.8500396324
 20
603.4619792121
 30
0.0
 10
487.9218737262
 20
603.4273647085
 30
0.0
 10
488.0083855389
 20
603.3944310213
 30
0.0
 10
488.108843897
 20
603.3634887673
 30
0.0
 10
488.2671413481
 20
603.323575983
 30
0.0
 10
488.4926098952
 20
603.2821344459
 30
0.0
 10
488.7897434591
 20
603.2460964584
 30
0.0
 10
489.1129387203
 20
603.2234653066
 30
0.0
 10
489.4498530736
 20
603.2151563967
 30
0.0
 10
489.7876258398
 20
603.2215288214
 30
0.0
 10
490.1133585264
 20
603.2423126919
 30
0.0
 10
490.4146082721
 20
603.2766423443
 30
0.0
 10
490.6049118579
 20
603.3098795428
 30
0.0
 10
490.6935731494
 20
603.3293128188
 30
0.0
  0
SPLINE
  5
509
100
AcDbEntity
  8
_1
100
AcDbSpline
 62
7
  6
CONTINUOUS
 70
0
 71
3
 72
30
 73
26
 74
0
 42
0.0000001
 43
0.0000001
 44
0.0000000001
 40
0.0
 40
0.0
 40
0.0
 40
0.0
 40
0.0616414435
 40
0.0875024434
 40
0.1098718135
 40
0.1287395466
 40
0.1442650464
 40
0.1569161267
 40
0.1676929952
 40
0.1782271305
 40
0.1902583971
 40
0.2049609236
 40
0.222919128
 40
0.2443589409
 40
0.2693055042
 40
0.2976663736
 40
0.3292678326
 40
0.4012016184
 40
0.4827574573
 40
0.5710679391
 40
0.662947716
 40
0.7550509136
 40
0.8440215555
 40
0.9266419449
 40
1.0
 40
1.0
 40
1.0
 40
1.0
 10
490.6935731494
 20
603.3293128188
 30
0.0
 10
490.768073625
 20
603.3456422483
 30
0.0
 10
490.8732178036
 20
603.3725101023
 30
0.0
 10
491.0012595609
 20
603.4184732302
 30
0.0
 10
491.0770294495
 20
603.4526817331
 30
0.0
 10
491.1377410661
 20
603.4883633944
 30
0.0
 10
491.1830425667
 20
603.525418712
 30
0.0
 10
491.2127654516
 20
603.5641932969
 30
0.0
 10
491.2252789104
 20
603.6056477611
 30
0.0
 10
491.2178947722
 20
603.6476387953
 30
0.0
 10
491.1924262095
 20
603.6870661942
 30
0.0
 10
491.1512294881
 20
603.7245007707
 30
0.0
 10
491.0945658606
 20
603.7605514031
 30
0.0
 10
491.0227317668
 20
603.7951659067
 30
0.0
 10
490.9362199541
 20
603.828099594
 30
0.0
 10
490.8357615961
 20
603.8590418479
 30
0.0
 10
490.6774641449
 20
603.8989546322
 30
0.0
 10
490.4519955978
 20
603.9403961693
 30
0.0
 10
490.154862034
 20
603.9764341568
 30
0.0
 10
489.8316667728
 20
603.9990653087
 30
0.0
 10
489.4947524194
 20
604.0073742185
 30
0.0
 10
489.1569796533
 20
604.0010017938
 30
0.0
 10
488.8312469667
 20
603.9802179233
 30
0.0
 10
488.5299972209
 20
603.945888271
 30
0.0
 10
488.3396936352
 20
603.9126510724
 30
0.0
 10
488.2510323436
 20
603.8932177964
 30
0.0
  0
SPLINE
  5
50A
100
AcDbEntity
  8
_1
100
AcDbSpline
 62
7
  6
CONTINUOUS
 70
0
 71
3
 72
25
 73
21
 74
0
 42
0.0000001
 43
0.0000001
 44
0.0000000001
 40
0.0
 40
0.0
 40
0.0
 40
0.0
 40
0.0730518867
 40
0.154982912
 40
0.3349320021
 40
0.5169489077
 40
0.6013851217
 40
0.6777914346
 40
0.7438477555
 40
0.7977524829
 40
0.838522549
 40
0.8541377479
 40
0.8670048236
 40
0.8779622448
 40
0.8883947627
 40
0.8998957905
 40
0.9136655929
 40
0.9303644824
 40
0.9502883863
 40
1.0
 40
1.0
 40
1.0
 40
1.0
 10
488.6418389129
 20
603.8029929907
 30
0.0
 10
488.6984361832
 20
603.8153982958
 30
0.0
 10
488.8195829519
 20
603.8368745067
 30
0.0
 10
489.0834727507
 20
603.8682219941
 30
0.0
 10
489.4356488774
 20
603.8844429876
 30
0.0
 10
489.7899558525
 20
603.8730637219
 30
0.0
 10
490.0606205481
 20
603.845673962
 30
0.0
 10
490.2385291145
 20
603.8180034628
 30
0.0
 10
490.390698655
 20
603.7838112606
 30
0.0
 10
490.5120145245
 20
603.7443312289
 30
0.0
 10
490.5913287542
 20
603.7055593915
 30
0.0
 10
490.6342244671
 20
603.6708179948
 30
0.0
 10
490.6539682683
 20
603.6461062267
 30
0.0
 10
490.6635562305
 20
603.6199625315
 30
0.0
 10
490.6614324533
 20
603.5931572824
 30
0.0
 10
490.6480870841
 20
603.5675498566
 30
0.0
 10
490.6249626352
 20
603.5432340816
 30
0.0
 10
490.5924152151
 20
603.519767606
 30
0.0
 10
490.5320628992
 20
603.4871615199
 30
0.0
 10
490.4799217025
 20
603.4681039922
 30
0.0
 10
490.4423315022
 20
603.4562047878
 30
0.0
  0
SPLINE
  5
50B
100
AcDbEntity
  8
_1
100
AcDbSpline
 62
7
  6
CONTINUOUS
 70
0
 71
3
 72
9
 73
5
 74
0
 42
0.0000001
 43
0.0000001
 44
0.0000000001
 40
0.0
 40
0.0
 40
0.0
 40
0.0
 40
0.2323740704
 40
1.0
 40
1.0
 40
1.0
 40
1.0
 10
490.4423315022
 20
603.4562047878
 30
0.0
 10
490.4316732473
 20
603.4528309098
 30
0.0
 10
490.3856002009
 20
603.4389640465
 30
0.0
 10
490.3388406666
 20
603.4274445439
 30
0.0
 10
490.3027665801
 20
603.4195376246
 30
0.0
  0
SPLINE
  5
50C
100
AcDbEntity
  8
_1
100
AcDbSpline
 62
7
  6
CONTINUOUS
 70
0
 71
3
 72
13
 73
9
 74
0
 42
0.0000001
 43
0.0000001
 44
0.0000000001
 40
0.0
 40
0.0
 40
0.0
 40
0.0
 40
0.1169096509
 40
0.246791927
 40
0.5245915237
 40
0.7894308901
 40
0.9037412312
 40
1.0
 40
1.0
 40
1.0
 40
1.0
 10
490.2433424693
 20
603.4073665148
 30
0.0
 10
490.1764333535
 20
603.3945643215
 30
0.0
 10
490.0340939463
 20
603.3731930205
 30
0.0
 10
489.7295755795
 20
603.345283994
 30
0.0
 10
489.3372156028
 20
603.3384731721
 30
0.0
 10
488.9545728405
 20
603.3648891243
 30
0.0
 10
488.6809247859
 20
603.4089207095
 30
0.0
 10
488.5614181805
 20
603.437783705
 30
0.0
 10
488.5078624583
 20
603.4544521153
 30
0.0
  0
SPLINE
  5
50D
100
AcDbEntity
  8
_1
100
AcDbSpline
 62
7
  6
CONTINUOUS
 70
0
 71
3
 72
18
 73
14
 74
0
 42
0.0000001
 43
0.0000001
 44
0.0000000001
 40
0.0
 40
0.0
 40
0.0
 40
0.0
 40
0.1618444488
 40
0.2830601906
 40
0.3294381102
 40
0.3681072331
 40
0.4021261605
 40
0.4359945051
 40
0.4742689779
 40
0.5201067654
 40
0.6400799793
 40
0.8006727698
 40
1.0
 40
1.0
 40
1.0
 40
1.0
 10
488.5078624583
 20
603.4544521153
 30
0.0
 10
488.4710452739
 20
603.4659109083
 30
0.0
 10
488.4075743877
 20
603.4888368499
 30
0.0
 10
488.3379480571
 20
603.5269941514
 30
0.0
 10
488.3019443835
 20
603.5608865973
 30
0.0
 10
488.2863401544
 20
603.5850594111
 30
0.0
 10
488.2805748122
 20
603.6104662738
 30
0.0
 10
488.2856797613
 20
603.6359287671
 30
0.0
 10
488.3007129626
 20
603.660177716
 30
0.0
 10
488.335929899
 20
603.6941597128
 30
0.0
 10
488.404708739
 20
603.7324203573
 30
0.0
 10
488.5121584233
 20
603.7717141271
 30
0.0
 10
488.5954507679
 20
603.7928253785
 30
0.0
 10
488.6418389129
 20
603.8029929907
 30
0.0
  0
SPLINE
  5
50E
100
AcDbEntity
  8
_1
100
AcDbSpline
 62
7
  6
CONTINUOUS
 70
0
 71
3
 72
11
 73
7
 74
0
 42
0.0000001
 43
0.0000001
 44
0.0000000001
 40
0.0
 40
0.0
 40
0.0
 40
0.0
 40
0.2923006752
 40
0.5668436111
 40
0.8072680829
 40
1.0
 40
1.0
 40
1.0
 40
1.0
 10
489.4723027465
 20
603.5191607265
 30
0.0
 10
489.5468356126
 20
603.5191607265
 30
0.0
 10
489.6914023441
 20
603.5151309568
 30
0.0
 10
489.8966332407
 20
603.4972880589
 30
0.0
 10
490.0749573968
 20
603.4689568619
 30
0.0
 10
490.182307155
 20
603.4412728336
 30
0.0
 10
490.2285097901
 20
603.4245258353
 30
0.0
  0
SPLINE
  5
50F
100
AcDbEntity
  8
_1
100
AcDbSpline
 62
7
  6
CONTINUOUS
 70
0
 71
3
 72
9
 73
5
 74
0
 42
0.0000001
 43
0.0000001
 44
0.0000000001
 40
0.0
 40
0.0
 40
0.0
 40
0.0
 40
0.4626670061
 40
1.0
 40
1.0
 40
1.0
 40
1.0
 10
488.851199513
 20
603.4623472682
 30
0.0
 10
488.945278909
 20
603.4829681145
 30
0.0
 10
489.1522511008
 20
603.5105181581
 30
0.0
 10
489.3604468436
 20
603.5191607265
 30
0.0
 10
489.4723027465
 20
603.5191607265
 30
0.0
  0
SPLINE
  5
510
100
AcDbEntity
  8
_1
100
AcDbSpline
 62
7
  6
CONTINUOUS
 70
0
 71
3
 72
9
 73
5
 74
0
 42
0.0000001
 43
0.0000001
 44
0.0000000001
 40
0.0
 40
0.0
 40
0.0
 40
0.0
 40
0.2228884344
 40
1.0
 40
1.0
 40
1.0
 40
1.0
 10
488.7091743217
 20
603.4219747398
 30
0.0
 10
488.7194514152
 20
603.425827082
 30
0.0
 10
488.7659947047
 20
603.44195153
 30
0.0
 10
488.8138206232
 20
603.4541543548
 30
0.0
 10
488.851199513
 20
603.4623472682
 30
0.0
  0
SPLINE
  5
511
100
AcDbEntity
  8
_1
100
AcDbSpline
 62
7
  6
CONTINUOUS
 70
0
 71
3
 72
15
 73
11
 74
0
 42
0.0000001
 43
0.0000001
 44
0.0000000001
 40
0.0
 40
0.0
 40
0.0
 40
0.0
 40
0.1166411079
 40
0.2417015408
 40
0.3732440587
 40
0.5076461943
 40
0.6407253458
 40
0.7685501483
 40
0.8884116782
 40
1.0
 40
1.0
 40
1.0
 40
1.0
 10
487.9826561998
 20
737.3120555026
 30
0.0
 10
488.1049401174
 20
737.285252632
 30
0.0
 10
488.3607470265
 20
737.2405289418
 30
0.0
 10
488.7591079038
 20
737.1965682576
 30
0.0
 10
489.1782596685
 20
737.1726385163
 30
0.0
 10
489.6066606909
 20
737.1688698918
 30
0.0
 10
490.0307758923
 20
737.1852777796
 30
0.0
 10
490.438015592
 20
737.2217477125
 30
0.0
 10
490.8196357899
 20
737.2785607753
 30
0.0
 10
491.0623314573
 20
737.3332914541
 30
0.0
 10
491.1776342363
 20
737.3656744196
 30
0.0
  0
SPLINE
  5
512
100
AcDbEntity
  8
_1
100
AcDbSpline
 62
7
  6
CONTINUOUS
 70
0
 71
3
 72
15
 73
11
 74
0
 42
0.0000001
 43
0.0000001
 44
0.0000000001
 40
0.0
 40
0.0
 40
0.0
 40
0.0
 40
0.1227868969
 40
0.2472321505
 40
0.3731691859
 40
0.5000000113
 40
0.6268308765
 40
0.7527678673
 40
0.8772130599
 40
1.0
 40
1.0
 40
1.0
 40
1.0
 10
118.5205703121
 20
411.0360862316
 30
0.0
 10
118.7548408611
 20
411.0028650253
 30
0.0
 10
119.2207633059
 20
410.8832717909
 30
0.0
 10
119.8654917087
 20
410.5517968031
 30
0.0
 10
120.4255645998
 20
410.0784022107
 30
0.0
 10
120.86576817
 20
409.4860342313
 30
0.0
 10
121.1586712611
 20
408.8086225956
 30
0.0
 10
121.2886073041
 20
408.0868883051
 30
0.0
 10
121.2533091676
 20
407.3627995526
 30
0.0
 10
121.1239177737
 20
406.8995026732
 30
0.0
 10
121.0355533914
 20
406.6800075387
 30
0.0
  0
SPLINE
  5
513
100
AcDbEntity
  8
_1
100
AcDbSpline
 62
7
  6
CONTINUOUS
 70
0
 71
3
 72
9
 73
5
 74
0
 42
0.0000001
 43
0.0000001
 44
0.0000000001
 40
0.0
 40
0.0
 40
0.0
 40
0.0
 40
0.5557326674
 40
1.0
 40
1.0
 40
1.0
 40
1.0
 10
121.0355519089
 20
406.6800079084
 30
0.0
 10
121.0612653078
 20
406.6883752407
 30
0.0
 10
121.1065801067
 20
406.7087154971
 30
0.0
 10
121.1392698498
 20
406.7486414589
 30
0.0
 10
121.1465136485
 20
406.7690085603
 30
0.0
  0
SPLINE
  5
514
100
AcDbEntity
  8
_1
100
AcDbSpline
 62
7
  6
CONTINUOUS
 70
0
 71
3
 72
9
 73
5
 74
0
 42
0.0000001
 43
0.0000001
 44
0.0000000001
 40
0.0
 40
0.0
 40
0.0
 40
0.0
 40
0.5557312828
 40
1.0
 40
1.0
 40
1.0
 40
1.0
 10
118.5205704879
 20
411.0360862037
 30
0.0
 10
118.5406724992
 20
411.0541701208
 30
0.0
 10
118.580942895
 20
411.0832424473
 30
0.0
 10
118.6318614202
 20
411.0915916119
 30
0.0
 10
118.6531210952
 20
411.0876830642
 30
0.0
  0
SPLINE
  5
515
100
AcDbEntity
  8
_1
100
AcDbSpline
 62
7
  6
CONTINUOUS
 70
0
 71
3
 72
11
 73
7
 74
0
 42
0.0000001
 43
0.0000001
 44
0.0000000001
 40
0.0
 40
0.0
 40
0.0
 40
0.0
 40
0.2458062873
 40
0.4947916591
 40
0.7465711874
 40
1.0
 40
1.0
 40
1.0
 40
1.0
 10
116.033572662
 20
406.5027351894
 30
0.0
 10
116.1801639308
 20
406.3294121452
 30
0.0
 10
116.5134037026
 20
406.0108752645
 30
0.0
 10
117.1062660778
 20
405.6488306856
 30
0.0
 10
117.7700712024
 20
405.420743054
 30
0.0
 10
118.2382614165
 20
405.368856207
 30
0.0
 10
118.4723027465
 20
405.3688505407
 30
0.0
  0
SPLINE
  5
516
100
AcDbEntity
  8
_1
100
AcDbSpline
 62
7
  6
CONTINUOUS
 70
0
 71
3
 72
9
 73
5
 74
0
 42
0.0000001
 43
0.0000001
 44
0.0000000001
 40
0.0
 40
0.0
 40
0.0
 40
0.0
 40
0.5557310526
 40
1.0
 40
1.0
 40
1.0
 40
1.0
 10
115.9573202411
 20
406.5964070949
 30
0.0
 10
115.9517101524
 20
406.5699562792
 30
0.0
 10
115.946668055
 20
406.5205449062
 30
0.0
 10
115.9648967868
 20
406.4722736038
 30
0.0
 10
115.978911542
 20
406.4558164495
 30
0.0
  0
SPLINE
  5
517
100
AcDbEntity
  8
_1
100
AcDbSpline
 62
7
  6
CONTINUOUS
 70
0
 71
3
 72
15
 73
11
 74
0
 42
0.0000001
 43
0.0000001
 44
0.0000000001
 40
0.0
 40
0.0
 40
0.0
 40
0.0
 40
0.1227869595
 40
0.2472321313
 40
0.3731691522
 40
0.5000000542
 40
0.6268309033
 40
0.7527678828
 40
0.8772130688
 40
1.0
 40
1.0
 40
1.0
 40
1.0
 10
115.9090520443
 20
406.6800076846
 30
0.0
 10
115.8206873627
 20
406.8995027361
 30
0.0
 10
115.6912964238
 20
407.3627997931
 30
0.0
 10
115.6559981785
 20
408.0868885127
 30
0.0
 10
115.7859341699
 20
408.8086229266
 30
0.0
 10
116.0788375762
 20
409.48603465
 30
0.0
 10
116.5190416151
 20
410.0784022493
 30
0.0
 10
117.079114002
 20
410.5517969881
 30
0.0
 10
117.7238422265
 20
410.8832722724
 30
0.0
 10
118.1897647563
 20
411.0028645277
 30
0.0
 10
118.4240352965
 20
411.0360862492
 30
0.0
  0
SPLINE
  5
518
100
AcDbEntity
  8
_1
100
AcDbSpline
 62
7
  6
CONTINUOUS
 70
0
 71
3
 72
9
 73
5
 74
0
 42
0.0000001
 43
0.0000001
 44
0.0000000001
 40
0.0
 40
0.0
 40
0.0
 40
0.0
 40
0.5557311222
 40
1.0
 40
1.0
 40
1.0
 40
1.0
 10
118.4240359064
 20
411.0360848208
 30
0.0
 10
118.4039339058
 20
411.0541686939
 30
0.0
 10
118.3636635229
 20
411.0832409464
 30
0.0
 10
118.3127450524
 20
411.0915900607
 30
0.0
 10
118.291485394
 20
411.0876815099
 30
0.0
  0
SPLINE
  5
519
100
AcDbEntity
  8
_1
100
AcDbSpline
 62
7
  6
CONTINUOUS
 70
0
 71
3
 72
9
 73
5
 74
0
 42
0.0000001
 43
0.0000001
 44
0.0000000001
 40
0.0
 40
0.0
 40
0.0
 40
0.0
 40
0.5557314909
 40
1.0
 40
1.0
 40
1.0
 40
1.0
 10
115.9090519309
 20
406.6800079774
 30
0.0
 10
115.8833398096
 20
406.68837483
 30
0.0
 10
115.8380272699
 20
406.7087137605
 30
0.0
 10
115.8053374492
 20
406.7486358696
 30
0.0
 10
115.7980925501
 20
406.769001532
 30
0.0
  0
SPLINE
  5
51A
100
AcDbEntity
  8
_1
100
AcDbSpline
 62
7
  6
CONTINUOUS
 70
0
 71
3
 72
11
 73
7
 74
0
 42
0.0000001
 43
0.0000001
 44
0.0000000001
 40
0.0
 40
0.0
 40
0.0
 40
0.0
 40
0.2458062974
 40
0.4947916503
 40
0.7465711853
 40
1.0
 40
1.0
 40
1.0
 40
1.0
 10
120.9110326027
 20
406.5027349732
 30
0.0
 10
120.7644412334
 20
406.3294120362
 30
0.0
 10
120.431201702
 20
406.010875001
 30
0.0
 10
119.8383392301
 20
405.6488307388
 30
0.0
 10
119.1745342231
 20
405.4207428957
 30
0.0
 10
118.7063440514
 20
405.3688566046
 30
0.0
 10
118.4723027465
 20
405.3688505407
 30
0.0
  0
SPLINE
  5
51B
100
AcDbEntity
  8
_1
100
AcDbSpline
 62
7
  6
CONTINUOUS
 70
0
 71
3
 72
9
 73
5
 74
0
 42
0.0000001
 43
0.0000001
 44
0.0000000001
 40
0.0
 40
0.0
 40
0.0
 40
0.0
 40
0.5557324323
 40
1.0
 40
1.0
 40
1.0
 40
1.0
 10
120.9872852211
 20
406.5964050415
 30
0.0
 10
120.9928954936
 20
406.5699544888
 30
0.0
 10
120.9979380245
 20
406.5205436701
 30
0.0
 10
120.979709543
 20
406.4722727375
 30
0.0
 10
120.9656948881
 20
406.4558158866
 30
0.0
  0
SPLINE
  5
51C
100
AcDbEntity
  8
_1
100
AcDbSpline
 62
7
  6
CONTINUOUS
 70
0
 71
3
 72
15
 73
11
 74
0
 42
0.0000001
 43
0.0000001
 44
0.0000000001
 40
0.0
 40
0.0
 40
0.0
 40
0.0
 40
0.1227868969
 40
0.2472321505
 40
0.3731691859
 40
0.5000000113
 40
0.6268308765
 40
0.7527678673
 40
0.8772130599
 40
1.0
 40
1.0
 40
1.0
 40
1.0
 10
860.5205703121
 20
411.0360862316
 30
0.0
 10
860.7548408611
 20
411.0028650253
 30
0.0
 10
861.2207633059
 20
410.8832717909
 30
0.0
 10
861.8654917087
 20
410.5517968031
 30
0.0
 10
862.4255645998
 20
410.0784022107
 30
0.0
 10
862.86576817
 20
409.4860342313
 30
0.0
 10
863.1586712611
 20
408.8086225956
 30
0.0
 10
863.2886073041
 20
408.0868883051
 30
0.0
 10
863.2533091676
 20
407.3627995526
 30
0.0
 10
863.1239177737
 20
406.8995026732
 30
0.0
 10
863.0355533914
 20
406.6800075387
 30
0.0
  0
SPLINE
  5
51D
100
AcDbEntity
  8
_1
100
AcDbSpline
 62
7
  6
CONTINUOUS
 70
0
 71
3
 72
9
 73
5
 74
0
 42
0.0000001
 43
0.0000001
 44
0.0000000001
 40
0.0
 40
0.0
 40
0.0
 40
0.0
 40
0.5557326674
 40
1.0
 40
1.0
 40
1.0
 40
1.0
 10
863.0355519089
 20
406.6800079084
 30
0.0
 10
863.0612653078
 20
406.6883752407
 30
0.0
 10
863.1065801068
 20
406.7087154971
 30
0.0
 10
863.1392698498
 20
406.7486414589
 30
0.0
 10
863.1465136485
 20
406.7690085604
 30
0.0
  0
SPLINE
  5
51E
100
AcDbEntity
  8
_1
100
AcDbSpline
 62
7
  6
CONTINUOUS
 70
0
 71
3
 72
9
 73
5
 74
0
 42
0.0000001
 43
0.0000001
 44
0.0000000001
 40
0.0
 40
0.0
 40
0.0
 40
0.0
 40
0.5557312828
 40
1.0
 40
1.0
 40
1.0
 40
1.0
 10
860.5205704879
 20
411.0360862037
 30
0.0
 10
860.5406724992
 20
411.0541701208
 30
0.0
 10
860.580942895
 20
411.0832424473
 30
0.0
 10
860.6318614202
 20
411.0915916119
 30
0.0
 10
860.6531210952
 20
411.0876830642
 30
0.0
  0
SPLINE
  5
51F
100
AcDbEntity
  8
_1
100
AcDbSpline
 62
7
  6
CONTINUOUS
 70
0
 71
3
 72
11
 73
7
 74
0
 42
0.0000001
 43
0.0000001
 44
0.0000000001
 40
0.0
 40
0.0
 40
0.0
 40
0.0
 40
0.2458062873
 40
0.4947916591
 40
0.7465711874
 40
1.0
 40
1.0
 40
1.0
 40
1.0
 10
858.033572662
 20
406.5027351894
 30
0.0
 10
858.1801639308
 20
406.3294121451
 30
0.0
 10
858.5134037027
 20
406.0108752645
 30
0.0
 10
859.1062660778
 20
405.6488306856
 30
0.0
 10
859.7700712024
 20
405.420743054
 30
0.0
 10
860.2382614165
 20
405.368856207
 30
0.0
 10
860.4723027465
 20
405.3688505407
 30
0.0
  0
SPLINE
  5
520
100
AcDbEntity
  8
_1
100
AcDbSpline
 62
7
  6
CONTINUOUS
 70
0
 71
3
 72
9
 73
5
 74
0
 42
0.0000001
 43
0.0000001
 44
0.0000000001
 40
0.0
 40
0.0
 40
0.0
 40
0.0
 40
0.5557310526
 40
1.0
 40
1.0
 40
1.0
 40
1.0
 10
857.9573202411
 20
406.5964070949
 30
0.0
 10
857.9517101524
 20
406.5699562792
 30
0.0
 10
857.946668055
 20
406.5205449062
 30
0.0
 10
857.9648967868
 20
406.4722736038
 30
0.0
 10
857.978911542
 20
406.4558164495
 30
0.0
  0
SPLINE
  5
521
100
AcDbEntity
  8
_1
100
AcDbSpline
 62
7
  6
CONTINUOUS
 70
0
 71
3
 72
15
 73
11
 74
0
 42
0.0000001
 43
0.0000001
 44
0.0000000001
 40
0.0
 40
0.0
 40
0.0
 40
0.0
 40
0.1227869595
 40
0.2472321313
 40
0.3731691522
 40
0.5000000542
 40
0.6268309033
 40
0.7527678828
 40
0.8772130688
 40
1.0
 40
1.0
 40
1.0
 40
1.0
 10
857.9090520443
 20
406.6800076846
 30
0.0
 10
857.8206873627
 20
406.8995027361
 30
0.0
 10
857.6912964238
 20
407.3627997931
 30
0.0
 10
857.6559981785
 20
408.0868885127
 30
0.0
 10
857.7859341699
 20
408.8086229266
 30
0.0
 10
858.0788375763
 20
409.4860346501
 30
0.0
 10
858.5190416152
 20
410.0784022494
 30
0.0
 10
859.079114002
 20
410.5517969881
 30
0.0
 10
859.7238422265
 20
410.8832722724
 30
0.0
 10
860.1897647563
 20
411.0028645277
 30
0.0
 10
860.4240352965
 20
411.0360862492
 30
0.0
  0
SPLINE
  5
522
100
AcDbEntity
  8
_1
100
AcDbSpline
 62
7
  6
CONTINUOUS
 70
0
 71
3
 72
9
 73
5
 74
0
 42
0.0000001
 43
0.0000001
 44
0.0000000001
 40
0.0
 40
0.0
 40
0.0
 40
0.0
 40
0.5557311222
 40
1.0
 40
1.0
 40
1.0
 40
1.0
 10
860.4240359064
 20
411.0360848208
 30
0.0
 10
860.4039339058
 20
411.0541686939
 30
0.0
 10
860.3636635229
 20
411.0832409464
 30
0.0
 10
860.3127450524
 20
411.0915900607
 30
0.0
 10
860.291485394
 20
411.0876815099
 30
0.0
  0
SPLINE
  5
523
100
AcDbEntity
  8
_1
100
AcDbSpline
 62
7
  6
CONTINUOUS
 70
0
 71
3
 72
9
 73
5
 74
0
 42
0.0000001
 43
0.0000001
 44
0.0000000001
 40
0.0
 40
0.0
 40
0.0
 40
0.0
 40
0.5557314909
 40
1.0
 40
1.0
 40
1.0
 40
1.0
 10
857.9090519309
 20
406.6800079774
 30
0.0
 10
857.8833398096
 20
406.68837483
 30
0.0
 10
857.8380272699
 20
406.7087137605
 30
0.0
 10
857.8053374492
 20
406.7486358696
 30
0.0
 10
857.7980925501
 20
406.769001532
 30
0.0
  0
SPLINE
  5
524
100
AcDbEntity
  8
_1
100
AcDbSpline
 62
7
  6
CONTINUOUS
 70
0
 71
3
 72
11
 73
7
 74
0
 42
0.0000001
 43
0.0000001
 44
0.0000000001
 40
0.0
 40
0.0
 40
0.0
 40
0.0
 40
0.2458062974
 40
0.4947916503
 40
0.7465711853
 40
1.0
 40
1.0
 40
1.0
 40
1.0
 10
862.9110326027
 20
406.5027349732
 30
0.0
 10
862.7644412334
 20
406.3294120362
 30
0.0
 10
862.431201702
 20
406.010875001
 30
0.0
 10
861.8383392301
 20
405.6488307388
 30
0.0
 10
861.1745342231
 20
405.4207428957
 30
0.0
 10
860.7063440514
 20
405.3688566046
 30
0.0
 10
860.4723027465
 20
405.3688505407
 30
0.0
  0
SPLINE
  5
525
100
AcDbEntity
  8
_1
100
AcDbSpline
 62
7
  6
CONTINUOUS
 70
0
 71
3
 72
9
 73
5
 74
0
 42
0.0000001
 43
0.0000001
 44
0.0000000001
 40
0.0
 40
0.0
 40
0.0
 40
0.0
 40
0.5557324323
 40
1.0
 40
1.0
 40
1.0
 40
1.0
 10
862.9872852211
 20
406.5964050415
 30
0.0
 10
862.9928954936
 20
406.5699544888
 30
0.0
 10
862.9979380245
 20
406.5205436701
 30
0.0
 10
862.979709543
 20
406.4722727375
 30
0.0
 10
862.9656948881
 20
406.4558158866
 30
0.0
  0
SPLINE
  5
526
100
AcDbEntity
  8
_1
100
AcDbSpline
 62
7
  6
CONTINUOUS
 70
0
 71
3
 72
15
 73
11
 74
0
 42
0.0000001
 43
0.0000001
 44
0.0000000001
 40
0.0
 40
0.0
 40
0.0
 40
0.0
 40
0.1227868969
 40
0.2472321505
 40
0.3731691859
 40
0.5000000113
 40
0.6268308765
 40
0.7527678673
 40
0.8772130599
 40
1.0
 40
1.0
 40
1.0
 40
1.0
 10
860.5205703121
 20
536.0360862316
 30
0.0
 10
860.7548408611
 20
536.0028650253
 30
0.0
 10
861.2207633059
 20
535.8832717909
 30
0.0
 10
861.8654917087
 20
535.5517968031
 30
0.0
 10
862.4255645998
 20
535.0784022107
 30
0.0
 10
862.86576817
 20
534.4860342313
 30
0.0
 10
863.1586712611
 20
533.8086225956
 30
0.0
 10
863.2886073041
 20
533.0868883051
 30
0.0
 10
863.2533091676
 20
532.3627995526
 30
0.0
 10
863.1239177737
 20
531.8995026732
 30
0.0
 10
863.0355533914
 20
531.6800075387
 30
0.0
  0
SPLINE
  5
527
100
AcDbEntity
  8
_1
100
AcDbSpline
 62
7
  6
CONTINUOUS
 70
0
 71
3
 72
9
 73
5
 74
0
 42
0.0000001
 43
0.0000001
 44
0.0000000001
 40
0.0
 40
0.0
 40
0.0
 40
0.0
 40
0.5557326674
 40
1.0
 40
1.0
 40
1.0
 40
1.0
 10
863.0355519089
 20
531.6800079084
 30
0.0
 10
863.0612653078
 20
531.6883752407
 30
0.0
 10
863.1065801068
 20
531.7087154971
 30
0.0
 10
863.1392698498
 20
531.7486414589
 30
0.0
 10
863.1465136485
 20
531.7690085604
 30
0.0
  0
SPLINE
  5
528
100
AcDbEntity
  8
_1
100
AcDbSpline
 62
7
  6
CONTINUOUS
 70
0
 71
3
 72
9
 73
5
 74
0
 42
0.0000001
 43
0.0000001
 44
0.0000000001
 40
0.0
 40
0.0
 40
0.0
 40
0.0
 40
0.5557312828
 40
1.0
 40
1.0
 40
1.0
 40
1.0
 10
860.5205704879
 20
536.0360862037
 30
0.0
 10
860.5406724992
 20
536.0541701208
 30
0.0
 10
860.580942895
 20
536.0832424473
 30
0.0
 10
860.6318614202
 20
536.0915916119
 30
0.0
 10
860.6531210952
 20
536.0876830642
 30
0.0
  0
SPLINE
  5
529
100
AcDbEntity
  8
_1
100
AcDbSpline
 62
7
  6
CONTINUOUS
 70
0
 71
3
 72
11
 73
7
 74
0
 42
0.0000001
 43
0.0000001
 44
0.0000000001
 40
0.0
 40
0.0
 40
0.0
 40
0.0
 40
0.2458062873
 40
0.4947916591
 40
0.7465711874
 40
1.0
 40
1.0
 40
1.0
 40
1.0
 10
858.033572662
 20
531.5027351894
 30
0.0
 10
858.1801639308
 20
531.3294121451
 30
0.0
 10
858.5134037026
 20
531.0108752645
 30
0.0
 10
859.1062660778
 20
530.6488306856
 30
0.0
 10
859.7700712024
 20
530.420743054
 30
0.0
 10
860.2382614165
 20
530.368856207
 30
0.0
 10
860.4723027465
 20
530.3688505407
 30
0.0
  0
SPLINE
  5
52A
100
AcDbEntity
  8
_1
100
AcDbSpline
 62
7
  6
CONTINUOUS
 70
0
 71
3
 72
9
 73
5
 74
0
 42
0.0000001
 43
0.0000001
 44
0.0000000001
 40
0.0
 40
0.0
 40
0.0
 40
0.0
 40
0.5557310526
 40
1.0
 40
1.0
 40
1.0
 40
1.0
 10
857.9573202411
 20
531.5964070949
 30
0.0
 10
857.9517101524
 20
531.5699562792
 30
0.0
 10
857.946668055
 20
531.5205449062
 30
0.0
 10
857.9648967868
 20
531.4722736038
 30
0.0
 10
857.978911542
 20
531.4558164495
 30
0.0
  0
SPLINE
  5
52B
100
AcDbEntity
  8
_1
100
AcDbSpline
 62
7
  6
CONTINUOUS
 70
0
 71
3
 72
15
 73
11
 74
0
 42
0.0000001
 43
0.0000001
 44
0.0000000001
 40
0.0
 40
0.0
 40
0.0
 40
0.0
 40
0.1227869595
 40
0.2472321313
 40
0.3731691522
 40
0.5000000542
 40
0.6268309034
 40
0.7527678828
 40
0.8772130688
 40
1.0
 40
1.0
 40
1.0
 40
1.0
 10
857.9090520443
 20
531.6800076846
 30
0.0
 10
857.8206873627
 20
531.8995027361
 30
0.0
 10
857.6912964238
 20
532.3627997931
 30
0.0
 10
857.6559981785
 20
533.0868885127
 30
0.0
 10
857.7859341699
 20
533.8086229266
 30
0.0
 10
858.0788375763
 20
534.4860346501
 30
0.0
 10
858.5190416152
 20
535.0784022494
 30
0.0
 10
859.079114002
 20
535.5517969881
 30
0.0
 10
859.7238422265
 20
535.8832722724
 30
0.0
 10
860.1897647564
 20
536.0028645277
 30
0.0
 10
860.4240352965
 20
536.0360862492
 30
0.0
  0
SPLINE
  5
52C
100
AcDbEntity
  8
_1
100
AcDbSpline
 62
7
  6
CONTINUOUS
 70
0
 71
3
 72
9
 73
5
 74
0
 42
0.0000001
 43
0.0000001
 44
0.0000000001
 40
0.0
 40
0.0
 40
0.0
 40
0.0
 40
0.5557311222
 40
1.0
 40
1.0
 40
1.0
 40
1.0
 10
860.4240359064
 20
536.0360848208
 30
0.0
 10
860.4039339058
 20
536.0541686939
 30
0.0
 10
860.3636635229
 20
536.0832409464
 30
0.0
 10
860.3127450524
 20
536.0915900607
 30
0.0
 10
860.291485394
 20
536.0876815099
 30
0.0
  0
SPLINE
  5
52D
100
AcDbEntity
  8
_1
100
AcDbSpline
 62
7
  6
CONTINUOUS
 70
0
 71
3
 72
9
 73
5
 74
0
 42
0.0000001
 43
0.0000001
 44
0.0000000001
 40
0.0
 40
0.0
 40
0.0
 40
0.0
 40
0.5557314909
 40
1.0
 40
1.0
 40
1.0
 40
1.0
 10
857.9090519309
 20
531.6800079774
 30
0.0
 10
857.8833398096
 20
531.68837483
 30
0.0
 10
857.8380272699
 20
531.7087137605
 30
0.0
 10
857.8053374492
 20
531.7486358696
 30
0.0
 10
857.7980925501
 20
531.769001532
 30
0.0
  0
SPLINE
  5
52E
100
AcDbEntity
  8
_1
100
AcDbSpline
 62
7
  6
CONTINUOUS
 70
0
 71
3
 72
11
 73
7
 74
0
 42
0.0000001
 43
0.0000001
 44
0.0000000001
 40
0.0
 40
0.0
 40
0.0
 40
0.0
 40
0.2458062974
 40
0.4947916503
 40
0.7465711853
 40
1.0
 40
1.0
 40
1.0
 40
1.0
 10
862.9110326027
 20
531.5027349732
 30
0.0
 10
862.7644412334
 20
531.3294120362
 30
0.0
 10
862.431201702
 20
531.010875001
 30
0.0
 10
861.8383392301
 20
530.6488307388
 30
0.0
 10
861.1745342231
 20
530.4207428957
 30
0.0
 10
860.7063440514
 20
530.3688566046
 30
0.0
 10
860.4723027465
 20
530.3688505407
 30
0.0
  0
SPLINE
  5
52F
100
AcDbEntity
  8
_1
100
AcDbSpline
 62
7
  6
CONTINUOUS
 70
0
 71
3
 72
9
 73
5
 74
0
 42
0.0000001
 43
0.0000001
 44
0.0000000001
 40
0.0
 40
0.0
 40
0.0
 40
0.0
 40
0.5557324323
 40
1.0
 40
1.0
 40
1.0
 40
1.0
 10
862.9872852211
 20
531.5964050415
 30
0.0
 10
862.9928954936
 20
531.5699544888
 30
0.0
 10
862.9979380245
 20
531.5205436701
 30
0.0
 10
862.979709543
 20
531.4722727375
 30
0.0
 10
862.9656948881
 20
531.4558158866
 30
0.0
  0
SPLINE
  5
530
100
AcDbEntity
  8
_1
100
AcDbSpline
 62
7
  6
CONTINUOUS
 70
0
 71
3
 72
15
 73
11
 74
0
 42
0.0000001
 43
0.0000001
 44
0.0000000001
 40
0.0
 40
0.0
 40
0.0
 40
0.0
 40
0.1227868969
 40
0.2472321505
 40
0.3731691859
 40
0.5000000113
 40
0.6268308765
 40
0.7527678673
 40
0.8772130599
 40
1.0
 40
1.0
 40
1.0
 40
1.0
 10
118.5205703121
 20
536.0360862316
 30
0.0
 10
118.7548408611
 20
536.0028650253
 30
0.0
 10
119.2207633059
 20
535.8832717909
 30
0.0
 10
119.8654917087
 20
535.5517968031
 30
0.0
 10
120.4255645998
 20
535.0784022107
 30
0.0
 10
120.86576817
 20
534.4860342313
 30
0.0
 10
121.1586712611
 20
533.8086225956
 30
0.0
 10
121.2886073041
 20
533.0868883051
 30
0.0
 10
121.2533091676
 20
532.3627995526
 30
0.0
 10
121.1239177737
 20
531.8995026732
 30
0.0
 10
121.0355533914
 20
531.6800075387
 30
0.0
  0
SPLINE
  5
531
100
AcDbEntity
  8
_1
100
AcDbSpline
 62
7
  6
CONTINUOUS
 70
0
 71
3
 72
9
 73
5
 74
0
 42
0.0000001
 43
0.0000001
 44
0.0000000001
 40
0.0
 40
0.0
 40
0.0
 40
0.0
 40
0.5557326674
 40
1.0
 40
1.0
 40
1.0
 40
1.0
 10
121.0355519089
 20
531.6800079084
 30
0.0
 10
121.0612653078
 20
531.6883752407
 30
0.0
 10
121.1065801067
 20
531.7087154971
 30
0.0
 10
121.1392698498
 20
531.7486414589
 30
0.0
 10
121.1465136485
 20
531.7690085604
 30
0.0
  0
SPLINE
  5
532
100
AcDbEntity
  8
_1
100
AcDbSpline
 62
7
  6
CONTINUOUS
 70
0
 71
3
 72
9
 73
5
 74
0
 42
0.0000001
 43
0.0000001
 44
0.0000000001
 40
0.0
 40
0.0
 40
0.0
 40
0.0
 40
0.5557312828
 40
1.0
 40
1.0
 40
1.0
 40
1.0
 10
118.5205704879
 20
536.0360862037
 30
0.0
 10
118.5406724992
 20
536.0541701208
 30
0.0
 10
118.580942895
 20
536.0832424473
 30
0.0
 10
118.6318614202
 20
536.0915916119
 30
0.0
 10
118.6531210952
 20
536.0876830642
 30
0.0
  0
SPLINE
  5
533
100
AcDbEntity
  8
_1
100
AcDbSpline
 62
7
  6
CONTINUOUS
 70
0
 71
3
 72
11
 73
7
 74
0
 42
0.0000001
 43
0.0000001
 44
0.0000000001
 40
0.0
 40
0.0
 40
0.0
 40
0.0
 40
0.2458062873
 40
0.4947916591
 40
0.7465711874
 40
1.0
 40
1.0
 40
1.0
 40
1.0
 10
116.033572662
 20
531.5027351894
 30
0.0
 10
116.1801639308
 20
531.3294121452
 30
0.0
 10
116.5134037026
 20
531.0108752645
 30
0.0
 10
117.1062660778
 20
530.6488306856
 30
0.0
 10
117.7700712024
 20
530.420743054
 30
0.0
 10
118.2382614165
 20
530.368856207
 30
0.0
 10
118.4723027465
 20
530.3688505407
 30
0.0
  0
SPLINE
  5
534
100
AcDbEntity
  8
_1
100
AcDbSpline
 62
7
  6
CONTINUOUS
 70
0
 71
3
 72
9
 73
5
 74
0
 42
0.0000001
 43
0.0000001
 44
0.0000000001
 40
0.0
 40
0.0
 40
0.0
 40
0.0
 40
0.5557310526
 40
1.0
 40
1.0
 40
1.0
 40
1.0
 10
115.9573202411
 20
531.5964070949
 30
0.0
 10
115.9517101524
 20
531.5699562792
 30
0.0
 10
115.946668055
 20
531.5205449062
 30
0.0
 10
115.9648967868
 20
531.4722736038
 30
0.0
 10
115.978911542
 20
531.4558164495
 30
0.0
  0
SPLINE
  5
535
100
AcDbEntity
  8
_1
100
AcDbSpline
 62
7
  6
CONTINUOUS
 70
0
 71
3
 72
15
 73
11
 74
0
 42
0.0000001
 43
0.0000001
 44
0.0000000001
 40
0.0
 40
0.0
 40
0.0
 40
0.0
 40
0.1227869595
 40
0.2472321313
 40
0.3731691522
 40
0.5000000542
 40
0.6268309034
 40
0.7527678828
 40
0.8772130688
 40
1.0
 40
1.0
 40
1.0
 40
1.0
 10
115.9090520443
 20
531.6800076846
 30
0.0
 10
115.8206873627
 20
531.8995027361
 30
0.0
 10
115.6912964238
 20
532.3627997931
 30
0.0
 10
115.6559981785
 20
533.0868885127
 30
0.0
 10
115.7859341699
 20
533.8086229266
 30
0.0
 10
116.0788375763
 20
534.4860346501
 30
0.0
 10
116.5190416152
 20
535.0784022494
 30
0.0
 10
117.079114002
 20
535.5517969881
 30
0.0
 10
117.7238422265
 20
535.8832722724
 30
0.0
 10
118.1897647564
 20
536.0028645277
 30
0.0
 10
118.4240352965
 20
536.0360862492
 30
0.0
  0
SPLINE
  5
536
100
AcDbEntity
  8
_1
100
AcDbSpline
 62
7
  6
CONTINUOUS
 70
0
 71
3
 72
9
 73
5
 74
0
 42
0.0000001
 43
0.0000001
 44
0.0000000001
 40
0.0
 40
0.0
 40
0.0
 40
0.0
 40
0.5557311222
 40
1.0
 40
1.0
 40
1.0
 40
1.0
 10
118.4240359064
 20
536.0360848208
 30
0.0
 10
118.4039339058
 20
536.0541686939
 30
0.0
 10
118.3636635229
 20
536.0832409464
 30
0.0
 10
118.3127450524
 20
536.0915900607
 30
0.0
 10
118.291485394
 20
536.0876815099
 30
0.0
  0
SPLINE
  5
537
100
AcDbEntity
  8
_1
100
AcDbSpline
 62
7
  6
CONTINUOUS
 70
0
 71
3
 72
9
 73
5
 74
0
 42
0.0000001
 43
0.0000001
 44
0.0000000001
 40
0.0
 40
0.0
 40
0.0
 40
0.0
 40
0.5557314909
 40
1.0
 40
1.0
 40
1.0
 40
1.0
 10
115.9090519309
 20
531.6800079774
 30
0.0
 10
115.8833398096
 20
531.68837483
 30
0.0
 10
115.8380272699
 20
531.7087137605
 30
0.0
 10
115.8053374492
 20
531.7486358696
 30
0.0
 10
115.7980925501
 20
531.769001532
 30
0.0
  0
SPLINE
  5
538
100
AcDbEntity
  8
_1
100
AcDbSpline
 62
7
  6
CONTINUOUS
 70
0
 71
3
 72
11
 73
7
 74
0
 42
0.0000001
 43
0.0000001
 44
0.0000000001
 40
0.0
 40
0.0
 40
0.0
 40
0.0
 40
0.2458062974
 40
0.4947916503
 40
0.7465711853
 40
1.0
 40
1.0
 40
1.0
 40
1.0
 10
120.9110326027
 20
531.5027349732
 30
0.0
 10
120.7644412334
 20
531.3294120362
 30
0.0
 10
120.431201702
 20
531.010875001
 30
0.0
 10
119.8383392301
 20
530.6488307388
 30
0.0
 10
119.1745342231
 20
530.4207428957
 30
0.0
 10
118.7063440514
 20
530.3688566046
 30
0.0
 10
118.4723027465
 20
530.3688505407
 30
0.0
  0
SPLINE
  5
539
100
AcDbEntity
  8
_1
100
AcDbSpline
 62
7
  6
CONTINUOUS
 70
0
 71
3
 72
9
 73
5
 74
0
 42
0.0000001
 43
0.0000001
 44
0.0000000001
 40
0.0
 40
0.0
 40
0.0
 40
0.0
 40
0.5557324323
 40
1.0
 40
1.0
 40
1.0
 40
1.0
 10
120.9872852211
 20
531.5964050415
 30
0.0
 10
120.9928954936
 20
531.5699544888
 30
0.0
 10
120.9979380245
 20
531.5205436701
 30
0.0
 10
120.979709543
 20
531.4722727375
 30
0.0
 10
120.9656948881
 20
531.4558158866
 30
0.0
  0
SPLINE
  5
53A
100
AcDbEntity
  8
_1
100
AcDbSpline
 62
7
  6
CONTINUOUS
 70
0
 71
3
 72
14
 73
10
 74
0
 42
0.0000001
 43
0.0000001
 44
0.0000000001
 40
0.0
 40
0.0
 40
0.0
 40
0.0
 40
0.3743129963
 40
0.5442004581
 40
0.6941130993
 40
0.8186301116
 40
0.9131022507
 40
0.9741679023
 40
1.0
 40
1.0
 40
1.0
 40
1.0
 10
125.2341102339
 20
529.8723449184
 30
0.0
 10
125.2125514228
 20
529.8272383048
 30
0.0
 10
125.1808339285
 20
529.761821308
 30
0.0
 10
125.1403677883
 20
529.6784546574
 30
0.0
 10
125.1143730874
 20
529.6250055813
 30
0.0
 10
125.093553869
 20
529.5806297019
 30
0.0
 10
125.0768137334
 20
529.5464760569
 30
0.0
 10
125.0691931028
 20
529.5246450877
 30
0.0
 10
125.0629767167
 20
529.513161381
 30
0.0
 10
125.0639536503
 20
529.5098524024
 30
0.0
  0
LINE
  5
53B
100
AcDbEntity
  8
_1
100
AcDbLine
 62
7
  6
CONTINUOUS
 10
127.0095532319
 20
535.7155028813
 11
125.7821744359
 21
535.3797754907
  0
LINE
  5
53C
100
AcDbEntity
  8
_1
100
AcDbLine
 62
7
  6
CONTINUOUS
 10
125.7821744359
 20
530.8285576388
 11
127.0095532319
 21
530.4928302482
  0
LINE
  5
53D
100
AcDbEntity
  8
_1
100
AcDbLine
 62
7
  6
CONTINUOUS
 10
127.0311972847
 20
535.7043442546
 11
127.0095532319
 21
535.7155028813
  0
LINE
  5
53E
100
AcDbEntity
  8
_1
100
AcDbLine
 62
7
  6
CONTINUOUS
 10
127.0095532319
 20
530.4928302482
 11
127.0311972847
 21
530.5039888749
  0
SPLINE
  5
53F
100
AcDbEntity
  8
_1
100
AcDbSpline
 62
7
  6
CONTINUOUS
 70
0
 71
3
 72
14
 73
10
 74
0
 42
0.0000001
 43
0.0000001
 44
0.0000000001
 40
0.0
 40
0.0
 40
0.0
 40
0.0
 40
0.3743129975
 40
0.5442004583
 40
0.6941130993
 40
0.8186301119
 40
0.9131022509
 40
0.9741679024
 40
1.0
 40
1.0
 40
1.0
 40
1.0
 10
125.4474490886
 20
535.8453424377
 30
0.0
 10
125.465734903
 20
535.7988126844
 30
0.0
 10
125.4919465885
 20
535.7310016937
 30
0.0
 10
125.525319255
 20
535.644550713
 30
0.0
 10
125.5466810902
 20
535.5890872098
 30
0.0
 10
125.5649368803
 20
535.54359672
 30
0.0
 10
125.5784985301
 20
535.50806103
 30
0.0
 10
125.5892674329
 20
535.4875989685
 30
0.0
 10
125.5934265196
 20
535.4752207227
 30
0.0
 10
125.5965128204
 20
535.4736784887
 30
0.0
  0
SPLINE
  5
540
100
AcDbEntity
  8
_1
100
AcDbSpline
 62
7
  6
CONTINUOUS
 70
0
 71
3
 72
14
 73
10
 74
0
 42
0.0000001
 43
0.0000001
 44
0.0000000001
 40
0.0
 40
0.0
 40
0.0
 40
0.0
 40
0.0258320621
 40
0.0868974273
 40
0.1813690224
 40
0.3058857084
 40
0.4557983822
 40
0.6256864989
 40
1.0
 40
1.0
 40
1.0
 40
1.0
 10
125.0639536503
 20
536.6984807271
 30
0.0
 10
125.062976718
 20
536.6951717532
 30
0.0
 10
125.0691931505
 20
536.6836881043
 30
0.0
 10
125.0768138106
 20
536.6618572771
 30
0.0
 10
125.0935539081
 20
536.6277037865
 30
0.0
 10
125.1143728547
 20
536.5833279046
 30
0.0
 10
125.140367349
 20
536.5298786759
 30
0.0
 10
125.1808334597
 20
536.4465118379
 30
0.0
 10
125.2125513944
 20
536.3810948841
 30
0.0
 10
125.2341102339
 20
536.3359882111
 30
0.0
  0
SPLINE
  5
541
100
AcDbEntity
  8
_1
100
AcDbSpline
 62
7
  6
CONTINUOUS
 70
0
 71
3
 72
14
 73
10
 74
0
 42
0.0000001
 43
0.0000001
 44
0.0000000001
 40
0.0
 40
0.0
 40
0.0
 40
0.0
 40
0.0258320621
 40
0.0868974273
 40
0.1813690224
 40
0.3058857084
 40
0.4557983822
 40
0.6256864989
 40
1.0
 40
1.0
 40
1.0
 40
1.0
 10
125.5965128204
 20
530.7346546408
 30
0.0
 10
125.5934265239
 20
530.733112409
 30
0.0
 10
125.5892675115
 20
530.7207341684
 30
0.0
 10
125.5784987329
 20
530.7002721821
 30
0.0
 10
125.5649371702
 20
530.6647366252
 30
0.0
 10
125.5466811922
 20
530.6192463329
 30
0.0
 10
125.5253191034
 20
530.5637828769
 30
0.0
 10
125.4919462789
 20
530.4773317903
 30
0.0
 10
125.4657349271
 20
530.4095205061
 30
0.0
 10
125.447449088
 20
530.362990692
 30
0.0
  0
LINE
  5
542
100
AcDbEntity
  8
_1
100
AcDbLine
 62
7
  6
CONTINUOUS
 10
853.9410355436
 20
539.2162978182
 11
853.9421939159
 21
539.1919742053
  0
LINE
  5
543
100
AcDbEntity
  8
_1
100
AcDbLine
 62
7
  6
CONTINUOUS
 10
853.9421939159
 20
539.1919742053
 11
854.8466317628
 21
538.2968966832
  0
SPLINE
  5
544
100
AcDbEntity
  8
_1
100
AcDbSpline
 62
7
  6
CONTINUOUS
 70
0
 71
3
 72
14
 73
10
 74
0
 42
0.0000001
 43
0.0000001
 44
0.0000000001
 40
0.0
 40
0.0
 40
0.0
 40
0.0
 40
0.3743129963
 40
0.5442004581
 40
0.6941130993
 40
0.8186301116
 40
0.9131022507
 40
0.9741679023
 40
1.0
 40
1.0
 40
1.0
 40
1.0
 10
854.6108016338
 20
537.7742325552
 30
0.0
 10
854.6419546742
 20
537.813333412
 30
0.0
 10
854.6875748736
 20
537.8699388916
 30
0.0
 10
854.7457572852
 20
537.9420659595
 30
0.0
 10
854.7831091696
 20
537.9882976038
 30
0.0
 10
854.8133771937
 20
538.0268528272
 30
0.0
 10
854.8373711791
 20
538.0563654054
 30
0.0
 10
854.849707393
 20
538.0759225793
 30
0.0
 10
854.8583477255
 20
538.0857135768
 30
0.0
 10
854.8581401889
 20
538.0891575087
 30
0.0
  0
SPLINE
  5
545
100
AcDbEntity
  8
_1
100
AcDbSpline
 62
7
  6
CONTINUOUS
 70
0
 71
3
 72
14
 73
10
 74
0
 42
0.0000001
 43
0.0000001
 44
0.0000000001
 40
0.0
 40
0.0
 40
0.0
 40
0.0
 40
0.0258320621
 40
0.0868974273
 40
0.1813690224
 40
0.3058857084
 40
0.4557983822
 40
0.6256864989
 40
1.0
 40
1.0
 40
1.0
 40
1.0
 10
854.0637099208
 20
537.0155466191
 30
0.0
 10
854.0670640424
 20
537.0163550579
 30
0.0
 10
854.0739009579
 20
537.0274804708
 30
0.0
 10
854.0889966788
 20
537.0449955697
 30
0.0
 10
854.1102044205
 20
537.0765696647
 30
0.0
 10
854.1382255882
 20
537.1167873422
 30
0.0
 10
854.171516731
 20
537.166023849
 30
0.0
 10
854.2234814752
 20
537.2427519479
 30
0.0
 10
854.2642752516
 20
537.302928962
 30
0.0
 10
854.2925593566
 20
537.3441528012
 30
0.0
  0
LINE
  5
546
100
AcDbEntity
  8
_1
100
AcDbLine
 62
7
  6
CONTINUOUS
 10
853.9421939159
 20
527.0163589242
 11
853.9410355436
 21
526.9920353113
  0
LINE
  5
547
100
AcDbEntity
  8
_1
100
AcDbLine
 62
7
  6
CONTINUOUS
 10
854.8466317628
 20
527.9114364463
 11
853.9421939159
 21
527.0163589242
  0
SPLINE
  5
548
100
AcDbEntity
  8
_1
100
AcDbSpline
 62
7
  6
CONTINUOUS
 70
0
 71
3
 72
14
 73
10
 74
0
 42
0.0000001
 43
0.0000001
 44
0.0000000001
 40
0.0
 40
0.0
 40
0.0
 40
0.0
 40
0.0258320621
 40
0.0868974273
 40
0.1813690224
 40
0.3058857084
 40
0.4557983822
 40
0.625686499
 40
1.0
 40
1.0
 40
1.0
 40
1.0
 10
854.8581401889
 20
528.1191756208
 30
0.0
 10
854.8583477252
 20
528.1226195479
 30
0.0
 10
854.8497073606
 20
528.1324104787
 30
0.0
 10
854.8373711499
 20
528.1519675076
 30
0.0
 10
854.8133772363
 20
528.1814799439
 30
0.0
 10
854.7831094765
 20
528.2200352308
 30
0.0
 10
854.7457577591
 20
528.2662670703
 30
0.0
 10
854.6875753341
 20
528.3383943274
 30
0.0
 10
854.6419547152
 20
528.394999666
 30
0.0
 10
854.6108016338
 20
528.4341005743
 30
0.0
  0
SPLINE
  5
549
100
AcDbEntity
  8
_1
100
AcDbSpline
 62
7
  6
CONTINUOUS
 70
0
 71
3
 72
14
 73
10
 74
0
 42
0.0000001
 43
0.0000001
 44
0.0000000001
 40
0.0
 40
0.0
 40
0.0
 40
0.0
 40
0.3743004517
 40
0.5441868924
 40
0.6941032123
 40
0.8186232411
 40
0.9130907315
 40
0.9741578708
 40
1.0
 40
1.0
 40
1.0
 40
1.0
 10
854.2925593566
 20
528.8641803283
 30
0.0
 10
854.2642758933
 20
528.9054032322
 30
0.0
 10
854.2234317326
 20
528.9655445724
 30
0.0
 10
854.1714808976
 20
529.0422818779
 30
0.0
 10
854.1382221625
 20
529.0915416261
 30
0.0
 10
854.1102353013
 20
529.1317852772
 30
0.0
 10
854.0890334512
 20
529.1633614297
 30
0.0
 10
854.0739278491
 20
529.1808768157
 30
0.0
 10
854.0670653904
 20
529.1919777467
 30
0.0
 10
854.0637099208
 20
529.1927865104
 30
0.0
  0
SPLINE
  5
54A
100
AcDbEntity
  8
_1
100
AcDbSpline
 62
7
  6
CONTINUOUS
 70
0
 71
3
 72
14
 73
10
 74
0
 42
0.0000001
 43
0.0000001
 44
0.0000000001
 40
0.0
 40
0.0
 40
0.0
 40
0.0
 40
0.3743129963
 40
0.5442004581
 40
0.6941130993
 40
0.8186301116
 40
0.9131022507
 40
0.9741679023
 40
1.0
 40
1.0
 40
1.0
 40
1.0
 10
125.2341102339
 20
404.8723449184
 30
0.0
 10
125.2125514228
 20
404.8272383048
 30
0.0
 10
125.1808339285
 20
404.761821308
 30
0.0
 10
125.1403677883
 20
404.6784546574
 30
0.0
 10
125.1143730874
 20
404.6250055813
 30
0.0
 10
125.093553869
 20
404.5806297019
 30
0.0
 10
125.0768137334
 20
404.5464760569
 30
0.0
 10
125.0691931028
 20
404.5246450877
 30
0.0
 10
125.0629767167
 20
404.513161381
 30
0.0
 10
125.0639536503
 20
404.5098524024
 30
0.0
  0
LINE
  5
54B
100
AcDbEntity
  8
_1
100
AcDbLine
 62
7
  6
CONTINUOUS
 10
127.0095532319
 20
410.7155028813
 11
125.7821744359
 21
410.3797754907
  0
LINE
  5
54C
100
AcDbEntity
  8
_1
100
AcDbLine
 62
7
  6
CONTINUOUS
 10
125.7821744359
 20
405.8285576388
 11
127.0095532319
 21
405.4928302482
  0
LINE
  5
54D
100
AcDbEntity
  8
_1
100
AcDbLine
 62
7
  6
CONTINUOUS
 10
127.0311972847
 20
410.7043442546
 11
127.0095532319
 21
410.7155028813
  0
LINE
  5
54E
100
AcDbEntity
  8
_1
100
AcDbLine
 62
7
  6
CONTINUOUS
 10
127.0095532319
 20
405.4928302482
 11
127.0311972847
 21
405.5039888749
  0
SPLINE
  5
54F
100
AcDbEntity
  8
_1
100
AcDbSpline
 62
7
  6
CONTINUOUS
 70
0
 71
3
 72
14
 73
10
 74
0
 42
0.0000001
 43
0.0000001
 44
0.0000000001
 40
0.0
 40
0.0
 40
0.0
 40
0.0
 40
0.3743129975
 40
0.5442004583
 40
0.6941130993
 40
0.8186301119
 40
0.9131022509
 40
0.9741679024
 40
1.0
 40
1.0
 40
1.0
 40
1.0
 10
125.4474490886
 20
410.8453424377
 30
0.0
 10
125.465734903
 20
410.7988126844
 30
0.0
 10
125.4919465885
 20
410.7310016937
 30
0.0
 10
125.525319255
 20
410.644550713
 30
0.0
 10
125.5466810902
 20
410.5890872098
 30
0.0
 10
125.5649368803
 20
410.54359672
 30
0.0
 10
125.5784985301
 20
410.50806103
 30
0.0
 10
125.5892674329
 20
410.4875989685
 30
0.0
 10
125.5934265196
 20
410.4752207227
 30
0.0
 10
125.5965128204
 20
410.4736784887
 30
0.0
  0
SPLINE
  5
550
100
AcDbEntity
  8
_1
100
AcDbSpline
 62
7
  6
CONTINUOUS
 70
0
 71
3
 72
14
 73
10
 74
0
 42
0.0000001
 43
0.0000001
 44
0.0000000001
 40
0.0
 40
0.0
 40
0.0
 40
0.0
 40
0.0258320621
 40
0.0868974273
 40
0.1813690224
 40
0.3058857084
 40
0.4557983822
 40
0.6256864989
 40
1.0
 40
1.0
 40
1.0
 40
1.0
 10
125.0639536503
 20
411.6984807271
 30
0.0
 10
125.062976718
 20
411.6951717532
 30
0.0
 10
125.0691931505
 20
411.6836881043
 30
0.0
 10
125.0768138106
 20
411.6618572771
 30
0.0
 10
125.0935539081
 20
411.6277037865
 30
0.0
 10
125.1143728547
 20
411.5833279046
 30
0.0
 10
125.140367349
 20
411.5298786759
 30
0.0
 10
125.1808334597
 20
411.4465118379
 30
0.0
 10
125.2125513944
 20
411.3810948841
 30
0.0
 10
125.2341102339
 20
411.3359882111
 30
0.0
  0
SPLINE
  5
551
100
AcDbEntity
  8
_1
100
AcDbSpline
 62
7
  6
CONTINUOUS
 70
0
 71
3
 72
14
 73
10
 74
0
 42
0.0000001
 43
0.0000001
 44
0.0000000001
 40
0.0
 40
0.0
 40
0.0
 40
0.0
 40
0.0258320621
 40
0.0868974273
 40
0.1813690224
 40
0.3058857084
 40
0.4557983822
 40
0.6256864989
 40
1.0
 40
1.0
 40
1.0
 40
1.0
 10
125.5965128204
 20
405.7346546408
 30
0.0
 10
125.5934265239
 20
405.733112409
 30
0.0
 10
125.5892675115
 20
405.7207341684
 30
0.0
 10
125.5784987329
 20
405.7002721821
 30
0.0
 10
125.5649371702
 20
405.6647366252
 30
0.0
 10
125.5466811922
 20
405.6192463329
 30
0.0
 10
125.5253191034
 20
405.5637828769
 30
0.0
 10
125.4919462789
 20
405.4773317903
 30
0.0
 10
125.4657349271
 20
405.4095205061
 30
0.0
 10
125.447449088
 20
405.362990692
 30
0.0
  0
LINE
  5
552
100
AcDbEntity
  8
_1
100
AcDbLine
 62
7
  6
CONTINUOUS
 10
853.9410355436
 20
414.2162978182
 11
853.9421939159
 21
414.1919742053
  0
LINE
  5
553
100
AcDbEntity
  8
_1
100
AcDbLine
 62
7
  6
CONTINUOUS
 10
853.9421939159
 20
414.1919742053
 11
854.8466317628
 21
413.2968966832
  0
SPLINE
  5
554
100
AcDbEntity
  8
_1
100
AcDbSpline
 62
7
  6
CONTINUOUS
 70
0
 71
3
 72
14
 73
10
 74
0
 42
0.0000001
 43
0.0000001
 44
0.0000000001
 40
0.0
 40
0.0
 40
0.0
 40
0.0
 40
0.3743004517
 40
0.5441868924
 40
0.6941032123
 40
0.8186232411
 40
0.9130907315
 40
0.9741578708
 40
1.0
 40
1.0
 40
1.0
 40
1.0
 10
854.6108016338
 20
412.7742325552
 30
0.0
 10
854.6419540084
 20
412.8133325763
 30
0.0
 10
854.6875257811
 20
412.8699756676
 30
0.0
 10
854.7457210772
 20
412.942092315
 30
0.0
 10
854.7831044956
 20
412.9882999581
 30
0.0
 10
854.8134071242
 20
413.0268300316
 30
0.0
 10
854.837404728
 20
413.0563374351
 30
0.0
 10
854.8497383242
 20
413.0759039975
 30
0.0
 10
854.8583478086
 20
413.0857121975
 30
0.0
 10
854.8581401889
 20
413.0891575087
 30
0.0
  0
SPLINE
  5
555
100
AcDbEntity
  8
_1
100
AcDbSpline
 62
7
  6
CONTINUOUS
 70
0
 71
3
 72
14
 73
10
 74
0
 42
0.0000001
 43
0.0000001
 44
0.0000000001
 40
0.0
 40
0.0
 40
0.0
 40
0.0
 40
0.0258320621
 40
0.0868974273
 40
0.1813690224
 40
0.3058857084
 40
0.4557983822
 40
0.6256864989
 40
1.0
 40
1.0
 40
1.0
 40
1.0
 10
854.0637099208
 20
412.0155466191
 30
0.0
 10
854.0670640424
 20
412.0163550579
 30
0.0
 10
854.0739009579
 20
412.0274804708
 30
0.0
 10
854.0889966788
 20
412.0449955697
 30
0.0
 10
854.1102044205
 20
412.0765696647
 30
0.0
 10
854.1382255882
 20
412.1167873422
 30
0.0
 10
854.171516731
 20
412.166023849
 30
0.0
 10
854.2234814752
 20
412.2427519479
 30
0.0
 10
854.2642752516
 20
412.302928962
 30
0.0
 10
854.2925593566
 20
412.3441528012
 30
0.0
  0
LINE
  5
556
100
AcDbEntity
  8
_1
100
AcDbLine
 62
7
  6
CONTINUOUS
 10
853.9421939159
 20
402.0163589242
 11
853.9410355436
 21
401.9920353113
  0
LINE
  5
557
100
AcDbEntity
  8
_1
100
AcDbLine
 62
7
  6
CONTINUOUS
 10
854.8466317628
 20
402.9114364463
 11
853.9421939159
 21
402.0163589242
  0
SPLINE
  5
558
100
AcDbEntity
  8
_1
100
AcDbSpline
 62
7
  6
CONTINUOUS
 70
0
 71
3
 72
14
 73
10
 74
0
 42
0.0000001
 43
0.0000001
 44
0.0000000001
 40
0.0
 40
0.0
 40
0.0
 40
0.0
 40
0.0258320621
 40
0.0868974273
 40
0.1813690224
 40
0.3058857084
 40
0.4557983822
 40
0.6256864989
 40
1.0
 40
1.0
 40
1.0
 40
1.0
 10
854.8581401889
 20
403.1191756208
 30
0.0
 10
854.8583477252
 20
403.1226195479
 30
0.0
 10
854.8497073606
 20
403.1324104787
 30
0.0
 10
854.8373711499
 20
403.1519675076
 30
0.0
 10
854.8133772363
 20
403.1814799439
 30
0.0
 10
854.7831094765
 20
403.2200352308
 30
0.0
 10
854.7457577591
 20
403.2662670703
 30
0.0
 10
854.6875753341
 20
403.3383943274
 30
0.0
 10
854.6419547152
 20
403.394999666
 30
0.0
 10
854.6108016338
 20
403.4341005743
 30
0.0
  0
SPLINE
  5
559
100
AcDbEntity
  8
_1
100
AcDbSpline
 62
7
  6
CONTINUOUS
 70
0
 71
3
 72
14
 73
10
 74
0
 42
0.0000001
 43
0.0000001
 44
0.0000000001
 40
0.0
 40
0.0
 40
0.0
 40
0.0
 40
0.3743004517
 40
0.5441868924
 40
0.6941032123
 40
0.8186232411
 40
0.9130907315
 40
0.9741578708
 40
1.0
 40
1.0
 40
1.0
 40
1.0
 10
854.2925593566
 20
403.8641803283
 30
0.0
 10
854.2642758933
 20
403.9054032322
 30
0.0
 10
854.2234317326
 20
403.9655445724
 30
0.0
 10
854.1714808976
 20
404.0422818779
 30
0.0
 10
854.1382221625
 20
404.0915416261
 30
0.0
 10
854.1102353013
 20
404.1317852772
 30
0.0
 10
854.0890334512
 20
404.1633614297
 30
0.0
 10
854.0739278491
 20
404.1808768157
 30
0.0
 10
854.0670653904
 20
404.1919777467
 30
0.0
 10
854.0637099208
 20
404.1927865104
 30
0.0
  0
SPLINE
  5
55A
100
AcDbEntity
  8
_1
100
AcDbSpline
 62
7
  6
CONTINUOUS
 70
0
 71
3
 72
11
 73
7
 74
0
 42
0.0000001
 43
0.0000001
 44
0.0000000001
 40
0.0
 40
0.0
 40
0.0
 40
0.0
 40
0.2459289417
 40
0.4957814104
 40
0.7475596632
 40
1.0
 40
1.0
 40
1.0
 40
1.0
 10
480.4723027465
 20
598.320655029
 30
0.0
 10
480.2749499616
 20
598.3076051791
 30
0.0
 10
479.8784923853
 20
598.2033091563
 30
0.0
 10
479.3827199224
 20
597.8396199916
 30
0.0
 10
479.050159788
 20
597.3159155534
 30
0.0
 10
478.972302757
 20
596.9063182528
 30
0.0
 10
478.972302757
 20
596.703297813
 30
0.0
  0
SPLINE
  5
55B
100
AcDbEntity
  8
_1
100
AcDbSpline
 62
7
  6
CONTINUOUS
 70
0
 71
3
 72
11
 73
7
 74
0
 42
0.0000001
 43
0.0000001
 44
0.0000000001
 40
0.0
 40
0.0
 40
0.0
 40
0.0
 40
0.2524465209
 40
0.5042185872
 40
0.7540651071
 40
1.0
 40
1.0
 40
1.0
 40
1.0
 10
499.9723027465
 20
596.703297813
 30
0.0
 10
499.9723027465
 20
596.906323257
 30
0.0
 10
499.8944493287
 20
597.3159232676
 30
0.0
 10
499.5618784252
 20
597.8396135023
 30
0.0
 10
499.0661205344
 20
598.2033113773
 30
0.0
 10
498.6696603371
 20
598.3076048717
 30
0.0
 10
498.4723027465
 20
598.3206550392
 30
0.0
  0
SPLINE
  5
55C
100
AcDbEntity
  8
_1
100
AcDbSpline
 62
7
  6
CONTINUOUS
 70
0
 71
3
 72
11
 73
7
 74
0
 42
0.0000001
 43
0.0000001
 44
0.0000000001
 40
0.0
 40
0.0
 40
0.0
 40
0.0
 40
0.2502892673
 40
0.5005415324
 40
0.7504128117
 40
1.0
 40
1.0
 40
1.0
 40
1.0
 10
499.7338490015
 20
599.4681367747
 30
0.0
 10
499.9910802878
 20
599.3425696315
 30
0.0
 10
500.4734327358
 20
599.0186187758
 30
0.0
 10
501.0343848621
 20
598.3549481851
 30
0.0
 10
501.3908851136
 20
597.5631688845
 30
0.0
 10
501.4723027465
 20
596.9887378586
 30
0.0
 10
501.4723027465
 20
596.703297813
 30
0.0
  0
SPLINE
  5
55D
100
AcDbEntity
  8
_1
100
AcDbSpline
 62
7
  6
CONTINUOUS
 70
0
 71
3
 72
11
 73
7
 74
0
 42
0.0000001
 43
0.0000001
 44
0.0000000001
 40
0.0
 40
0.0
 40
0.0
 40
0.0
 40
0.2495871726
 40
0.499458448
 40
0.7497107159
 40
1.0
 40
1.0
 40
1.0
 40
1.0
 10
477.4723027465
 20
596.703297813
 30
0.0
 10
477.4723027465
 20
596.9887372501
 30
0.0
 10
477.5537200327
 20
597.5631670503
 30
0.0
 10
477.9102187991
 20
598.3549449788
 30
0.0
 10
478.4711687844
 20
599.0186149929
 30
0.0
 10
478.9535195683
 20
599.342566148
 30
0.0
 10
479.2107500503
 20
599.4681336324
 30
0.0
  0
SPLINE
  5
55E
100
AcDbEntity
  8
_1
100
AcDbSpline
 62
7
  6
CONTINUOUS
 70
0
 71
3
 72
18
 73
14
 74
0
 42
0.0000001
 43
0.0000001
 44
0.0000000001
 40
0.0
 40
0.0
 40
0.0
 40
0.0
 40
0.1961851386
 40
0.3838920327
 40
0.5561976797
 40
0.7068594075
 40
0.8303599799
 40
0.8804858119
 40
0.9222220512
 40
0.9552082744
 40
0.9791746928
 40
0.993974697
 40
1.0
 40
1.0
 40
1.0
 40
1.0
 10
116.9144888221
 20
814.5348581111
 30
0.0
 10
116.9270565652
 20
814.4726980598
 30
0.0
 10
116.9512485489
 20
814.3509823243
 30
0.0
 10
116.9850753489
 20
814.1744000633
 30
0.0
 10
117.0148673637
 20
814.0120236741
 30
0.0
 10
117.0395376524
 20
813.8698428291
 30
0.0
 10
117.0561463235
 20
813.7662843029
 30
0.0
 10
117.0660055166
 20
813.6974444791
 30
0.0
 10
117.0711530847
 20
813.6572464842
 30
0.0
 10
117.0744454948
 20
813.6259526944
 30
0.0
 10
117.0762019727
 20
813.6017981058
 30
0.0
 10
117.0759287475
 20
813.5891593619
 30
0.0
 10
117.075067693
 20
813.5802956023
 30
0.0
 10
117.0731806128
 20
813.5798134208
 30
0.0
  0
SPLINE
  5
55F
100
AcDbEntity
  8
_1
100
AcDbSpline
 62
7
  6
CONTINUOUS
 70
0
 71
3
 72
18
 73
14
 74
0
 42
0.0000001
 43
0.0000001
 44
0.0000000001
 40
0.0
 40
0.0
 40
0.0
 40
0.0
 40
0.1948252962
 40
0.3819800827
 40
0.5543057934
 40
0.7053504164
 40
0.8293920425
 40
0.879791141
 40
0.9217780376
 40
0.9549723528
 40
0.9790888722
 40
0.9939701879
 40
1.0
 40
1.0
 40
1.0
 40
1.0
 10
124.8203272591
 20
806.2379143382
 30
0.0
 10
124.7589736702
 20
806.258462843
 30
0.0
 10
124.6388162815
 20
806.2991546549
 30
0.0
 10
124.4648705278
 20
806.3594183398
 30
0.0
 10
124.305093028
 20
806.4161758857
 30
0.0
 10
124.1655770025
 20
806.4672501427
 30
0.0
 10
124.0644938197
 20
806.505711771
 30
0.0
 10
123.9978211007
 20
806.5323542174
 30
0.0
 10
123.9591588945
 20
806.5484617391
 30
0.0
 10
123.9294291125
 20
806.5616400353
 30
0.0
 10
123.9068502251
 20
806.5724933968
 30
0.0
 10
123.895706744
 20
806.5792381548
 30
0.0
 10
123.8881602068
 20
806.5845259406
 30
0.0
 10
123.8887005253
 20
806.5864542242
 30
0.0
  0
SPLINE
  5
560
100
AcDbEntity
  8
_1
100
AcDbSpline
 62
7
  6
CONTINUOUS
 70
0
 71
3
 72
18
 73
14
 74
0
 42
0.0000001
 43
0.0000001
 44
0.0000000001
 40
0.0
 40
0.0
 40
0.0
 40
0.0
 40
0.1948174372
 40
0.3819733132
 40
0.5542951451
 40
0.7053335133
 40
0.8293619054
 40
0.8797507088
 40
0.921725172
 40
0.954912298
 40
0.9790418973
 40
0.9939547675
 40
1.0
 40
1.0
 40
1.0
 40
1.0
 10
124.8203269802
 20
809.9704189359
 30
0.0
 10
124.7589760732
 20
809.9498713293
 30
0.0
 10
124.6388217433
 20
809.9091788217
 30
0.0
 10
124.464879779
 20
809.8489169455
 30
0.0
 10
124.3051052504
 20
809.7921616424
 30
0.0
 10
124.1655968763
 20
809.7410907302
 30
0.0
 10
124.0645230085
 20
809.7026329656
 30
0.0
 10
123.9978622019
 20
809.6759942406
 30
0.0
 10
123.9592087379
 20
809.6598905547
 30
0.0
 10
123.92948357
 20
809.6467110818
 30
0.0
 10
123.9068871877
 20
809.6358557705
 30
0.0
 10
123.8957383854
 20
809.6291010927
 30
0.0
 10
123.8881564765
 20
809.6238146728
 30
0.0
 10
123.8886981746
 20
809.6218814643
 30
0.0
  0
SPLINE
  5
561
100
AcDbEntity
  8
_1
100
AcDbSpline
 62
7
  6
CONTINUOUS
 70
0
 71
3
 72
18
 73
14
 74
0
 42
0.0000001
 43
0.0000001
 44
0.0000000001
 40
0.0
 40
0.0
 40
0.0
 40
0.0
 40
0.1961837283
 40
0.3839021725
 40
0.556203328
 40
0.7068560561
 40
0.8303413949
 40
0.8804566205
 40
0.9221822753
 40
0.9551613334
 40
0.9791372399
 40
0.9939623495
 40
1.0
 40
1.0
 40
1.0
 40
1.0
 10
113.6820674774
 20
812.6686185136
 30
0.0
 10
113.7296149398
 20
812.626655253
 30
0.0
 10
113.8229303252
 20
812.544846352
 30
0.0
 10
113.9589412823
 20
812.4272600925
 30
0.0
 10
114.0846649692
 20
812.3202721107
 30
0.0
 10
114.1954534486
 20
812.2278232759
 30
0.0
 10
114.2768238417
 20
812.161668092
 30
0.0
 10
114.3315019771
 20
812.1187186175
 30
0.0
 10
114.3637332062
 20
812.0941670306
 30
0.0
 10
114.3891861404
 20
812.0756730384
 30
0.0
 10
114.409233678
 20
812.0620640661
 30
0.0
 10
114.4203240453
 20
812.055981797
 30
0.0
 10
114.4284436838
 20
812.0522711792
 30
0.0
 10
114.4298075802
 20
812.0536671879
 30
0.0
  0
SPLINE
  5
562
100
AcDbEntity
  8
_1
100
AcDbSpline
 62
7
  6
CONTINUOUS
 70
0
 71
3
 72
18
 73
14
 74
0
 42
0.0000001
 43
0.0000001
 44
0.0000000001
 40
0.0
 40
0.0
 40
0.0
 40
0.0
 40
0.1961851386
 40
0.3838920327
 40
0.5561976797
 40
0.7068594075
 40
0.8303599799
 40
0.8804858119
 40
0.9222220512
 40
0.9552082744
 40
0.9791746928
 40
0.993974697
 40
1.0
 40
1.0
 40
1.0
 40
1.0
 10
113.6820674657
 20
803.5397143587
 30
0.0
 10
113.7296157777
 20
803.5816783691
 30
0.0
 10
113.8229287048
 20
803.6634871093
 30
0.0
 10
113.9589400287
 20
803.7810731079
 30
0.0
 10
114.0846660993
 20
803.8880619442
 30
0.0
 10
114.1954631787
 20
803.9805174634
 30
0.0
 10
114.2768431576
 20
804.0466802576
 30
0.0
 10
114.3315305972
 20
804.0896384812
 30
0.0
 10
114.3637692979
 20
804.1141954034
 30
0.0
 10
114.3892243099
 20
804.1326936091
 30
0.0
 10
114.4092645583
 20
804.1462920579
 30
0.0
 10
114.4203466441
 20
804.1523748099
 30
0.0
 10
114.4284534123
 20
804.1560609946
 30
0.0
 10
114.4298145339
 20
804.1546678259
 30
0.0
  0
SPLINE
  5
563
100
AcDbEntity
  8
_1
100
AcDbSpline
 62
7
  6
CONTINUOUS
 70
0
 71
3
 72
18
 73
14
 74
0
 42
0.0000001
 43
0.0000001
 44
0.0000000001
 40
0.0
 40
0.0
 40
0.0
 40
0.0
 40
0.1961844557
 40
0.3839036174
 40
0.5562053414
 40
0.7068583746
 40
0.8303436501
 40
0.8804586878
 40
0.9221840503
 40
0.9551626984
 40
0.9791380482
 40
0.9939625756
 40
1.0
 40
1.0
 40
1.0
 40
1.0
 10
116.9144889923
 20
801.6734751273
 30
0.0
 10
116.9270565523
 20
801.7356342729
 30
0.0
 10
116.9512475492
 20
801.8573526215
 30
0.0
 10
116.9850748778
 20
802.0339352602
 30
0.0
 10
117.0148674239
 20
802.196309597
 30
0.0
 10
117.0395362501
 20
802.3384798544
 30
0.0
 10
117.0561430932
 20
802.4420262503
 30
0.0
 10
117.0659993023
 20
802.5108534487
 30
0.0
 10
117.0711458991
 20
802.551041999
 30
0.0
 10
117.074435642
 20
802.5823314979
 30
0.0
 10
117.0761973978
 20
802.6064970793
 30
0.0
 10
117.0759196598
 20
802.6191424826
 30
0.0
 10
117.0750730497
 20
802.6280291141
 30
0.0
 10
117.0731821941
 20
802.6285122604
 30
0.0
  0
SPLINE
  5
564
100
AcDbEntity
  8
_1
100
AcDbSpline
 62
7
  6
CONTINUOUS
 70
0
 71
3
 72
14
 73
10
 74
0
 42
0.0000001
 43
0.0000001
 44
0.0000000001
 40
0.0
 40
0.0
 40
0.0
 40
0.0
 40
0.3742677516
 40
0.5441590148
 40
0.6940825585
 40
0.8186069464
 40
0.9130746553
 40
0.9741460972
 40
1.0
 40
1.0
 40
1.0
 40
1.0
 10
113.4526128651
 20
812.0294608909
 30
0.0
 10
113.4834129966
 20
812.0688482834
 30
0.0
 10
113.5285858619
 20
812.1258278151
 30
0.0
 10
113.5864391746
 20
812.1982437498
 30
0.0
 10
113.6236855256
 20
812.2445816083
 30
0.0
 10
113.6539343706
 20
812.2831722315
 30
0.0
 10
113.6779232634
 20
812.3126957684
 30
0.0
 10
113.6902604587
 20
812.3322749852
 30
0.0
 10
113.6988441069
 20
812.3421011243
 30
0.0
 10
113.6986368879
 20
812.3455488442
 30
0.0
  0
SPLINE
  5
565
100
AcDbEntity
  8
_1
100
AcDbSpline
 62
7
  6
CONTINUOUS
 70
0
 71
3
 72
18
 73
14
 74
0
 42
0.0000001
 43
0.0000001
 44
0.0000000001
 40
0.0
 40
0.0
 40
0.0
 40
0.0
 40
0.0057630601
 40
0.0203801161
 40
0.0443194304
 40
0.0774172724
 40
0.1193390359
 40
0.1696990783
 40
0.2938838074
 40
0.4452265916
 40
0.6178165895
 40
0.8052045967
 40
1.0
 40
1.0
 40
1.0
 40
1.0
 10
114.4298075802
 20
812.0536671879
 30
0.0
 10
114.4311524898
 20
812.0550437641
 30
0.0
 10
114.4264439063
 20
812.063060176
 30
0.0
 10
114.4189212268
 20
812.0732384996
 30
0.0
 10
114.4024209381
 20
812.0921905851
 30
0.0
 10
114.3801615271
 20
812.1159168184
 30
0.0
 10
114.3507529565
 20
812.145996405
 30
0.0
 10
114.2994991699
 20
812.196845695
 30
0.0
 10
114.2209359406
 20
812.2722428229
 30
0.0
 10
114.1116760399
 20
812.3744645522
 30
0.0
 10
113.9858669654
 20
812.4899247964
 30
0.0
 10
113.8483910895
 20
812.6141082606
 30
0.0
 10
113.7530935848
 20
812.6990036589
 30
0.0
 10
113.7043741568
 20
812.7421069677
 30
0.0
  0
SPLINE
  5
566
100
AcDbEntity
  8
_1
100
AcDbSpline
 62
7
  6
CONTINUOUS
 70
0
 71
3
 72
18
 73
14
 74
0
 42
0.0000001
 43
0.0000001
 44
0.0000000001
 40
0.0
 40
0.0
 40
0.0
 40
0.0
 40
0.0057583159
 40
0.0203675712
 40
0.0443061179
 40
0.077406584
 40
0.1193300396
 40
0.1696882955
 40
0.2938708685
 40
0.445213974
 40
0.6178088536
 40
0.8052019206
 40
1.0
 40
1.0
 40
1.0
 40
1.0
 10
123.8886981746
 20
809.6218814643
 30
0.0
 10
123.8892170072
 20
809.6200298619
 30
0.0
 10
123.8985064303
 20
809.6200926156
 30
0.0
 10
123.9110801222
 20
809.6215209691
 30
0.0
 10
123.9357405478
 20
809.6263326487
 30
0.0
 10
123.9674188911
 20
809.6337480814
 30
0.0
 10
124.0081734354
 20
809.6441767669
 30
0.0
 10
124.0778362382
 20
809.6631386965
 30
0.0
 10
124.1824121078
 20
809.6934772268
 30
0.0
 10
124.3255691791
 20
809.7369880297
 30
0.0
 10
124.4884677597
 20
809.7882127976
 30
0.0
 10
124.6647550478
 20
809.8451796781
 30
0.0
 10
124.7859273444
 20
809.8852626589
 30
0.0
 10
124.8476162171
 20
809.905903467
 30
0.0
  0
SPLINE
  5
567
100
AcDbEntity
  8
_1
100
AcDbSpline
 62
7
  6
CONTINUOUS
 70
0
 71
3
 72
14
 73
10
 74
0
 42
0.0000001
 43
0.0000001
 44
0.0000000001
 40
0.0
 40
0.0
 40
0.0
 40
0.0
 40
0.3742677516
 40
0.5441590148
 40
0.6940825585
 40
0.8186069464
 40
0.9130746553
 40
0.9741460972
 40
1.0
 40
1.0
 40
1.0
 40
1.0
 10
124.381552291
 20
810.4886983581
 30
0.0
 10
124.4002627077
 20
810.4423309656
 30
0.0
 10
124.427021997
 20
810.3747203508
 30
0.0
 10
124.4608093798
 20
810.288409945
 30
0.0
 10
124.4823159669
 20
810.2329847296
 30
0.0
 10
124.5006120044
 20
810.1874931497
 30
0.0
 10
124.514185691
 20
810.1519563907
 30
0.0
 10
124.5249731925
 20
810.1314824578
 30
0.0
 10
124.5291910544
 20
810.1191357308
 30
0.0
 10
124.532280477
 20
810.1175913277
 30
0.0
  0
SPLINE
  5
568
100
AcDbEntity
  8
_1
100
AcDbSpline
 62
7
  6
CONTINUOUS
 70
0
 71
3
 72
14
 73
10
 74
0
 42
0.0000001
 43
0.0000001
 44
0.0000000001
 40
0.0
 40
0.0
 40
0.0
 40
0.0
 40
0.3742677516
 40
0.5441590149
 40
0.6940825585
 40
0.8186069464
 40
0.9130746553
 40
0.9741460972
 40
1.0
 40
1.0
 40
1.0
 40
1.0
 10
117.9196610147
 20
814.4523796337
 30
0.0
 10
117.9694727692
 20
814.4567159806
 30
0.0
 10
118.0419527807
 20
814.4625385855
 30
0.0
 10
118.134370307
 20
814.4696148999
 30
0.0
 10
118.1936616216
 20
814.4739769867
 30
0.0
 10
118.2425146795
 20
814.4781731236
 30
0.0
 10
118.280467213
 20
814.4807637619
 30
0.0
 10
118.3032004926
 20
814.4850939022
 30
0.0
 10
118.3162409098
 20
814.48551763
 30
0.0
 10
118.3186210896
 20
814.4880205197
 30
0.0
  0
SPLINE
  5
569
100
AcDbEntity
  8
_1
100
AcDbSpline
 62
7
  6
CONTINUOUS
 70
0
 71
3
 72
14
 73
10
 74
0
 42
0.0000001
 43
0.0000001
 44
0.0000000001
 40
0.0
 40
0.0
 40
0.0
 40
0.0
 40
0.3742677516
 40
0.5441590148
 40
0.6940825585
 40
0.8186069464
 40
0.9130746553
 40
0.9741460972
 40
1.0
 40
1.0
 40
1.0
 40
1.0
 10
113.2509098261
 20
804.4514582514
 30
0.0
 10
113.2222485623
 20
804.4924283227
 30
0.0
 10
113.1809660328
 20
804.5522865515
 30
0.0
 10
113.1286290016
 20
804.6287843198
 30
0.0
 10
113.0952056663
 20
804.677951061
 30
0.0
 10
113.0671451762
 20
804.7181609818
 30
0.0
 10
113.0459253509
 20
804.7497335208
 30
0.0
 10
113.0308086996
 20
804.7672560483
 30
0.0
 10
113.0239215319
 20
804.778337517
 30
0.0
 10
113.0205638759
 20
804.7791473682
 30
0.0
  0
SPLINE
  5
56A
100
AcDbEntity
  8
_1
100
AcDbSpline
 62
7
  6
CONTINUOUS
 70
0
 71
3
 72
18
 73
14
 74
0
 42
0.0000001
 43
0.0000001
 44
0.0000000001
 40
0.0
 40
0.0
 40
0.0
 40
0.0
 40
0.0057715324
 40
0.020393751
 40
0.0442983662
 40
0.0773421697
 40
0.1192497131
 40
0.169641193
 40
0.2938406054
 40
0.4451994756
 40
0.6178588478
 40
0.8052141312
 40
1.0
 40
1.0
 40
1.0
 40
1.0
 10
117.0731806128
 20
813.5798134208
 30
0.0
 10
117.071313258
 20
813.5793362795
 30
0.0
 10
117.0667307721
 20
813.5874381396
 30
0.0
 10
117.0616743614
 20
813.5990289144
 30
0.0
 10
117.0535178404
 20
813.6227679013
 30
0.0
 10
117.0441033363
 20
813.6538733392
 30
0.0
 10
117.0327616949
 20
813.6943705876
 30
0.0
 10
117.0143525894
 20
813.764193617
 30
0.0
 10
116.9883295996
 20
813.869949832
 30
0.0
 10
116.9544278908
 20
814.0157164322
 30
0.0
 10
116.9173403228
 20
814.1824191477
 30
0.0
 10
116.8785244662
 20
814.3635770027
 30
0.0
 10
116.8526611054
 20
814.4885429444
 30
0.0
 10
116.8396928312
 20
814.5522840484
 30
0.0
  0
SPLINE
  5
56B
100
AcDbEntity
  8
_1
100
AcDbSpline
 62
7
  6
CONTINUOUS
 70
0
 71
3
 72
14
 73
10
 74
0
 42
0.0000001
 43
0.0000001
 44
0.0000000001
 40
0.0
 40
0.0
 40
0.0
 40
0.0
 40
0.025831246
 40
0.0868971651
 40
0.1813729401
 40
0.3059052421
 40
0.4558329979
 40
0.6257241583
 40
1.0
 40
1.0
 40
1.0
 40
1.0
 10
113.6986368879
 20
803.8627842853
 30
0.0
 10
113.6988439203
 20
803.866228901
 30
0.0
 10
113.6901963495
 20
803.8760186053
 30
0.0
 10
113.6778628283
 20
803.8955839058
 30
0.0
 10
113.6538887108
 20
803.9251259175
 30
0.0
 10
113.6236886893
 20
803.96375453
 30
0.0
 10
113.5864774508
 20
804.0101217105
 30
0.0
 10
113.5286295099
 20
804.0825406688
 30
0.0
 10
113.4834129214
 20
804.1394849423
 30
0.0
 10
113.4526128651
 20
804.1788722387
 30
0.0
  0
SPLINE
  5
56C
100
AcDbEntity
  8
_1
100
AcDbSpline
 62
7
  6
CONTINUOUS
 70
0
 71
3
 72
18
 73
14
 74
0
 42
0.0000001
 43
0.0000001
 44
0.0000000001
 40
0.0
 40
0.0
 40
0.0
 40
0.0
 40
0.0057631253
 40
0.0203803881
 40
0.0443199702
 40
0.0774180759
 40
0.1193400525
 40
0.1697002316
 40
0.2938850562
 40
0.4452277325
 40
0.6178174506
 40
0.805205059
 40
1.0
 40
1.0
 40
1.0
 40
1.0
 10
117.0731821941
 20
802.6285122604
 30
0.0
 10
117.0713175692
 20
802.6289887033
 30
0.0
 10
117.0667294667
 20
802.6209025493
 30
0.0
 10
117.0616760745
 20
802.6092984655
 30
0.0
 10
117.0535132107
 20
802.5855324754
 30
0.0
 10
117.044095355
 20
802.5543919307
 30
0.0
 10
117.0327499335
 20
802.5138833809
 30
0.0
 10
117.014340047
 20
802.4440715461
 30
0.0
 10
116.9883258598
 20
802.3383352433
 30
0.0
 10
116.9544292527
 20
802.1926027037
 30
0.0
 10
116.9173423737
 20
802.0259190758
 30
0.0
 10
116.8785343844
 20
801.8447702171
 30
0.0
 10
116.8526616395
 20
801.7197928103
 30
0.0
 10
116.8396928312
 20
801.6560490811
 30
0.0
  0
SPLINE
  5
56D
100
AcDbEntity
  8
_1
100
AcDbSpline
 62
7
  6
CONTINUOUS
 70
0
 71
3
 72
14
 73
10
 74
0
 42
0.0000001
 43
0.0000001
 44
0.0000000001
 40
0.0
 40
0.0
 40
0.0
 40
0.0
 40
0.3742677516
 40
0.5441590148
 40
0.6940825585
 40
0.8186069464
 40
0.9130746553
 40
0.9741460972
 40
1.0
 40
1.0
 40
1.0
 40
1.0
 10
117.5827430835
 20
801.7943404453
 30
0.0
 10
117.5332325353
 20
801.8013204453
 30
0.0
 10
117.4613003806
 20
801.8119515284
 30
0.0
 10
117.3696596852
 20
801.8258459995
 30
0.0
 10
117.3109067471
 20
801.8349333564
 30
0.0
 10
117.2623618645
 20
801.8418343131
 30
0.0
 10
117.2247992852
 20
801.8478475352
 30
0.0
 10
117.2016745884
 20
801.8487422513
 30
0.0
 10
117.1888730782
 20
801.8512628392
 30
0.0
 10
117.1859908746
 20
801.8493595223
 30
0.0
  0
SPLINE
  5
56E
100
AcDbEntity
  8
_1
100
AcDbSpline
 62
7
  6
CONTINUOUS
 70
0
 71
3
 72
14
 73
10
 74
0
 42
0.0000001
 43
0.0000001
 44
0.0000000001
 40
0.0
 40
0.0
 40
0.0
 40
0.0
 40
0.025831246
 40
0.0868971651
 40
0.1813729401
 40
0.3059052421
 40
0.4558329979
 40
0.6257241583
 40
1.0
 40
1.0
 40
1.0
 40
1.0
 10
118.3186210896
 20
801.7203126098
 30
0.0
 10
118.3162430528
 20
801.722813246
 30
0.0
 10
118.3031856873
 20
801.7231653753
 30
0.0
 10
118.2804650911
 20
801.7274887118
 30
0.0
 10
118.2425091226
 20
801.7301027558
 30
0.0
 10
118.1936615787
 20
801.7343605086
 30
0.0
 10
118.1343727661
 20
801.7387682727
 30
0.0
 10
118.041956692
 20
801.7458505777
 30
0.0
 10
117.9694726476
 20
801.7516171595
 30
0.0
 10
117.9196610147
 20
801.7559534958
 30
0.0
  0
SPLINE
  5
56F
100
AcDbEntity
  8
_1
100
AcDbSpline
 62
7
  6
CONTINUOUS
 70
0
 71
3
 72
14
 73
10
 74
0
 42
0.0000001
 43
0.0000001
 44
0.0000000001
 40
0.0
 40
0.0
 40
0.0
 40
0.0
 40
0.3742677516
 40
0.5441590148
 40
0.6940825585
 40
0.8186069464
 40
0.9130746553
 40
0.9741460972
 40
1.0
 40
1.0
 40
1.0
 40
1.0
 10
124.2463373987
 20
805.4086618092
 30
0.0
 10
124.2251869081
 20
805.363355391
 30
0.0
 10
124.1939894261
 20
805.2976745573
 30
0.0
 10
124.153908931
 20
805.2141004746
 30
0.0
 10
124.1280409517
 20
805.1605716465
 30
0.0
 10
124.1072483839
 20
805.1161655889
 30
0.0
 10
124.0905156757
 20
805.0820024116
 30
0.0
 10
124.0828990474
 20
805.0601497438
 30
0.0
 10
124.0767457978
 20
805.0486445473
 30
0.0
 10
124.0777232741
 20
805.0453318063
 30
0.0
  0
SPLINE
  5
570
100
AcDbEntity
  8
_1
100
AcDbSpline
 62
7
  6
CONTINUOUS
 70
0
 71
3
 72
14
 73
10
 74
0
 42
0.0000001
 43
0.0000001
 44
0.0000000001
 40
0.0
 40
0.0
 40
0.0
 40
0.0
 40
0.025831246
 40
0.0868971651
 40
0.1813729401
 40
0.3059052421
 40
0.4558329979
 40
0.6257241583
 40
1.0
 40
1.0
 40
1.0
 40
1.0
 10
124.0777232741
 20
811.1630013232
 30
0.0
 10
124.0767466779
 20
811.1596915649
 30
0.0
 10
124.0829704078
 20
811.1482074899
 30
0.0
 10
124.0905865866
 20
811.1263692082
 30
0.0
 10
124.1073007424
 20
811.0921913533
 30
0.0
 10
124.1280371922
 20
811.047759263
 30
0.0
 10
124.1538643629
 20
810.994209763
 30
0.0
 10
124.1939389439
 20
810.9106339427
 30
0.0
 10
124.2251869597
 20
810.8449776279
 30
0.0
 10
124.2463373987
 20
810.7996713203
 30
0.0
  0
SPLINE
  5
571
100
AcDbEntity
  8
_1
100
AcDbSpline
 62
7
  6
CONTINUOUS
 70
0
 71
3
 72
14
 73
10
 74
0
 42
0.0000001
 43
0.0000001
 44
0.0000000001
 40
0.0
 40
0.0
 40
0.0
 40
0.0
 40
0.025831246
 40
0.0868971649
 40
0.1813729395
 40
0.3059052412
 40
0.4558329963
 40
0.625724156
 40
1.0
 40
1.0
 40
1.0
 40
1.0
 10
124.532280477
 20
806.0907418018
 30
0.0
 10
124.5291938361
 20
806.0891987892
 30
0.0
 10
124.5250394888
 20
806.0768149212
 30
0.0
 10
124.5142622022
 20
806.0563511283
 30
0.0
 10
124.5006651282
 20
806.0208179278
 30
0.0
 10
124.4823117794
 20
805.9753496359
 30
0.0
 10
124.4607622427
 20
805.919940168
 30
0.0
 10
124.4269695559
 20
805.8336329022
 30
0.0
 10
124.4002626623
 20
805.7660020511
 30
0.0
 10
124.3815522921
 20
805.719634771
 30
0.0
  0
SPLINE
  5
572
100
AcDbEntity
  8
_1
100
AcDbSpline
 62
7
  6
CONTINUOUS
 70
0
 71
3
 72
14
 73
10
 74
0
 42
0.0000001
 43
0.0000001
 44
0.0000000001
 40
0.0
 40
0.0
 40
0.0
 40
0.0
 40
0.025831246
 40
0.0868971651
 40
0.1813729401
 40
0.3059052421
 40
0.4558329979
 40
0.6257241583
 40
1.0
 40
1.0
 40
1.0
 40
1.0
 10
117.1859908746
 20
814.3589736072
 30
0.0
 10
117.1888704832
 20
814.357072004
 30
0.0
 10
117.2016724012
 20
814.3596661679
 30
0.0
 10
117.224783209
 20
814.3605646603
 30
0.0
 10
117.2623544004
 20
814.3665558492
 30
0.0
 10
117.3109077709
 20
814.3733955288
 30
0.0
 10
117.3696685464
 20
814.3824378164
 30
0.0
 10
117.4613091744
 20
814.3963261237
 30
0.0
 10
117.5332326561
 20
814.4070127012
 30
0.0
 10
117.5827430835
 20
814.4139926842
 30
0.0
  0
SPLINE
  5
573
100
AcDbEntity
  8
_1
100
AcDbSpline
 62
7
  6
CONTINUOUS
 70
0
 71
3
 72
18
 73
14
 74
0
 42
0.0000001
 43
0.0000001
 44
0.0000000001
 40
0.0
 40
0.0
 40
0.0
 40
0.0
 40
0.0057715324
 40
0.020393751
 40
0.0442983662
 40
0.0773421697
 40
0.1192497131
 40
0.169641193
 40
0.2938406054
 40
0.4451994756
 40
0.6178588478
 40
0.8052141312
 40
1.0
 40
1.0
 40
1.0
 40
1.0
 10
114.4298145339
 20
804.1546678259
 30
0.0
 10
114.4311614278
 20
804.1532892199
 30
0.0
 10
114.426436254
 20
804.1452697407
 30
0.0
 10
114.418926554
 20
804.1350953731
 30
0.0
 10
114.4024462487
 20
804.1161621253
 30
0.0
 10
114.3802154014
 20
804.0924562066
 30
0.0
 10
114.3508145762
 20
804.0623854329
 30
0.0
 10
114.2995506117
 20
804.0115311651
 30
0.0
 10
114.2209745379
 20
803.9361164874
 30
0.0
 10
114.1116878134
 20
803.8338734462
 30
0.0
 10
113.985862811
 20
803.7184033124
 30
0.0
 10
113.8483834347
 20
803.594208867
 30
0.0
 10
113.753091435
 20
803.5093275687
 30
0.0
 10
113.7043741568
 20
803.4662261618
 30
0.0
  0
SPLINE
  5
574
100
AcDbEntity
  8
_1
100
AcDbSpline
 62
7
  6
CONTINUOUS
 70
0
 71
3
 72
14
 73
10
 74
0
 42
0.0000001
 43
0.0000001
 44
0.0000000001
 40
0.0
 40
0.0
 40
0.0
 40
0.0
 40
0.025831246
 40
0.0868971651
 40
0.1813729401
 40
0.3059052421
 40
0.4558329979
 40
0.6257241583
 40
1.0
 40
1.0
 40
1.0
 40
1.0
 10
113.0205638759
 20
811.4291857613
 30
0.0
 10
113.0239185088
 20
811.4299948834
 30
0.0
 10
113.0307521445
 20
811.441126829
 30
0.0
 10
113.0458565618
 20
811.4586417742
 30
0.0
 10
113.0670983745
 20
811.4902055852
 30
0.0
 10
113.0952094686
 20
811.5303799227
 30
0.0
 10
113.1286711106
 20
811.5795216586
 30
0.0
 10
113.1810126037
 20
811.6560151739
 30
0.0
 10
113.2222486322
 20
811.7159049069
 30
0.0
 10
113.2509098261
 20
811.7568748781
 30
0.0
  0
SPLINE
  5
575
100
AcDbEntity
  8
_1
100
AcDbSpline
 62
7
  6
CONTINUOUS
 70
0
 71
3
 72
18
 73
14
 74
0
 42
0.0000001
 43
0.0000001
 44
0.0000000001
 40
0.0
 40
0.0
 40
0.0
 40
0.0
 40
0.0057656697
 40
0.0203767644
 40
0.0442765135
 40
0.0773199043
 40
0.1192275823
 40
0.1696163823
 40
0.2938192101
 40
0.4451796827
 40
0.6178375953
 40
0.8052062831
 40
1.0
 40
1.0
 40
1.0
 40
1.0
 10
123.8887005253
 20
806.5864542242
 30
0.0
 10
123.8892200185
 20
806.5883081866
 30
0.0
 10
123.8985177541
 20
806.5882342471
 30
0.0
 10
123.9110796332
 20
806.5868152464
 30
0.0
 10
123.9357098237
 20
806.5820132366
 30
0.0
 10
123.9673534582
 20
806.5746132501
 30
0.0
 10
124.0080943998
 20
806.5641875483
 30
0.0
 10
124.0777670791
 20
806.5452190388
 30
0.0
 10
124.1823656079
 20
806.5148775469
 30
0.0
 10
124.3255536988
 20
806.4713546037
 30
0.0
 10
124.488468635
 20
806.4201210181
 30
0.0
 10
124.664768158
 20
806.3631563017
 30
0.0
 10
124.7859288873
 20
806.3230699544
 30
0.0
 10
124.8476162171
 20
806.3024296626
 30
0.0
  0
SPLINE
  5
576
100
AcDbEntity
  8
_1
100
AcDbSpline
 62
7
  6
CONTINUOUS
 70
0
 71
3
 72
18
 73
14
 74
0
 42
0.0000001
 43
0.0000001
 44
0.0000000001
 40
0.0
 40
0.0
 40
0.0
 40
0.0
 40
0.1961851386
 40
0.3838920327
 40
0.5561976797
 40
0.7068594075
 40
0.8303599799
 40
0.8804858119
 40
0.9222220512
 40
0.9552082744
 40
0.9791746928
 40
0.993974697
 40
1.0
 40
1.0
 40
1.0
 40
1.0
 10
858.9144888221
 20
814.5348581111
 30
0.0
 10
858.9270565652
 20
814.4726980598
 30
0.0
 10
858.9512485489
 20
814.3509823243
 30
0.0
 10
858.9850753489
 20
814.1744000633
 30
0.0
 10
859.0148673637
 20
814.0120236741
 30
0.0
 10
859.0395376524
 20
813.8698428291
 30
0.0
 10
859.0561463235
 20
813.7662843029
 30
0.0
 10
859.0660055166
 20
813.6974444791
 30
0.0
 10
859.0711530847
 20
813.6572464842
 30
0.0
 10
859.0744454948
 20
813.6259526944
 30
0.0
 10
859.0762019727
 20
813.6017981058
 30
0.0
 10
859.0759287475
 20
813.5891593619
 30
0.0
 10
859.075067693
 20
813.5802956023
 30
0.0
 10
859.0731806128
 20
813.5798134208
 30
0.0
  0
SPLINE
  5
577
100
AcDbEntity
  8
_1
100
AcDbSpline
 62
7
  6
CONTINUOUS
 70
0
 71
3
 72
18
 73
14
 74
0
 42
0.0000001
 43
0.0000001
 44
0.0000000001
 40
0.0
 40
0.0
 40
0.0
 40
0.0
 40
0.1948252962
 40
0.3819800827
 40
0.5543057934
 40
0.7053504164
 40
0.8293920425
 40
0.879791141
 40
0.9217780376
 40
0.9549723528
 40
0.9790888722
 40
0.9939701879
 40
1.0
 40
1.0
 40
1.0
 40
1.0
 10
866.8203272591
 20
806.2379143382
 30
0.0
 10
866.7589736702
 20
806.258462843
 30
0.0
 10
866.6388162815
 20
806.2991546549
 30
0.0
 10
866.4648705278
 20
806.3594183398
 30
0.0
 10
866.305093028
 20
806.4161758857
 30
0.0
 10
866.1655770025
 20
806.4672501427
 30
0.0
 10
866.0644938197
 20
806.505711771
 30
0.0
 10
865.9978211007
 20
806.5323542174
 30
0.0
 10
865.9591588945
 20
806.5484617391
 30
0.0
 10
865.9294291125
 20
806.5616400353
 30
0.0
 10
865.9068502251
 20
806.5724933968
 30
0.0
 10
865.895706744
 20
806.5792381548
 30
0.0
 10
865.8881602068
 20
806.5845259406
 30
0.0
 10
865.8887005253
 20
806.5864542242
 30
0.0
  0
SPLINE
  5
578
100
AcDbEntity
  8
_1
100
AcDbSpline
 62
7
  6
CONTINUOUS
 70
0
 71
3
 72
18
 73
14
 74
0
 42
0.0000001
 43
0.0000001
 44
0.0000000001
 40
0.0
 40
0.0
 40
0.0
 40
0.0
 40
0.1948174372
 40
0.3819733132
 40
0.5542951451
 40
0.7053335133
 40
0.8293619054
 40
0.8797507088
 40
0.921725172
 40
0.954912298
 40
0.9790418973
 40
0.9939547675
 40
1.0
 40
1.0
 40
1.0
 40
1.0
 10
866.8203269802
 20
809.9704189359
 30
0.0
 10
866.7589760732
 20
809.9498713293
 30
0.0
 10
866.6388217433
 20
809.9091788217
 30
0.0
 10
866.464879779
 20
809.8489169455
 30
0.0
 10
866.3051052504
 20
809.7921616424
 30
0.0
 10
866.1655968763
 20
809.7410907302
 30
0.0
 10
866.0645230085
 20
809.7026329656
 30
0.0
 10
865.9978622019
 20
809.6759942406
 30
0.0
 10
865.9592087379
 20
809.6598905547
 30
0.0
 10
865.92948357
 20
809.6467110818
 30
0.0
 10
865.9068871877
 20
809.6358557705
 30
0.0
 10
865.8957383854
 20
809.6291010927
 30
0.0
 10
865.8881564765
 20
809.6238146728
 30
0.0
 10
865.8886981746
 20
809.6218814643
 30
0.0
  0
SPLINE
  5
579
100
AcDbEntity
  8
_1
100
AcDbSpline
 62
7
  6
CONTINUOUS
 70
0
 71
3
 72
18
 73
14
 74
0
 42
0.0000001
 43
0.0000001
 44
0.0000000001
 40
0.0
 40
0.0
 40
0.0
 40
0.0
 40
0.1961837283
 40
0.3839021724
 40
0.556203328
 40
0.7068560561
 40
0.8303413949
 40
0.8804566205
 40
0.9221822752
 40
0.9551613333
 40
0.9791372399
 40
0.9939623495
 40
1.0
 40
1.0
 40
1.0
 40
1.0
 10
855.6820674774
 20
812.6686185136
 30
0.0
 10
855.7296149398
 20
812.626655253
 30
0.0
 10
855.8229303252
 20
812.544846352
 30
0.0
 10
855.9589412823
 20
812.4272600925
 30
0.0
 10
856.0846649692
 20
812.3202721107
 30
0.0
 10
856.1954534486
 20
812.2278232759
 30
0.0
 10
856.2768238417
 20
812.161668092
 30
0.0
 10
856.3315019771
 20
812.1187186175
 30
0.0
 10
856.3637332062
 20
812.0941670306
 30
0.0
 10
856.3891861404
 20
812.0756730384
 30
0.0
 10
856.409233678
 20
812.0620640661
 30
0.0
 10
856.4203240453
 20
812.055981797
 30
0.0
 10
856.4284436838
 20
812.0522711792
 30
0.0
 10
856.4298075802
 20
812.0536671879
 30
0.0
  0
SPLINE
  5
57A
100
AcDbEntity
  8
_1
100
AcDbSpline
 62
7
  6
CONTINUOUS
 70
0
 71
3
 72
18
 73
14
 74
0
 42
0.0000001
 43
0.0000001
 44
0.0000000001
 40
0.0
 40
0.0
 40
0.0
 40
0.0
 40
0.1961851386
 40
0.3838920327
 40
0.5561976797
 40
0.7068594075
 40
0.8303599799
 40
0.8804858119
 40
0.9222220512
 40
0.9552082744
 40
0.9791746928
 40
0.993974697
 40
1.0
 40
1.0
 40
1.0
 40
1.0
 10
855.6820674657
 20
803.5397143587
 30
0.0
 10
855.7296157777
 20
803.5816783691
 30
0.0
 10
855.8229287048
 20
803.6634871093
 30
0.0
 10
855.9589400287
 20
803.7810731079
 30
0.0
 10
856.0846660993
 20
803.8880619442
 30
0.0
 10
856.1954631787
 20
803.9805174634
 30
0.0
 10
856.2768431576
 20
804.0466802576
 30
0.0
 10
856.3315305972
 20
804.0896384812
 30
0.0
 10
856.3637692979
 20
804.1141954034
 30
0.0
 10
856.3892243099
 20
804.1326936091
 30
0.0
 10
856.4092645583
 20
804.1462920579
 30
0.0
 10
856.4203466441
 20
804.1523748099
 30
0.0
 10
856.4284534123
 20
804.1560609946
 30
0.0
 10
856.4298145339
 20
804.1546678259
 30
0.0
  0
SPLINE
  5
57B
100
AcDbEntity
  8
_1
100
AcDbSpline
 62
7
  6
CONTINUOUS
 70
0
 71
3
 72
18
 73
14
 74
0
 42
0.0000001
 43
0.0000001
 44
0.0000000001
 40
0.0
 40
0.0
 40
0.0
 40
0.0
 40
0.1961844557
 40
0.3839036174
 40
0.5562053414
 40
0.7068583746
 40
0.8303436501
 40
0.8804586878
 40
0.9221840503
 40
0.9551626984
 40
0.9791380482
 40
0.9939625756
 40
1.0
 40
1.0
 40
1.0
 40
1.0
 10
858.9144889923
 20
801.6734751273
 30
0.0
 10
858.9270565523
 20
801.7356342729
 30
0.0
 10
858.9512475492
 20
801.8573526215
 30
0.0
 10
858.9850748778
 20
802.0339352602
 30
0.0
 10
859.0148674239
 20
802.196309597
 30
0.0
 10
859.0395362501
 20
802.3384798544
 30
0.0
 10
859.0561430932
 20
802.4420262503
 30
0.0
 10
859.0659993023
 20
802.5108534487
 30
0.0
 10
859.0711458991
 20
802.551041999
 30
0.0
 10
859.074435642
 20
802.5823314979
 30
0.0
 10
859.0761973978
 20
802.6064970793
 30
0.0
 10
859.0759196598
 20
802.6191424826
 30
0.0
 10
859.0750730497
 20
802.6280291141
 30
0.0
 10
859.0731821941
 20
802.6285122604
 30
0.0
  0
SPLINE
  5
57C
100
AcDbEntity
  8
_1
100
AcDbSpline
 62
7
  6
CONTINUOUS
 70
0
 71
3
 72
14
 73
10
 74
0
 42
0.0000001
 43
0.0000001
 44
0.0000000001
 40
0.0
 40
0.0
 40
0.0
 40
0.0
 40
0.3742677517
 40
0.5441590149
 40
0.6940825585
 40
0.8186069464
 40
0.9130746553
 40
0.9741460972
 40
1.0
 40
1.0
 40
1.0
 40
1.0
 10
855.4526128651
 20
812.0294608909
 30
0.0
 10
855.4834129966
 20
812.0688482834
 30
0.0
 10
855.5285858619
 20
812.1258278151
 30
0.0
 10
855.5864391746
 20
812.1982437498
 30
0.0
 10
855.6236855256
 20
812.2445816083
 30
0.0
 10
855.6539343706
 20
812.2831722315
 30
0.0
 10
855.6779232634
 20
812.3126957684
 30
0.0
 10
855.6902604587
 20
812.3322749852
 30
0.0
 10
855.6988441069
 20
812.3421011243
 30
0.0
 10
855.6986368879
 20
812.3455488442
 30
0.0
  0
SPLINE
  5
57D
100
AcDbEntity
  8
_1
100
AcDbSpline
 62
7
  6
CONTINUOUS
 70
0
 71
3
 72
18
 73
14
 74
0
 42
0.0000001
 43
0.0000001
 44
0.0000000001
 40
0.0
 40
0.0
 40
0.0
 40
0.0
 40
0.0057630601
 40
0.0203801161
 40
0.0443194304
 40
0.0774172724
 40
0.1193390359
 40
0.1696990782
 40
0.2938838074
 40
0.4452265916
 40
0.6178165895
 40
0.8052045967
 40
1.0
 40
1.0
 40
1.0
 40
1.0
 10
856.4298075802
 20
812.0536671879
 30
0.0
 10
856.4311524899
 20
812.0550437641
 30
0.0
 10
856.4264439063
 20
812.063060176
 30
0.0
 10
856.4189212268
 20
812.0732384996
 30
0.0
 10
856.4024209381
 20
812.0921905851
 30
0.0
 10
856.3801615271
 20
812.1159168184
 30
0.0
 10
856.3507529565
 20
812.145996405
 30
0.0
 10
856.2994991699
 20
812.196845695
 30
0.0
 10
856.2209359406
 20
812.2722428228
 30
0.0
 10
856.1116760399
 20
812.3744645522
 30
0.0
 10
855.9858669654
 20
812.4899247964
 30
0.0
 10
855.8483910895
 20
812.6141082606
 30
0.0
 10
855.7530935848
 20
812.6990036589
 30
0.0
 10
855.7043741568
 20
812.7421069677
 30
0.0
  0
SPLINE
  5
57E
100
AcDbEntity
  8
_1
100
AcDbSpline
 62
7
  6
CONTINUOUS
 70
0
 71
3
 72
18
 73
14
 74
0
 42
0.0000001
 43
0.0000001
 44
0.0000000001
 40
0.0
 40
0.0
 40
0.0
 40
0.0
 40
0.0057583159
 40
0.0203675712
 40
0.0443061179
 40
0.077406584
 40
0.1193300396
 40
0.1696882955
 40
0.2938708685
 40
0.445213974
 40
0.6178088536
 40
0.8052019206
 40
1.0
 40
1.0
 40
1.0
 40
1.0
 10
865.8886981746
 20
809.6218814643
 30
0.0
 10
865.8892170072
 20
809.6200298619
 30
0.0
 10
865.8985064303
 20
809.6200926156
 30
0.0
 10
865.9110801222
 20
809.6215209691
 30
0.0
 10
865.9357405478
 20
809.6263326487
 30
0.0
 10
865.9674188911
 20
809.6337480814
 30
0.0
 10
866.0081734354
 20
809.6441767669
 30
0.0
 10
866.0778362382
 20
809.6631386965
 30
0.0
 10
866.1824121078
 20
809.6934772268
 30
0.0
 10
866.3255691791
 20
809.7369880297
 30
0.0
 10
866.4884677597
 20
809.7882127976
 30
0.0
 10
866.6647550478
 20
809.8451796781
 30
0.0
 10
866.7859273444
 20
809.8852626589
 30
0.0
 10
866.8476162171
 20
809.905903467
 30
0.0
  0
SPLINE
  5
57F
100
AcDbEntity
  8
_1
100
AcDbSpline
 62
7
  6
CONTINUOUS
 70
0
 71
3
 72
14
 73
10
 74
0
 42
0.0000001
 43
0.0000001
 44
0.0000000001
 40
0.0
 40
0.0
 40
0.0
 40
0.0
 40
0.3742677516
 40
0.5441590149
 40
0.6940825585
 40
0.8186069464
 40
0.9130746553
 40
0.9741460972
 40
1.0
 40
1.0
 40
1.0
 40
1.0
 10
866.381552291
 20
810.4886983581
 30
0.0
 10
866.4002627077
 20
810.4423309656
 30
0.0
 10
866.427021997
 20
810.3747203508
 30
0.0
 10
866.4608093798
 20
810.288409945
 30
0.0
 10
866.4823159669
 20
810.2329847296
 30
0.0
 10
866.5006120044
 20
810.1874931497
 30
0.0
 10
866.514185691
 20
810.1519563907
 30
0.0
 10
866.5249731925
 20
810.1314824578
 30
0.0
 10
866.5291910544
 20
810.1191357308
 30
0.0
 10
866.532280477
 20
810.1175913277
 30
0.0
  0
SPLINE
  5
580
100
AcDbEntity
  8
_1
100
AcDbSpline
 62
7
  6
CONTINUOUS
 70
0
 71
3
 72
14
 73
10
 74
0
 42
0.0000001
 43
0.0000001
 44
0.0000000001
 40
0.0
 40
0.0
 40
0.0
 40
0.0
 40
0.3742677516
 40
0.5441590148
 40
0.6940825585
 40
0.8186069464
 40
0.9130746553
 40
0.9741460972
 40
1.0
 40
1.0
 40
1.0
 40
1.0
 10
859.9196610147
 20
814.4523796337
 30
0.0
 10
859.9694727692
 20
814.4567159806
 30
0.0
 10
860.0419527807
 20
814.4625385855
 30
0.0
 10
860.134370307
 20
814.4696148999
 30
0.0
 10
860.1936616216
 20
814.4739769867
 30
0.0
 10
860.2425146795
 20
814.4781731236
 30
0.0
 10
860.280467213
 20
814.4807637619
 30
0.0
 10
860.3032004926
 20
814.4850939022
 30
0.0
 10
860.3162409098
 20
814.48551763
 30
0.0
 10
860.3186210896
 20
814.4880205197
 30
0.0
  0
SPLINE
  5
581
100
AcDbEntity
  8
_1
100
AcDbSpline
 62
7
  6
CONTINUOUS
 70
0
 71
3
 72
14
 73
10
 74
0
 42
0.0000001
 43
0.0000001
 44
0.0000000001
 40
0.0
 40
0.0
 40
0.0
 40
0.0
 40
0.3742677516
 40
0.5441590148
 40
0.6940825585
 40
0.8186069464
 40
0.9130746553
 40
0.9741460972
 40
1.0
 40
1.0
 40
1.0
 40
1.0
 10
855.2509098261
 20
804.4514582514
 30
0.0
 10
855.2222485623
 20
804.4924283227
 30
0.0
 10
855.1809660328
 20
804.5522865515
 30
0.0
 10
855.1286290016
 20
804.6287843198
 30
0.0
 10
855.0952056663
 20
804.677951061
 30
0.0
 10
855.0671451762
 20
804.7181609818
 30
0.0
 10
855.0459253509
 20
804.7497335208
 30
0.0
 10
855.0308086996
 20
804.7672560483
 30
0.0
 10
855.0239215319
 20
804.778337517
 30
0.0
 10
855.0205638759
 20
804.7791473682
 30
0.0
  0
SPLINE
  5
582
100
AcDbEntity
  8
_1
100
AcDbSpline
 62
7
  6
CONTINUOUS
 70
0
 71
3
 72
18
 73
14
 74
0
 42
0.0000001
 43
0.0000001
 44
0.0000000001
 40
0.0
 40
0.0
 40
0.0
 40
0.0
 40
0.0057715324
 40
0.020393751
 40
0.0442983662
 40
0.0773421697
 40
0.1192497131
 40
0.169641193
 40
0.2938406054
 40
0.4451994756
 40
0.6178588478
 40
0.8052141312
 40
1.0
 40
1.0
 40
1.0
 40
1.0
 10
859.0731806128
 20
813.5798134208
 30
0.0
 10
859.071313258
 20
813.5793362795
 30
0.0
 10
859.0667307721
 20
813.5874381396
 30
0.0
 10
859.0616743614
 20
813.5990289144
 30
0.0
 10
859.0535178404
 20
813.6227679013
 30
0.0
 10
859.0441033363
 20
813.6538733392
 30
0.0
 10
859.0327616949
 20
813.6943705876
 30
0.0
 10
859.0143525894
 20
813.764193617
 30
0.0
 10
858.9883295996
 20
813.869949832
 30
0.0
 10
858.9544278908
 20
814.0157164322
 30
0.0
 10
858.9173403228
 20
814.1824191477
 30
0.0
 10
858.8785244662
 20
814.3635770027
 30
0.0
 10
858.8526611054
 20
814.4885429444
 30
0.0
 10
858.8396928312
 20
814.5522840484
 30
0.0
  0
SPLINE
  5
583
100
AcDbEntity
  8
_1
100
AcDbSpline
 62
7
  6
CONTINUOUS
 70
0
 71
3
 72
14
 73
10
 74
0
 42
0.0000001
 43
0.0000001
 44
0.0000000001
 40
0.0
 40
0.0
 40
0.0
 40
0.0
 40
0.025831246
 40
0.0868971651
 40
0.1813729401
 40
0.3059052421
 40
0.4558329979
 40
0.6257241583
 40
1.0
 40
1.0
 40
1.0
 40
1.0
 10
855.6986368879
 20
803.8627842853
 30
0.0
 10
855.6988439203
 20
803.866228901
 30
0.0
 10
855.6901963495
 20
803.8760186053
 30
0.0
 10
855.6778628283
 20
803.8955839058
 30
0.0
 10
855.6538887108
 20
803.9251259175
 30
0.0
 10
855.6236886893
 20
803.96375453
 30
0.0
 10
855.5864774508
 20
804.0101217105
 30
0.0
 10
855.5286295099
 20
804.0825406688
 30
0.0
 10
855.4834129214
 20
804.1394849423
 30
0.0
 10
855.4526128651
 20
804.1788722387
 30
0.0
  0
SPLINE
  5
584
100
AcDbEntity
  8
_1
100
AcDbSpline
 62
7
  6
CONTINUOUS
 70
0
 71
3
 72
18
 73
14
 74
0
 42
0.0000001
 43
0.0000001
 44
0.0000000001
 40
0.0
 40
0.0
 40
0.0
 40
0.0
 40
0.0057631253
 40
0.0203803881
 40
0.0443199702
 40
0.0774180759
 40
0.1193400525
 40
0.1697002316
 40
0.2938850562
 40
0.4452277325
 40
0.6178174506
 40
0.805205059
 40
1.0
 40
1.0
 40
1.0
 40
1.0
 10
859.0731821941
 20
802.6285122604
 30
0.0
 10
859.0713175692
 20
802.6289887033
 30
0.0
 10
859.0667294667
 20
802.6209025493
 30
0.0
 10
859.0616760745
 20
802.6092984655
 30
0.0
 10
859.0535132107
 20
802.5855324754
 30
0.0
 10
859.044095355
 20
802.5543919307
 30
0.0
 10
859.0327499335
 20
802.513883381
 30
0.0
 10
859.014340047
 20
802.4440715461
 30
0.0
 10
858.9883258598
 20
802.3383352433
 30
0.0
 10
858.9544292527
 20
802.1926027037
 30
0.0
 10
858.9173423737
 20
802.0259190758
 30
0.0
 10
858.8785343844
 20
801.8447702171
 30
0.0
 10
858.8526616395
 20
801.7197928103
 30
0.0
 10
858.8396928312
 20
801.6560490811
 30
0.0
  0
SPLINE
  5
585
100
AcDbEntity
  8
_1
100
AcDbSpline
 62
7
  6
CONTINUOUS
 70
0
 71
3
 72
14
 73
10
 74
0
 42
0.0000001
 43
0.0000001
 44
0.0000000001
 40
0.0
 40
0.0
 40
0.0
 40
0.0
 40
0.3742677516
 40
0.5441590148
 40
0.6940825585
 40
0.8186069464
 40
0.9130746552
 40
0.9741460972
 40
1.0
 40
1.0
 40
1.0
 40
1.0
 10
859.5827430835
 20
801.7943404453
 30
0.0
 10
859.5332325353
 20
801.8013204453
 30
0.0
 10
859.4613003806
 20
801.8119515284
 30
0.0
 10
859.3696596852
 20
801.8258459995
 30
0.0
 10
859.3109067471
 20
801.8349333564
 30
0.0
 10
859.2623618645
 20
801.8418343131
 30
0.0
 10
859.2247992852
 20
801.8478475352
 30
0.0
 10
859.2016745884
 20
801.8487422513
 30
0.0
 10
859.1888730782
 20
801.8512628392
 30
0.0
 10
859.1859908746
 20
801.8493595223
 30
0.0
  0
SPLINE
  5
586
100
AcDbEntity
  8
_1
100
AcDbSpline
 62
7
  6
CONTINUOUS
 70
0
 71
3
 72
14
 73
10
 74
0
 42
0.0000001
 43
0.0000001
 44
0.0000000001
 40
0.0
 40
0.0
 40
0.0
 40
0.0
 40
0.025831246
 40
0.0868971651
 40
0.1813729401
 40
0.3059052421
 40
0.4558329979
 40
0.6257241583
 40
1.0
 40
1.0
 40
1.0
 40
1.0
 10
860.3186210896
 20
801.7203126098
 30
0.0
 10
860.3162430528
 20
801.722813246
 30
0.0
 10
860.3031856873
 20
801.7231653753
 30
0.0
 10
860.2804650911
 20
801.7274887118
 30
0.0
 10
860.2425091226
 20
801.7301027558
 30
0.0
 10
860.1936615787
 20
801.7343605086
 30
0.0
 10
860.1343727661
 20
801.7387682727
 30
0.0
 10
860.041956692
 20
801.7458505777
 30
0.0
 10
859.9694726476
 20
801.7516171595
 30
0.0
 10
859.9196610147
 20
801.7559534958
 30
0.0
  0
SPLINE
  5
587
100
AcDbEntity
  8
_1
100
AcDbSpline
 62
7
  6
CONTINUOUS
 70
0
 71
3
 72
14
 73
10
 74
0
 42
0.0000001
 43
0.0000001
 44
0.0000000001
 40
0.0
 40
0.0
 40
0.0
 40
0.0
 40
0.3742677516
 40
0.5441590148
 40
0.6940825585
 40
0.8186069464
 40
0.9130746553
 40
0.9741460972
 40
1.0
 40
1.0
 40
1.0
 40
1.0
 10
866.2463373987
 20
805.4086618092
 30
0.0
 10
866.2251869081
 20
805.363355391
 30
0.0
 10
866.1939894261
 20
805.2976745573
 30
0.0
 10
866.153908931
 20
805.2141004746
 30
0.0
 10
866.1280409517
 20
805.1605716465
 30
0.0
 10
866.1072483839
 20
805.1161655889
 30
0.0
 10
866.0905156757
 20
805.0820024116
 30
0.0
 10
866.0828990474
 20
805.0601497438
 30
0.0
 10
866.0767457978
 20
805.0486445473
 30
0.0
 10
866.0777232741
 20
805.0453318063
 30
0.0
  0
SPLINE
  5
588
100
AcDbEntity
  8
_1
100
AcDbSpline
 62
7
  6
CONTINUOUS
 70
0
 71
3
 72
14
 73
10
 74
0
 42
0.0000001
 43
0.0000001
 44
0.0000000001
 40
0.0
 40
0.0
 40
0.0
 40
0.0
 40
0.025831246
 40
0.0868971651
 40
0.1813729401
 40
0.3059052421
 40
0.4558329979
 40
0.6257241583
 40
1.0
 40
1.0
 40
1.0
 40
1.0
 10
866.0777232741
 20
811.1630013232
 30
0.0
 10
866.0767466779
 20
811.1596915649
 30
0.0
 10
866.0829704078
 20
811.1482074899
 30
0.0
 10
866.0905865866
 20
811.1263692082
 30
0.0
 10
866.1073007424
 20
811.0921913533
 30
0.0
 10
866.1280371922
 20
811.047759263
 30
0.0
 10
866.1538643629
 20
810.994209763
 30
0.0
 10
866.1939389439
 20
810.9106339427
 30
0.0
 10
866.2251869597
 20
810.8449776279
 30
0.0
 10
866.2463373987
 20
810.7996713203
 30
0.0
  0
SPLINE
  5
589
100
AcDbEntity
  8
_1
100
AcDbSpline
 62
7
  6
CONTINUOUS
 70
0
 71
3
 72
14
 73
10
 74
0
 42
0.0000001
 43
0.0000001
 44
0.0000000001
 40
0.0
 40
0.0
 40
0.0
 40
0.0
 40
0.025831246
 40
0.0868971649
 40
0.1813729395
 40
0.3059052412
 40
0.4558329963
 40
0.625724156
 40
1.0
 40
1.0
 40
1.0
 40
1.0
 10
866.532280477
 20
806.0907418018
 30
0.0
 10
866.5291938361
 20
806.0891987892
 30
0.0
 10
866.5250394888
 20
806.0768149212
 30
0.0
 10
866.5142622022
 20
806.0563511283
 30
0.0
 10
866.5006651283
 20
806.0208179278
 30
0.0
 10
866.4823117794
 20
805.9753496359
 30
0.0
 10
866.4607622427
 20
805.919940168
 30
0.0
 10
866.4269695559
 20
805.8336329022
 30
0.0
 10
866.4002626623
 20
805.7660020511
 30
0.0
 10
866.3815522921
 20
805.719634771
 30
0.0
  0
SPLINE
  5
58A
100
AcDbEntity
  8
_1
100
AcDbSpline
 62
7
  6
CONTINUOUS
 70
0
 71
3
 72
14
 73
10
 74
0
 42
0.0000001
 43
0.0000001
 44
0.0000000001
 40
0.0
 40
0.0
 40
0.0
 40
0.0
 40
0.025831246
 40
0.0868971651
 40
0.1813729401
 40
0.3059052421
 40
0.4558329979
 40
0.6257241583
 40
1.0
 40
1.0
 40
1.0
 40
1.0
 10
859.1859908746
 20
814.3589736072
 30
0.0
 10
859.1888704832
 20
814.357072004
 30
0.0
 10
859.2016724012
 20
814.3596661679
 30
0.0
 10
859.224783209
 20
814.3605646603
 30
0.0
 10
859.2623544004
 20
814.3665558492
 30
0.0
 10
859.3109077709
 20
814.3733955288
 30
0.0
 10
859.3696685464
 20
814.3824378164
 30
0.0
 10
859.4613091744
 20
814.3963261237
 30
0.0
 10
859.5332326561
 20
814.4070127012
 30
0.0
 10
859.5827430835
 20
814.4139926842
 30
0.0
  0
SPLINE
  5
58B
100
AcDbEntity
  8
_1
100
AcDbSpline
 62
7
  6
CONTINUOUS
 70
0
 71
3
 72
18
 73
14
 74
0
 42
0.0000001
 43
0.0000001
 44
0.0000000001
 40
0.0
 40
0.0
 40
0.0
 40
0.0
 40
0.0057715324
 40
0.020393751
 40
0.0442983662
 40
0.0773421697
 40
0.1192497131
 40
0.169641193
 40
0.2938406054
 40
0.4451994756
 40
0.6178588478
 40
0.8052141312
 40
1.0
 40
1.0
 40
1.0
 40
1.0
 10
856.4298145339
 20
804.1546678259
 30
0.0
 10
856.4311614278
 20
804.1532892199
 30
0.0
 10
856.426436254
 20
804.1452697407
 30
0.0
 10
856.418926554
 20
804.1350953731
 30
0.0
 10
856.4024462487
 20
804.1161621253
 30
0.0
 10
856.3802154014
 20
804.0924562066
 30
0.0
 10
856.3508145762
 20
804.0623854329
 30
0.0
 10
856.2995506117
 20
804.0115311651
 30
0.0
 10
856.2209745379
 20
803.9361164874
 30
0.0
 10
856.1116878134
 20
803.8338734462
 30
0.0
 10
855.985862811
 20
803.7184033124
 30
0.0
 10
855.8483834347
 20
803.594208867
 30
0.0
 10
855.753091435
 20
803.5093275687
 30
0.0
 10
855.7043741568
 20
803.4662261618
 30
0.0
  0
SPLINE
  5
58C
100
AcDbEntity
  8
_1
100
AcDbSpline
 62
7
  6
CONTINUOUS
 70
0
 71
3
 72
14
 73
10
 74
0
 42
0.0000001
 43
0.0000001
 44
0.0000000001
 40
0.0
 40
0.0
 40
0.0
 40
0.0
 40
0.025831246
 40
0.0868971651
 40
0.1813729401
 40
0.3059052421
 40
0.4558329979
 40
0.6257241583
 40
1.0
 40
1.0
 40
1.0
 40
1.0
 10
855.0205638759
 20
811.4291857613
 30
0.0
 10
855.0239185088
 20
811.4299948834
 30
0.0
 10
855.0307521445
 20
811.441126829
 30
0.0
 10
855.0458565618
 20
811.4586417742
 30
0.0
 10
855.0670983745
 20
811.4902055852
 30
0.0
 10
855.0952094686
 20
811.5303799227
 30
0.0
 10
855.1286711106
 20
811.5795216586
 30
0.0
 10
855.1810126037
 20
811.6560151739
 30
0.0
 10
855.2222486322
 20
811.7159049069
 30
0.0
 10
855.2509098261
 20
811.7568748781
 30
0.0
  0
SPLINE
  5
58D
100
AcDbEntity
  8
_1
100
AcDbSpline
 62
7
  6
CONTINUOUS
 70
0
 71
3
 72
18
 73
14
 74
0
 42
0.0000001
 43
0.0000001
 44
0.0000000001
 40
0.0
 40
0.0
 40
0.0
 40
0.0
 40
0.0057656697
 40
0.0203767644
 40
0.0442765135
 40
0.0773199043
 40
0.1192275823
 40
0.1696163823
 40
0.2938192101
 40
0.4451796827
 40
0.6178375953
 40
0.8052062831
 40
1.0
 40
1.0
 40
1.0
 40
1.0
 10
865.8887005253
 20
806.5864542242
 30
0.0
 10
865.8892200185
 20
806.5883081866
 30
0.0
 10
865.8985177541
 20
806.5882342471
 30
0.0
 10
865.9110796332
 20
806.5868152464
 30
0.0
 10
865.9357098237
 20
806.5820132366
 30
0.0
 10
865.9673534582
 20
806.5746132501
 30
0.0
 10
866.0080943998
 20
806.5641875483
 30
0.0
 10
866.0777670791
 20
806.5452190388
 30
0.0
 10
866.1823656079
 20
806.5148775469
 30
0.0
 10
866.3255536988
 20
806.4713546037
 30
0.0
 10
866.488468635
 20
806.4201210181
 30
0.0
 10
866.664768158
 20
806.3631563017
 30
0.0
 10
866.7859288873
 20
806.3230699544
 30
0.0
 10
866.8476162171
 20
806.3024296626
 30
0.0
  0
SPLINE
  5
58E
100
AcDbEntity
  8
_1
100
AcDbSpline
 62
7
  6
CONTINUOUS
 70
0
 71
3
 72
18
 73
14
 74
0
 42
0.0000001
 43
0.0000001
 44
0.0000000001
 40
0.0
 40
0.0
 40
0.0
 40
0.0
 40
0.1961851386
 40
0.3838920327
 40
0.5561976797
 40
0.7068594075
 40
0.8303599799
 40
0.8804858119
 40
0.9222220512
 40
0.9552082744
 40
0.9791746928
 40
0.993974697
 40
1.0
 40
1.0
 40
1.0
 40
1.0
 10
116.9144888221
 20
939.5348581111
 30
0.0
 10
116.9270565652
 20
939.4726980598
 30
0.0
 10
116.9512485489
 20
939.3509823243
 30
0.0
 10
116.9850753489
 20
939.1744000633
 30
0.0
 10
117.0148673637
 20
939.0120236741
 30
0.0
 10
117.0395376524
 20
938.8698428291
 30
0.0
 10
117.0561463235
 20
938.7662843029
 30
0.0
 10
117.0660055166
 20
938.6974444791
 30
0.0
 10
117.0711530847
 20
938.6572464842
 30
0.0
 10
117.0744454948
 20
938.6259526944
 30
0.0
 10
117.0762019727
 20
938.6017981058
 30
0.0
 10
117.0759287475
 20
938.5891593619
 30
0.0
 10
117.075067693
 20
938.5802956023
 30
0.0
 10
117.0731806128
 20
938.5798134208
 30
0.0
  0
SPLINE
  5
58F
100
AcDbEntity
  8
_1
100
AcDbSpline
 62
7
  6
CONTINUOUS
 70
0
 71
3
 72
18
 73
14
 74
0
 42
0.0000001
 43
0.0000001
 44
0.0000000001
 40
0.0
 40
0.0
 40
0.0
 40
0.0
 40
0.1948252962
 40
0.3819800827
 40
0.5543057934
 40
0.7053504164
 40
0.8293920425
 40
0.879791141
 40
0.9217780376
 40
0.9549723528
 40
0.9790888722
 40
0.9939701879
 40
1.0
 40
1.0
 40
1.0
 40
1.0
 10
124.8203272591
 20
931.2379143382
 30
0.0
 10
124.7589736702
 20
931.258462843
 30
0.0
 10
124.6388162815
 20
931.2991546549
 30
0.0
 10
124.4648705278
 20
931.3594183398
 30
0.0
 10
124.305093028
 20
931.4161758857
 30
0.0
 10
124.1655770025
 20
931.4672501427
 30
0.0
 10
124.0644938197
 20
931.505711771
 30
0.0
 10
123.9978211007
 20
931.5323542174
 30
0.0
 10
123.9591588945
 20
931.5484617391
 30
0.0
 10
123.9294291125
 20
931.5616400353
 30
0.0
 10
123.9068502251
 20
931.5724933968
 30
0.0
 10
123.895706744
 20
931.5792381548
 30
0.0
 10
123.8881602068
 20
931.5845259406
 30
0.0
 10
123.8887005253
 20
931.5864542242
 30
0.0
  0
SPLINE
  5
590
100
AcDbEntity
  8
_1
100
AcDbSpline
 62
7
  6
CONTINUOUS
 70
0
 71
3
 72
18
 73
14
 74
0
 42
0.0000001
 43
0.0000001
 44
0.0000000001
 40
0.0
 40
0.0
 40
0.0
 40
0.0
 40
0.1948174372
 40
0.3819733132
 40
0.5542951451
 40
0.7053335133
 40
0.8293619054
 40
0.8797507088
 40
0.921725172
 40
0.954912298
 40
0.9790418973
 40
0.9939547675
 40
1.0
 40
1.0
 40
1.0
 40
1.0
 10
124.8203269802
 20
934.9704189359
 30
0.0
 10
124.7589760732
 20
934.9498713293
 30
0.0
 10
124.6388217433
 20
934.9091788217
 30
0.0
 10
124.464879779
 20
934.8489169455
 30
0.0
 10
124.3051052504
 20
934.7921616424
 30
0.0
 10
124.1655968763
 20
934.7410907302
 30
0.0
 10
124.0645230085
 20
934.7026329656
 30
0.0
 10
123.9978622019
 20
934.6759942406
 30
0.0
 10
123.9592087379
 20
934.6598905547
 30
0.0
 10
123.92948357
 20
934.6467110818
 30
0.0
 10
123.9068871877
 20
934.6358557705
 30
0.0
 10
123.8957383854
 20
934.6291010927
 30
0.0
 10
123.8881564765
 20
934.6238146728
 30
0.0
 10
123.8886981746
 20
934.6218814643
 30
0.0
  0
SPLINE
  5
591
100
AcDbEntity
  8
_1
100
AcDbSpline
 62
7
  6
CONTINUOUS
 70
0
 71
3
 72
18
 73
14
 74
0
 42
0.0000001
 43
0.0000001
 44
0.0000000001
 40
0.0
 40
0.0
 40
0.0
 40
0.0
 40
0.1961837283
 40
0.3839021725
 40
0.556203328
 40
0.7068560561
 40
0.8303413949
 40
0.8804566206
 40
0.9221822753
 40
0.9551613334
 40
0.9791372399
 40
0.9939623495
 40
1.0
 40
1.0
 40
1.0
 40
1.0
 10
113.6820674774
 20
937.6686185136
 30
0.0
 10
113.7296149398
 20
937.626655253
 30
0.0
 10
113.8229303252
 20
937.544846352
 30
0.0
 10
113.9589412823
 20
937.4272600925
 30
0.0
 10
114.0846649692
 20
937.3202721107
 30
0.0
 10
114.1954534486
 20
937.2278232759
 30
0.0
 10
114.2768238417
 20
937.161668092
 30
0.0
 10
114.3315019771
 20
937.1187186175
 30
0.0
 10
114.3637332062
 20
937.0941670306
 30
0.0
 10
114.3891861404
 20
937.0756730384
 30
0.0
 10
114.409233678
 20
937.0620640661
 30
0.0
 10
114.4203240453
 20
937.055981797
 30
0.0
 10
114.4284436838
 20
937.0522711792
 30
0.0
 10
114.4298075802
 20
937.0536671879
 30
0.0
  0
SPLINE
  5
592
100
AcDbEntity
  8
_1
100
AcDbSpline
 62
7
  6
CONTINUOUS
 70
0
 71
3
 72
18
 73
14
 74
0
 42
0.0000001
 43
0.0000001
 44
0.0000000001
 40
0.0
 40
0.0
 40
0.0
 40
0.0
 40
0.1961851386
 40
0.3838920327
 40
0.5561976797
 40
0.7068594075
 40
0.8303599799
 40
0.8804858119
 40
0.9222220512
 40
0.9552082744
 40
0.9791746928
 40
0.993974697
 40
1.0
 40
1.0
 40
1.0
 40
1.0
 10
113.6820674657
 20
928.5397143587
 30
0.0
 10
113.7296157777
 20
928.5816783691
 30
0.0
 10
113.8229287048
 20
928.6634871093
 30
0.0
 10
113.9589400287
 20
928.7810731079
 30
0.0
 10
114.0846660993
 20
928.8880619442
 30
0.0
 10
114.1954631787
 20
928.9805174634
 30
0.0
 10
114.2768431576
 20
929.0466802576
 30
0.0
 10
114.3315305972
 20
929.0896384812
 30
0.0
 10
114.3637692979
 20
929.1141954034
 30
0.0
 10
114.3892243099
 20
929.1326936091
 30
0.0
 10
114.4092645583
 20
929.1462920579
 30
0.0
 10
114.4203466441
 20
929.1523748099
 30
0.0
 10
114.4284534123
 20
929.1560609946
 30
0.0
 10
114.4298145339
 20
929.1546678259
 30
0.0
  0
SPLINE
  5
593
100
AcDbEntity
  8
_1
100
AcDbSpline
 62
7
  6
CONTINUOUS
 70
0
 71
3
 72
18
 73
14
 74
0
 42
0.0000001
 43
0.0000001
 44
0.0000000001
 40
0.0
 40
0.0
 40
0.0
 40
0.0
 40
0.1961844557
 40
0.3839036174
 40
0.5562053414
 40
0.7068583747
 40
0.8303436501
 40
0.8804586878
 40
0.9221840504
 40
0.9551626985
 40
0.9791380482
 40
0.9939625756
 40
1.0
 40
1.0
 40
1.0
 40
1.0
 10
116.9144889923
 20
926.6734751273
 30
0.0
 10
116.9270565523
 20
926.7356342729
 30
0.0
 10
116.9512475492
 20
926.8573526215
 30
0.0
 10
116.9850748778
 20
927.0339352603
 30
0.0
 10
117.014867424
 20
927.1963095971
 30
0.0
 10
117.0395362501
 20
927.3384798544
 30
0.0
 10
117.0561430932
 20
927.4420262503
 30
0.0
 10
117.0659993023
 20
927.5108534487
 30
0.0
 10
117.0711458991
 20
927.551041999
 30
0.0
 10
117.074435642
 20
927.5823314979
 30
0.0
 10
117.0761973978
 20
927.6064970793
 30
0.0
 10
117.0759196598
 20
927.6191424826
 30
0.0
 10
117.0750730497
 20
927.6280291141
 30
0.0
 10
117.0731821941
 20
927.6285122604
 30
0.0
  0
SPLINE
  5
594
100
AcDbEntity
  8
_1
100
AcDbSpline
 62
7
  6
CONTINUOUS
 70
0
 71
3
 72
14
 73
10
 74
0
 42
0.0000001
 43
0.0000001
 44
0.0000000001
 40
0.0
 40
0.0
 40
0.0
 40
0.0
 40
0.3742677516
 40
0.5441590148
 40
0.6940825585
 40
0.8186069464
 40
0.9130746553
 40
0.9741460972
 40
1.0
 40
1.0
 40
1.0
 40
1.0
 10
113.4526128651
 20
937.0294608909
 30
0.0
 10
113.4834129966
 20
937.0688482834
 30
0.0
 10
113.5285858619
 20
937.1258278151
 30
0.0
 10
113.5864391746
 20
937.1982437498
 30
0.0
 10
113.6236855256
 20
937.2445816083
 30
0.0
 10
113.6539343706
 20
937.2831722315
 30
0.0
 10
113.6779232634
 20
937.3126957684
 30
0.0
 10
113.6902604587
 20
937.3322749852
 30
0.0
 10
113.6988441069
 20
937.3421011243
 30
0.0
 10
113.6986368879
 20
937.3455488442
 30
0.0
  0
SPLINE
  5
595
100
AcDbEntity
  8
_1
100
AcDbSpline
 62
7
  6
CONTINUOUS
 70
0
 71
3
 72
18
 73
14
 74
0
 42
0.0000001
 43
0.0000001
 44
0.0000000001
 40
0.0
 40
0.0
 40
0.0
 40
0.0
 40
0.0057630601
 40
0.0203801162
 40
0.0443194305
 40
0.0774172724
 40
0.1193390359
 40
0.1696990782
 40
0.2938838074
 40
0.4452265916
 40
0.6178165895
 40
0.8052045967
 40
1.0
 40
1.0
 40
1.0
 40
1.0
 10
114.4298075802
 20
937.0536671879
 30
0.0
 10
114.4311524899
 20
937.0550437641
 30
0.0
 10
114.4264439063
 20
937.0630601761
 30
0.0
 10
114.4189212268
 20
937.0732384996
 30
0.0
 10
114.4024209381
 20
937.0921905851
 30
0.0
 10
114.3801615272
 20
937.1159168184
 30
0.0
 10
114.3507529565
 20
937.145996405
 30
0.0
 10
114.2994991699
 20
937.196845695
 30
0.0
 10
114.2209359406
 20
937.2722428229
 30
0.0
 10
114.1116760399
 20
937.3744645522
 30
0.0
 10
113.9858669654
 20
937.4899247964
 30
0.0
 10
113.8483910895
 20
937.6141082607
 30
0.0
 10
113.7530935848
 20
937.6990036589
 30
0.0
 10
113.7043741568
 20
937.7421069677
 30
0.0
  0
SPLINE
  5
596
100
AcDbEntity
  8
_1
100
AcDbSpline
 62
7
  6
CONTINUOUS
 70
0
 71
3
 72
18
 73
14
 74
0
 42
0.0000001
 43
0.0000001
 44
0.0000000001
 40
0.0
 40
0.0
 40
0.0
 40
0.0
 40
0.0057583159
 40
0.0203675712
 40
0.0443061179
 40
0.077406584
 40
0.1193300396
 40
0.1696882955
 40
0.2938708685
 40
0.445213974
 40
0.6178088536
 40
0.8052019206
 40
1.0
 40
1.0
 40
1.0
 40
1.0
 10
123.8886981746
 20
934.6218814643
 30
0.0
 10
123.8892170072
 20
934.6200298619
 30
0.0
 10
123.8985064303
 20
934.6200926156
 30
0.0
 10
123.9110801222
 20
934.6215209691
 30
0.0
 10
123.9357405478
 20
934.6263326487
 30
0.0
 10
123.9674188911
 20
934.6337480814
 30
0.0
 10
124.0081734354
 20
934.6441767669
 30
0.0
 10
124.0778362382
 20
934.6631386965
 30
0.0
 10
124.1824121078
 20
934.6934772268
 30
0.0
 10
124.3255691791
 20
934.7369880297
 30
0.0
 10
124.4884677597
 20
934.7882127976
 30
0.0
 10
124.6647550478
 20
934.8451796781
 30
0.0
 10
124.7859273444
 20
934.8852626589
 30
0.0
 10
124.8476162171
 20
934.905903467
 30
0.0
  0
SPLINE
  5
597
100
AcDbEntity
  8
_1
100
AcDbSpline
 62
7
  6
CONTINUOUS
 70
0
 71
3
 72
14
 73
10
 74
0
 42
0.0000001
 43
0.0000001
 44
0.0000000001
 40
0.0
 40
0.0
 40
0.0
 40
0.0
 40
0.3742677516
 40
0.5441590148
 40
0.6940825585
 40
0.8186069464
 40
0.9130746553
 40
0.9741460972
 40
1.0
 40
1.0
 40
1.0
 40
1.0
 10
124.381552291
 20
935.4886983581
 30
0.0
 10
124.4002627077
 20
935.4423309656
 30
0.0
 10
124.427021997
 20
935.3747203508
 30
0.0
 10
124.4608093798
 20
935.288409945
 30
0.0
 10
124.4823159669
 20
935.2329847296
 30
0.0
 10
124.5006120044
 20
935.1874931497
 30
0.0
 10
124.514185691
 20
935.1519563907
 30
0.0
 10
124.5249731925
 20
935.1314824578
 30
0.0
 10
124.5291910544
 20
935.1191357308
 30
0.0
 10
124.532280477
 20
935.1175913277
 30
0.0
  0
SPLINE
  5
598
100
AcDbEntity
  8
_1
100
AcDbSpline
 62
7
  6
CONTINUOUS
 70
0
 71
3
 72
14
 73
10
 74
0
 42
0.0000001
 43
0.0000001
 44
0.0000000001
 40
0.0
 40
0.0
 40
0.0
 40
0.0
 40
0.3742677516
 40
0.5441590149
 40
0.6940825585
 40
0.8186069464
 40
0.9130746553
 40
0.9741460972
 40
1.0
 40
1.0
 40
1.0
 40
1.0
 10
117.9196610147
 20
939.4523796337
 30
0.0
 10
117.9694727692
 20
939.4567159806
 30
0.0
 10
118.0419527807
 20
939.4625385855
 30
0.0
 10
118.134370307
 20
939.4696148999
 30
0.0
 10
118.1936616216
 20
939.4739769867
 30
0.0
 10
118.2425146795
 20
939.4781731236
 30
0.0
 10
118.280467213
 20
939.4807637619
 30
0.0
 10
118.3032004926
 20
939.4850939022
 30
0.0
 10
118.3162409098
 20
939.48551763
 30
0.0
 10
118.3186210896
 20
939.4880205197
 30
0.0
  0
SPLINE
  5
599
100
AcDbEntity
  8
_1
100
AcDbSpline
 62
7
  6
CONTINUOUS
 70
0
 71
3
 72
14
 73
10
 74
0
 42
0.0000001
 43
0.0000001
 44
0.0000000001
 40
0.0
 40
0.0
 40
0.0
 40
0.0
 40
0.3742677516
 40
0.5441590148
 40
0.6940825585
 40
0.8186069464
 40
0.9130746553
 40
0.9741460972
 40
1.0
 40
1.0
 40
1.0
 40
1.0
 10
113.2509098261
 20
929.4514582514
 30
0.0
 10
113.2222485623
 20
929.4924283227
 30
0.0
 10
113.1809660328
 20
929.5522865515
 30
0.0
 10
113.1286290016
 20
929.6287843198
 30
0.0
 10
113.0952056663
 20
929.677951061
 30
0.0
 10
113.0671451762
 20
929.7181609818
 30
0.0
 10
113.0459253509
 20
929.7497335208
 30
0.0
 10
113.0308086996
 20
929.7672560483
 30
0.0
 10
113.0239215319
 20
929.778337517
 30
0.0
 10
113.0205638759
 20
929.7791473682
 30
0.0
  0
SPLINE
  5
59A
100
AcDbEntity
  8
_1
100
AcDbSpline
 62
7
  6
CONTINUOUS
 70
0
 71
3
 72
18
 73
14
 74
0
 42
0.0000001
 43
0.0000001
 44
0.0000000001
 40
0.0
 40
0.0
 40
0.0
 40
0.0
 40
0.0057715324
 40
0.020393751
 40
0.0442983662
 40
0.0773421697
 40
0.1192497131
 40
0.169641193
 40
0.2938406054
 40
0.4451994756
 40
0.6178588478
 40
0.8052141312
 40
1.0
 40
1.0
 40
1.0
 40
1.0
 10
117.0731806128
 20
938.5798134208
 30
0.0
 10
117.071313258
 20
938.5793362795
 30
0.0
 10
117.0667307721
 20
938.5874381396
 30
0.0
 10
117.0616743614
 20
938.5990289144
 30
0.0
 10
117.0535178404
 20
938.6227679013
 30
0.0
 10
117.0441033363
 20
938.6538733392
 30
0.0
 10
117.0327616949
 20
938.6943705876
 30
0.0
 10
117.0143525894
 20
938.764193617
 30
0.0
 10
116.9883295996
 20
938.869949832
 30
0.0
 10
116.9544278908
 20
939.0157164322
 30
0.0
 10
116.9173403228
 20
939.1824191477
 30
0.0
 10
116.8785244662
 20
939.3635770027
 30
0.0
 10
116.8526611054
 20
939.4885429444
 30
0.0
 10
116.8396928312
 20
939.5522840484
 30
0.0
  0
SPLINE
  5
59B
100
AcDbEntity
  8
_1
100
AcDbSpline
 62
7
  6
CONTINUOUS
 70
0
 71
3
 72
14
 73
10
 74
0
 42
0.0000001
 43
0.0000001
 44
0.0000000001
 40
0.0
 40
0.0
 40
0.0
 40
0.0
 40
0.025831246
 40
0.0868971651
 40
0.1813729401
 40
0.3059052421
 40
0.4558329979
 40
0.6257241583
 40
1.0
 40
1.0
 40
1.0
 40
1.0
 10
113.6986368879
 20
928.8627842853
 30
0.0
 10
113.6988439203
 20
928.866228901
 30
0.0
 10
113.6901963495
 20
928.8760186053
 30
0.0
 10
113.6778628283
 20
928.8955839058
 30
0.0
 10
113.6538887108
 20
928.9251259175
 30
0.0
 10
113.6236886893
 20
928.96375453
 30
0.0
 10
113.5864774508
 20
929.0101217105
 30
0.0
 10
113.5286295099
 20
929.0825406688
 30
0.0
 10
113.4834129214
 20
929.1394849423
 30
0.0
 10
113.4526128651
 20
929.1788722387
 30
0.0
  0
SPLINE
  5
59C
100
AcDbEntity
  8
_1
100
AcDbSpline
 62
7
  6
CONTINUOUS
 70
0
 71
3
 72
18
 73
14
 74
0
 42
0.0000001
 43
0.0000001
 44
0.0000000001
 40
0.0
 40
0.0
 40
0.0
 40
0.0
 40
0.0057631253
 40
0.0203803882
 40
0.0443199703
 40
0.0774180759
 40
0.1193400524
 40
0.1697002315
 40
0.2938850563
 40
0.4452277325
 40
0.6178174506
 40
0.805205059
 40
1.0
 40
1.0
 40
1.0
 40
1.0
 10
117.0731821941
 20
927.6285122604
 30
0.0
 10
117.0713175692
 20
927.6289887033
 30
0.0
 10
117.0667294667
 20
927.6209025492
 30
0.0
 10
117.0616760744
 20
927.6092984655
 30
0.0
 10
117.0535132107
 20
927.5855324754
 30
0.0
 10
117.044095355
 20
927.5543919307
 30
0.0
 10
117.0327499335
 20
927.513883381
 30
0.0
 10
117.014340047
 20
927.4440715461
 30
0.0
 10
116.9883258598
 20
927.3383352433
 30
0.0
 10
116.9544292527
 20
927.1926027036
 30
0.0
 10
116.9173423737
 20
927.0259190758
 30
0.0
 10
116.8785343844
 20
926.8447702171
 30
0.0
 10
116.8526616395
 20
926.7197928103
 30
0.0
 10
116.8396928312
 20
926.6560490811
 30
0.0
  0
SPLINE
  5
59D
100
AcDbEntity
  8
_1
100
AcDbSpline
 62
7
  6
CONTINUOUS
 70
0
 71
3
 72
14
 73
10
 74
0
 42
0.0000001
 43
0.0000001
 44
0.0000000001
 40
0.0
 40
0.0
 40
0.0
 40
0.0
 40
0.3742677516
 40
0.5441590149
 40
0.6940825585
 40
0.8186069464
 40
0.9130746553
 40
0.9741460972
 40
1.0
 40
1.0
 40
1.0
 40
1.0
 10
117.5827430835
 20
926.7943404453
 30
0.0
 10
117.5332325353
 20
926.8013204453
 30
0.0
 10
117.4613003806
 20
926.8119515284
 30
0.0
 10
117.3696596852
 20
926.8258459995
 30
0.0
 10
117.3109067471
 20
926.8349333564
 30
0.0
 10
117.2623618645
 20
926.8418343131
 30
0.0
 10
117.2247992852
 20
926.8478475352
 30
0.0
 10
117.2016745884
 20
926.8487422513
 30
0.0
 10
117.1888730782
 20
926.8512628392
 30
0.0
 10
117.1859908746
 20
926.8493595223
 30
0.0
  0
SPLINE
  5
59E
100
AcDbEntity
  8
_1
100
AcDbSpline
 62
7
  6
CONTINUOUS
 70
0
 71
3
 72
14
 73
10
 74
0
 42
0.0000001
 43
0.0000001
 44
0.0000000001
 40
0.0
 40
0.0
 40
0.0
 40
0.0
 40
0.025831246
 40
0.0868971651
 40
0.1813729401
 40
0.3059052421
 40
0.4558329979
 40
0.6257241583
 40
1.0
 40
1.0
 40
1.0
 40
1.0
 10
118.3186210896
 20
926.7203126098
 30
0.0
 10
118.3162430528
 20
926.722813246
 30
0.0
 10
118.3031856873
 20
926.7231653753
 30
0.0
 10
118.2804650911
 20
926.7274887118
 30
0.0
 10
118.2425091226
 20
926.7301027558
 30
0.0
 10
118.1936615787
 20
926.7343605086
 30
0.0
 10
118.1343727661
 20
926.7387682727
 30
0.0
 10
118.041956692
 20
926.7458505777
 30
0.0
 10
117.9694726476
 20
926.7516171595
 30
0.0
 10
117.9196610147
 20
926.7559534958
 30
0.0
  0
SPLINE
  5
59F
100
AcDbEntity
  8
_1
100
AcDbSpline
 62
7
  6
CONTINUOUS
 70
0
 71
3
 72
14
 73
10
 74
0
 42
0.0000001
 43
0.0000001
 44
0.0000000001
 40
0.0
 40
0.0
 40
0.0
 40
0.0
 40
0.3742677516
 40
0.5441590148
 40
0.6940825585
 40
0.8186069464
 40
0.9130746553
 40
0.9741460972
 40
1.0
 40
1.0
 40
1.0
 40
1.0
 10
124.2463373987
 20
930.4086618092
 30
0.0
 10
124.2251869081
 20
930.363355391
 30
0.0
 10
124.1939894261
 20
930.2976745573
 30
0.0
 10
124.153908931
 20
930.2141004746
 30
0.0
 10
124.1280409517
 20
930.1605716465
 30
0.0
 10
124.1072483839
 20
930.1161655889
 30
0.0
 10
124.0905156757
 20
930.0820024116
 30
0.0
 10
124.0828990474
 20
930.0601497438
 30
0.0
 10
124.0767457978
 20
930.0486445473
 30
0.0
 10
124.0777232741
 20
930.0453318063
 30
0.0
  0
SPLINE
  5
5A0
100
AcDbEntity
  8
_1
100
AcDbSpline
 62
7
  6
CONTINUOUS
 70
0
 71
3
 72
14
 73
10
 74
0
 42
0.0000001
 43
0.0000001
 44
0.0000000001
 40
0.0
 40
0.0
 40
0.0
 40
0.0
 40
0.025831246
 40
0.0868971651
 40
0.1813729401
 40
0.3059052421
 40
0.4558329979
 40
0.6257241583
 40
1.0
 40
1.0
 40
1.0
 40
1.0
 10
124.0777232741
 20
936.1630013232
 30
0.0
 10
124.0767466779
 20
936.1596915649
 30
0.0
 10
124.0829704078
 20
936.1482074899
 30
0.0
 10
124.0905865866
 20
936.1263692082
 30
0.0
 10
124.1073007424
 20
936.0921913533
 30
0.0
 10
124.1280371922
 20
936.047759263
 30
0.0
 10
124.1538643629
 20
935.994209763
 30
0.0
 10
124.1939389439
 20
935.9106339427
 30
0.0
 10
124.2251869597
 20
935.8449776279
 30
0.0
 10
124.2463373987
 20
935.7996713203
 30
0.0
  0
SPLINE
  5
5A1
100
AcDbEntity
  8
_1
100
AcDbSpline
 62
7
  6
CONTINUOUS
 70
0
 71
3
 72
14
 73
10
 74
0
 42
0.0000001
 43
0.0000001
 44
0.0000000001
 40
0.0
 40
0.0
 40
0.0
 40
0.0
 40
0.025831246
 40
0.0868971649
 40
0.1813729395
 40
0.3059052412
 40
0.4558329963
 40
0.625724156
 40
1.0
 40
1.0
 40
1.0
 40
1.0
 10
124.532280477
 20
931.0907418018
 30
0.0
 10
124.5291938361
 20
931.0891987892
 30
0.0
 10
124.5250394888
 20
931.0768149212
 30
0.0
 10
124.5142622022
 20
931.0563511283
 30
0.0
 10
124.5006651282
 20
931.0208179278
 30
0.0
 10
124.4823117794
 20
930.9753496359
 30
0.0
 10
124.4607622427
 20
930.919940168
 30
0.0
 10
124.4269695559
 20
930.8336329022
 30
0.0
 10
124.4002626623
 20
930.7660020511
 30
0.0
 10
124.3815522921
 20
930.719634771
 30
0.0
  0
SPLINE
  5
5A2
100
AcDbEntity
  8
_1
100
AcDbSpline
 62
7
  6
CONTINUOUS
 70
0
 71
3
 72
14
 73
10
 74
0
 42
0.0000001
 43
0.0000001
 44
0.0000000001
 40
0.0
 40
0.0
 40
0.0
 40
0.0
 40
0.025831246
 40
0.0868971651
 40
0.1813729401
 40
0.3059052421
 40
0.4558329979
 40
0.6257241583
 40
1.0
 40
1.0
 40
1.0
 40
1.0
 10
117.1859908746
 20
939.3589736072
 30
0.0
 10
117.1888704832
 20
939.357072004
 30
0.0
 10
117.2016724012
 20
939.3596661679
 30
0.0
 10
117.224783209
 20
939.3605646603
 30
0.0
 10
117.2623544004
 20
939.3665558492
 30
0.0
 10
117.3109077709
 20
939.3733955288
 30
0.0
 10
117.3696685464
 20
939.3824378164
 30
0.0
 10
117.4613091744
 20
939.3963261237
 30
0.0
 10
117.5332326561
 20
939.4070127012
 30
0.0
 10
117.5827430835
 20
939.4139926842
 30
0.0
  0
SPLINE
  5
5A3
100
AcDbEntity
  8
_1
100
AcDbSpline
 62
7
  6
CONTINUOUS
 70
0
 71
3
 72
18
 73
14
 74
0
 42
0.0000001
 43
0.0000001
 44
0.0000000001
 40
0.0
 40
0.0
 40
0.0
 40
0.0
 40
0.0057715324
 40
0.020393751
 40
0.0442983662
 40
0.0773421697
 40
0.1192497131
 40
0.169641193
 40
0.2938406054
 40
0.4451994756
 40
0.6178588478
 40
0.8052141312
 40
1.0
 40
1.0
 40
1.0
 40
1.0
 10
114.4298145339
 20
929.1546678259
 30
0.0
 10
114.4311614278
 20
929.1532892199
 30
0.0
 10
114.426436254
 20
929.1452697407
 30
0.0
 10
114.418926554
 20
929.1350953731
 30
0.0
 10
114.4024462487
 20
929.1161621253
 30
0.0
 10
114.3802154014
 20
929.0924562066
 30
0.0
 10
114.3508145762
 20
929.0623854329
 30
0.0
 10
114.2995506117
 20
929.0115311651
 30
0.0
 10
114.2209745379
 20
928.9361164874
 30
0.0
 10
114.1116878134
 20
928.8338734462
 30
0.0
 10
113.985862811
 20
928.7184033124
 30
0.0
 10
113.8483834347
 20
928.594208867
 30
0.0
 10
113.753091435
 20
928.5093275687
 30
0.0
 10
113.7043741568
 20
928.4662261618
 30
0.0
  0
SPLINE
  5
5A4
100
AcDbEntity
  8
_1
100
AcDbSpline
 62
7
  6
CONTINUOUS
 70
0
 71
3
 72
14
 73
10
 74
0
 42
0.0000001
 43
0.0000001
 44
0.0000000001
 40
0.0
 40
0.0
 40
0.0
 40
0.0
 40
0.025831246
 40
0.0868971651
 40
0.1813729401
 40
0.3059052421
 40
0.4558329979
 40
0.6257241583
 40
1.0
 40
1.0
 40
1.0
 40
1.0
 10
113.0205638759
 20
936.4291857613
 30
0.0
 10
113.0239185088
 20
936.4299948834
 30
0.0
 10
113.0307521445
 20
936.441126829
 30
0.0
 10
113.0458565618
 20
936.4586417742
 30
0.0
 10
113.0670983745
 20
936.4902055852
 30
0.0
 10
113.0952094686
 20
936.5303799227
 30
0.0
 10
113.1286711106
 20
936.5795216586
 30
0.0
 10
113.1810126037
 20
936.6560151739
 30
0.0
 10
113.2222486322
 20
936.7159049069
 30
0.0
 10
113.2509098261
 20
936.7568748781
 30
0.0
  0
SPLINE
  5
5A5
100
AcDbEntity
  8
_1
100
AcDbSpline
 62
7
  6
CONTINUOUS
 70
0
 71
3
 72
18
 73
14
 74
0
 42
0.0000001
 43
0.0000001
 44
0.0000000001
 40
0.0
 40
0.0
 40
0.0
 40
0.0
 40
0.0057656697
 40
0.0203767644
 40
0.0442765135
 40
0.0773199043
 40
0.1192275823
 40
0.1696163823
 40
0.2938192101
 40
0.4451796827
 40
0.6178375953
 40
0.8052062831
 40
1.0
 40
1.0
 40
1.0
 40
1.0
 10
123.8887005253
 20
931.5864542242
 30
0.0
 10
123.8892200185
 20
931.5883081866
 30
0.0
 10
123.8985177541
 20
931.5882342471
 30
0.0
 10
123.9110796332
 20
931.5868152464
 30
0.0
 10
123.9357098237
 20
931.5820132366
 30
0.0
 10
123.9673534582
 20
931.5746132501
 30
0.0
 10
124.0080943998
 20
931.5641875483
 30
0.0
 10
124.0777670791
 20
931.5452190388
 30
0.0
 10
124.1823656079
 20
931.5148775469
 30
0.0
 10
124.3255536988
 20
931.4713546037
 30
0.0
 10
124.488468635
 20
931.4201210181
 30
0.0
 10
124.664768158
 20
931.3631563017
 30
0.0
 10
124.7859288873
 20
931.3230699544
 30
0.0
 10
124.8476162171
 20
931.3024296626
 30
0.0
  0
SPLINE
  5
5A6
100
AcDbEntity
  8
_1
100
AcDbSpline
 62
7
  6
CONTINUOUS
 70
0
 71
3
 72
18
 73
14
 74
0
 42
0.0000001
 43
0.0000001
 44
0.0000000001
 40
0.0
 40
0.0
 40
0.0
 40
0.0
 40
0.1961851386
 40
0.3838920327
 40
0.5561976797
 40
0.7068594075
 40
0.8303599799
 40
0.8804858119
 40
0.9222220512
 40
0.9552082744
 40
0.9791746928
 40
0.993974697
 40
1.0
 40
1.0
 40
1.0
 40
1.0
 10
858.9144888221
 20
939.5348581111
 30
0.0
 10
858.9270565652
 20
939.4726980598
 30
0.0
 10
858.9512485489
 20
939.3509823243
 30
0.0
 10
858.9850753489
 20
939.1744000633
 30
0.0
 10
859.0148673637
 20
939.0120236741
 30
0.0
 10
859.0395376524
 20
938.8698428291
 30
0.0
 10
859.0561463235
 20
938.7662843029
 30
0.0
 10
859.0660055166
 20
938.6974444791
 30
0.0
 10
859.0711530847
 20
938.6572464842
 30
0.0
 10
859.0744454948
 20
938.6259526944
 30
0.0
 10
859.0762019727
 20
938.6017981058
 30
0.0
 10
859.0759287475
 20
938.5891593619
 30
0.0
 10
859.075067693
 20
938.5802956023
 30
0.0
 10
859.0731806128
 20
938.5798134208
 30
0.0
  0
SPLINE
  5
5A7
100
AcDbEntity
  8
_1
100
AcDbSpline
 62
7
  6
CONTINUOUS
 70
0
 71
3
 72
18
 73
14
 74
0
 42
0.0000001
 43
0.0000001
 44
0.0000000001
 40
0.0
 40
0.0
 40
0.0
 40
0.0
 40
0.1948252962
 40
0.3819800827
 40
0.5543057934
 40
0.7053504164
 40
0.8293920425
 40
0.879791141
 40
0.9217780376
 40
0.9549723528
 40
0.9790888722
 40
0.9939701879
 40
1.0
 40
1.0
 40
1.0
 40
1.0
 10
866.8203272591
 20
931.2379143382
 30
0.0
 10
866.7589736702
 20
931.258462843
 30
0.0
 10
866.6388162815
 20
931.2991546549
 30
0.0
 10
866.4648705278
 20
931.3594183398
 30
0.0
 10
866.305093028
 20
931.4161758857
 30
0.0
 10
866.1655770025
 20
931.4672501427
 30
0.0
 10
866.0644938197
 20
931.505711771
 30
0.0
 10
865.9978211007
 20
931.5323542174
 30
0.0
 10
865.9591588945
 20
931.5484617391
 30
0.0
 10
865.9294291125
 20
931.5616400353
 30
0.0
 10
865.9068502251
 20
931.5724933968
 30
0.0
 10
865.895706744
 20
931.5792381548
 30
0.0
 10
865.8881602068
 20
931.5845259406
 30
0.0
 10
865.8887005253
 20
931.5864542242
 30
0.0
  0
SPLINE
  5
5A8
100
AcDbEntity
  8
_1
100
AcDbSpline
 62
7
  6
CONTINUOUS
 70
0
 71
3
 72
18
 73
14
 74
0
 42
0.0000001
 43
0.0000001
 44
0.0000000001
 40
0.0
 40
0.0
 40
0.0
 40
0.0
 40
0.1948174372
 40
0.3819733132
 40
0.5542951451
 40
0.7053335133
 40
0.8293619054
 40
0.8797507088
 40
0.921725172
 40
0.954912298
 40
0.9790418973
 40
0.9939547675
 40
1.0
 40
1.0
 40
1.0
 40
1.0
 10
866.8203269802
 20
934.9704189359
 30
0.0
 10
866.7589760732
 20
934.9498713293
 30
0.0
 10
866.6388217433
 20
934.9091788217
 30
0.0
 10
866.464879779
 20
934.8489169455
 30
0.0
 10
866.3051052504
 20
934.7921616424
 30
0.0
 10
866.1655968763
 20
934.7410907302
 30
0.0
 10
866.0645230085
 20
934.7026329656
 30
0.0
 10
865.9978622019
 20
934.6759942406
 30
0.0
 10
865.9592087379
 20
934.6598905547
 30
0.0
 10
865.92948357
 20
934.6467110818
 30
0.0
 10
865.9068871877
 20
934.6358557705
 30
0.0
 10
865.8957383854
 20
934.6291010927
 30
0.0
 10
865.8881564765
 20
934.6238146728
 30
0.0
 10
865.8886981746
 20
934.6218814643
 30
0.0
  0
SPLINE
  5
5A9
100
AcDbEntity
  8
_1
100
AcDbSpline
 62
7
  6
CONTINUOUS
 70
0
 71
3
 72
18
 73
14
 74
0
 42
0.0000001
 43
0.0000001
 44
0.0000000001
 40
0.0
 40
0.0
 40
0.0
 40
0.0
 40
0.1961837283
 40
0.3839021725
 40
0.556203328
 40
0.7068560562
 40
0.830341395
 40
0.8804566206
 40
0.9221822753
 40
0.9551613334
 40
0.9791372399
 40
0.9939623495
 40
1.0
 40
1.0
 40
1.0
 40
1.0
 10
855.6820674774
 20
937.6686185136
 30
0.0
 10
855.7296149398
 20
937.626655253
 30
0.0
 10
855.8229303252
 20
937.544846352
 30
0.0
 10
855.9589412823
 20
937.4272600925
 30
0.0
 10
856.0846649692
 20
937.3202721107
 30
0.0
 10
856.1954534486
 20
937.2278232759
 30
0.0
 10
856.2768238417
 20
937.161668092
 30
0.0
 10
856.3315019772
 20
937.1187186175
 30
0.0
 10
856.3637332062
 20
937.0941670306
 30
0.0
 10
856.3891861404
 20
937.0756730384
 30
0.0
 10
856.409233678
 20
937.0620640661
 30
0.0
 10
856.4203240453
 20
937.055981797
 30
0.0
 10
856.4284436838
 20
937.0522711792
 30
0.0
 10
856.4298075802
 20
937.0536671879
 30
0.0
  0
SPLINE
  5
5AA
100
AcDbEntity
  8
_1
100
AcDbSpline
 62
7
  6
CONTINUOUS
 70
0
 71
3
 72
18
 73
14
 74
0
 42
0.0000001
 43
0.0000001
 44
0.0000000001
 40
0.0
 40
0.0
 40
0.0
 40
0.0
 40
0.1961851386
 40
0.3838920327
 40
0.5561976797
 40
0.7068594075
 40
0.8303599799
 40
0.8804858119
 40
0.9222220512
 40
0.9552082744
 40
0.9791746928
 40
0.993974697
 40
1.0
 40
1.0
 40
1.0
 40
1.0
 10
855.6820674657
 20
928.5397143587
 30
0.0
 10
855.7296157777
 20
928.5816783691
 30
0.0
 10
855.8229287048
 20
928.6634871093
 30
0.0
 10
855.9589400287
 20
928.7810731079
 30
0.0
 10
856.0846660993
 20
928.8880619442
 30
0.0
 10
856.1954631787
 20
928.9805174634
 30
0.0
 10
856.2768431576
 20
929.0466802576
 30
0.0
 10
856.3315305972
 20
929.0896384812
 30
0.0
 10
856.3637692979
 20
929.1141954034
 30
0.0
 10
856.3892243099
 20
929.1326936091
 30
0.0
 10
856.4092645583
 20
929.1462920579
 30
0.0
 10
856.4203466441
 20
929.1523748099
 30
0.0
 10
856.4284534123
 20
929.1560609946
 30
0.0
 10
856.4298145339
 20
929.1546678259
 30
0.0
  0
SPLINE
  5
5AB
100
AcDbEntity
  8
_1
100
AcDbSpline
 62
7
  6
CONTINUOUS
 70
0
 71
3
 72
18
 73
14
 74
0
 42
0.0000001
 43
0.0000001
 44
0.0000000001
 40
0.0
 40
0.0
 40
0.0
 40
0.0
 40
0.1961844557
 40
0.3839036174
 40
0.5562053414
 40
0.7068583746
 40
0.8303436501
 40
0.8804586878
 40
0.9221840503
 40
0.9551626984
 40
0.9791380482
 40
0.9939625756
 40
1.0
 40
1.0
 40
1.0
 40
1.0
 10
858.9144889923
 20
926.6734751273
 30
0.0
 10
858.9270565523
 20
926.7356342729
 30
0.0
 10
858.9512475492
 20
926.8573526215
 30
0.0
 10
858.9850748778
 20
927.0339352602
 30
0.0
 10
859.0148674239
 20
927.196309597
 30
0.0
 10
859.0395362501
 20
927.3384798544
 30
0.0
 10
859.0561430932
 20
927.4420262503
 30
0.0
 10
859.0659993023
 20
927.5108534487
 30
0.0
 10
859.0711458991
 20
927.551041999
 30
0.0
 10
859.074435642
 20
927.5823314979
 30
0.0
 10
859.0761973978
 20
927.6064970793
 30
0.0
 10
859.0759196598
 20
927.6191424826
 30
0.0
 10
859.0750730497
 20
927.6280291141
 30
0.0
 10
859.0731821941
 20
927.6285122604
 30
0.0
  0
SPLINE
  5
5AC
100
AcDbEntity
  8
_1
100
AcDbSpline
 62
7
  6
CONTINUOUS
 70
0
 71
3
 72
14
 73
10
 74
0
 42
0.0000001
 43
0.0000001
 44
0.0000000001
 40
0.0
 40
0.0
 40
0.0
 40
0.0
 40
0.3742677517
 40
0.5441590149
 40
0.6940825585
 40
0.8186069464
 40
0.9130746553
 40
0.9741460972
 40
1.0
 40
1.0
 40
1.0
 40
1.0
 10
855.4526128651
 20
937.0294608909
 30
0.0
 10
855.4834129966
 20
937.0688482834
 30
0.0
 10
855.5285858619
 20
937.1258278151
 30
0.0
 10
855.5864391746
 20
937.1982437498
 30
0.0
 10
855.6236855256
 20
937.2445816083
 30
0.0
 10
855.6539343706
 20
937.2831722315
 30
0.0
 10
855.6779232634
 20
937.3126957684
 30
0.0
 10
855.6902604587
 20
937.3322749852
 30
0.0
 10
855.6988441069
 20
937.3421011243
 30
0.0
 10
855.6986368879
 20
937.3455488442
 30
0.0
  0
SPLINE
  5
5AD
100
AcDbEntity
  8
_1
100
AcDbSpline
 62
7
  6
CONTINUOUS
 70
0
 71
3
 72
18
 73
14
 74
0
 42
0.0000001
 43
0.0000001
 44
0.0000000001
 40
0.0
 40
0.0
 40
0.0
 40
0.0
 40
0.0057630601
 40
0.0203801161
 40
0.0443194305
 40
0.0774172724
 40
0.119339036
 40
0.1696990783
 40
0.2938838074
 40
0.4452265916
 40
0.6178165895
 40
0.8052045967
 40
1.0
 40
1.0
 40
1.0
 40
1.0
 10
856.4298075802
 20
937.0536671879
 30
0.0
 10
856.4311524898
 20
937.0550437642
 30
0.0
 10
856.4264439063
 20
937.0630601761
 30
0.0
 10
856.4189212268
 20
937.0732384996
 30
0.0
 10
856.4024209381
 20
937.0921905851
 30
0.0
 10
856.3801615271
 20
937.1159168184
 30
0.0
 10
856.3507529565
 20
937.145996405
 30
0.0
 10
856.2994991698
 20
937.1968456951
 30
0.0
 10
856.2209359406
 20
937.2722428229
 30
0.0
 10
856.1116760399
 20
937.3744645523
 30
0.0
 10
855.9858669654
 20
937.4899247964
 30
0.0
 10
855.8483910895
 20
937.6141082607
 30
0.0
 10
855.7530935848
 20
937.6990036589
 30
0.0
 10
855.7043741568
 20
937.7421069677
 30
0.0
  0
SPLINE
  5
5AE
100
AcDbEntity
  8
_1
100
AcDbSpline
 62
7
  6
CONTINUOUS
 70
0
 71
3
 72
18
 73
14
 74
0
 42
0.0000001
 43
0.0000001
 44
0.0000000001
 40
0.0
 40
0.0
 40
0.0
 40
0.0
 40
0.0057583159
 40
0.0203675712
 40
0.0443061179
 40
0.077406584
 40
0.1193300396
 40
0.1696882955
 40
0.2938708685
 40
0.445213974
 40
0.6178088536
 40
0.8052019206
 40
1.0
 40
1.0
 40
1.0
 40
1.0
 10
865.8886981746
 20
934.6218814643
 30
0.0
 10
865.8892170072
 20
934.6200298619
 30
0.0
 10
865.8985064303
 20
934.6200926156
 30
0.0
 10
865.9110801222
 20
934.6215209691
 30
0.0
 10
865.9357405478
 20
934.6263326487
 30
0.0
 10
865.9674188911
 20
934.6337480814
 30
0.0
 10
866.0081734354
 20
934.6441767669
 30
0.0
 10
866.0778362382
 20
934.6631386965
 30
0.0
 10
866.1824121078
 20
934.6934772268
 30
0.0
 10
866.3255691791
 20
934.7369880297
 30
0.0
 10
866.4884677597
 20
934.7882127976
 30
0.0
 10
866.6647550478
 20
934.8451796781
 30
0.0
 10
866.7859273444
 20
934.8852626589
 30
0.0
 10
866.8476162171
 20
934.905903467
 30
0.0
  0
SPLINE
  5
5AF
100
AcDbEntity
  8
_1
100
AcDbSpline
 62
7
  6
CONTINUOUS
 70
0
 71
3
 72
14
 73
10
 74
0
 42
0.0000001
 43
0.0000001
 44
0.0000000001
 40
0.0
 40
0.0
 40
0.0
 40
0.0
 40
0.3742677516
 40
0.5441590148
 40
0.6940825585
 40
0.8186069464
 40
0.9130746553
 40
0.9741460972
 40
1.0
 40
1.0
 40
1.0
 40
1.0
 10
866.381552291
 20
935.4886983581
 30
0.0
 10
866.4002627077
 20
935.4423309656
 30
0.0
 10
866.427021997
 20
935.3747203508
 30
0.0
 10
866.4608093798
 20
935.288409945
 30
0.0
 10
866.4823159669
 20
935.2329847296
 30
0.0
 10
866.5006120044
 20
935.1874931497
 30
0.0
 10
866.514185691
 20
935.1519563907
 30
0.0
 10
866.5249731925
 20
935.1314824578
 30
0.0
 10
866.5291910544
 20
935.1191357308
 30
0.0
 10
866.532280477
 20
935.1175913277
 30
0.0
  0
SPLINE
  5
5B0
100
AcDbEntity
  8
_1
100
AcDbSpline
 62
7
  6
CONTINUOUS
 70
0
 71
3
 72
14
 73
10
 74
0
 42
0.0000001
 43
0.0000001
 44
0.0000000001
 40
0.0
 40
0.0
 40
0.0
 40
0.0
 40
0.3742677516
 40
0.5441590148
 40
0.6940825585
 40
0.8186069464
 40
0.9130746553
 40
0.9741460972
 40
1.0
 40
1.0
 40
1.0
 40
1.0
 10
859.9196610147
 20
939.4523796337
 30
0.0
 10
859.9694727692
 20
939.4567159806
 30
0.0
 10
860.0419527807
 20
939.4625385855
 30
0.0
 10
860.134370307
 20
939.4696148999
 30
0.0
 10
860.1936616216
 20
939.4739769867
 30
0.0
 10
860.2425146795
 20
939.4781731236
 30
0.0
 10
860.280467213
 20
939.4807637619
 30
0.0
 10
860.3032004926
 20
939.4850939022
 30
0.0
 10
860.3162409098
 20
939.48551763
 30
0.0
 10
860.3186210896
 20
939.4880205197
 30
0.0
  0
SPLINE
  5
5B1
100
AcDbEntity
  8
_1
100
AcDbSpline
 62
7
  6
CONTINUOUS
 70
0
 71
3
 72
14
 73
10
 74
0
 42
0.0000001
 43
0.0000001
 44
0.0000000001
 40
0.0
 40
0.0
 40
0.0
 40
0.0
 40
0.3742677516
 40
0.5441590148
 40
0.6940825585
 40
0.8186069464
 40
0.9130746553
 40
0.9741460972
 40
1.0
 40
1.0
 40
1.0
 40
1.0
 10
855.2509098261
 20
929.4514582514
 30
0.0
 10
855.2222485623
 20
929.4924283227
 30
0.0
 10
855.1809660328
 20
929.5522865515
 30
0.0
 10
855.1286290016
 20
929.6287843198
 30
0.0
 10
855.0952056663
 20
929.677951061
 30
0.0
 10
855.0671451762
 20
929.7181609818
 30
0.0
 10
855.0459253509
 20
929.7497335208
 30
0.0
 10
855.0308086996
 20
929.7672560483
 30
0.0
 10
855.0239215319
 20
929.778337517
 30
0.0
 10
855.0205638759
 20
929.7791473682
 30
0.0
  0
SPLINE
  5
5B2
100
AcDbEntity
  8
_1
100
AcDbSpline
 62
7
  6
CONTINUOUS
 70
0
 71
3
 72
18
 73
14
 74
0
 42
0.0000001
 43
0.0000001
 44
0.0000000001
 40
0.0
 40
0.0
 40
0.0
 40
0.0
 40
0.0057715324
 40
0.020393751
 40
0.0442983662
 40
0.0773421697
 40
0.1192497131
 40
0.169641193
 40
0.2938406054
 40
0.4451994756
 40
0.6178588478
 40
0.8052141312
 40
1.0
 40
1.0
 40
1.0
 40
1.0
 10
859.0731806128
 20
938.5798134208
 30
0.0
 10
859.071313258
 20
938.5793362795
 30
0.0
 10
859.0667307721
 20
938.5874381396
 30
0.0
 10
859.0616743614
 20
938.5990289144
 30
0.0
 10
859.0535178404
 20
938.6227679013
 30
0.0
 10
859.0441033363
 20
938.6538733392
 30
0.0
 10
859.0327616949
 20
938.6943705876
 30
0.0
 10
859.0143525894
 20
938.764193617
 30
0.0
 10
858.9883295996
 20
938.869949832
 30
0.0
 10
858.9544278908
 20
939.0157164322
 30
0.0
 10
858.9173403228
 20
939.1824191477
 30
0.0
 10
858.8785244662
 20
939.3635770027
 30
0.0
 10
858.8526611054
 20
939.4885429444
 30
0.0
 10
858.8396928312
 20
939.5522840484
 30
0.0
  0
SPLINE
  5
5B3
100
AcDbEntity
  8
_1
100
AcDbSpline
 62
7
  6
CONTINUOUS
 70
0
 71
3
 72
14
 73
10
 74
0
 42
0.0000001
 43
0.0000001
 44
0.0000000001
 40
0.0
 40
0.0
 40
0.0
 40
0.0
 40
0.025831246
 40
0.0868971651
 40
0.1813729401
 40
0.3059052421
 40
0.4558329979
 40
0.6257241583
 40
1.0
 40
1.0
 40
1.0
 40
1.0
 10
855.6986368879
 20
928.8627842853
 30
0.0
 10
855.6988439203
 20
928.866228901
 30
0.0
 10
855.6901963495
 20
928.8760186053
 30
0.0
 10
855.6778628283
 20
928.8955839058
 30
0.0
 10
855.6538887108
 20
928.9251259175
 30
0.0
 10
855.6236886893
 20
928.96375453
 30
0.0
 10
855.5864774508
 20
929.0101217105
 30
0.0
 10
855.5286295099
 20
929.0825406688
 30
0.0
 10
855.4834129214
 20
929.1394849423
 30
0.0
 10
855.4526128651
 20
929.1788722387
 30
0.0
  0
SPLINE
  5
5B4
100
AcDbEntity
  8
_1
100
AcDbSpline
 62
7
  6
CONTINUOUS
 70
0
 71
3
 72
18
 73
14
 74
0
 42
0.0000001
 43
0.0000001
 44
0.0000000001
 40
0.0
 40
0.0
 40
0.0
 40
0.0
 40
0.0057631253
 40
0.0203803881
 40
0.0443199702
 40
0.077418076
 40
0.1193400525
 40
0.1697002316
 40
0.2938850562
 40
0.4452277325
 40
0.6178174506
 40
0.805205059
 40
1.0
 40
1.0
 40
1.0
 40
1.0
 10
859.0731821941
 20
927.6285122604
 30
0.0
 10
859.0713175692
 20
927.6289887033
 30
0.0
 10
859.0667294667
 20
927.6209025493
 30
0.0
 10
859.0616760745
 20
927.6092984656
 30
0.0
 10
859.0535132107
 20
927.5855324755
 30
0.0
 10
859.044095355
 20
927.5543919307
 30
0.0
 10
859.0327499335
 20
927.5138833809
 30
0.0
 10
859.014340047
 20
927.4440715461
 30
0.0
 10
858.9883258598
 20
927.3383352433
 30
0.0
 10
858.9544292527
 20
927.1926027037
 30
0.0
 10
858.9173423737
 20
927.0259190758
 30
0.0
 10
858.8785343844
 20
926.8447702171
 30
0.0
 10
858.8526616395
 20
926.7197928103
 30
0.0
 10
858.8396928312
 20
926.6560490811
 30
0.0
  0
SPLINE
  5
5B5
100
AcDbEntity
  8
_1
100
AcDbSpline
 62
7
  6
CONTINUOUS
 70
0
 71
3
 72
14
 73
10
 74
0
 42
0.0000001
 43
0.0000001
 44
0.0000000001
 40
0.0
 40
0.0
 40
0.0
 40
0.0
 40
0.3742677516
 40
0.5441590148
 40
0.6940825585
 40
0.8186069464
 40
0.9130746552
 40
0.9741460972
 40
1.0
 40
1.0
 40
1.0
 40
1.0
 10
859.5827430835
 20
926.7943404453
 30
0.0
 10
859.5332325353
 20
926.8013204453
 30
0.0
 10
859.4613003806
 20
926.8119515284
 30
0.0
 10
859.3696596852
 20
926.8258459995
 30
0.0
 10
859.3109067471
 20
926.8349333564
 30
0.0
 10
859.2623618645
 20
926.8418343131
 30
0.0
 10
859.2247992852
 20
926.8478475352
 30
0.0
 10
859.2016745884
 20
926.8487422513
 30
0.0
 10
859.1888730782
 20
926.8512628392
 30
0.0
 10
859.1859908746
 20
926.8493595223
 30
0.0
  0
SPLINE
  5
5B6
100
AcDbEntity
  8
_1
100
AcDbSpline
 62
7
  6
CONTINUOUS
 70
0
 71
3
 72
14
 73
10
 74
0
 42
0.0000001
 43
0.0000001
 44
0.0000000001
 40
0.0
 40
0.0
 40
0.0
 40
0.0
 40
0.025831246
 40
0.0868971651
 40
0.1813729401
 40
0.3059052421
 40
0.4558329979
 40
0.6257241583
 40
1.0
 40
1.0
 40
1.0
 40
1.0
 10
860.3186210896
 20
926.7203126098
 30
0.0
 10
860.3162430528
 20
926.722813246
 30
0.0
 10
860.3031856873
 20
926.7231653753
 30
0.0
 10
860.2804650911
 20
926.7274887118
 30
0.0
 10
860.2425091226
 20
926.7301027558
 30
0.0
 10
860.1936615787
 20
926.7343605086
 30
0.0
 10
860.1343727661
 20
926.7387682727
 30
0.0
 10
860.041956692
 20
926.7458505777
 30
0.0
 10
859.9694726476
 20
926.7516171595
 30
0.0
 10
859.9196610147
 20
926.7559534959
 30
0.0
  0
SPLINE
  5
5B7
100
AcDbEntity
  8
_1
100
AcDbSpline
 62
7
  6
CONTINUOUS
 70
0
 71
3
 72
14
 73
10
 74
0
 42
0.0000001
 43
0.0000001
 44
0.0000000001
 40
0.0
 40
0.0
 40
0.0
 40
0.0
 40
0.3742677516
 40
0.5441590148
 40
0.6940825585
 40
0.8186069464
 40
0.9130746553
 40
0.9741460972
 40
1.0
 40
1.0
 40
1.0
 40
1.0
 10
866.2463373987
 20
930.4086618092
 30
0.0
 10
866.2251869081
 20
930.363355391
 30
0.0
 10
866.1939894261
 20
930.2976745573
 30
0.0
 10
866.153908931
 20
930.2141004746
 30
0.0
 10
866.1280409517
 20
930.1605716465
 30
0.0
 10
866.1072483839
 20
930.1161655889
 30
0.0
 10
866.0905156757
 20
930.0820024116
 30
0.0
 10
866.0828990474
 20
930.0601497438
 30
0.0
 10
866.0767457978
 20
930.0486445473
 30
0.0
 10
866.0777232741
 20
930.0453318063
 30
0.0
  0
SPLINE
  5
5B8
100
AcDbEntity
  8
_1
100
AcDbSpline
 62
7
  6
CONTINUOUS
 70
0
 71
3
 72
14
 73
10
 74
0
 42
0.0000001
 43
0.0000001
 44
0.0000000001
 40
0.0
 40
0.0
 40
0.0
 40
0.0
 40
0.025831246
 40
0.0868971651
 40
0.1813729401
 40
0.3059052421
 40
0.4558329979
 40
0.6257241583
 40
1.0
 40
1.0
 40
1.0
 40
1.0
 10
866.0777232741
 20
936.1630013232
 30
0.0
 10
866.0767466779
 20
936.1596915649
 30
0.0
 10
866.0829704078
 20
936.1482074899
 30
0.0
 10
866.0905865866
 20
936.1263692082
 30
0.0
 10
866.1073007424
 20
936.0921913533
 30
0.0
 10
866.1280371922
 20
936.047759263
 30
0.0
 10
866.1538643629
 20
935.994209763
 30
0.0
 10
866.1939389439
 20
935.9106339427
 30
0.0
 10
866.2251869597
 20
935.8449776279
 30
0.0
 10
866.2463373987
 20
935.7996713203
 30
0.0
  0
SPLINE
  5
5B9
100
AcDbEntity
  8
_1
100
AcDbSpline
 62
7
  6
CONTINUOUS
 70
0
 71
3
 72
14
 73
10
 74
0
 42
0.0000001
 43
0.0000001
 44
0.0000000001
 40
0.0
 40
0.0
 40
0.0
 40
0.0
 40
0.025831246
 40
0.0868971649
 40
0.1813729395
 40
0.3059052412
 40
0.4558329963
 40
0.625724156
 40
1.0
 40
1.0
 40
1.0
 40
1.0
 10
866.532280477
 20
931.0907418018
 30
0.0
 10
866.5291938361
 20
931.0891987892
 30
0.0
 10
866.5250394888
 20
931.0768149212
 30
0.0
 10
866.5142622022
 20
931.0563511283
 30
0.0
 10
866.5006651283
 20
931.0208179278
 30
0.0
 10
866.4823117794
 20
930.9753496359
 30
0.0
 10
866.4607622427
 20
930.919940168
 30
0.0
 10
866.4269695559
 20
930.8336329022
 30
0.0
 10
866.4002626623
 20
930.7660020511
 30
0.0
 10
866.3815522921
 20
930.719634771
 30
0.0
  0
SPLINE
  5
5BA
100
AcDbEntity
  8
_1
100
AcDbSpline
 62
7
  6
CONTINUOUS
 70
0
 71
3
 72
14
 73
10
 74
0
 42
0.0000001
 43
0.0000001
 44
0.0000000001
 40
0.0
 40
0.0
 40
0.0
 40
0.0
 40
0.025831246
 40
0.0868971651
 40
0.1813729401
 40
0.3059052421
 40
0.4558329979
 40
0.6257241583
 40
1.0
 40
1.0
 40
1.0
 40
1.0
 10
859.1859908746
 20
939.3589736072
 30
0.0
 10
859.1888704832
 20
939.357072004
 30
0.0
 10
859.2016724012
 20
939.3596661679
 30
0.0
 10
859.224783209
 20
939.3605646603
 30
0.0
 10
859.2623544004
 20
939.3665558492
 30
0.0
 10
859.3109077709
 20
939.3733955288
 30
0.0
 10
859.3696685464
 20
939.3824378164
 30
0.0
 10
859.4613091744
 20
939.3963261237
 30
0.0
 10
859.5332326561
 20
939.4070127012
 30
0.0
 10
859.5827430835
 20
939.4139926842
 30
0.0
  0
SPLINE
  5
5BB
100
AcDbEntity
  8
_1
100
AcDbSpline
 62
7
  6
CONTINUOUS
 70
0
 71
3
 72
18
 73
14
 74
0
 42
0.0000001
 43
0.0000001
 44
0.0000000001
 40
0.0
 40
0.0
 40
0.0
 40
0.0
 40
0.0057715324
 40
0.020393751
 40
0.0442983662
 40
0.0773421697
 40
0.1192497131
 40
0.169641193
 40
0.2938406054
 40
0.4451994756
 40
0.6178588478
 40
0.8052141312
 40
1.0
 40
1.0
 40
1.0
 40
1.0
 10
856.4298145339
 20
929.1546678259
 30
0.0
 10
856.4311614278
 20
929.1532892199
 30
0.0
 10
856.426436254
 20
929.1452697407
 30
0.0
 10
856.418926554
 20
929.1350953731
 30
0.0
 10
856.4024462487
 20
929.1161621253
 30
0.0
 10
856.3802154014
 20
929.0924562066
 30
0.0
 10
856.3508145762
 20
929.0623854329
 30
0.0
 10
856.2995506117
 20
929.0115311651
 30
0.0
 10
856.2209745379
 20
928.9361164874
 30
0.0
 10
856.1116878134
 20
928.8338734462
 30
0.0
 10
855.985862811
 20
928.7184033124
 30
0.0
 10
855.8483834347
 20
928.594208867
 30
0.0
 10
855.753091435
 20
928.5093275687
 30
0.0
 10
855.7043741568
 20
928.4662261618
 30
0.0
  0
SPLINE
  5
5BC
100
AcDbEntity
  8
_1
100
AcDbSpline
 62
7
  6
CONTINUOUS
 70
0
 71
3
 72
14
 73
10
 74
0
 42
0.0000001
 43
0.0000001
 44
0.0000000001
 40
0.0
 40
0.0
 40
0.0
 40
0.0
 40
0.025831246
 40
0.0868971651
 40
0.1813729401
 40
0.3059052421
 40
0.4558329979
 40
0.6257241583
 40
1.0
 40
1.0
 40
1.0
 40
1.0
 10
855.0205638759
 20
936.4291857613
 30
0.0
 10
855.0239185088
 20
936.4299948834
 30
0.0
 10
855.0307521445
 20
936.441126829
 30
0.0
 10
855.0458565618
 20
936.4586417742
 30
0.0
 10
855.0670983745
 20
936.4902055852
 30
0.0
 10
855.0952094686
 20
936.5303799227
 30
0.0
 10
855.1286711106
 20
936.5795216586
 30
0.0
 10
855.1810126037
 20
936.6560151739
 30
0.0
 10
855.2222486322
 20
936.7159049069
 30
0.0
 10
855.2509098261
 20
936.7568748781
 30
0.0
  0
SPLINE
  5
5BD
100
AcDbEntity
  8
_1
100
AcDbSpline
 62
7
  6
CONTINUOUS
 70
0
 71
3
 72
18
 73
14
 74
0
 42
0.0000001
 43
0.0000001
 44
0.0000000001
 40
0.0
 40
0.0
 40
0.0
 40
0.0
 40
0.0057656697
 40
0.0203767644
 40
0.0442765135
 40
0.0773199043
 40
0.1192275823
 40
0.1696163823
 40
0.2938192101
 40
0.4451796827
 40
0.6178375953
 40
0.8052062831
 40
1.0
 40
1.0
 40
1.0
 40
1.0
 10
865.8887005253
 20
931.5864542242
 30
0.0
 10
865.8892200185
 20
931.5883081866
 30
0.0
 10
865.8985177541
 20
931.5882342471
 30
0.0
 10
865.9110796332
 20
931.5868152464
 30
0.0
 10
865.9357098237
 20
931.5820132366
 30
0.0
 10
865.9673534582
 20
931.5746132501
 30
0.0
 10
866.0080943998
 20
931.5641875483
 30
0.0
 10
866.0777670791
 20
931.5452190388
 30
0.0
 10
866.1823656079
 20
931.5148775469
 30
0.0
 10
866.3255536988
 20
931.4713546037
 30
0.0
 10
866.488468635
 20
931.4201210181
 30
0.0
 10
866.664768158
 20
931.3631563017
 30
0.0
 10
866.7859288873
 20
931.3230699544
 30
0.0
 10
866.8476162171
 20
931.3024296626
 30
0.0
  0
SPLINE
  5
5BE
100
AcDbEntity
  8
_1
100
AcDbSpline
 62
7
  6
CONTINUOUS
 70
0
 71
3
 72
10
 73
6
 74
0
 42
0.0000001
 43
0.0000001
 44
0.0000000001
 40
0.0
 40
0.0
 40
0.0
 40
0.0
 40
0.1090372413
 40
0.3258726281
 40
1.0
 40
1.0
 40
1.0
 40
1.0
 10
591.222050676
 20
602.484932633
 30
0.0
 10
591.2220589365
 20
602.4179142874
 30
0.0
 10
591.0199387855
 20
602.2769200131
 30
0.0
 10
590.456107541
 20
602.1392808383
 30
0.0
 10
589.8866465153
 20
602.0912685421
 30
0.0
 10
589.4723027465
 20
602.0912685421
 30
0.0
  0
SPLINE
  5
5BF
100
AcDbEntity
  8
_1
100
AcDbSpline
 62
7
  6
CONTINUOUS
 70
0
 71
3
 72
9
 73
5
 74
0
 42
0.0000001
 43
0.0000001
 44
0.0000000001
 40
0.0
 40
0.0
 40
0.0
 40
0.0
 40
0.1980888472
 40
1.0
 40
1.0
 40
1.0
 40
1.0
 10
180.7579722727
 20
338.9483512967
 30
0.0
 10
180.7579722727
 20
338.9752633368
 30
0.0
 10
180.7879594115
 20
339.1118844063
 30
0.0
 10
180.9112004852
 20
339.2023346237
 30
0.0
 10
181.0041595466
 20
339.2591494907
 30
0.0
  0
SPLINE
  5
5C0
100
AcDbEntity
  8
_1
100
AcDbSpline
 62
7
  6
CONTINUOUS
 70
0
 71
3
 72
9
 73
5
 74
0
 42
0.0000001
 43
0.0000001
 44
0.0000000001
 40
0.0
 40
0.0
 40
0.0
 40
0.0
 40
0.3240901127
 40
1.0
 40
1.0
 40
1.0
 40
1.0
 10
190.5117850282
 20
339.2591494907
 30
0.0
 10
190.5490561825
 20
339.2363700475
 30
0.0
 10
190.6582811547
 20
339.1631121926
 30
0.0
 10
190.7579722727
 20
339.0394510037
 30
0.0
 10
190.7579722727
 20
338.9483512967
 30
0.0
  0
SPLINE
  5
5C1
100
AcDbEntity
  8
_1
100
AcDbSpline
 62
7
  6
CONTINUOUS
 70
0
 71
3
 72
9
 73
5
 74
0
 42
0.0000001
 43
0.0000001
 44
0.0000000001
 40
0.0
 40
0.0
 40
0.0
 40
0.0
 40
0.1980888472
 40
1.0
 40
1.0
 40
1.0
 40
1.0
 10
778.1866332203
 20
338.9483512967
 30
0.0
 10
778.1866332203
 20
338.9752633368
 30
0.0
 10
778.2166203591
 20
339.1118844063
 30
0.0
 10
778.3398614328
 20
339.2023346237
 30
0.0
 10
778.4328204942
 20
339.2591494907
 30
0.0
  0
SPLINE
  5
5C2
100
AcDbEntity
  8
_1
100
AcDbSpline
 62
7
  6
CONTINUOUS
 70
0
 71
3
 72
9
 73
5
 74
0
 42
0.0000001
 43
0.0000001
 44
0.0000000001
 40
0.0
 40
0.0
 40
0.0
 40
0.0
 40
0.3240901127
 40
1.0
 40
1.0
 40
1.0
 40
1.0
 10
787.9404459758
 20
339.2591494907
 30
0.0
 10
787.9777171301
 20
339.2363700475
 30
0.0
 10
788.0869421023
 20
339.1631121926
 30
0.0
 10
788.1866332203
 20
339.0394510037
 30
0.0
 10
788.1866332203
 20
338.9483512967
 30
0.0
  0
SPLINE
  5
5C3
100
AcDbEntity
  8
_1
100
AcDbSpline
 62
7
  6
CONTINUOUS
 70
0
 71
3
 72
10
 73
6
 74
0
 42
0.0000001
 43
0.0000001
 44
0.0000000001
 40
0.0
 40
0.0
 40
0.0
 40
0.0
 40
0.5995688121
 40
0.8343576351
 40
1.0
 40
1.0
 40
1.0
 40
1.0
 10
784.1866332203
 20
339.848155514
 30
0.0
 10
784.9513297199
 20
339.848155514
 30
0.0
 10
786.021542579
 20
339.789438056
 30
0.0
 10
787.2707326027
 20
339.5393825078
 30
0.0
 10
787.7601855289
 20
339.3693213386
 30
0.0
 10
787.9404459458
 20
339.2591494907
 30
0.0
  0
SPLINE
  5
5C4
100
AcDbEntity
  8
_1
100
AcDbSpline
 62
7
  6
CONTINUOUS
 70
0
 71
3
 72
10
 73
6
 74
0
 42
0.0000001
 43
0.0000001
 44
0.0000000001
 40
0.0
 40
0.0
 40
0.0
 40
0.0
 40
0.1656423525
 40
0.4004311796
 40
1.0
 40
1.0
 40
1.0
 40
1.0
 10
778.4328205799
 20
339.2591494907
 30
0.0
 10
778.6130809794
 20
339.3693213284
 30
0.0
 10
779.1025338669
 20
339.5393825358
 30
0.0
 10
780.3517238798
 20
339.7894380391
 30
0.0
 10
781.4219367259
 20
339.848155514
 30
0.0
 10
782.1866332204
 20
339.848155514
 30
0.0
  0
SPLINE
  5
5C5
100
AcDbEntity
  8
_1
100
AcDbSpline
 62
7
  6
CONTINUOUS
 70
0
 71
3
 72
10
 73
6
 74
0
 42
0.0000001
 43
0.0000001
 44
0.0000000001
 40
0.0
 40
0.0
 40
0.0
 40
0.0
 40
0.5995688121
 40
0.8343576351
 40
1.0
 40
1.0
 40
1.0
 40
1.0
 10
186.7579722727
 20
339.848155514
 30
0.0
 10
187.5226687723
 20
339.848155514
 30
0.0
 10
188.5928816314
 20
339.789438056
 30
0.0
 10
189.8420716551
 20
339.5393825078
 30
0.0
 10
190.3315245813
 20
339.3693213386
 30
0.0
 10
190.5117849982
 20
339.2591494907
 30
0.0
  0
SPLINE
  5
5C6
100
AcDbEntity
  8
_1
100
AcDbSpline
 62
7
  6
CONTINUOUS
 70
0
 71
3
 72
10
 73
6
 74
0
 42
0.0000001
 43
0.0000001
 44
0.0000000001
 40
0.0
 40
0.0
 40
0.0
 40
0.0
 40
0.1656423525
 40
0.4004311796
 40
1.0
 40
1.0
 40
1.0
 40
1.0
 10
181.0041596323
 20
339.2591494907
 30
0.0
 10
181.1844200318
 20
339.3693213284
 30
0.0
 10
181.6738729193
 20
339.5393825358
 30
0.0
 10
182.9230629322
 20
339.7894380391
 30
0.0
 10
183.9932757783
 20
339.848155514
 30
0.0
 10
184.7579722728
 20
339.848155514
 30
0.0
  0
SPLINE
  5
5C7
100
AcDbEntity
  8
_1
100
AcDbSpline
 62
7
  6
CONTINUOUS
 70
0
 71
3
 72
9
 73
5
 74
0
 42
0.0000001
 43
0.0000001
 44
0.0000000001
 40
0.0
 40
0.0
 40
0.0
 40
0.0
 40
0.2621785096
 40
1.0
 40
1.0
 40
1.0
 40
1.0
 10
784.1866332203
 20
339.5101021765
 30
0.0
 10
784.3788390971
 20
339.5101021765
 30
0.0
 10
785.1117741006
 20
339.5225150022
 30
0.0
 10
785.8449098029
 20
339.5785161932
 30
0.0
 10
786.3800185243
 20
339.6574890321
 30
0.0
  0
SPLINE
  5
5C8
100
AcDbEntity
  8
_1
100
AcDbSpline
 62
7
  6
CONTINUOUS
 70
0
 71
3
 72
9
 73
5
 74
0
 42
0.0000001
 43
0.0000001
 44
0.0000000001
 40
0.0
 40
0.0
 40
0.0
 40
0.0
 40
0.2321634806
 40
1.0
 40
1.0
 40
1.0
 40
1.0
 10
779.993248006
 20
339.6574890189
 30
0.0
 10
780.1616333393
 20
339.6326382427
 30
0.0
 10
780.889423388
 20
339.5428357813
 30
0.0
 10
781.6236985957
 20
339.5101021765
 30
0.0
 10
782.1866332203
 20
339.5101021765
 30
0.0
  0
SPLINE
  5
5C9
100
AcDbEntity
  8
_1
100
AcDbSpline
 62
7
  6
CONTINUOUS
 70
0
 71
3
 72
9
 73
5
 74
0
 42
0.0000001
 43
0.0000001
 44
0.0000000001
 40
0.0
 40
0.0
 40
0.0
 40
0.0
 40
0.2621785096
 40
1.0
 40
1.0
 40
1.0
 40
1.0
 10
186.7579722727
 20
339.5101021765
 30
0.0
 10
186.9501781495
 20
339.5101021765
 30
0.0
 10
187.683113153
 20
339.5225150022
 30
0.0
 10
188.4162488553
 20
339.5785161932
 30
0.0
 10
188.9513575767
 20
339.6574890321
 30
0.0
  0
SPLINE
  5
5CA
100
AcDbEntity
  8
_1
100
AcDbSpline
 62
7
  6
CONTINUOUS
 70
0
 71
3
 72
9
 73
5
 74
0
 42
0.0000001
 43
0.0000001
 44
0.0000000001
 40
0.0
 40
0.0
 40
0.0
 40
0.0
 40
0.2321634806
 40
1.0
 40
1.0
 40
1.0
 40
1.0
 10
182.5645870584
 20
339.6574890189
 30
0.0
 10
182.7329723917
 20
339.6326382427
 30
0.0
 10
183.4607624404
 20
339.5428357813
 30
0.0
 10
184.1950376481
 20
339.5101021765
 30
0.0
 10
184.7579722727
 20
339.5101021765
 30
0.0
  0
SPLINE
  5
5CB
100
AcDbEntity
  8
_1
100
AcDbSpline
 62
7
  6
CONTINUOUS
 70
0
 71
3
 72
10
 73
6
 74
0
 42
0.0000001
 43
0.0000001
 44
0.0000000001
 40
0.0
 40
0.0
 40
0.0
 40
0.0
 40
0.1656423525
 40
0.4004311796
 40
1.0
 40
1.0
 40
1.0
 40
1.0
 10
797.9404458608
 20
601.9491836388
 30
0.0
 10
797.7601854613
 20
601.8390118011
 30
0.0
 10
797.2707325737
 20
601.6689505938
 30
0.0
 10
796.0215425608
 20
601.4188950904
 30
0.0
 10
794.9513297148
 20
601.3601776155
 30
0.0
 10
794.1866332203
 20
601.3601776155
 30
0.0
  0
SPLINE
  5
5CC
100
AcDbEntity
  8
_1
100
AcDbSpline
 62
7
  6
CONTINUOUS
 70
0
 71
3
 72
10
 73
6
 74
0
 42
0.0000001
 43
0.0000001
 44
0.0000000001
 40
0.0
 40
0.0
 40
0.0
 40
0.0
 40
0.5995688121
 40
0.8343576351
 40
1.0
 40
1.0
 40
1.0
 40
1.0
 10
792.1866332204
 20
601.3601776155
 30
0.0
 10
791.4219367208
 20
601.3601776155
 30
0.0
 10
790.3517238617
 20
601.4188950736
 30
0.0
 10
789.102533838
 20
601.6689506217
 30
0.0
 10
788.6130809118
 20
601.8390117909
 30
0.0
 10
788.4328204949
 20
601.9491836388
 30
0.0
  0
SPLINE
  5
5CD
100
AcDbEntity
  8
_1
100
AcDbSpline
 62
7
  6
CONTINUOUS
 70
0
 71
3
 72
10
 73
6
 74
0
 42
0.0000001
 43
0.0000001
 44
0.0000000001
 40
0.0
 40
0.0
 40
0.0
 40
0.0
 40
0.1656423525
 40
0.4004311796
 40
1.0
 40
1.0
 40
1.0
 40
1.0
 10
200.5117849133
 20
601.9491836388
 30
0.0
 10
200.3315245138
 20
601.8390118011
 30
0.0
 10
199.8420716262
 20
601.6689505938
 30
0.0
 10
198.5928816133
 20
601.4188950904
 30
0.0
 10
197.5226687673
 20
601.3601776155
 30
0.0
 10
196.7579722728
 20
601.3601776155
 30
0.0
  0
SPLINE
  5
5CE
100
AcDbEntity
  8
_1
100
AcDbSpline
 62
7
  6
CONTINUOUS
 70
0
 71
3
 72
9
 73
5
 74
0
 42
0.0000001
 43
0.0000001
 44
0.0000000001
 40
0.0
 40
0.0
 40
0.0
 40
0.0
 40
0.2621785096
 40
1.0
 40
1.0
 40
1.0
 40
1.0
 10
194.7579722728
 20
601.698230953
 30
0.0
 10
194.5657663961
 20
601.698230953
 30
0.0
 10
193.8328313925
 20
601.6858181274
 30
0.0
 10
193.09969569
 20
601.6298169364
 30
0.0
 10
192.5645869686
 20
601.5508440974
 30
0.0
  0
SPLINE
  5
5CF
100
AcDbEntity
  8
_1
100
AcDbSpline
 62
7
  6
CONTINUOUS
 70
0
 71
3
 72
9
 73
5
 74
0
 42
0.0000001
 43
0.0000001
 44
0.0000000001
 40
0.0
 40
0.0
 40
0.0
 40
0.0
 40
0.2321634806
 40
1.0
 40
1.0
 40
1.0
 40
1.0
 10
198.9513574874
 20
601.5508441107
 30
0.0
 10
198.7829721541
 20
601.5756948868
 30
0.0
 10
198.0551821053
 20
601.6654973483
 30
0.0
 10
197.3209068975
 20
601.698230953
 30
0.0
 10
196.7579722728
 20
601.698230953
 30
0.0
  0
SPLINE
  5
5D0
100
AcDbEntity
  8
_1
100
AcDbSpline
 62
7
  6
CONTINUOUS
 70
0
 71
3
 72
10
 73
6
 74
0
 42
0.0000001
 43
0.0000001
 44
0.0000000001
 40
0.0
 40
0.0
 40
0.0
 40
0.0
 40
0.5995688121
 40
0.8343576351
 40
1.0
 40
1.0
 40
1.0
 40
1.0
 10
194.7579722729
 20
601.3601776155
 30
0.0
 10
193.9932757733
 20
601.3601776155
 30
0.0
 10
192.9230629142
 20
601.4188950736
 30
0.0
 10
191.6738728905
 20
601.6689506217
 30
0.0
 10
191.1844199643
 20
601.8390117909
 30
0.0
 10
191.0041595474
 20
601.9491836388
 30
0.0
  0
SPLINE
  5
5D1
100
AcDbEntity
  8
_1
100
AcDbSpline
 62
7
  6
CONTINUOUS
 70
0
 71
3
 72
9
 73
5
 74
0
 42
0.0000001
 43
0.0000001
 44
0.0000000001
 40
0.0
 40
0.0
 40
0.0
 40
0.0
 40
0.2621785096
 40
1.0
 40
1.0
 40
1.0
 40
1.0
 10
792.1866332203
 20
601.698230953
 30
0.0
 10
791.9944273436
 20
601.698230953
 30
0.0
 10
791.26149234
 20
601.6858181274
 30
0.0
 10
790.5283566375
 20
601.6298169364
 30
0.0
 10
789.9932479161
 20
601.5508440974
 30
0.0
  0
SPLINE
  5
5D2
100
AcDbEntity
  8
_1
100
AcDbSpline
 62
7
  6
CONTINUOUS
 70
0
 71
3
 72
9
 73
5
 74
0
 42
0.0000001
 43
0.0000001
 44
0.0000000001
 40
0.0
 40
0.0
 40
0.0
 40
0.0
 40
0.2321634806
 40
1.0
 40
1.0
 40
1.0
 40
1.0
 10
796.3800184349
 20
601.5508441107
 30
0.0
 10
796.2116331016
 20
601.5756948868
 30
0.0
 10
795.4838430528
 20
601.6654973483
 30
0.0
 10
794.749567845
 20
601.698230953
 30
0.0
 10
794.1866332203
 20
601.698230953
 30
0.0
  0
SPLINE
  5
5D3
100
AcDbEntity
  8
_1
100
AcDbSpline
 62
7
  6
CONTINUOUS
 70
0
 71
3
 72
8
 73
4
 74
0
 42
0.0000001
 43
0.0000001
 44
0.0000000001
 40
0.0
 40
0.0
 40
0.0
 40
0.0
 40
1.0
 40
1.0
 40
1.0
 40
1.0
 10
589.4723027465
 20
602.0912685421
 30
0.0
 10
589.2152466018
 20
602.0912685421
 30
0.0
 10
588.9576974708
 20
602.1033461363
 30
0.0
 10
588.7021814889
 20
602.1314431916
 30
0.0
  0
SPLINE
  5
5D4
100
AcDbEntity
  8
_1
100
AcDbSpline
 62
7
  6
CONTINUOUS
 70
0
 71
3
 72
9
 73
5
 74
0
 42
0.0000001
 43
0.0000001
 44
0.0000000001
 40
0.0
 40
0.0
 40
0.0
 40
0.0
 40
0.6838799123
 40
1.0
 40
1.0
 40
1.0
 40
1.0
 10
588.7021814889
 20
602.1314431916
 30
0.0
 10
588.4605681612
 20
602.1580114829
 30
0.0
 10
588.1649092005
 20
602.2003079506
 30
0.0
 10
587.722568666
 20
602.3725753872
 30
0.0
 10
587.722554817
 20
602.4849331414
 30
0.0
  0
SPLINE
  5
5D5
100
AcDbEntity
  8
_1
100
AcDbSpline
 62
7
  6
CONTINUOUS
 70
0
 71
3
 72
9
 73
5
 74
0
 42
0.0000001
 43
0.0000001
 44
0.0000000001
 40
0.0
 40
0.0
 40
0.0
 40
0.0
 40
0.3240901127
 40
1.0
 40
1.0
 40
1.0
 40
1.0
 10
191.0041595173
 20
601.9491836388
 30
0.0
 10
190.9668883631
 20
601.9719630821
 30
0.0
 10
190.8576633908
 20
602.045220937
 30
0.0
 10
190.7579722728
 20
602.1688821259
 30
0.0
 10
190.7579722728
 20
602.2599818329
 30
0.0
  0
SPLINE
  5
5D6
100
AcDbEntity
  8
_1
100
AcDbSpline
 62
7
  6
CONTINUOUS
 70
0
 71
3
 72
9
 73
5
 74
0
 42
0.0000001
 43
0.0000001
 44
0.0000000001
 40
0.0
 40
0.0
 40
0.0
 40
0.0
 40
0.1980888472
 40
1.0
 40
1.0
 40
1.0
 40
1.0
 10
798.1866332203
 20
602.2599818329
 30
0.0
 10
798.1866332203
 20
602.2330697928
 30
0.0
 10
798.1566460816
 20
602.0964487233
 30
0.0
 10
798.0334050078
 20
602.0059985058
 30
0.0
 10
797.9404459464
 20
601.9491836388
 30
0.0
  0
SPLINE
  5
5D7
100
AcDbEntity
  8
_1
100
AcDbSpline
 62
7
  6
CONTINUOUS
 70
0
 71
3
 72
9
 73
5
 74
0
 42
0.0000001
 43
0.0000001
 44
0.0000000001
 40
0.0
 40
0.0
 40
0.0
 40
0.0
 40
0.3240901127
 40
1.0
 40
1.0
 40
1.0
 40
1.0
 10
788.4328204648
 20
601.9491836388
 30
0.0
 10
788.3955493106
 20
601.9719630821
 30
0.0
 10
788.2863243383
 20
602.045220937
 30
0.0
 10
788.1866332203
 20
602.1688821259
 30
0.0
 10
788.1866332203
 20
602.2599818329
 30
0.0
  0
SPLINE
  5
5D8
100
AcDbEntity
  8
_1
100
AcDbSpline
 62
7
  6
CONTINUOUS
 70
0
 71
3
 72
9
 73
5
 74
0
 42
0.0000001
 43
0.0000001
 44
0.0000000001
 40
0.0
 40
0.0
 40
0.0
 40
0.0
 40
0.1980888472
 40
1.0
 40
1.0
 40
1.0
 40
1.0
 10
200.7579722728
 20
602.2599818329
 30
0.0
 10
200.7579722728
 20
602.2330697928
 30
0.0
 10
200.7279851341
 20
602.0964487233
 30
0.0
 10
200.6047440603
 20
602.0059985058
 30
0.0
 10
200.5117849989
 20
601.9491836388
 30
0.0
  0
SPLINE
  5
5D9
100
AcDbEntity
  8
_1
100
AcDbSpline
 62
7
  6
CONTINUOUS
 70
0
 71
3
 72
10
 73
6
 74
0
 42
0.0000001
 43
0.0000001
 44
0.0000000001
 40
0.0
 40
0.0
 40
0.0
 40
0.0
 40
0.1090372413
 40
0.3258726281
 40
1.0
 40
1.0
 40
1.0
 40
1.0
 10
587.722554817
 20
602.4849331414
 30
0.0
 10
587.7225465565
 20
602.551951487
 30
0.0
 10
587.9246667075
 20
602.6929457613
 30
0.0
 10
588.488497952
 20
602.8305849361
 30
0.0
 10
589.0579589777
 20
602.8785972323
 30
0.0
 10
589.4723027465
 20
602.8785972323
 30
0.0
  0
SPLINE
  5
5DA
100
AcDbEntity
  8
_1
100
AcDbSpline
 62
7
  6
CONTINUOUS
 70
0
 71
3
 72
11
 73
7
 74
0
 42
0.0000001
 43
0.0000001
 44
0.0000000001
 40
0.0
 40
0.0
 40
0.0
 40
0.0
 40
0.357435297
 40
0.6658612102
 40
0.8852923294
 40
1.0
 40
1.0
 40
1.0
 40
1.0
 10
184.7579722726
 20
338.0485470793
 30
0.0
 10
184.2585988586
 20
338.0485470793
 30
0.0
 10
183.3332809256
 20
338.0830636467
 30
0.0
 10
182.0850566643
 20
338.259652559
 30
0.0
 10
181.2594037057
 20
338.4702237021
 30
0.0
 10
180.7869781017
 20
338.7573162252
 30
0.0
 10
180.7607135094
 20
338.9154076012
 30
0.0
  0
SPLINE
  5
5DB
100
AcDbEntity
  8
_1
100
AcDbSpline
 62
7
  6
CONTINUOUS
 70
0
 71
3
 72
11
 73
7
 74
0
 42
0.0000001
 43
0.0000001
 44
0.0000000001
 40
0.0
 40
0.0
 40
0.0
 40
0.0
 40
0.114707664
 40
0.3341387806
 40
0.6425646966
 40
1.0
 40
1.0
 40
1.0
 40
1.0
 10
190.7552310421
 20
338.9154076379
 30
0.0
 10
190.7289664795
 20
338.757316265
 30
0.0
 10
190.256540882
 20
338.4702237068
 30
0.0
 10
189.4308879348
 20
338.259652574
 30
0.0
 10
188.1826636516
 20
338.083063646
 30
0.0
 10
187.2573456996
 20
338.0485470793
 30
0.0
 10
186.7579722728
 20
338.0485470793
 30
0.0
  0
SPLINE
  5
5DC
100
AcDbEntity
  8
_1
100
AcDbSpline
 62
7
  6
CONTINUOUS
 70
0
 71
3
 72
10
 73
6
 74
0
 42
0.0000001
 43
0.0000001
 44
0.0000000001
 40
0.0
 40
0.0
 40
0.0
 40
0.0
 40
0.6741009996
 40
0.8909525028
 40
1.0
 40
1.0
 40
1.0
 40
1.0
 10
589.4723027465
 20
602.8785972323
 30
0.0
 10
589.8866311163
 20
602.8785972323
 30
0.0
 10
590.4560660827
 20
602.8305874797
 30
0.0
 10
591.0199364042
 20
602.6929635887
 30
0.0
 10
591.2220424147
 20
602.5519574132
 30
0.0
 10
591.222050676
 20
602.484932633
 30
0.0
  0
SPLINE
  5
5DD
100
AcDbEntity
  8
_1
100
AcDbSpline
 62
7
  6
CONTINUOUS
 70
0
 71
3
 72
11
 73
7
 74
0
 42
0.0000001
 43
0.0000001
 44
0.0000000001
 40
0.0
 40
0.0
 40
0.0
 40
0.0
 40
0.357435297
 40
0.6658612102
 40
0.8852923294
 40
1.0
 40
1.0
 40
1.0
 40
1.0
 10
782.1866332202
 20
338.0485470793
 30
0.0
 10
781.6872598062
 20
338.0485470793
 30
0.0
 10
780.7619418732
 20
338.0830636467
 30
0.0
 10
779.5137176119
 20
338.259652559
 30
0.0
 10
778.6880646533
 20
338.4702237021
 30
0.0
 10
778.2156390493
 20
338.7573162252
 30
0.0
 10
778.189374457
 20
338.9154076012
 30
0.0
  0
SPLINE
  5
5DE
100
AcDbEntity
  8
_1
100
AcDbSpline
 62
7
  6
CONTINUOUS
 70
0
 71
3
 72
11
 73
7
 74
0
 42
0.0000001
 43
0.0000001
 44
0.0000000001
 40
0.0
 40
0.0
 40
0.0
 40
0.0
 40
0.357435297
 40
0.6658612102
 40
0.8852923294
 40
1.0
 40
1.0
 40
1.0
 40
1.0
 10
794.1866332204
 20
603.1597860502
 30
0.0
 10
794.6860066345
 20
603.1597860502
 30
0.0
 10
795.6113245675
 20
603.1252694828
 30
0.0
 10
796.8595488288
 20
602.9486805705
 30
0.0
 10
797.6852017874
 20
602.7381094275
 30
0.0
 10
798.1576273913
 20
602.4510169044
 30
0.0
 10
798.1838919836
 20
602.2929255284
 30
0.0
  0
SPLINE
  5
5DF
100
AcDbEntity
  8
_1
100
AcDbSpline
 62
7
  6
CONTINUOUS
 70
0
 71
3
 72
11
 73
7
 74
0
 42
0.0000001
 43
0.0000001
 44
0.0000000001
 40
0.0
 40
0.0
 40
0.0
 40
0.0
 40
0.114707664
 40
0.3341387806
 40
0.6425646966
 40
1.0
 40
1.0
 40
1.0
 40
1.0
 10
788.1893744509
 20
602.2929254917
 30
0.0
 10
788.2156390136
 20
602.4510168646
 30
0.0
 10
788.6880646111
 20
602.7381094227
 30
0.0
 10
789.5137175583
 20
602.9486805556
 30
0.0
 10
790.7619418415
 20
603.1252694836
 30
0.0
 10
791.6872597934
 20
603.1597860502
 30
0.0
 10
792.1866332202
 20
603.1597860502
 30
0.0
  0
SPLINE
  5
5E0
100
AcDbEntity
  8
_1
100
AcDbSpline
 62
7
  6
CONTINUOUS
 70
0
 71
3
 72
11
 73
7
 74
0
 42
0.0000001
 43
0.0000001
 44
0.0000000001
 40
0.0
 40
0.0
 40
0.0
 40
0.0
 40
0.114707664
 40
0.3341387806
 40
0.6425646966
 40
1.0
 40
1.0
 40
1.0
 40
1.0
 10
788.1838919897
 20
338.9154076379
 30
0.0
 10
788.1576274271
 20
338.757316265
 30
0.0
 10
787.6852018296
 20
338.4702237068
 30
0.0
 10
786.8595488824
 20
338.259652574
 30
0.0
 10
785.6113245992
 20
338.083063646
 30
0.0
 10
784.6860066472
 20
338.0485470793
 30
0.0
 10
784.1866332204
 20
338.0485470793
 30
0.0
  0
SPLINE
  5
5E1
100
AcDbEntity
  8
_1
100
AcDbSpline
 62
7
  6
CONTINUOUS
 70
0
 71
3
 72
11
 73
7
 74
0
 42
0.0000001
 43
0.0000001
 44
0.0000000001
 40
0.0
 40
0.0
 40
0.0
 40
0.0
 40
0.357435297
 40
0.6658612102
 40
0.8852923294
 40
1.0
 40
1.0
 40
1.0
 40
1.0
 10
196.7579722729
 20
603.1597860502
 30
0.0
 10
197.257345687
 20
603.1597860502
 30
0.0
 10
198.18266362
 20
603.1252694828
 30
0.0
 10
199.4308878813
 20
602.9486805705
 30
0.0
 10
200.2565408399
 20
602.7381094275
 30
0.0
 10
200.7289664438
 20
602.4510169044
 30
0.0
 10
200.7552310361
 20
602.2929255284
 30
0.0
  0
SPLINE
  5
5E2
100
AcDbEntity
  8
_1
100
AcDbSpline
 62
7
  6
CONTINUOUS
 70
0
 71
3
 72
11
 73
7
 74
0
 42
0.0000001
 43
0.0000001
 44
0.0000000001
 40
0.0
 40
0.0
 40
0.0
 40
0.0
 40
0.114707664
 40
0.3341387806
 40
0.6425646966
 40
1.0
 40
1.0
 40
1.0
 40
1.0
 10
190.7607135034
 20
602.2929254917
 30
0.0
 10
190.7869780661
 20
602.4510168646
 30
0.0
 10
191.2594036636
 20
602.7381094227
 30
0.0
 10
192.0850566108
 20
602.9486805556
 30
0.0
 10
193.333280894
 20
603.1252694836
 30
0.0
 10
194.2585988459
 20
603.1597860502
 30
0.0
 10
194.7579722727
 20
603.1597860502
 30
0.0
  0
SPLINE
  5
5E3
100
AcDbEntity
  8
_1
100
AcDbSpline
 62
7
  6
CONTINUOUS
 70
0
 71
3
 72
9
 73
5
 74
0
 42
0.0000001
 43
0.0000001
 44
0.0000000001
 40
0.0
 40
0.0
 40
0.0
 40
0.0
 40
0.2128423234
 40
1.0
 40
1.0
 40
1.0
 40
1.0
 10
107.9667326255
 20
738.875688206
 30
0.0
 10
108.012726143
 20
738.8756889024
 30
0.0
 10
108.2299574649
 20
738.9118249527
 30
0.0
 10
108.4008381068
 20
739.0729988093
 30
0.0
 10
108.512580169
 20
739.2012454312
 30
0.0
  0
SPLINE
  5
5E4
100
AcDbEntity
  8
_1
100
AcDbSpline
 62
7
  6
CONTINUOUS
 70
0
 71
3
 72
9
 73
5
 74
0
 42
0.0000001
 43
0.0000001
 44
0.0000000001
 40
0.0
 40
0.0
 40
0.0
 40
0.0
 40
0.216237839
 40
1.0
 40
1.0
 40
1.0
 40
1.0
 10
108.512580169
 20
739.2012454312
 30
0.0
 10
108.5781773885
 20
739.276531511
 30
0.0
 10
108.8555538037
 20
739.6471292268
 30
0.0
 10
109.071354085
 20
740.0574897652
 30
0.0
 10
109.2438196433
 20
740.3756834616
 30
0.0
  0
SPLINE
  5
5E5
100
AcDbEntity
  8
_1
100
AcDbSpline
 62
7
  6
CONTINUOUS
 70
0
 71
3
 72
9
 73
5
 74
0
 42
0.0000001
 43
0.0000001
 44
0.0000000001
 40
0.0
 40
0.0
 40
0.0
 40
0.0
 40
0.2128423234
 40
1.0
 40
1.0
 40
1.0
 40
1.0
 10
871.2007811053
 20
739.0985964437
 30
0.0
 10
871.2007804089
 20
739.1445899613
 30
0.0
 10
871.1646443586
 20
739.3618212831
 30
0.0
 10
871.003470502
 20
739.5327019251
 30
0.0
 10
870.87522388
 20
739.6444439872
 30
0.0
  0
SPLINE
  5
5E6
100
AcDbEntity
  8
_1
100
AcDbSpline
 62
7
  6
CONTINUOUS
 70
0
 71
3
 72
9
 73
5
 74
0
 42
0.0000001
 43
0.0000001
 44
0.0000000001
 40
0.0
 40
0.0
 40
0.0
 40
0.0
 40
0.216237839
 40
1.0
 40
1.0
 40
1.0
 40
1.0
 10
870.87522388
 20
739.6444439872
 30
0.0
 10
870.7999378003
 20
739.7100412067
 30
0.0
 10
870.4293400845
 20
739.9874176219
 30
0.0
 10
870.0189795461
 20
740.2032179033
 30
0.0
 10
869.7007858497
 20
740.3756834615
 30
0.0
  0
SPLINE
  5
5E7
100
AcDbEntity
  8
_1
100
AcDbSpline
 62
7
  6
CONTINUOUS
 70
0
 71
3
 72
9
 73
5
 74
0
 42
0.0000001
 43
0.0000001
 44
0.0000000001
 40
0.0
 40
0.0
 40
0.0
 40
0.0
 40
0.2128423234
 40
1.0
 40
1.0
 40
1.0
 40
1.0
 10
107.7438243877
 20
1002.1097366858
 30
0.0
 10
107.7438250841
 20
1002.0637431683
 30
0.0
 10
107.7799611345
 20
1001.8465118464
 30
0.0
 10
107.9411349911
 20
1001.6756312044
 30
0.0
 10
108.069381613
 20
1001.5638891423
 30
0.0
  0
SPLINE
  5
5E8
100
AcDbEntity
  8
_1
100
AcDbSpline
 62
7
  6
CONTINUOUS
 70
0
 71
3
 72
9
 73
5
 74
0
 42
0.0000001
 43
0.0000001
 44
0.0000000001
 40
0.0
 40
0.0
 40
0.0
 40
0.0
 40
0.216237839
 40
1.0
 40
1.0
 40
1.0
 40
1.0
 10
108.069381613
 20
1001.5638891423
 30
0.0
 10
108.1446676928
 20
1001.4982919228
 30
0.0
 10
108.5152654085
 20
1001.2209155076
 30
0.0
 10
108.925625947
 20
1001.0051152262
 30
0.0
 10
109.2438196433
 20
1000.832649668
 30
0.0
  0
SPLINE
  5
5E9
100
AcDbEntity
  8
_1
100
AcDbSpline
 62
7
  6
CONTINUOUS
 70
0
 71
3
 72
9
 73
5
 74
0
 42
0.0000001
 43
0.0000001
 44
0.0000000001
 40
0.0
 40
0.0
 40
0.0
 40
0.0
 40
0.2128423234
 40
1.0
 40
1.0
 40
1.0
 40
1.0
 10
870.9778728676
 20
1002.3326449236
 30
0.0
 10
870.93187935
 20
1002.3326442271
 30
0.0
 10
870.7146480281
 20
1002.2965081768
 30
0.0
 10
870.5437673862
 20
1002.1353343202
 30
0.0
 10
870.432025324
 20
1002.0070876983
 30
0.0
  0
SPLINE
  5
5EA
100
AcDbEntity
  8
_1
100
AcDbSpline
 62
7
  6
CONTINUOUS
 70
0
 71
3
 72
9
 73
5
 74
0
 42
0.0000001
 43
0.0000001
 44
0.0000000001
 40
0.0
 40
0.0
 40
0.0
 40
0.0
 40
0.216237839
 40
1.0
 40
1.0
 40
1.0
 40
1.0
 10
870.432025324
 20
1002.0070876983
 30
0.0
 10
870.3664281046
 20
1001.9318016185
 30
0.0
 10
870.0890516894
 20
1001.5612039028
 30
0.0
 10
869.873251408
 20
1001.1508433643
 30
0.0
 10
869.7007858497
 20
1000.8326496679
 30
0.0
  0
SPLINE
  5
5EB
100
AcDbEntity
  8
_1
100
AcDbSpline
 62
7
  6
CONTINUOUS
 70
0
 71
3
 72
9
 73
5
 74
0
 42
0.0000001
 43
0.0000001
 44
0.0000000001
 40
0.0
 40
0.0
 40
0.0
 40
0.0
 40
0.2754254608
 40
1.0
 40
1.0
 40
1.0
 40
1.0
 10
109.2438196433
 20
1000.8326496679
 30
0.0
 10
109.1832486615
 20
1000.9444012825
 30
0.0
 10
108.9624947282
 20
1001.3486633251
 30
0.0
 10
108.7321462818
 20
1001.7551434694
 30
0.0
 10
108.5124460696
 20
1002.0072415885
 30
0.0
  0
SPLINE
  5
5EC
100
AcDbEntity
  8
_1
100
AcDbSpline
 62
7
  6
CONTINUOUS
 70
0
 71
3
 72
9
 73
5
 74
0
 42
0.0000001
 43
0.0000001
 44
0.0000000001
 40
0.0
 40
0.0
 40
0.0
 40
0.0
 40
0.3025303584
 40
1.0
 40
1.0
 40
1.0
 40
1.0
 10
108.5124460696
 20
1002.0072415885
 30
0.0
 10
108.4697387853
 20
1002.0562466666
 30
0.0
 10
108.324211961
 20
1002.2103304711
 30
0.0
 10
108.1165943637
 20
1002.3326426544
 30
0.0
 10
107.9667326255
 20
1002.3326449236
 30
0.0
  0
SPLINE
  5
5ED
100
AcDbEntity
  8
_1
100
AcDbSpline
 62
7
  6
CONTINUOUS
 70
0
 71
3
 72
9
 73
5
 74
0
 42
0.0000001
 43
0.0000001
 44
0.0000000001
 40
0.0
 40
0.0
 40
0.0
 40
0.0
 40
0.2754254608
 40
1.0
 40
1.0
 40
1.0
 40
1.0
 10
109.2438196433
 20
740.3756834615
 30
0.0
 10
109.1320680287
 20
740.3151124797
 30
0.0
 10
108.7278059862
 20
740.0943585465
 30
0.0
 10
108.3213258419
 20
739.8640101001
 30
0.0
 10
108.0692277228
 20
739.6443098879
 30
0.0
  0
SPLINE
  5
5EE
100
AcDbEntity
  8
_1
100
AcDbSpline
 62
7
  6
CONTINUOUS
 70
0
 71
3
 72
9
 73
5
 74
0
 42
0.0000001
 43
0.0000001
 44
0.0000000001
 40
0.0
 40
0.0
 40
0.0
 40
0.0
 40
0.3025303584
 40
1.0
 40
1.0
 40
1.0
 40
1.0
 10
108.0692277228
 20
739.6443098879
 30
0.0
 10
108.0202226447
 20
739.6016026035
 30
0.0
 10
107.8661388402
 20
739.4560757792
 30
0.0
 10
107.7438266569
 20
739.2484581819
 30
0.0
 10
107.7438243877
 20
739.0985964437
 30
0.0
  0
SPLINE
  5
5EF
100
AcDbEntity
  8
_1
100
AcDbSpline
 62
7
  6
CONTINUOUS
 70
0
 71
3
 72
9
 73
5
 74
0
 42
0.0000001
 43
0.0000001
 44
0.0000000001
 40
0.0
 40
0.0
 40
0.0
 40
0.0
 40
0.2754254608
 40
1.0
 40
1.0
 40
1.0
 40
1.0
 10
869.7007858497
 20
1000.832649668
 30
0.0
 10
869.8125374643
 20
1000.8932206498
 30
0.0
 10
870.2167995069
 20
1001.1139745831
 30
0.0
 10
870.6232796512
 20
1001.3443230295
 30
0.0
 10
870.8753777702
 20
1001.5640232416
 30
0.0
  0
SPLINE
  5
5F0
100
AcDbEntity
  8
_1
100
AcDbSpline
 62
7
  6
CONTINUOUS
 70
0
 71
3
 72
9
 73
5
 74
0
 42
0.0000001
 43
0.0000001
 44
0.0000000001
 40
0.0
 40
0.0
 40
0.0
 40
0.0
 40
0.3025303584
 40
1.0
 40
1.0
 40
1.0
 40
1.0
 10
870.8753777702
 20
1001.5640232416
 30
0.0
 10
870.9243828483
 20
1001.606730526
 30
0.0
 10
871.0784666528
 20
1001.7522573503
 30
0.0
 10
871.2007788361
 20
1001.9598749476
 30
0.0
 10
871.2007811053
 20
1002.1097366858
 30
0.0
  0
SPLINE
  5
5F1
100
AcDbEntity
  8
_1
100
AcDbSpline
 62
7
  6
CONTINUOUS
 70
0
 71
3
 72
9
 73
5
 74
0
 42
0.0000001
 43
0.0000001
 44
0.0000000001
 40
0.0
 40
0.0
 40
0.0
 40
0.0
 40
0.2754254608
 40
1.0
 40
1.0
 40
1.0
 40
1.0
 10
869.7007858497
 20
740.3756834616
 30
0.0
 10
869.7613568316
 20
740.263931847
 30
0.0
 10
869.9821107648
 20
739.8596698044
 30
0.0
 10
870.2124592112
 20
739.4531896601
 30
0.0
 10
870.4321594234
 20
739.201091541
 30
0.0
  0
SPLINE
  5
5F2
100
AcDbEntity
  8
_1
100
AcDbSpline
 62
7
  6
CONTINUOUS
 70
0
 71
3
 72
9
 73
5
 74
0
 42
0.0000001
 43
0.0000001
 44
0.0000000001
 40
0.0
 40
0.0
 40
0.0
 40
0.0
 40
0.3025303584
 40
1.0
 40
1.0
 40
1.0
 40
1.0
 10
870.4321594234
 20
739.201091541
 30
0.0
 10
870.4748667078
 20
739.1520864629
 30
0.0
 10
870.6203935321
 20
738.9980026585
 30
0.0
 10
870.8280111294
 20
738.8756904751
 30
0.0
 10
870.9778728676
 20
738.875688206
 30
0.0
  0
SPLINE
  5
5F3
100
AcDbEntity
  8
_1
100
AcDbSpline
 62
7
  6
CONTINUOUS
 70
0
 71
3
 72
9
 73
5
 74
0
 42
0.0000001
 43
0.0000001
 44
0.0000000001
 40
0.0
 40
0.0
 40
0.0
 40
0.0
 40
0.2698287701
 40
1.0
 40
1.0
 40
1.0
 40
1.0
 10
869.7007858498
 20
1000.8326496679
 30
0.0
 10
869.7493129941
 20
1001.0117131661
 30
0.0
 10
869.9297689421
 20
1001.6749869371
 30
0.0
 10
870.1157815753
 20
1002.3380774779
 30
0.0
 10
870.2860015325
 20
1002.8103733312
 30
0.0
  0
SPLINE
  5
5F4
100
AcDbEntity
  8
_1
100
AcDbSpline
 62
7
  6
CONTINUOUS
 70
0
 71
3
 72
9
 73
5
 74
0
 42
0.0000001
 43
0.0000001
 44
0.0000000001
 40
0.0
 40
0.0
 40
0.0
 40
0.0
 40
0.284890379
 40
1.0
 40
1.0
 40
1.0
 40
1.0
 10
870.2860015325
 20
1002.8103733312
 30
0.0
 10
870.3094750669
 20
1002.8755034907
 30
0.0
 10
870.3948126319
 20
1003.1028781885
 30
0.0
 10
870.4918400601
 20
1003.3270536263
 30
0.0
 10
870.5783926307
 20
1003.4777440996
 30
0.0
  0
SPLINE
  5
5F5
100
AcDbEntity
  8
_1
100
AcDbSpline
 62
7
  6
CONTINUOUS
 70
0
 71
3
 72
9
 73
5
 74
0
 42
0.0000001
 43
0.0000001
 44
0.0000000001
 40
0.0
 40
0.0
 40
0.0
 40
0.0
 40
0.336842159
 40
1.0
 40
1.0
 40
1.0
 40
1.0
 10
870.5783926307
 20
1003.4777440996
 30
0.0
 10
870.6088235455
 20
1003.5307251829
 30
0.0
 10
870.7012935564
 20
1003.6793420008
 30
0.0
 10
870.8575850787
 20
1003.8326582306
 30
0.0
 10
870.9778728675
 20
1003.8326618733
 30
0.0
  0
SPLINE
  5
5F6
100
AcDbEntity
  8
_1
100
AcDbSpline
 62
7
  6
CONTINUOUS
 70
0
 71
3
 72
9
 73
5
 74
0
 42
0.0000001
 43
0.0000001
 44
0.0000000001
 40
0.0
 40
0.0
 40
0.0
 40
0.0
 40
0.2698287701
 40
1.0
 40
1.0
 40
1.0
 40
1.0
 10
109.2438196433
 20
1000.832649668
 30
0.0
 10
109.0647561451
 20
1000.8811768123
 30
0.0
 10
108.4014823742
 20
1001.0616327603
 30
0.0
 10
107.7383918334
 20
1001.2476453935
 30
0.0
 10
107.2660959801
 20
1001.4178653507
 30
0.0
  0
SPLINE
  5
5F7
100
AcDbEntity
  8
_1
100
AcDbSpline
 62
7
  6
CONTINUOUS
 70
0
 71
3
 72
9
 73
5
 74
0
 42
0.0000001
 43
0.0000001
 44
0.0000000001
 40
0.0
 40
0.0
 40
0.0
 40
0.0
 40
0.284890379
 40
1.0
 40
1.0
 40
1.0
 40
1.0
 10
107.2660959801
 20
1001.4178653507
 30
0.0
 10
107.2009658206
 20
1001.4413388852
 30
0.0
 10
106.9735911228
 20
1001.5266764502
 30
0.0
 10
106.749415685
 20
1001.6237038784
 30
0.0
 10
106.5987252117
 20
1001.7102564489
 30
0.0
  0
SPLINE
  5
5F8
100
AcDbEntity
  8
_1
100
AcDbSpline
 62
7
  6
CONTINUOUS
 70
0
 71
3
 72
9
 73
5
 74
0
 42
0.0000001
 43
0.0000001
 44
0.0000000001
 40
0.0
 40
0.0
 40
0.0
 40
0.0
 40
0.336842159
 40
1.0
 40
1.0
 40
1.0
 40
1.0
 10
106.5987252117
 20
1001.7102564489
 30
0.0
 10
106.5457441283
 20
1001.7406873637
 30
0.0
 10
106.3971273105
 20
1001.8331573746
 30
0.0
 10
106.2438110807
 20
1001.9894488969
 30
0.0
 10
106.2438074379
 20
1002.1097366858
 30
0.0
  0
SPLINE
  5
5F9
100
AcDbEntity
  8
_1
100
AcDbSpline
 62
7
  6
CONTINUOUS
 70
0
 71
3
 72
9
 73
5
 74
0
 42
0.0000001
 43
0.0000001
 44
0.0000000001
 40
0.0
 40
0.0
 40
0.0
 40
0.0
 40
0.1861325528
 40
1.0
 40
1.0
 40
1.0
 40
1.0
 10
870.9778728675
 20
737.3756712562
 30
0.0
 10
870.9437429529
 20
737.3756722898
 30
0.0
 10
870.7600785876
 20
737.4244661252
 30
0.0
 10
870.6525701452
 20
737.60140432
 30
0.0
 10
870.5782595832
 20
737.7308207048
 30
0.0
  0
SPLINE
  5
5FA
100
AcDbEntity
  8
_1
100
AcDbSpline
 62
7
  6
CONTINUOUS
 70
0
 71
3
 72
9
 73
5
 74
0
 42
0.0000001
 43
0.0000001
 44
0.0000000001
 40
0.0
 40
0.0
 40
0.0
 40
0.0
 40
0.2140687752
 40
1.0
 40
1.0
 40
1.0
 40
1.0
 10
870.5782595832
 20
737.7308207048
 30
0.0
 10
870.5523475677
 20
737.7759480632
 30
0.0
 10
870.4394382217
 20
737.9914243212
 30
0.0
 10
870.3506484849
 20
738.2185651393
 30
0.0
 10
870.2858783807
 20
738.3983015205
 30
0.0
  0
SPLINE
  5
5FB
100
AcDbEntity
  8
_1
100
AcDbSpline
 62
7
  6
CONTINUOUS
 70
0
 71
3
 72
9
 73
5
 74
0
 42
0.0000001
 43
0.0000001
 44
0.0000000001
 40
0.0
 40
0.0
 40
0.0
 40
0.0
 40
0.2322206735
 40
1.0
 40
1.0
 40
1.0
 40
1.0
 10
870.1736160634
 20
738.7276576395
 30
0.0
 10
870.1326689805
 20
738.8539080947
 30
0.0
 10
869.9642353494
 20
739.4001386781
 30
0.0
 10
869.8155682316
 20
739.9521404092
 30
0.0
 10
869.7007858498
 20
740.3756834616
 30
0.0
  0
SPLINE
  5
5FC
100
AcDbEntity
  8
_1
100
AcDbSpline
 62
7
  6
CONTINUOUS
 70
0
 71
3
 72
9
 73
5
 74
0
 42
0.0000001
 43
0.0000001
 44
0.0000000001
 40
0.0
 40
0.0
 40
0.0
 40
0.0
 40
0.2698287701
 40
1.0
 40
1.0
 40
1.0
 40
1.0
 10
109.2438196433
 20
740.3756834616
 30
0.0
 10
109.1952924989
 20
740.1966199634
 30
0.0
 10
109.0148365509
 20
739.5333461924
 30
0.0
 10
108.8288239178
 20
738.8702556516
 30
0.0
 10
108.6586039606
 20
738.3979597984
 30
0.0
  0
SPLINE
  5
5FD
100
AcDbEntity
  8
_1
100
AcDbSpline
 62
7
  6
CONTINUOUS
 70
0
 71
3
 72
9
 73
5
 74
0
 42
0.0000001
 43
0.0000001
 44
0.0000000001
 40
0.0
 40
0.0
 40
0.0
 40
0.0
 40
0.284890379
 40
1.0
 40
1.0
 40
1.0
 40
1.0
 10
108.6586039606
 20
738.3979597984
 30
0.0
 10
108.6351304261
 20
738.3328296388
 30
0.0
 10
108.5497928611
 20
738.105454941
 30
0.0
 10
108.4527654329
 20
737.8812795033
 30
0.0
 10
108.3662128623
 20
737.7305890299
 30
0.0
  0
SPLINE
  5
5FE
100
AcDbEntity
  8
_1
100
AcDbSpline
 62
7
  6
CONTINUOUS
 70
0
 71
3
 72
9
 73
5
 74
0
 42
0.0000001
 43
0.0000001
 44
0.0000000001
 40
0.0
 40
0.0
 40
0.0
 40
0.0
 40
0.336842159
 40
1.0
 40
1.0
 40
1.0
 40
1.0
 10
108.3662128623
 20
737.7305890299
 30
0.0
 10
108.3357819476
 20
737.6776079466
 30
0.0
 10
108.2433119367
 20
737.5289911287
 30
0.0
 10
108.0870204144
 20
737.375674899
 30
0.0
 10
107.9667326255
 20
737.3756712562
 30
0.0
  0
SPLINE
  5
5FF
100
AcDbEntity
  8
_1
100
AcDbSpline
 62
7
  6
CONTINUOUS
 70
0
 71
3
 72
9
 73
5
 74
0
 42
0.0000001
 43
0.0000001
 44
0.0000000001
 40
0.0
 40
0.0
 40
0.0
 40
0.0
 40
0.2698287701
 40
1.0
 40
1.0
 40
1.0
 40
1.0
 10
869.7007858497
 20
740.3756834615
 30
0.0
 10
869.8798493479
 20
740.3271563172
 30
0.0
 10
870.5431231189
 20
740.1467003692
 30
0.0
 10
871.2062136597
 20
739.960687736
 30
0.0
 10
871.6785095129
 20
739.7904677788
 30
0.0
  0
SPLINE
  5
600
100
AcDbEntity
  8
_1
100
AcDbSpline
 62
7
  6
CONTINUOUS
 70
0
 71
3
 72
9
 73
5
 74
0
 42
0.0000001
 43
0.0000001
 44
0.0000000001
 40
0.0
 40
0.0
 40
0.0
 40
0.0
 40
0.284890379
 40
1.0
 40
1.0
 40
1.0
 40
1.0
 10
871.6785095129
 20
739.7904677788
 30
0.0
 10
871.7436396725
 20
739.7669942444
 30
0.0
 10
871.9710143703
 20
739.6816566794
 30
0.0
 10
872.195189808
 20
739.5846292512
 30
0.0
 10
872.3458802814
 20
739.4980766806
 30
0.0
  0
SPLINE
  5
601
100
AcDbEntity
  8
_1
100
AcDbSpline
 62
7
  6
CONTINUOUS
 70
0
 71
3
 72
9
 73
5
 74
0
 42
0.0000001
 43
0.0000001
 44
0.0000000001
 40
0.0
 40
0.0
 40
0.0
 40
0.0
 40
0.336842159
 40
1.0
 40
1.0
 40
1.0
 40
1.0
 10
872.3458802814
 20
739.4980766806
 30
0.0
 10
872.3988613647
 20
739.4676457658
 30
0.0
 10
872.5474781825
 20
739.3751757549
 30
0.0
 10
872.7007944123
 20
739.2188842326
 30
0.0
 10
872.7007980551
 20
739.0985964437
 30
0.0
  0
SPLINE
  5
602
100
AcDbEntity
  8
_1
100
AcDbSpline
 62
7
  6
CONTINUOUS
 70
0
 71
3
 72
9
 73
5
 74
0
 42
0.0000001
 43
0.0000001
 44
0.0000000001
 40
0.0
 40
0.0
 40
0.0
 40
0.0
 40
0.1861325528
 40
1.0
 40
1.0
 40
1.0
 40
1.0
 10
106.2438074379
 20
739.0985964437
 30
0.0
 10
106.2438084715
 20
739.1327263584
 30
0.0
 10
106.2926023069
 20
739.3163907236
 30
0.0
 10
106.4695405018
 20
739.423899166
 30
0.0
 10
106.5989568865
 20
739.4982097281
 30
0.0
  0
SPLINE
  5
603
100
AcDbEntity
  8
_1
100
AcDbSpline
 62
7
  6
CONTINUOUS
 70
0
 71
3
 72
9
 73
5
 74
0
 42
0.0000001
 43
0.0000001
 44
0.0000000001
 40
0.0
 40
0.0
 40
0.0
 40
0.0
 40
0.2140687752
 40
1.0
 40
1.0
 40
1.0
 40
1.0
 10
106.5989568865
 20
739.4982097281
 30
0.0
 10
106.6440842449
 20
739.5241217436
 30
0.0
 10
106.8595605029
 20
739.6370310896
 30
0.0
 10
107.086701321
 20
739.7258208264
 30
0.0
 10
107.2664377023
 20
739.7905909306
 30
0.0
  0
SPLINE
  5
604
100
AcDbEntity
  8
_1
100
AcDbSpline
 62
7
  6
CONTINUOUS
 70
0
 71
3
 72
9
 73
5
 74
0
 42
0.0000001
 43
0.0000001
 44
0.0000000001
 40
0.0
 40
0.0
 40
0.0
 40
0.0
 40
0.2322206735
 40
1.0
 40
1.0
 40
1.0
 40
1.0
 10
107.5957938212
 20
739.9028532479
 30
0.0
 10
107.7220442764
 20
739.9438003308
 30
0.0
 10
108.2682748599
 20
740.1122339619
 30
0.0
 10
108.820276591
 20
740.2609010796
 30
0.0
 10
109.2438196433
 20
740.3756834615
 30
0.0
  0
SPLINE
  5
605
100
AcDbEntity
  8
_1
100
AcDbSpline
 62
7
  6
CONTINUOUS
 70
0
 71
3
 72
9
 73
5
 74
0
 42
0.0000001
 43
0.0000001
 44
0.0000000001
 40
0.0
 40
0.0
 40
0.0
 40
0.0
 40
0.1861325528
 40
1.0
 40
1.0
 40
1.0
 40
1.0
 10
872.7007980551
 20
1002.1097366858
 30
0.0
 10
872.7007970215
 20
1002.0756067711
 30
0.0
 10
872.6520031861
 20
1001.8919424059
 30
0.0
 10
872.4750649913
 20
1001.7844339635
 30
0.0
 10
872.3456486065
 20
1001.7101234014
 30
0.0
  0
SPLINE
  5
606
100
AcDbEntity
  8
_1
100
AcDbSpline
 62
7
  6
CONTINUOUS
 70
0
 71
3
 72
9
 73
5
 74
0
 42
0.0000001
 43
0.0000001
 44
0.0000000001
 40
0.0
 40
0.0
 40
0.0
 40
0.0
 40
0.2140687752
 40
1.0
 40
1.0
 40
1.0
 40
1.0
 10
872.3456486065
 20
1001.7101234014
 30
0.0
 10
872.3005212481
 20
1001.684211386
 30
0.0
 10
872.0850449901
 20
1001.5713020399
 30
0.0
 10
871.857904172
 20
1001.4825123031
 30
0.0
 10
871.6781677907
 20
1001.417742199
 30
0.0
  0
SPLINE
  5
607
100
AcDbEntity
  8
_1
100
AcDbSpline
 62
7
  6
CONTINUOUS
 70
0
 71
3
 72
9
 73
5
 74
0
 42
0.0000001
 43
0.0000001
 44
0.0000000001
 40
0.0
 40
0.0
 40
0.0
 40
0.0
 40
0.2322206735
 40
1.0
 40
1.0
 40
1.0
 40
1.0
 10
871.3488116718
 20
1001.3054798816
 30
0.0
 10
871.2225612166
 20
1001.2645327987
 30
0.0
 10
870.6763306332
 20
1001.0960991676
 30
0.0
 10
870.1243289021
 20
1000.9474320499
 30
0.0
 10
869.7007858497
 20
1000.832649668
 30
0.0
  0
SPLINE
  5
608
100
AcDbEntity
  8
_1
100
AcDbSpline
 62
7
  6
CONTINUOUS
 70
0
 71
3
 72
9
 73
5
 74
0
 42
0.0000001
 43
0.0000001
 44
0.0000000001
 40
0.0
 40
0.0
 40
0.0
 40
0.0
 40
0.1861325528
 40
1.0
 40
1.0
 40
1.0
 40
1.0
 10
107.9667326255
 20
1003.8326618733
 30
0.0
 10
108.0008625401
 20
1003.8326608398
 30
0.0
 10
108.1845269054
 20
1003.7838670043
 30
0.0
 10
108.2920353478
 20
1003.6069288095
 30
0.0
 10
108.3663459098
 20
1003.4775124247
 30
0.0
  0
SPLINE
  5
609
100
AcDbEntity
  8
_1
100
AcDbSpline
 62
7
  6
CONTINUOUS
 70
0
 71
3
 72
9
 73
5
 74
0
 42
0.0000001
 43
0.0000001
 44
0.0000000001
 40
0.0
 40
0.0
 40
0.0
 40
0.0
 40
0.2140687752
 40
1.0
 40
1.0
 40
1.0
 40
1.0
 10
108.3663459098
 20
1003.4775124247
 30
0.0
 10
108.3922579253
 20
1003.4323850663
 30
0.0
 10
108.5051672714
 20
1003.2169088083
 30
0.0
 10
108.5939570082
 20
1002.9897679903
 30
0.0
 10
108.6587271123
 20
1002.810031609
 30
0.0
  0
SPLINE
  5
60A
100
AcDbEntity
  8
_1
100
AcDbSpline
 62
7
  6
CONTINUOUS
 70
0
 71
3
 72
9
 73
5
 74
0
 42
0.0000001
 43
0.0000001
 44
0.0000000001
 40
0.0
 40
0.0
 40
0.0
 40
0.0
 40
0.2322206735
 40
1.0
 40
1.0
 40
1.0
 40
1.0
 10
108.7709894296
 20
1002.4806754901
 30
0.0
 10
108.8119365126
 20
1002.3544250349
 30
0.0
 10
108.9803701437
 20
1001.8081944514
 30
0.0
 10
109.1290372614
 20
1001.2561927203
 30
0.0
 10
109.2438196433
 20
1000.8326496679
 30
0.0
  0
ENDSEC
  0
SECTION
  2
OBJECTS
  0
DICTIONARY
  5
C
100
AcDbDictionary
280
0
281
1
  3
ACAD_GROUP
350
D
  3
ACAD_MLINESTYLE
350
17
  3
ACAD_LAYOUT
350
1A
  3
ACAD_PLOTSETTINGS
350
19
  3
ACAD_PLOTSTYLENAME
350
E
  0
DICTIONARY
  5
D
102
{ACAD_REACTORS
330
C
102
}
100
AcDbDictionary
280
0
281
1
  0
ACDBDICTIONARYWDFLT
  5
E
102
{ACAD_REACTORS
330
C
102
}
100
AcDbDictionary
281
1
  3
Normal
350
F
100
AcDbDictionaryWithDefault
340
F
  0
DICTIONARY
  5
17
102
{ACAD_REACTORS
330
C
102
}
100
AcDbDictionary
280
0
281
1
  3
Standard
350
18
  0
DICTIONARY
  5
19
102
{ACAD_REACTORS
330
C
102
}
100
AcDbDictionary
281
1
  0
DICTIONARY
  5
1A
102
{ACAD_REACTORS
330
C
102
}
100
AcDbDictionary
281
1
  3
Model
350
60B
  3
Layout1
350
60C
  0
ACDBPLACEHOLDER
  5
F
102
{ACAD_REACTORS
330
E
102
}
  0
MLINESTYLE
  5
18
102
{ACAD_REACTORS
330
17
102
}
100
AcDbMlineStyle
  2
STANDARD
 70
0
  3

 62
256
 51
90.0
 52
90.0
 71
2
 49
0.5
 62
256
  6
BYLAYER
 49
-0.5
 62
256
  6
BYLAYER
  0
LAYOUT
  5
60B
102
{ACAD_REACTORS
330
1A
102
}
100
AcDbPlotSettings
  1

  2
none_device
  4

  6

 40
0.0
 41
0.0
 42
0.0
 43
0.0
 44
210.0
 45
297.0
 46
0.0
 47
0.0
 48
0.0
 49
0.0
140
0.0
141
0.0
142
1.0
143
1.0
 70
1024
 72
1
 73
0
 74
0
  7

 75
0
147
1.0
148
0.0
149
0.0
100
AcDbLayout
  1
Model
 70
0
 71
0
 10
0.0
 20
0.0
 11
210.0
 21
297.0
 12
0.0
 22
0.0
 32
0.0
 14
0.0
 24
0.0
 34
0.0
 15
0.0
 25
0.0
 35
0.0
146
0.0
 13
0.0
 23
0.0
 33
0.0
 16
1.0
 26
0.0
 36
0.0
 17
0.0
 27
1.0
 37
0.0
 76
0
330
211
345
0
346
0
  0
LAYOUT
  5
60C
102
{ACAD_REACTORS
330
1A
102
}
100
AcDbPlotSettings
  1

  2
none_device
  4

  6

 40
0.0
 41
0.0
 42
0.0
 43
0.0
 44
210.0
 45
297.0
 46
0.0
 47
0.0
 48
0.0
 49
0.0
140
0.0
141
0.0
142
1.0
143
1.0
 70
0
 72
1
 73
0
 74
0
  7

 75
0
147
1.0
148
0.0
149
0.0
100
AcDbLayout
  1
Layout1
 70
0
 71
1
 10
0.0
 20
0.0
 11
210.0
 21
297.0
 12
0.0
 22
0.0
 32
0.0
 14
0.0
 24
0.0
 34
0.0
 15
0.0
 25
0.0
 35
0.0
146
0.0
 13
0.0
 23
0.0
 33
0.0
 16
1.0
 26
0.0
 36
0.0
 17
0.0
 27
1.0
 37
0.0
 76
0
330
212
345
0
346
0
  0
ENDSEC
  0
EOF
