999
DXF file: C:\Users\sesa63760\Dev\_Creo\CAD\MCADID0005267_3D-CAD\drw0001_4.dxf
999
Pro/ENGINEER 2019471 by Parametric Technology Corporation
  0
SECTION
  2
HEADER
  9
$ACADVER
  1
AC1024
  9
$DWGCODEPAGE
  3
ANSI_1252
  9
$EXTMAX
 10
58.0480491989
 20
82.0965267241
 30
0.0
  9
$EXTMIN
 10
0.0
 20
0.0
 30
0.0
  9
$LIMMIN
 10
0.0
 20
0.0
  9
$LIMMAX
 10
58.0480491989
 20
82.0965267241
  9
$VIEWCTR
 10
29.0240245994
 20
41.0482633621
  9
$VIEWSIZE
 40
82.0965267241
  9
$CLAYER
  8
0
  9
$LTSCALE
 40
5.3514772976
  9
$CELTYPE
  6
BYLAYER
  9
$DIMSCALE
 40
1.0
  9
$DIMASZ
 40
0.6910482047
  9
$DIMEXO
 40
1.0
  9
$DIMDLI
 40
3.6973843147
  9
$DIMEXE
 40
1.0
  9
$DIMCEN
 40
0.8756962851
  9
$DIMLFAC
 40
1.0
  9
$DIMBLK
  1
_FILLED
  9
$DIMALT
 70
0
  9
$DIMALTF
 40
0.0393700787
  9
$DIMTXT
 40
0.9674674866
  9
$DIMTOL
 70
1
  9
$DIMLIM
 70
0
  9
$DIMTFAC
 40
1.0
  9
$DIMTP
 40
0.01
  9
$DIMTM
 40
0.01
  9
$DIMGAP
 40
0.625
  9
$DIMDSEP
 70
46
  9
$AUNITS
 70
0
  9
$PDMODE
 70
3
  9
$PDSIZE
 40
0.3125
  9
$HANDSEED
  5
29F
  9
$TILEMODE
 70
1
  9
$MEASUREMENT
 70
1
  9
$INSUNITS
 70
4
  0
ENDSEC
  0
SECTION
  2
CLASSES
  0
CLASS
  1
ACDBDICTIONARYWDFLT
  2
AcDbDictionaryWithDefault
  3
AutoCAD 2000
 90
0
 91
1
280
0
281
0
  0
CLASS
  1
ACDBPLACEHOLDER
  2
AcDbPlaceHolder
  3
AutoCAD 2000
 90
0
 91
1
280
0
281
0
  0
CLASS
  1
LAYOUT
  2
AcDbLayout
  3
AutoCAD 2000
 90
0
 91
0
280
0
281
0
  0
ENDSEC
  0
SECTION
  2
TABLES
  0
TABLE
  2
VPORT
  5
8
100
AcDbSymbolTable
 70
2
  0
VPORT
  5
1F4
100
AcDbSymbolTableRecord
100
AcDbViewportTableRecord
  2
*ACTIVE
 70
0
 10
0.0
 20
0.0
 11
1.0
 21
1.0
 12
29.0240245994
 22
41.0482633621
 13
0.0
 23
0.0
 14
1.0
 24
1.0
 15
0.0
 25
0.0
 16
0.0
 26
0.0
 36
1.0
 17
0.0
 27
0.0
 37
0.0
 40
82.0965267241
 41
0.7070707071
 42
50.0
 43
0.0
 44
0.0
 50
0.0
 51
0.0
 71
0
 72
100
 73
1
 74
1
 75
0
 76
0
 77
0
 78
0
  0
ENDTAB
  0
TABLE
  2
LTYPE
  5
5
100
AcDbSymbolTable
 70
6
  0
LTYPE
  5
14
100
AcDbSymbolTableRecord
100
AcDbLinetypeTableRecord
  2
BYBLOCK
 70
0
  3

 72
65
 73
0
 40
0.0
  0
LTYPE
  5
15
100
AcDbSymbolTableRecord
100
AcDbLinetypeTableRecord
  2
BYLAYER
 70
0
  3

 72
65
 73
0
 40
0.0
  0
LTYPE
  5
16
100
AcDbSymbolTableRecord
100
AcDbLinetypeTableRecord
  2
CONTINUOUS
 70
64
  3
Solid line
 72
65
 73
0
 40
0.0
  0
LTYPE
  5
1F5
100
AcDbSymbolTableRecord
100
AcDbLinetypeTableRecord
  2
CENTER
 70
64
  3
____ _ ____ _ ____ _ ____ _ ____ _ ____ _ ____
 72
65
 73
4
 40
0.6
 49
0.375
 74
0
 49
-0.075
 74
0
 49
0.075
 74
0
 49
-0.075
 74
0
  0
LTYPE
  5
1F6
100
AcDbSymbolTableRecord
100
AcDbLinetypeTableRecord
  2
HIDDEN
 70
64
  3
- - - - - - - - - - - - - - - - - - - -
 72
65
 73
2
 40
0.2
 49
0.1
 74
0
 49
-0.1
 74
0
  0
LTYPE
  5
1F7
100
AcDbSymbolTableRecord
100
AcDbLinetypeTableRecord
  2
PHANTOM
 70
64
  3
_____ _ _ _____ _ _ _____ _ _ _____
 72
65
 73
6
 40
0.8
 49
0.45
 74
0
 49
-0.05
 74
0
 49
0.1
 74
0
 49
-0.05
 74
0
 49
0.1
 74
0
 49
-0.05
 74
0
  0
LTYPE
  5
1F8
100
AcDbSymbolTableRecord
100
AcDbLinetypeTableRecord
  2
DOT
 70
64
  3
. . . . . . . . . . . . . . . . . . . .
 72
65
 73
2
 40
0.2
 49
0.1
 74
0
 49
-0.1
 74
0
  0
LTYPE
  5
1F9
100
AcDbSymbolTableRecord
100
AcDbLinetypeTableRecord
  2
DASHED
 70
64
  3
- - - - - - - - - - - - - - - - - - - -
 72
65
 73
2
 40
0.2
 49
0.1
 74
0
 49
-0.1
 74
0
  0
ENDTAB
  0
TABLE
  2
LAYER
  5
2
100
AcDbSymbolTable
 70
36
  0
LAYER
  5
10
100
AcDbSymbolTableRecord
100
AcDbLayerTableRecord
  2
0
 70
0
 62
7
  6
CONTINUOUS
370
-3
390
F
  0
LAYER
  5
1FA
100
AcDbSymbolTableRecord
100
AcDbLayerTableRecord
  2
DEFAULT_1
 70
0
 62
7
  6
CENTER
370
-3
390
F
  0
LAYER
  5
1FB
100
AcDbSymbolTableRecord
100
AcDbLayerTableRecord
  2
DEFAULT_2
 70
0
 62
7
  6
HIDDEN
370
-3
390
F
  0
LAYER
  5
1FC
100
AcDbSymbolTableRecord
100
AcDbLayerTableRecord
  2
DEFAULT_3
 70
0
 62
7
  6
PHANTOM
370
-3
390
F
  0
LAYER
  5
1FD
100
AcDbSymbolTableRecord
100
AcDbLayerTableRecord
  2
00_COMPONENTS
 70
0
 62
7
  6
CONTINUOUS
370
-3
390
F
  0
LAYER
  5
1FE
100
AcDbSymbolTableRecord
100
AcDbLayerTableRecord
  2
00_COMPONENTS_2
 70
0
 62
7
  6
CONTINUOUS
370
-3
390
F
  0
LAYER
  5
1FF
100
AcDbSymbolTableRecord
100
AcDbLayerTableRecord
  2
00_COMPONENTS_4
 70
0
 62
7
  6
CONTINUOUS
370
-3
390
F
  0
LAYER
  5
200
100
AcDbSymbolTableRecord
100
AcDbLayerTableRecord
  2
00_COMPONENTS_5
 70
0
 62
7
  6
CONTINUOUS
370
-3
390
F
  0
LAYER
  5
201
100
AcDbSymbolTableRecord
100
AcDbLayerTableRecord
  2
01_1_DEFAULT_DATUMS
 70
0
 62
7
  6
CONTINUOUS
370
-3
390
F
  0
LAYER
  5
202
100
AcDbSymbolTableRecord
100
AcDbLayerTableRecord
  2
01_PLANES
 70
0
 62
7
  6
CONTINUOUS
370
-3
390
F
  0
LAYER
  5
203
100
AcDbSymbolTableRecord
100
AcDbLayerTableRecord
  2
02_COORD_SYS
 70
0
 62
7
  6
CONTINUOUS
370
-3
390
F
  0
LAYER
  5
204
100
AcDbSymbolTableRecord
100
AcDbLayerTableRecord
  2
03_AXES
 70
0
 62
7
  6
CONTINUOUS
370
-3
390
F
  0
LAYER
  5
205
100
AcDbSymbolTableRecord
100
AcDbLayerTableRecord
  2
04_POINTS
 70
0
 62
7
  6
CONTINUOUS
370
-3
390
F
  0
LAYER
  5
206
100
AcDbSymbolTableRecord
100
AcDbLayerTableRecord
  2
05_CURVES
 70
0
 62
7
  6
CONTINUOUS
370
-3
390
F
  0
LAYER
  5
207
100
AcDbSymbolTableRecord
100
AcDbLayerTableRecord
  2
06_SURFS
 70
0
 62
7
  6
CONTINUOUS
370
-3
390
F
  0
LAYER
  5
208
100
AcDbSymbolTableRecord
100
AcDbLayerTableRecord
  2
07_COSMETICS
 70
0
 62
7
  6
CONTINUOUS
370
-3
390
F
  0
LAYER
  5
209
100
AcDbSymbolTableRecord
100
AcDbLayerTableRecord
  2
10_NOTES
 70
0
 62
7
  6
CONTINUOUS
370
-3
390
F
  0
LAYER
  5
20A
100
AcDbSymbolTableRecord
100
AcDbLayerTableRecord
  2
11_NOTES_PUB
 70
0
 62
7
  6
CONTINUOUS
370
-3
390
F
  0
LAYER
  5
20B
100
AcDbSymbolTableRecord
100
AcDbLayerTableRecord
  2
13_REF_GTOL
 70
0
 62
7
  6
CONTINUOUS
370
-3
390
F
  0
LAYER
  5
20C
100
AcDbSymbolTableRecord
100
AcDbLayerTableRecord
  2
16_MISC
 70
0
 62
7
  6
CONTINUOUS
370
-3
390
F
  0
LAYER
  5
20D
100
AcDbSymbolTableRecord
100
AcDbLayerTableRecord
  2
17_NO_PRINT
 70
0
 62
7
  6
CONTINUOUS
370
-3
390
F
  0
LAYER
  5
20E
100
AcDbSymbolTableRecord
100
AcDbLayerTableRecord
  2
18_DATUM_CAMS_JOINTS
 70
0
 62
7
  6
CONTINUOUS
370
-3
390
F
  0
LAYER
  5
20F
100
AcDbSymbolTableRecord
100
AcDbLayerTableRecord
  2
19_DATUM_FUNCTIONAL
 70
0
 62
7
  6
CONTINUOUS
370
-3
390
F
  0
LAYER
  5
210
100
AcDbSymbolTableRecord
100
AcDbLayerTableRecord
  2
20_DATUM_KINEMATIC_SCHEME
 70
0
 62
7
  6
CONTINUOUS
370
-3
390
F
  0
LAYER
  5
211
100
AcDbSymbolTableRecord
100
AcDbLayerTableRecord
  2
INTF_BLANK
 70
0
 62
7
  6
CONTINUOUS
370
-3
390
F
  0
LAYER
  5
212
100
AcDbSymbolTableRecord
100
AcDbLayerTableRecord
  2
SHELL1
 70
0
 62
7
  6
CONTINUOUS
370
-3
390
F
  0
LAYER
  5
213
100
AcDbSymbolTableRecord
100
AcDbLayerTableRecord
  2
SHELL2
 70
0
 62
7
  6
CONTINUOUS
370
-3
390
F
  0
LAYER
  5
214
100
AcDbSymbolTableRecord
100
AcDbLayerTableRecord
  2
SHELL980
 70
0
 62
7
  6
CONTINUOUS
370
-3
390
F
  0
LAYER
  5
215
100
AcDbSymbolTableRecord
100
AcDbLayerTableRecord
  2
_BLACK_HOLE
 70
0
 62
7
  6
CONTINUOUS
370
-3
390
F
  0
LAYER
  5
216
100
AcDbSymbolTableRecord
100
AcDbLayerTableRecord
  2
black
 70
0
 62
7
  6
CONTINUOUS
370
-3
390
F
  0
ENDTAB
  0
TABLE
  2
STYLE
  5
3
100
AcDbSymbolTable
 70
1
  0
STYLE
  5
11
100
AcDbSymbolTableRecord
100
AcDbTextStyleTableRecord
  2
STANDARD
 70
0
 40
0.0
 41
1.0
 50
0.0
 71
0
 42
0.2
  3
ARIAL.TTF
  4

  0
STYLE
  5
217
100
AcDbSymbolTableRecord
100
AcDbTextStyleTableRecord
  2
TEXTSTYLE_1
 70
0
 40
0.0
 41
0.8
 50
0.0
 71
0
 42
0.2
  3
gdt
  4

  0
ENDTAB
  0
TABLE
  2
VIEW
  5
6
100
AcDbSymbolTable
 70
0
  0
ENDTAB
  0
TABLE
  2
UCS
  5
7
100
AcDbSymbolTable
 70
0
  0
ENDTAB
  0
TABLE
  2
APPID
  5
9
100
AcDbSymbolTable
 70
1
  0
APPID
  5
218
100
AcDbSymbolTableRecord
100
AcDbRegAppTableRecord
  2
ACAD
 70
0
  0
ENDTAB
  0
TABLE
  2
BLOCK_RECORD
  5
1
100
AcDbSymbolTable
 70
0
  0
BLOCK_RECORD
  5
219
100
AcDbSymbolTableRecord
100
AcDbBlockTableRecord
  2
*Model_Space
  0
BLOCK_RECORD
  5
21A
100
AcDbSymbolTableRecord
100
AcDbBlockTableRecord
  2
*Paper_Space
  0
BLOCK_RECORD
  5
21B
100
AcDbSymbolTableRecord
100
AcDbBlockTableRecord
  2
_FILLED
  0
ENDTAB
  0
TABLE
  2
DIMSTYLE
  5
A
100
AcDbSymbolTable
 70
1
100
AcDbDimStyleTable
 71
0
  0
DIMSTYLE
105
21C
100
AcDbSymbolTableRecord
100
AcDbDimStyleTableRecord
  2
STANDARD
 70
0
  3

  4

 40
1.0
 41
0.6910482047
 42
1.0
 43
0.38
 44
1.0
 45
0.0
 46
0.0
 47
0.01
 48
0.01
140
0.9674674866
141
0.09
142
0.0
143
25.4
144
1.0
145
0.0
146
1.0
147
0.625
 71
1
 72
0
 73
0
 74
0
 75
0
 76
0
 77
1
 78
8
 79
2
170
0
171
1
172
0
173
0
174
0
175
0
176
0
177
0
178
0
270
2
179
2
271
2
272
2
273
2
274
2
275
0
280
0
281
0
282
0
283
1
284
8
285
0
286
0
287
3
288
0
340
11
278
46
341
21B
342
21B
343
21B
344
21B
  0
ENDTAB
  0
ENDSEC
  0
SECTION
  2
BLOCKS
  0
BLOCK
  5
20
100
AcDbEntity
  8
0
100
AcDbBlockBegin
  2
*Model_Space
 70
0
 10
0.0
 20
0.0
 30
0.0
  3
*Model_Space
  1

  0
ENDBLK
  5
21
100
AcDbEntity
  8
0
100
AcDbBlockEnd
  0
BLOCK
  5
1C
100
AcDbEntity
  8
0
100
AcDbBlockBegin
  2
*Paper_Space
 70
0
 10
0.0
 20
0.0
 30
0.0
  3
*Paper_Space
  1

  0
ENDBLK
  5
1D
100
AcDbEntity
  8
0
100
AcDbBlockEnd
  0
BLOCK
  5
21D
100
AcDbEntity
  8
0
100
AcDbBlockBegin
  2
_FILLED
 70
64
 10
0.0
 20
0.0
  3
_FILLED
  1

  0
SOLID
  5
21E
100
AcDbEntity
  8
0
  6
BYBLOCK
 62
0
100
AcDbTrace
 10
0.0
 20
0.0
 11
-1.0
 21
0.25
 12
-1.0
 22
-0.25
 13
-1.0
 23
-0.25
  0
ENDBLK
  5
21F
100
AcDbEntity
  8
0
  6
BYBLOCK
 62
0
100
AcDbBlockEnd
  0
ENDSEC
  0
SECTION
  2
ENTITIES
  0
LINE
  5
220
100
AcDbEntity
  8
00_COMPONENTS_5
100
AcDbLine
 62
7
  6
BYLAYER
 10
15.9066646817
 20
10.64725
 11
47.3986646897
 21
10.64725
  0
LINE
  5
221
100
AcDbEntity
  8
00_COMPONENTS_5
100
AcDbLine
 62
7
  6
BYLAYER
 10
15.6526646817
 20
10.90125
 11
15.9066646817
 21
10.64725
  0
LINE
  5
222
100
AcDbEntity
  8
00_COMPONENTS_5
100
AcDbLine
 62
7
  6
BYLAYER
 10
15.6526646817
 20
10.90125
 11
47.6526646897
 21
10.90125
  0
LINE
  5
223
100
AcDbEntity
  8
00_COMPONENTS_5
100
AcDbLine
 62
7
  6
BYLAYER
 10
14.1901646857
 20
17.6384247664
 11
15.2589646817
 21
17.021352801
  0
LINE
  5
224
100
AcDbEntity
  8
00_COMPONENTS
100
AcDbLine
 62
7
  6
BYLAYER
 10
6.4650646857
 20
44.6312707444
 11
6.4650646857
 21
69.14345
  0
LINE
  5
225
100
AcDbEntity
  8
00_COMPONENTS_5
100
AcDbLine
 62
7
  6
BYLAYER
 10
47.6526646897
 20
16.339444398
 11
15.6526646817
 21
16.339444398
  0
LINE
  5
226
100
AcDbEntity
  8
00_COMPONENTS_5
100
AcDbLine
 62
7
  6
BYLAYER
 10
15.2589646817
 20
17.021352801
 11
48.0463646896
 21
17.021352801
  0
LINE
  5
227
100
AcDbEntity
  8
00_COMPONENTS
100
AcDbLine
 62
7
  6
BYLAYER
 10
7.7350646857
 20
53.8469059512
 11
7.7350646857
 21
55.2150727562
  0
LINE
  5
228
100
AcDbEntity
  8
00_COMPONENTS
100
AcDbLine
 62
7
  6
BYLAYER
 10
7.7350646857
 20
62.7014384865
 11
7.7350646857
 21
64.0696052916
  0
LINE
  5
229
100
AcDbEntity
  8
00_COMPONENTS
100
AcDbLine
 62
7
  6
BYLAYER
 10
7.9890646857
 20
69.14345
 11
7.9890646857
 21
70.94685
  0
LINE
  5
22A
100
AcDbEntity
  8
00_COMPONENTS
100
AcDbLine
 62
7
  6
BYLAYER
 10
10.0248032166
 20
53.9544298427
 11
10.0248032166
 21
54.6010082835
  0
LINE
  5
22B
100
AcDbEntity
  8
00_COMPONENTS
100
AcDbLine
 62
7
  6
BYLAYER
 10
10.0248032166
 20
62.8089623781
 11
10.0248032166
 21
63.4555408188
  0
LINE
  5
22C
100
AcDbEntity
  8
00_COMPONENTS_4
100
AcDbLine
 62
7
  6
BYLAYER
 10
10.2150646857
 20
37.06325
 11
10.2150646857
 21
44.50545
  0
LINE
  5
22D
100
AcDbEntity
  8
00_COMPONENTS_4
100
AcDbLine
 62
7
  6
BYLAYER
 10
11.3580646857
 20
37.06325
 11
11.3580646857
 21
34.66295
  0
LINE
  5
22E
100
AcDbEntity
  8
00_COMPONENTS
100
AcDbLine
 62
7
  6
BYLAYER
 10
11.4434646857
 20
69.14345
 11
11.4434646857
 21
70.94685
  0
LINE
  5
22F
100
AcDbEntity
  8
00_COMPONENTS_4
100
AcDbLine
 62
7
  6
BYLAYER
 10
11.8089146857
 20
34.66295
 11
11.8089146857
 21
33.07545
  0
LINE
  5
230
100
AcDbEntity
  8
00_COMPONENTS
100
AcDbLine
 62
7
  6
BYLAYER
 10
14.2374646857
 20
53.8051725452
 11
11.5234290852
 21
52.4081725452
  0
LINE
  5
231
100
AcDbEntity
  8
00_COMPONENTS_5
100
AcDbLine
 62
7
  6
BYLAYER
 10
12.6026646857
 20
25.20145
 11
12.6026646857
 21
26.72545
  0
LINE
  5
232
100
AcDbEntity
  8
00_COMPONENTS_5
100
AcDbLine
 62
7
  6
BYLAYER
 10
13.2376646857
 20
23.93145
 11
13.2376646857
 21
25.20145
  0
LINE
  5
233
100
AcDbEntity
  8
00_COMPONENTS_5
100
AcDbLine
 62
7
  6
BYLAYER
 10
14.1901646857
 20
17.6384247664
 11
14.1901646857
 21
23.93145
  0
LINE
  5
234
100
AcDbEntity
  8
00_COMPONENTS
100
AcDbLine
 62
7
  6
BYLAYER
 10
14.2374646857
 20
69.14345
 11
14.2374646857
 21
66.0870886224
  0
LINE
  5
235
100
AcDbEntity
  8
00_COMPONENTS
100
AcDbLine
 62
7
  6
BYLAYER
 10
14.2374646857
 20
65.1952116031
 11
14.2374646857
 21
63.0727968622
  0
LINE
  5
236
100
AcDbEntity
  8
00_COMPONENTS
100
AcDbLine
 62
7
  6
BYLAYER
 10
14.2374646857
 20
60.5942461727
 11
14.2374646857
 21
57.2325560871
  0
LINE
  5
237
100
AcDbEntity
  8
00_COMPONENTS
100
AcDbLine
 62
7
  6
BYLAYER
 10
14.2374646857
 20
56.3406790678
 11
14.2374646857
 21
53.8051725452
  0
LINE
  5
238
100
AcDbEntity
  8
00_COMPONENTS_5
100
AcDbLine
 62
7
  6
BYLAYER
 10
13.2376646857
 20
23.93145
 11
50.0676646857
 21
23.93145
  0
LINE
  5
239
100
AcDbEntity
  8
00_COMPONENTS_5
100
AcDbLine
 62
7
  6
BYLAYER
 10
12.6026646857
 20
25.20145
 11
50.7026646857
 21
25.20145
  0
LINE
  5
23A
100
AcDbEntity
  8
00_COMPONENTS_5
100
AcDbLine
 62
7
  6
BYLAYER
 10
15.6526646817
 20
16.339444398
 11
15.6526646817
 21
10.90125
  0
LINE
  5
23B
100
AcDbEntity
  8
00_COMPONENTS_4
100
AcDbLine
 62
7
  6
BYLAYER
 10
16.6666646857
 20
33.07545
 11
16.6666646857
 21
26.72545
  0
LINE
  5
23C
100
AcDbEntity
  8
00_COMPONENTS_5
100
AcDbLine
 62
7
  6
BYLAYER
 10
50.7026646857
 20
26.72545
 11
12.6026646857
 21
26.72545
  0
LINE
  5
23D
100
AcDbEntity
  8
00_COMPONENTS
100
AcDbLine
 62
7
  6
BYLAYER
 10
19.1650646857
 20
44.50545
 11
19.1650646857
 21
52.0543465402
  0
LINE
  5
23E
100
AcDbEntity
  8
00_COMPONENTS
100
AcDbLine
 62
7
  6
BYLAYER
 10
19.1650646857
 20
54.1589985502
 11
19.1650646857
 21
69.14345
  0
LINE
  5
23F
100
AcDbEntity
  8
00_COMPONENTS
100
AcDbLine
 62
7
  6
BYLAYER
 10
8.7699120814
 20
56.6456725267
 11
9.5062870497
 21
55.2150727562
  0
LINE
  5
240
100
AcDbEntity
  8
00_COMPONENTS
100
AcDbLine
 62
7
  6
BYLAYER
 10
21.7050646857
 20
44.50545
 11
21.7050646857
 21
69.14345
  0
LINE
  5
241
100
AcDbEntity
  8
00_COMPONENTS
100
AcDbLine
 62
7
  6
BYLAYER
 10
21.7304646857
 20
69.14345
 11
21.7304646857
 21
44.50545
  0
LINE
  5
242
100
AcDbEntity
  8
00_COMPONENTS_4
100
AcDbLine
 62
7
  6
BYLAYER
 10
11.8089146857
 20
33.07545
 11
51.4964146857
 21
33.07545
  0
LINE
  5
243
100
AcDbEntity
  8
00_COMPONENTS
100
AcDbLine
 62
7
  6
BYLAYER
 10
8.7699120814
 20
65.5002050621
 11
9.5062870497
 21
64.0696052916
  0
LINE
  5
244
100
AcDbEntity
  8
00_COMPONENTS
100
AcDbLine
 62
7
  6
BYLAYER
 10
14.2374646857
 20
57.2325560871
 11
14.133606531
 21
57.4951150213
  0
LINE
  5
245
100
AcDbEntity
  8
00_COMPONENTS_5
100
AcDbLine
 62
7
  6
BYLAYER
 10
24.4194603527
 20
23.93145
 11
24.4194603527
 21
18.4691012057
  0
LINE
  5
246
100
AcDbEntity
  8
00_COMPONENTS_4
100
AcDbLine
 62
7
  6
BYLAYER
 10
11.3580646857
 20
34.66295
 11
51.9472646857
 21
34.66295
  0
LINE
  5
247
100
AcDbEntity
  8
00_COMPONENTS
100
AcDbLine
 62
7
  6
BYLAYER
 10
14.2952724889
 20
56.9424593187
 11
14.1859698632
 21
57.1548080784
  0
LINE
  5
248
100
AcDbEntity
  8
00_COMPONENTS
100
AcDbLine
 62
7
  6
BYLAYER
 10
14.2374646857
 20
66.0870886224
 11
14.133606531
 21
66.3496475567
  0
LINE
  5
249
100
AcDbEntity
  8
00_COMPONENTS_4
100
AcDbLine
 62
7
  6
BYLAYER
 10
25.1418666734
 20
42.0247166667
 11
25.1418666734
 21
37.06325
  0
LINE
  5
24A
100
AcDbEntity
  8
00_COMPONENTS_4
100
AcDbLine
 62
7
  6
BYLAYER
 10
25.754337284
 20
44.50545
 11
25.754337284
 21
42.0247166667
  0
LINE
  5
24B
100
AcDbEntity
  8
00_COMPONENTS_4
100
AcDbLine
 62
7
  6
BYLAYER
 10
10.2150646857
 20
37.06325
 11
53.0902646857
 21
37.06325
  0
LINE
  5
24C
100
AcDbEntity
  8
00_COMPONENTS
100
AcDbLine
 62
7
  6
BYLAYER
 10
14.2952724889
 20
65.7969918541
 11
14.1859698632
 21
66.0093406137
  0
LINE
  5
24D
100
AcDbEntity
  8
00_COMPONENTS
100
AcDbLine
 62
7
  6
BYLAYER
 10
28.3471646857
 20
44.50545
 11
28.3471646857
 21
69.14345
  0
LINE
  5
24E
100
AcDbEntity
  8
00_COMPONENTS_5
100
AcDbLine
 62
7
  6
BYLAYER
 10
28.5835710084
 20
25.20145
 11
28.5835710084
 21
23.93145
  0
LINE
  5
24F
100
AcDbEntity
  8
00_COMPONENTS_4
100
AcDbLine
 62
7
  6
BYLAYER
 10
30.0651646856
 20
44.50545
 11
30.0651646856
 21
37.06325
  0
LINE
  5
250
100
AcDbEntity
  8
00_COMPONENTS
100
AcDbLine
 62
7
  6
BYLAYER
 10
31.6618646857
 20
69.14345
 11
31.6618646857
 21
44.50545
  0
LINE
  5
251
100
AcDbEntity
  8
00_COMPONENTS_4
100
AcDbLine
 62
7
  6
BYLAYER
 10
10.2150646857
 20
42.0247166667
 11
25.754337284
 21
42.0247166667
  0
LINE
  5
252
100
AcDbEntity
  8
00_COMPONENTS_4
100
AcDbLine
 62
7
  6
BYLAYER
 10
37.5509920873
 20
42.0247166667
 11
53.0902646857
 21
42.0247166667
  0
LINE
  5
253
100
AcDbEntity
  8
00_COMPONENTS
100
AcDbLine
 62
7
  6
BYLAYER
 10
32.9826646857
 20
48.97585
 11
32.9826646857
 21
44.50545
  0
LINE
  5
254
100
AcDbEntity
  8
00_COMPONENTS_4
100
AcDbLine
 62
7
  6
BYLAYER
 10
33.2401646857
 20
44.50545
 11
33.2401646857
 21
37.06325
  0
LINE
  5
255
100
AcDbEntity
  8
00_COMPONENTS_5
100
AcDbLine
 62
7
  6
BYLAYER
 10
34.7217583629
 20
23.93145
 11
34.7217583629
 21
25.20145
  0
LINE
  5
256
100
AcDbEntity
  8
00_COMPONENTS
100
AcDbLine
 62
7
  6
BYLAYER
 10
34.9638646857
 20
69.14345
 11
34.9638646857
 21
44.50545
  0
LINE
  5
257
100
AcDbEntity
  8
00_COMPONENTS_4
100
AcDbLine
 62
7
  6
BYLAYER
 10
53.0902646857
 20
44.50545
 11
10.2150646857
 21
44.50545
  0
LINE
  5
258
100
AcDbEntity
  8
00_COMPONENTS
100
AcDbLine
 62
7
  6
BYLAYER
 10
21.7050646857
 20
44.53085
 11
21.7304646857
 21
44.53085
  0
LINE
  5
259
100
AcDbEntity
  8
00_COMPONENTS
100
AcDbLine
 62
7
  6
BYLAYER
 10
19.1650646857
 20
44.6312707444
 11
6.4650646857
 21
44.6312707444
  0
LINE
  5
25A
100
AcDbEntity
  8
00_COMPONENTS
100
AcDbLine
 62
7
  6
BYLAYER
 10
10.3231636252
 20
53.6496426305
 11
9.5168032166
 21
53.9788378888
  0
LINE
  5
25B
100
AcDbEntity
  8
00_COMPONENTS
100
AcDbLine
 62
7
  6
BYLAYER
 10
10.0248032166
 20
53.9544298428
 11
10.6775996923
 21
53.6879267975
  0
LINE
  5
25C
100
AcDbEntity
  8
00_COMPONENTS
100
AcDbLine
 62
7
  6
BYLAYER
 10
10.0248032166
 20
54.6010082835
 11
11.7325759853
 21
53.9038129701
  0
LINE
  5
25D
100
AcDbEntity
  8
00_COMPONENTS_4
100
AcDbLine
 62
7
  6
BYLAYER
 10
37.5509920873
 20
42.0247166667
 11
37.5509920873
 21
44.50545
  0
LINE
  5
25E
100
AcDbEntity
  8
00_COMPONENTS_4
100
AcDbLine
 62
7
  6
BYLAYER
 10
38.1634626979
 20
37.06325
 11
38.1634626979
 21
42.0247166667
  0
LINE
  5
25F
100
AcDbEntity
  8
00_COMPONENTS_5
100
AcDbLine
 62
7
  6
BYLAYER
 10
38.8858690186
 20
23.93145
 11
38.8858690186
 21
18.4691012057
  0
LINE
  5
260
100
AcDbEntity
  8
00_COMPONENTS
100
AcDbLine
 62
7
  6
BYLAYER
 10
31.6618646857
 20
48.97585
 11
34.9638646857
 21
48.97585
  0
LINE
  5
261
100
AcDbEntity
  8
00_COMPONENTS
100
AcDbLine
 62
7
  6
BYLAYER
 10
34.9638646857
 20
50.24585
 11
31.6618646857
 21
50.24585
  0
LINE
  5
262
100
AcDbEntity
  8
00_COMPONENTS
100
AcDbLine
 62
7
  6
BYLAYER
 10
21.7050646857
 20
52.0543465402
 11
19.1650646857
 21
52.0543465402
  0
LINE
  5
263
100
AcDbEntity
  8
00_COMPONENTS
100
AcDbLine
 62
7
  6
BYLAYER
 10
21.7050646857
 20
52.4081725452
 11
11.5234290852
 21
52.4081725452
  0
LINE
  5
264
100
AcDbEntity
  8
00_COMPONENTS
100
AcDbLine
 62
7
  6
BYLAYER
 10
21.7050646857
 20
53.8051725452
 11
14.2374646857
 21
53.8051725452
  0
LINE
  5
265
100
AcDbEntity
  8
00_COMPONENTS
100
AcDbLine
 62
7
  6
BYLAYER
 10
10.3231636252
 20
62.5041751658
 11
9.5168032166
 21
62.8333704242
  0
LINE
  5
266
100
AcDbEntity
  8
00_COMPONENTS
100
AcDbLine
 62
7
  6
BYLAYER
 10
10.0248032166
 20
62.8089623781
 11
10.6775996923
 21
62.5424593329
  0
LINE
  5
267
100
AcDbEntity
  8
00_COMPONENTS
100
AcDbLine
 62
7
  6
BYLAYER
 10
19.1650646857
 20
54.1589985502
 11
21.7050646857
 21
54.1589985502
  0
LINE
  5
268
100
AcDbEntity
  8
00_COMPONENTS
100
AcDbLine
 62
7
  6
BYLAYER
 10
7.7350646857
 20
55.2150727562
 11
9.5062870497
 21
55.2150727562
  0
LINE
  5
269
100
AcDbEntity
  8
00_COMPONENTS
100
AcDbLine
 62
7
  6
BYLAYER
 10
10.0248032166
 20
63.4555408188
 11
11.7325759853
 21
62.7583455055
  0
LINE
  5
26A
100
AcDbEntity
  8
00_COMPONENTS_4
100
AcDbLine
 62
7
  6
BYLAYER
 10
46.6386646857
 20
26.72545
 11
46.6386646857
 21
33.07545
  0
LINE
  5
26B
100
AcDbEntity
  8
00_COMPONENTS_5
100
AcDbLine
 62
7
  6
BYLAYER
 10
47.6526646897
 20
10.90125
 11
47.6526646897
 21
16.339444398
  0
LINE
  5
26C
100
AcDbEntity
  8
00_COMPONENTS
100
AcDbLine
 62
7
  6
BYLAYER
 10
11.5234290852
 20
52.4081725452
 11
6.4650646857
 21
51.1063224396
  0
LINE
  5
26D
100
AcDbEntity
  8
00_COMPONENTS_5
100
AcDbLine
 62
7
  6
BYLAYER
 10
49.1151646857
 20
23.93145
 11
49.1151646857
 21
17.6384247664
  0
LINE
  5
26E
100
AcDbEntity
  8
00_COMPONENTS_5
100
AcDbLine
 62
7
  6
BYLAYER
 10
50.0676646857
 20
25.20145
 11
50.0676646857
 21
23.93145
  0
LINE
  5
26F
100
AcDbEntity
  8
00_COMPONENTS
100
AcDbLine
 62
7
  6
BYLAYER
 10
8.7699120814
 20
54.1132403006
 11
6.4650646857
 21
53.5200513588
  0
LINE
  5
270
100
AcDbEntity
  8
00_COMPONENTS
100
AcDbLine
 62
7
  6
BYLAYER
 10
6.4650646857
 20
56.0524835849
 11
8.7699120814
 21
56.6456725267
  0
LINE
  5
271
100
AcDbEntity
  8
00_COMPONENTS
100
AcDbLine
 62
7
  6
BYLAYER
 10
19.1650646857
 20
60.5942461727
 11
14.2374646857
 21
60.5942461727
  0
LINE
  5
272
100
AcDbEntity
  8
00_COMPONENTS_5
100
AcDbLine
 62
7
  6
BYLAYER
 10
50.7026646857
 20
26.72545
 11
50.7026646857
 21
25.20145
  0
LINE
  5
273
100
AcDbEntity
  8
00_COMPONENTS_4
100
AcDbLine
 62
7
  6
BYLAYER
 10
51.4964146857
 20
33.07545
 11
51.4964146857
 21
34.66295
  0
LINE
  5
274
100
AcDbEntity
  8
00_COMPONENTS_4
100
AcDbLine
 62
7
  6
BYLAYER
 10
51.9472646857
 20
34.66295
 11
51.9472646857
 21
37.06325
  0
LINE
  5
275
100
AcDbEntity
  8
00_COMPONENTS
100
AcDbLine
 62
7
  6
BYLAYER
 10
6.4650646856
 20
58.5938960672
 11
14.2374646857
 21
60.5942461727
  0
LINE
  5
276
100
AcDbEntity
  8
00_COMPONENTS
100
AcDbLine
 62
7
  6
BYLAYER
 10
19.1650646857
 20
63.0727968622
 11
14.2374646857
 21
63.0727968622
  0
LINE
  5
277
100
AcDbEntity
  8
00_COMPONENTS_4
100
AcDbLine
 62
7
  6
BYLAYER
 10
53.0902646857
 20
44.50545
 11
53.0902646857
 21
37.06325
  0
LINE
  5
278
100
AcDbEntity
  8
00_COMPONENTS
100
AcDbLine
 62
7
  6
BYLAYER
 10
14.2374646857
 20
63.0727968622
 11
6.4650646857
 21
61.0724467566
  0
LINE
  5
279
100
AcDbEntity
  8
00_COMPONENTS
100
AcDbLine
 62
7
  6
BYLAYER
 10
7.7350646857
 20
64.0696052916
 11
9.5062870497
 21
64.0696052916
  0
LINE
  5
27A
100
AcDbEntity
  8
00_COMPONENTS
100
AcDbLine
 62
7
  6
BYLAYER
 10
8.7699120814
 20
62.967772836
 11
6.4650646857
 21
62.3745838941
  0
LINE
  5
27B
100
AcDbEntity
  8
00_COMPONENTS
100
AcDbLine
 62
7
  6
BYLAYER
 10
31.6618646857
 20
67.87345
 11
34.9638646857
 21
67.87345
  0
LINE
  5
27C
100
AcDbEntity
  8
00_COMPONENTS_5
100
AcDbLine
 62
7
  6
BYLAYER
 10
48.0463646896
 20
17.021352801
 11
49.1151646856
 21
17.6384247664
  0
LINE
  5
27D
100
AcDbEntity
  8
00_COMPONENTS
100
AcDbLine
 62
7
  6
BYLAYER
 10
6.4650646857
 20
64.9070161203
 11
8.7699120814
 21
65.5002050621
  0
LINE
  5
27E
100
AcDbEntity
  8
00_COMPONENTS
100
AcDbLine
 62
7
  6
BYLAYER
 10
21.7304646857
 20
69.11805
 11
21.7050646857
 21
69.11805
  0
LINE
  5
27F
100
AcDbEntity
  8
00_COMPONENTS
100
AcDbLine
 62
7
  6
BYLAYER
 10
6.4650646857
 20
69.14345
 11
34.9638646857
 21
69.14345
  0
LINE
  5
280
100
AcDbEntity
  8
00_COMPONENTS
100
AcDbLine
 62
7
  6
BYLAYER
 10
11.4434646857
 20
70.94685
 11
7.9890646857
 21
70.94685
  0
LINE
  5
281
100
AcDbEntity
  8
00_COMPONENTS_5
100
AcDbLine
 62
7
  6
BYLAYER
 10
47.3986646897
 20
10.64725
 11
47.6526646897
 21
10.90125
  0
ARC
  5
282
100
AcDbEntity
  8
00_COMPONENTS
100
AcDbCircle
 62
7
  6
BYLAYER
 10
11.3205710649
 20
61.1823128251
 40
2.0796641761
100
AcDbArc
 50
128.5403706278
 51
133.7507702357
  0
ARC
  5
283
100
AcDbEntity
  8
00_COMPONENTS
100
AcDbCircle
 62
7
  6
BYLAYER
 10
11.3205710649
 20
52.3277802898
 40
2.079664176
100
AcDbArc
 50
128.5403706277
 51
133.7507702358
  0
ARC
  5
284
100
AcDbEntity
  8
00_COMPONENTS_5
100
AcDbCircle
 62
7
  6
BYLAYER
 10
14.8652646817
 20
16.339444398
 40
0.7874
100
AcDbArc
 50
0.0
 51
60.0
  0
ARC
  5
285
100
AcDbEntity
  8
00_COMPONENTS_5
100
AcDbCircle
 62
7
  6
BYLAYER
 10
48.4400646897
 20
16.339444398
 40
0.7874
100
AcDbArc
 50
120.0
 51
180.0
  0
SPLINE
  5
286
100
AcDbEntity
  8
00_COMPONENTS_5
100
AcDbSpline
 62
7
  6
BYLAYER
 70
0
 71
3
 72
15
 73
11
 74
0
 42
0.0000001
 43
0.0000001
 44
0.0000000001
 40
0.0
 40
0.0
 40
0.0
 40
0.0
 40
0.1262643924
 40
0.2515123322
 40
0.3759716731
 40
0.5
 40
0.6240283269
 40
0.7484876678
 40
0.8737356076
 40
1.0
 40
1.0
 40
1.0
 40
1.0
 10
14.1901646857
 20
18.4691012057
 30
0.0
 10
14.6080145119
 20
18.3385399685
 30
0.0
 10
15.4483740221
 20
18.1030909222
 30
0.0
 10
16.726016172
 20
17.838881452
 30
0.0
 10
18.012881959
 20
17.6753981307
 30
0.0
 10
19.3048125192
 20
17.6199884314
 30
0.0
 10
20.5967430793
 20
17.6753981307
 30
0.0
 10
21.8836088664
 20
17.838881452
 30
0.0
 10
23.1612510162
 20
18.1030909222
 30
0.0
 10
24.0016105265
 20
18.3385399685
 30
0.0
 10
24.4194603527
 20
18.4691012057
 30
0.0
  0
SPLINE
  5
287
100
AcDbEntity
  8
00_COMPONENTS_5
100
AcDbSpline
 62
7
  6
BYLAYER
 70
0
 71
3
 72
15
 73
11
 74
0
 42
0.0000001
 43
0.0000001
 44
0.0000000001
 40
0.0
 40
0.0
 40
0.0
 40
0.0
 40
0.12500029
 40
0.2500023334
 40
0.3750011493
 40
0.5
 40
0.6249988507
 40
0.7499976666
 40
0.87499971
 40
1.0
 40
1.0
 40
1.0
 40
1.0
 10
24.4194603527
 20
18.4691012057
 30
0.0
 10
25.0130182377
 20
18.3379591124
 30
0.0
 10
26.2061586602
 20
18.1018379255
 30
0.0
 10
28.0114623367
 20
17.838223817
 30
0.0
 10
29.8287999739
 20
17.6752444501
 30
0.0
 10
31.6526646857
 20
17.6200332137
 30
0.0
 10
33.4765293974
 20
17.6752444501
 30
0.0
 10
35.2938670346
 20
17.838223817
 30
0.0
 10
37.0991707111
 20
18.1018379255
 30
0.0
 10
38.2923111336
 20
18.3379591124
 30
0.0
 10
38.8858690186
 20
18.4691012057
 30
0.0
  0
SPLINE
  5
288
100
AcDbEntity
  8
00_COMPONENTS_5
100
AcDbSpline
 62
7
  6
BYLAYER
 70
0
 71
3
 72
15
 73
11
 74
0
 42
0.0000001
 43
0.0000001
 44
0.0000000001
 40
0.0
 40
0.0
 40
0.0
 40
0.0
 40
0.1262643924
 40
0.2515123322
 40
0.3759716731
 40
0.5
 40
0.6240283269
 40
0.7484876678
 40
0.8737356076
 40
1.0
 40
1.0
 40
1.0
 40
1.0
 10
38.8858690186
 20
18.4691012057
 30
0.0
 10
39.3037188448
 20
18.3385399685
 30
0.0
 10
40.1440783551
 20
18.1030909222
 30
0.0
 10
41.4217205049
 20
17.838881452
 30
0.0
 10
42.708586292
 20
17.6753981307
 30
0.0
 10
44.0005168521
 20
17.6199884314
 30
0.0
 10
45.2924474123
 20
17.6753981307
 30
0.0
 10
46.5793131993
 20
17.838881452
 30
0.0
 10
47.8569553492
 20
18.1030909222
 30
0.0
 10
48.6973148594
 20
18.3385399685
 30
0.0
 10
49.1151646857
 20
18.4691012057
 30
0.0
  0
SPLINE
  5
289
100
AcDbEntity
  8
00_COMPONENTS
100
AcDbSpline
 62
7
  6
BYLAYER
 70
0
 71
3
 72
11
 73
7
 74
0
 42
0.0000001
 43
0.0000001
 44
0.0000000001
 40
0.0
 40
0.0
 40
0.0
 40
0.0
 40
0.2321786272
 40
0.4789529933
 40
0.7365927127
 40
1.0
 40
1.0
 40
1.0
 40
1.0
 10
10.0248032166
 20
63.4555408188
 30
0.0
 10
10.1475673367
 20
63.5535312291
 30
0.0
 10
10.4229366001
 20
63.72885742
 30
0.0
 10
10.8864778146
 20
63.9177905542
 30
0.0
 10
11.3947768868
 20
64.0344491439
 30
0.0
 10
11.7478605233
 20
64.0606250355
 30
0.0
 10
11.9260646857
 20
64.0606250355
 30
0.0
  0
SPLINE
  5
28A
100
AcDbEntity
  8
00_COMPONENTS
100
AcDbSpline
 62
7
  6
BYLAYER
 70
0
 71
3
 72
9
 73
5
 74
0
 42
0.0000001
 43
0.0000001
 44
0.0000000001
 40
0.0
 40
0.0
 40
0.0
 40
0.0
 40
0.2573487613
 40
1.0
 40
1.0
 40
1.0
 40
1.0
 10
11.9260646857
 20
64.0606250355
 30
0.0
 10
12.0501204518
 20
64.0606250355
 30
0.0
 10
12.5315572662
 20
64.0357707278
 30
0.0
 10
13.0101835179
 20
63.9119122913
 30
0.0
 10
13.3340724424
 20
63.7594063902
 30
0.0
  0
SPLINE
  5
28B
100
AcDbEntity
  8
00_COMPONENTS
100
AcDbSpline
 62
7
  6
BYLAYER
 70
0
 71
3
 72
9
 73
5
 74
0
 42
0.0000001
 43
0.0000001
 44
0.0000000001
 40
0.0
 40
0.0
 40
0.0
 40
0.0
 40
0.2477717144
 40
1.0
 40
1.0
 40
1.0
 40
1.0
 10
9.4386291822
 20
53.7734362044
 30
0.0
 10
9.4437233306
 20
53.7908690251
 30
0.0
 10
9.4656956783
 20
53.8608086358
 30
0.0
 10
9.4932604567
 20
53.9289776549
 30
0.0
 10
9.5168032166
 20
53.9788378888
 30
0.0
  0
SPLINE
  5
28C
100
AcDbEntity
  8
00_COMPONENTS
100
AcDbSpline
 62
7
  6
BYLAYER
 70
0
 71
3
 72
9
 73
5
 74
0
 42
0.0000001
 43
0.0000001
 44
0.0000000001
 40
0.0
 40
0.0
 40
0.0
 40
0.0
 40
0.2477717144
 40
1.0
 40
1.0
 40
1.0
 40
1.0
 10
9.4386291822
 20
62.6279687398
 30
0.0
 10
9.4437233306
 20
62.6454015605
 30
0.0
 10
9.4656956783
 20
62.7153411712
 30
0.0
 10
9.4932604567
 20
62.7835101903
 30
0.0
 10
9.5168032166
 20
62.8333704242
 30
0.0
  0
SPLINE
  5
28D
100
AcDbEntity
  8
00_COMPONENTS
100
AcDbSpline
 62
7
  6
BYLAYER
 70
0
 71
3
 72
14
 73
10
 74
0
 42
0.0000001
 43
0.0000001
 44
0.0000000001
 40
0.0
 40
0.0
 40
0.0
 40
0.0
 40
0.132142359
 40
0.2663158809
 40
0.4002889432
 40
0.5319213427
 40
0.6591968977
 40
0.7804309731
 40
1.0
 40
1.0
 40
1.0
 40
1.0
 10
11.2768677812
 20
62.6071888618
 30
0.0
 10
11.4517691036
 20
62.6522024842
 30
0.0
 10
11.7990152595
 20
62.7645809164
 30
0.0
 10
12.2978016505
 20
62.9920072684
 30
0.0
 10
12.7671558671
 20
63.2741090559
 30
0.0
 10
13.193425734
 20
63.6025262732
 30
0.0
 10
13.5646163725
 20
63.9684783352
 30
0.0
 10
13.9578304947
 20
64.4737869997
 30
0.0
 10
14.1649662801
 20
64.9040124404
 30
0.0
 10
14.2374646857
 20
65.1952116031
 30
0.0
  0
SPLINE
  5
28E
100
AcDbEntity
  8
00_COMPONENTS
100
AcDbSpline
 62
7
  6
BYLAYER
 70
0
 71
3
 72
13
 73
9
 74
0
 42
0.0000001
 43
0.0000001
 44
0.0000000001
 40
0.0
 40
0.0
 40
0.0
 40
0.0
 40
0.1056420789
 40
0.2162752006
 40
0.3325821657
 40
0.4549973815
 40
0.7173494177
 40
1.0
 40
1.0
 40
1.0
 40
1.0
 10
8.7699120814
 20
62.967772836
 30
0.0
 10
8.8398721486
 20
62.9073472273
 30
0.0
 10
8.9941147047
 20
62.795953802
 30
0.0
 10
9.2546117841
 20
62.6639448732
 30
0.0
 10
9.5450234892
 20
62.5654379373
 30
0.0
 10
9.975817146
 20
62.4785540328
 30
0.0
 10
10.5644267133
 20
62.4648673017
 30
0.0
 10
11.0373383
 20
62.5455421603
 30
0.0
 10
11.2768677812
 20
62.6071888618
 30
0.0
  0
SPLINE
  5
28F
100
AcDbEntity
  8
00_COMPONENTS
100
AcDbSpline
 62
7
  6
BYLAYER
 70
0
 71
3
 72
9
 73
5
 74
0
 42
0.0000001
 43
0.0000001
 44
0.0000000001
 40
0.0
 40
0.0
 40
0.0
 40
0.0
 40
0.2573487613
 40
1.0
 40
1.0
 40
1.0
 40
1.0
 10
11.9260646857
 20
55.2060925001
 30
0.0
 10
12.0501204518
 20
55.2060925001
 30
0.0
 10
12.5315572662
 20
55.1812381924
 30
0.0
 10
13.0101835179
 20
55.0573797559
 30
0.0
 10
13.3340724424
 20
54.9048738548
 30
0.0
  0
SPLINE
  5
290
100
AcDbEntity
  8
00_COMPONENTS
100
AcDbSpline
 62
7
  6
BYLAYER
 70
0
 71
3
 72
11
 73
7
 74
0
 42
0.0000001
 43
0.0000001
 44
0.0000000001
 40
0.0
 40
0.0
 40
0.0
 40
0.0
 40
0.2321786272
 40
0.4789529933
 40
0.7365927127
 40
1.0
 40
1.0
 40
1.0
 40
1.0
 10
10.0248032166
 20
54.6010082835
 30
0.0
 10
10.1475673367
 20
54.6989986937
 30
0.0
 10
10.4229366001
 20
54.8743248847
 30
0.0
 10
10.8864778146
 20
55.0632580189
 30
0.0
 10
11.3947768868
 20
55.1799166085
 30
0.0
 10
11.7478605233
 20
55.2060925001
 30
0.0
 10
11.9260646857
 20
55.2060925001
 30
0.0
  0
SPLINE
  5
291
100
AcDbEntity
  8
00_COMPONENTS
100
AcDbSpline
 62
7
  6
BYLAYER
 70
0
 71
3
 72
14
 73
10
 74
0
 42
0.0000001
 43
0.0000001
 44
0.0000000001
 40
0.0
 40
0.0
 40
0.0
 40
0.0
 40
0.132142359
 40
0.2663158809
 40
0.4002889432
 40
0.5319213427
 40
0.6591968977
 40
0.7804309731
 40
1.0
 40
1.0
 40
1.0
 40
1.0
 10
11.2768677812
 20
53.7526563264
 30
0.0
 10
11.4517691036
 20
53.7976699488
 30
0.0
 10
11.7990152595
 20
53.910048381
 30
0.0
 10
12.2978016505
 20
54.1374747331
 30
0.0
 10
12.7671558671
 20
54.4195765205
 30
0.0
 10
13.193425734
 20
54.7479937378
 30
0.0
 10
13.5646163725
 20
55.1139457998
 30
0.0
 10
13.9578304947
 20
55.6192544643
 30
0.0
 10
14.1649662801
 20
56.0494799051
 30
0.0
 10
14.2374646857
 20
56.3406790678
 30
0.0
  0
SPLINE
  5
292
100
AcDbEntity
  8
00_COMPONENTS
100
AcDbSpline
 62
7
  6
BYLAYER
 70
0
 71
3
 72
13
 73
9
 74
0
 42
0.0000001
 43
0.0000001
 44
0.0000000001
 40
0.0
 40
0.0
 40
0.0
 40
0.0
 40
0.1056420789
 40
0.2162752006
 40
0.3325821657
 40
0.4549973815
 40
0.7173494177
 40
1.0
 40
1.0
 40
1.0
 40
1.0
 10
8.7699120814
 20
54.1132403006
 30
0.0
 10
8.8398721486
 20
54.052814692
 30
0.0
 10
8.9941147047
 20
53.9414212666
 30
0.0
 10
9.2546117841
 20
53.8094123378
 30
0.0
 10
9.5450234892
 20
53.7109054019
 30
0.0
 10
9.975817146
 20
53.6240214974
 30
0.0
 10
10.5644267133
 20
53.6103347664
 30
0.0
 10
11.0373383
 20
53.6910096249
 30
0.0
 10
11.2768677812
 20
53.7526563264
 30
0.0
  0
SPLINE
  5
293
100
AcDbEntity
  8
00_COMPONENTS
100
AcDbSpline
 62
7
  6
BYLAYER
 70
0
 71
3
 72
15
 73
11
 74
0
 42
0.0000001
 43
0.0000001
 44
0.0000000001
 40
0.0
 40
0.0
 40
0.0
 40
0.0
 40
0.104125605
 40
0.2112476426
 40
0.3239422654
 40
0.4438838908
 40
0.5718527346
 40
0.707766468
 40
0.8509438515
 40
1.0
 40
1.0
 40
1.0
 40
1.0
 10
14.133697111
 20
57.4951616396
 30
0.0
 10
14.0830197259
 20
57.5936452199
 30
0.0
 10
13.9560191316
 20
57.7819359026
 30
0.0
 10
13.7014387859
 20
58.0180663288
 30
0.0
 10
13.3891004659
 20
58.2045843493
 30
0.0
 10
13.0272671603
 20
58.3375762982
 30
0.0
 10
12.6247472674
 20
58.4147301754
 30
0.0
 10
12.1909017227
 20
58.434820463
 30
0.0
 10
11.735928044
 20
58.3975442551
 30
0.0
 10
11.4304137438
 20
58.3361834064
 30
0.0
 10
11.2768677812
 20
58.2966659237
 30
0.0
  0
SPLINE
  5
294
100
AcDbEntity
  8
00_COMPONENTS
100
AcDbSpline
 62
7
  6
BYLAYER
 70
0
 71
3
 72
11
 73
7
 74
0
 42
0.0000001
 43
0.0000001
 44
0.0000000001
 40
0.0
 40
0.0
 40
0.0
 40
0.0
 40
0.2538815877
 40
0.510686144
 40
0.7619495882
 40
1.0
 40
1.0
 40
1.0
 40
1.0
 10
11.2768677812
 20
67.151198459
 30
0.0
 10
11.0264680812
 20
67.0867541347
 30
0.0
 10
10.5332770374
 20
66.9129178588
 30
0.0
 10
9.8495423826
 20
66.5391719654
 30
0.0
 10
9.2478506853
 20
66.0696459051
 30
0.0
 10
8.9122729661
 20
65.6964420456
 30
0.0
 10
8.7699120814
 20
65.5002050621
 30
0.0
  0
SPLINE
  5
295
100
AcDbEntity
  8
00_COMPONENTS
100
AcDbSpline
 62
7
  6
BYLAYER
 70
0
 71
3
 72
15
 73
11
 74
0
 42
0.0000001
 43
0.0000001
 44
0.0000000001
 40
0.0
 40
0.0
 40
0.0
 40
0.0
 40
0.104125605
 40
0.2112476426
 40
0.3239422654
 40
0.4438838908
 40
0.5718527346
 40
0.707766468
 40
0.8509438515
 40
1.0
 40
1.0
 40
1.0
 40
1.0
 10
14.133697111
 20
66.3496941749
 30
0.0
 10
14.0830197259
 20
66.4481777552
 30
0.0
 10
13.9560191316
 20
66.6364684379
 30
0.0
 10
13.7014387859
 20
66.8725988642
 30
0.0
 10
13.3891004659
 20
67.0591168846
 30
0.0
 10
13.0272671603
 20
67.1921088336
 30
0.0
 10
12.6247472674
 20
67.2692627108
 30
0.0
 10
12.1909017227
 20
67.2893529983
 30
0.0
 10
11.735928044
 20
67.2520767905
 30
0.0
 10
11.4304137438
 20
67.1907159417
 30
0.0
 10
11.2768677812
 20
67.151198459
 30
0.0
  0
SPLINE
  5
296
100
AcDbEntity
  8
00_COMPONENTS
100
AcDbSpline
 62
7
  6
BYLAYER
 70
0
 71
3
 72
11
 73
7
 74
0
 42
0.0000001
 43
0.0000001
 44
0.0000000001
 40
0.0
 40
0.0
 40
0.0
 40
0.0
 40
0.2538815877
 40
0.510686144
 40
0.7619495882
 40
1.0
 40
1.0
 40
1.0
 40
1.0
 10
11.2768677812
 20
58.2966659237
 30
0.0
 10
11.0264680812
 20
58.2322215994
 30
0.0
 10
10.5332770374
 20
58.0583853234
 30
0.0
 10
9.8495423826
 20
57.6846394301
 30
0.0
 10
9.2478506853
 20
57.2151133698
 30
0.0
 10
8.9122729661
 20
56.8419095103
 30
0.0
 10
8.7699120814
 20
56.6456725267
 30
0.0
  0
ELLIPSE
  5
297
100
AcDbEntity
  8
00_COMPONENTS
100
AcDbEllipse
 62
7
  6
BYLAYER
 10
10.8846646857
 20
65.6411501128
 30
0.0
 11
3.4193096007
 21
0.0
 31
0.0
 40
0.6644630244
 41
-0.1975579181
 42
0.1975579181
  0
ELLIPSE
  5
298
100
AcDbEntity
  8
00_COMPONENTS
100
AcDbEllipse
 62
7
  6
BYLAYER
 10
11.3469068832
 20
55.8885919653
 30
0.0
 11
3.4193096007
 21
0.0
 31
0.0
 40
0.6644630244
 41
0.5315947947
 42
0.5911452022
  0
ELLIPSE
  5
299
100
AcDbEntity
  8
00_COMPONENTS
100
AcDbEllipse
 62
7
  6
BYLAYER
 10
12.3453500298
 20
62.8033891785
 30
0.0
 11
3.4193096007
 21
0.0
 31
0.0
 40
0.6644630244
 41
7.3215210918
 42
8.8336327586
  0
ELLIPSE
  5
29A
100
AcDbEntity
  8
00_COMPONENTS
100
AcDbEllipse
 62
7
  6
BYLAYER
 10
11.3469068832
 20
64.7431245007
 30
0.0
 11
3.4193096007
 21
-0.0
 31
0.0
 40
0.6644630244
 41
0.5315947947
 42
0.5911452022
  0
ELLIPSE
  5
29B
100
AcDbEntity
  8
00_COMPONENTS
100
AcDbEllipse
 62
7
  6
BYLAYER
 10
10.8846646856
 20
56.7866175774
 30
0.0
 11
3.4193096007
 21
-0.0
 31
0.0
 40
0.6644630244
 41
-0.1975579181
 42
0.1975579181
  0
ELLIPSE
  5
29C
100
AcDbEntity
  8
00_COMPONENTS
100
AcDbEllipse
 62
7
  6
BYLAYER
 10
12.3453500298
 20
53.9488566432
 30
0.0
 11
3.4193096007
 21
-0.0
 31
0.0
 40
0.6644630244
 41
7.3215210918
 42
8.8336327586
  0
ENDSEC
  0
SECTION
  2
OBJECTS
  0
DICTIONARY
  5
C
100
AcDbDictionary
280
0
281
1
  3
ACAD_GROUP
350
D
  3
ACAD_MLINESTYLE
350
17
  3
ACAD_LAYOUT
350
1A
  3
ACAD_PLOTSETTINGS
350
19
  3
ACAD_PLOTSTYLENAME
350
E
  0
DICTIONARY
  5
D
102
{ACAD_REACTORS
330
C
102
}
100
AcDbDictionary
280
0
281
1
  0
ACDBDICTIONARYWDFLT
  5
E
102
{ACAD_REACTORS
330
C
102
}
100
AcDbDictionary
281
1
  3
Normal
350
F
100
AcDbDictionaryWithDefault
340
F
  0
DICTIONARY
  5
17
102
{ACAD_REACTORS
330
C
102
}
100
AcDbDictionary
280
0
281
1
  3
Standard
350
18
  0
DICTIONARY
  5
19
102
{ACAD_REACTORS
330
C
102
}
100
AcDbDictionary
281
1
  0
DICTIONARY
  5
1A
102
{ACAD_REACTORS
330
C
102
}
100
AcDbDictionary
281
1
  3
Model
350
29D
  3
Layout1
350
29E
  0
ACDBPLACEHOLDER
  5
F
102
{ACAD_REACTORS
330
E
102
}
  0
MLINESTYLE
  5
18
102
{ACAD_REACTORS
330
17
102
}
100
AcDbMlineStyle
  2
STANDARD
 70
0
  3

 62
256
 51
90.0
 52
90.0
 71
2
 49
0.5
 62
256
  6
BYLAYER
 49
-0.5
 62
256
  6
BYLAYER
  0
LAYOUT
  5
29D
102
{ACAD_REACTORS
330
1A
102
}
100
AcDbPlotSettings
  1

  2
none_device
  4

  6

 40
0.0
 41
0.0
 42
0.0
 43
0.0
 44
210.0
 45
297.0
 46
0.0
 47
0.0
 48
0.0
 49
0.0
140
0.0
141
0.0
142
1.0
143
1.0
 70
1024
 72
1
 73
0
 74
0
  7

 75
0
147
1.0
148
0.0
149
0.0
100
AcDbLayout
  1
Model
 70
0
 71
0
 10
0.0
 20
0.0
 11
210.0
 21
297.0
 12
0.0
 22
0.0
 32
0.0
 14
0.0
 24
0.0
 34
0.0
 15
0.0
 25
0.0
 35
0.0
146
0.0
 13
0.0
 23
0.0
 33
0.0
 16
1.0
 26
0.0
 36
0.0
 17
0.0
 27
1.0
 37
0.0
 76
0
330
219
345
0
346
0
  0
LAYOUT
  5
29E
102
{ACAD_REACTORS
330
1A
102
}
100
AcDbPlotSettings
  1

  2
none_device
  4

  6

 40
0.0
 41
0.0
 42
0.0
 43
0.0
 44
210.0
 45
297.0
 46
0.0
 47
0.0
 48
0.0
 49
0.0
140
0.0
141
0.0
142
1.0
143
1.0
 70
0
 72
1
 73
0
 74
0
  7

 75
0
147
1.0
148
0.0
149
0.0
100
AcDbLayout
  1
Layout1
 70
0
 71
1
 10
0.0
 20
0.0
 11
210.0
 21
297.0
 12
0.0
 22
0.0
 32
0.0
 14
0.0
 24
0.0
 34
0.0
 15
0.0
 25
0.0
 35
0.0
146
0.0
 13
0.0
 23
0.0
 33
0.0
 16
1.0
 26
0.0
 36
0.0
 17
0.0
 27
1.0
 37
0.0
 76
0
330
21A
345
0
346
0
  0
ENDSEC
  0
EOF
