999
DXF file: C:\Users\sesa63760\Dev\_Creo\CAD\MCADID0002054_3D-CAD\drw0001_7.dxf
999
Pro/ENGINEER 2019471 by Parametric Technology Corporation
  0
SECTION
  2
HEADER
  9
$ACADVER
  1
AC1024
  9
$DWGCODEPAGE
  3
ANSI_1252
  9
$EXTMAX
 10
120.3638202688
 20
170.2288315231
 30
0.0
  9
$EXTMIN
 10
0.0
 20
0.0
 30
0.0
  9
$LIMMIN
 10
0.0
 20
0.0
  9
$LIMMAX
 10
120.3638202688
 20
170.2288315231
  9
$VIEWCTR
 10
60.1819101344
 20
85.1144157615
  9
$VIEWSIZE
 40
170.2288315231
  9
$CLAYER
  8
0
  9
$LTSCALE
 40
11.0963979067
  9
$CELTYPE
  6
BYLAYER
  9
$DIMSCALE
 40
1.0
  9
$DIMASZ
 40
1.4329026222
  9
$DIMEXO
 40
1.0
  9
$DIMDLI
 40
7.6666021901
  9
$DIMEXE
 40
1.0
  9
$DIMCEN
 40
1.8157742029
  9
$DIMLFAC
 40
1.0
  9
$DIMBLK
  1
_FILLED
  9
$DIMALT
 70
0
  9
$DIMALTF
 40
0.0393700787
  9
$DIMTXT
 40
2.0060636711
  9
$DIMTOL
 70
1
  9
$DIMLIM
 70
0
  9
$DIMTFAC
 40
1.0
  9
$DIMTP
 40
0.01
  9
$DIMTM
 40
0.01
  9
$DIMGAP
 40
0.625
  9
$DIMDSEP
 70
46
  9
$AUNITS
 70
0
  9
$PDMODE
 70
3
  9
$PDSIZE
 40
0.3125
  9
$HANDSEED
  5
3F0
  9
$TILEMODE
 70
1
  9
$MEASUREMENT
 70
1
  9
$INSUNITS
 70
4
  0
ENDSEC
  0
SECTION
  2
CLASSES
  0
CLASS
  1
ACDBDICTIONARYWDFLT
  2
AcDbDictionaryWithDefault
  3
AutoCAD 2000
 90
0
 91
1
280
0
281
0
  0
CLASS
  1
ACDBPLACEHOLDER
  2
AcDbPlaceHolder
  3
AutoCAD 2000
 90
0
 91
1
280
0
281
0
  0
CLASS
  1
LAYOUT
  2
AcDbLayout
  3
AutoCAD 2000
 90
0
 91
0
280
0
281
0
  0
ENDSEC
  0
SECTION
  2
TABLES
  0
TABLE
  2
VPORT
  5
8
100
AcDbSymbolTable
 70
2
  0
VPORT
  5
1F4
100
AcDbSymbolTableRecord
100
AcDbViewportTableRecord
  2
*ACTIVE
 70
0
 10
0.0
 20
0.0
 11
1.0
 21
1.0
 12
60.1819101344
 22
85.1144157615
 13
0.0
 23
0.0
 14
1.0
 24
1.0
 15
0.0
 25
0.0
 16
0.0
 26
0.0
 36
1.0
 17
0.0
 27
0.0
 37
0.0
 40
170.2288315231
 41
0.7070707071
 42
50.0
 43
0.0
 44
0.0
 50
0.0
 51
0.0
 71
0
 72
100
 73
1
 74
1
 75
0
 76
0
 77
0
 78
0
  0
ENDTAB
  0
TABLE
  2
LTYPE
  5
5
100
AcDbSymbolTable
 70
6
  0
LTYPE
  5
14
100
AcDbSymbolTableRecord
100
AcDbLinetypeTableRecord
  2
BYBLOCK
 70
0
  3

 72
65
 73
0
 40
0.0
  0
LTYPE
  5
15
100
AcDbSymbolTableRecord
100
AcDbLinetypeTableRecord
  2
BYLAYER
 70
0
  3

 72
65
 73
0
 40
0.0
  0
LTYPE
  5
16
100
AcDbSymbolTableRecord
100
AcDbLinetypeTableRecord
  2
CONTINUOUS
 70
64
  3
Solid line
 72
65
 73
0
 40
0.0
  0
LTYPE
  5
1F5
100
AcDbSymbolTableRecord
100
AcDbLinetypeTableRecord
  2
CENTER
 70
64
  3
____ _ ____ _ ____ _ ____ _ ____ _ ____ _ ____
 72
65
 73
4
 40
0.6
 49
0.375
 74
0
 49
-0.075
 74
0
 49
0.075
 74
0
 49
-0.075
 74
0
  0
LTYPE
  5
1F6
100
AcDbSymbolTableRecord
100
AcDbLinetypeTableRecord
  2
HIDDEN
 70
64
  3
- - - - - - - - - - - - - - - - - - - -
 72
65
 73
2
 40
0.2
 49
0.1
 74
0
 49
-0.1
 74
0
  0
LTYPE
  5
1F7
100
AcDbSymbolTableRecord
100
AcDbLinetypeTableRecord
  2
PHANTOM
 70
64
  3
_____ _ _ _____ _ _ _____ _ _ _____
 72
65
 73
6
 40
0.8
 49
0.45
 74
0
 49
-0.05
 74
0
 49
0.1
 74
0
 49
-0.05
 74
0
 49
0.1
 74
0
 49
-0.05
 74
0
  0
LTYPE
  5
1F8
100
AcDbSymbolTableRecord
100
AcDbLinetypeTableRecord
  2
DOT
 70
64
  3
. . . . . . . . . . . . . . . . . . . .
 72
65
 73
2
 40
0.2
 49
0.1
 74
0
 49
-0.1
 74
0
  0
LTYPE
  5
1F9
100
AcDbSymbolTableRecord
100
AcDbLinetypeTableRecord
  2
DASHED
 70
64
  3
- - - - - - - - - - - - - - - - - - - -
 72
65
 73
2
 40
0.2
 49
0.1
 74
0
 49
-0.1
 74
0
  0
ENDTAB
  0
TABLE
  2
LAYER
  5
2
100
AcDbSymbolTable
 70
36
  0
LAYER
  5
10
100
AcDbSymbolTableRecord
100
AcDbLayerTableRecord
  2
0
 70
0
 62
7
  6
CONTINUOUS
370
-3
390
F
  0
LAYER
  5
1FA
100
AcDbSymbolTableRecord
100
AcDbLayerTableRecord
  2
DEFAULT_1
 70
0
 62
7
  6
CENTER
370
-3
390
F
  0
LAYER
  5
1FB
100
AcDbSymbolTableRecord
100
AcDbLayerTableRecord
  2
DEFAULT_2
 70
0
 62
8
  6
HIDDEN
370
-3
390
F
  0
LAYER
  5
1FC
100
AcDbSymbolTableRecord
100
AcDbLayerTableRecord
  2
DEFAULT_3
 70
0
 62
7
  6
PHANTOM
370
-3
390
F
  0
LAYER
  5
1FD
100
AcDbSymbolTableRecord
100
AcDbLayerTableRecord
  2
00_COMPONENTS
 70
0
 62
7
  6
CONTINUOUS
370
-3
390
F
  0
LAYER
  5
1FE
100
AcDbSymbolTableRecord
100
AcDbLayerTableRecord
  2
01_1_DEFAULT_DATUMS
 70
0
 62
7
  6
CONTINUOUS
370
-3
390
F
  0
LAYER
  5
1FF
100
AcDbSymbolTableRecord
100
AcDbLayerTableRecord
  2
01_PLANES
 70
0
 62
7
  6
CONTINUOUS
370
-3
390
F
  0
LAYER
  5
200
100
AcDbSymbolTableRecord
100
AcDbLayerTableRecord
  2
02_COORD_SYS
 70
0
 62
7
  6
CONTINUOUS
370
-3
390
F
  0
LAYER
  5
201
100
AcDbSymbolTableRecord
100
AcDbLayerTableRecord
  2
03_AXES
 70
0
 62
7
  6
CONTINUOUS
370
-3
390
F
  0
LAYER
  5
202
100
AcDbSymbolTableRecord
100
AcDbLayerTableRecord
  2
04_POINTS
 70
0
 62
7
  6
CONTINUOUS
370
-3
390
F
  0
LAYER
  5
203
100
AcDbSymbolTableRecord
100
AcDbLayerTableRecord
  2
05_CURVES
 70
0
 62
7
  6
CONTINUOUS
370
-3
390
F
  0
LAYER
  5
204
100
AcDbSymbolTableRecord
100
AcDbLayerTableRecord
  2
06_SURFS
 70
0
 62
7
  6
CONTINUOUS
370
-3
390
F
  0
LAYER
  5
205
100
AcDbSymbolTableRecord
100
AcDbLayerTableRecord
  2
07_COSMETICS
 70
0
 62
7
  6
CONTINUOUS
370
-3
390
F
  0
LAYER
  5
206
100
AcDbSymbolTableRecord
100
AcDbLayerTableRecord
  2
10_NOTES
 70
0
 62
7
  6
CONTINUOUS
370
-3
390
F
  0
LAYER
  5
207
100
AcDbSymbolTableRecord
100
AcDbLayerTableRecord
  2
11_NOTES_PUB
 70
0
 62
7
  6
CONTINUOUS
370
-3
390
F
  0
LAYER
  5
208
100
AcDbSymbolTableRecord
100
AcDbLayerTableRecord
  2
13_REF_GTOL
 70
0
 62
7
  6
CONTINUOUS
370
-3
390
F
  0
LAYER
  5
209
100
AcDbSymbolTableRecord
100
AcDbLayerTableRecord
  2
16_MISC
 70
0
 62
7
  6
CONTINUOUS
370
-3
390
F
  0
LAYER
  5
20A
100
AcDbSymbolTableRecord
100
AcDbLayerTableRecord
  2
17_NO_PRINT
 70
0
 62
7
  6
CONTINUOUS
370
-3
390
F
  0
LAYER
  5
20B
100
AcDbSymbolTableRecord
100
AcDbLayerTableRecord
  2
18_DATUM_CAMS_JOINTS
 70
0
 62
7
  6
CONTINUOUS
370
-3
390
F
  0
LAYER
  5
20C
100
AcDbSymbolTableRecord
100
AcDbLayerTableRecord
  2
19_DATUM_FUNCTIONAL
 70
0
 62
7
  6
CONTINUOUS
370
-3
390
F
  0
LAYER
  5
20D
100
AcDbSymbolTableRecord
100
AcDbLayerTableRecord
  2
20_DATUM_KINEMATIC_SCHEME
 70
0
 62
7
  6
CONTINUOUS
370
-3
390
F
  0
LAYER
  5
20E
100
AcDbSymbolTableRecord
100
AcDbLayerTableRecord
  2
_1
 70
0
 62
7
  6
CONTINUOUS
370
-3
390
F
  0
ENDTAB
  0
TABLE
  2
STYLE
  5
3
100
AcDbSymbolTable
 70
1
  0
STYLE
  5
11
100
AcDbSymbolTableRecord
100
AcDbTextStyleTableRecord
  2
STANDARD
 70
0
 40
0.0
 41
0.8
 50
0.0
 71
0
 42
0.2
  3
txt
  4

  0
STYLE
  5
20F
100
AcDbSymbolTableRecord
100
AcDbTextStyleTableRecord
  2
TEXTSTYLE_1
 70
0
 40
0.0
 41
0.8
 50
0.0
 71
0
 42
0.2
  3
gdt
  4

  0
ENDTAB
  0
TABLE
  2
VIEW
  5
6
100
AcDbSymbolTable
 70
0
  0
ENDTAB
  0
TABLE
  2
UCS
  5
7
100
AcDbSymbolTable
 70
0
  0
ENDTAB
  0
TABLE
  2
APPID
  5
9
100
AcDbSymbolTable
 70
1
  0
APPID
  5
210
100
AcDbSymbolTableRecord
100
AcDbRegAppTableRecord
  2
ACAD
 70
0
  0
ENDTAB
  0
TABLE
  2
BLOCK_RECORD
  5
1
100
AcDbSymbolTable
 70
0
  0
BLOCK_RECORD
  5
211
100
AcDbSymbolTableRecord
100
AcDbBlockTableRecord
  2
*Model_Space
  0
BLOCK_RECORD
  5
212
100
AcDbSymbolTableRecord
100
AcDbBlockTableRecord
  2
*Paper_Space
  0
BLOCK_RECORD
  5
213
100
AcDbSymbolTableRecord
100
AcDbBlockTableRecord
  2
_FILLED
  0
ENDTAB
  0
TABLE
  2
DIMSTYLE
  5
A
100
AcDbSymbolTable
 70
1
100
AcDbDimStyleTable
 71
0
  0
DIMSTYLE
105
214
100
AcDbSymbolTableRecord
100
AcDbDimStyleTableRecord
  2
STANDARD
 70
0
  3

  4

 40
1.0
 41
1.4329026222
 42
1.0
 43
0.38
 44
1.0
 45
0.0
 46
0.0
 47
0.01
 48
0.01
140
2.0060636711
141
0.09
142
0.0
143
25.4
144
1.0
145
0.0
146
1.0
147
0.625
 71
1
 72
0
 73
0
 74
0
 75
0
 76
0
 77
1
 78
8
 79
2
170
0
171
1
172
0
173
0
174
0
175
0
176
0
177
0
178
0
270
2
179
2
271
2
272
2
273
2
274
2
275
0
280
0
281
0
282
0
283
1
284
8
285
0
286
0
287
3
288
0
340
11
278
46
341
213
342
213
343
213
344
213
  0
ENDTAB
  0
ENDSEC
  0
SECTION
  2
BLOCKS
  0
BLOCK
  5
20
100
AcDbEntity
  8
0
100
AcDbBlockBegin
  2
*Model_Space
 70
0
 10
0.0
 20
0.0
 30
0.0
  3
*Model_Space
  1

  0
ENDBLK
  5
21
100
AcDbEntity
  8
0
100
AcDbBlockEnd
  0
BLOCK
  5
1C
100
AcDbEntity
  8
0
100
AcDbBlockBegin
  2
*Paper_Space
 70
0
 10
0.0
 20
0.0
 30
0.0
  3
*Paper_Space
  1

  0
ENDBLK
  5
1D
100
AcDbEntity
  8
0
100
AcDbBlockEnd
  0
BLOCK
  5
215
100
AcDbEntity
  8
0
100
AcDbBlockBegin
  2
_FILLED
 70
64
 10
0.0
 20
0.0
  3
_FILLED
  1

  0
SOLID
  5
216
100
AcDbEntity
  8
0
  6
BYBLOCK
 62
0
100
AcDbTrace
 10
0.0
 20
0.0
 11
-1.0
 21
0.25
 12
-1.0
 22
-0.25
 13
-1.0
 23
-0.25
  0
ENDBLK
  5
217
100
AcDbEntity
  8
0
  6
BYBLOCK
 62
0
100
AcDbBlockEnd
  0
ENDSEC
  0
SECTION
  2
ENTITIES
  0
LINE
  5
218
100
AcDbEntity
  8
_1
100
AcDbLine
 62
7
  6
CONTINUOUS
 10
12.7803689208
 20
81.0861326084
 11
12.7803689208
 21
89.9761326084
  0
LINE
  5
219
100
AcDbEntity
  8
_1
100
AcDbLine
 62
7
  6
CONTINUOUS
 10
14.3043689208
 20
81.0861326084
 11
14.3043689208
 21
89.9761326084
  0
LINE
  5
21A
100
AcDbEntity
  8
_1
100
AcDbLine
 62
7
  6
CONTINUOUS
 10
15.0409689208
 20
79.3081326084
 11
15.0409689208
 21
91.7541326084
  0
LINE
  5
21B
100
AcDbEntity
  8
_1
100
AcDbLine
 62
7
  6
CONTINUOUS
 10
16.0521681938
 20
77.1801677138
 11
16.0521681938
 21
93.8820975029
  0
LINE
  5
21C
100
AcDbEntity
  8
_1
100
AcDbLine
 62
7
  6
CONTINUOUS
 10
17.0261681938
 20
96.7811326064
 11
17.0261681938
 21
93.8990987362
  0
LINE
  5
21D
100
AcDbEntity
  8
_1
100
AcDbLine
 62
7
  6
CONTINUOUS
 10
17.0261681938
 20
77.1631664806
 11
17.0261681938
 21
74.2811326064
  0
LINE
  5
21E
100
AcDbEntity
  8
_1
100
AcDbLine
 62
7
  6
CONTINUOUS
 10
17.0896682778
 20
74.7890552375
 11
17.0896682778
 21
77.1620580825
  0
LINE
  5
21F
100
AcDbEntity
  8
_1
100
AcDbLine
 62
7
  6
CONTINUOUS
 10
17.0896682778
 20
93.9002071343
 11
17.0896682778
 21
96.2732099792
  0
LINE
  5
220
100
AcDbEntity
  8
_1
100
AcDbLine
 62
7
  6
CONTINUOUS
 10
17.1743496627
 20
74.8763968914
 11
17.1743496627
 21
77.1198114264
  0
LINE
  5
221
100
AcDbEntity
  8
_1
100
AcDbLine
 62
7
  6
CONTINUOUS
 10
17.1743496627
 20
93.9424537903
 11
17.1743496627
 21
96.1858683253
  0
LINE
  5
222
100
AcDbEntity
  8
_1
100
AcDbLine
 62
7
  6
CONTINUOUS
 10
17.1761232144
 20
77.1198114265
 11
17.1761232144
 21
77.1605490059
  0
LINE
  5
223
100
AcDbEntity
  8
_1
100
AcDbLine
 62
7
  6
CONTINUOUS
 10
17.1761232144
 20
93.9017162108
 11
17.1761232144
 21
93.9424537903
  0
LINE
  5
224
100
AcDbEntity
  8
_1
100
AcDbLine
 62
7
  6
CONTINUOUS
 10
17.4073831625
 20
77.1565123485
 11
17.4073831625
 21
78.4195833004
  0
LINE
  5
225
100
AcDbEntity
  8
_1
100
AcDbLine
 62
7
  6
CONTINUOUS
 10
17.4073831625
 20
92.6426819163
 11
17.4073831625
 21
93.9057528682
  0
LINE
  5
226
100
AcDbEntity
  8
_1
100
AcDbLine
 62
7
  6
CONTINUOUS
 10
17.4261863133
 20
95.2339326084
 11
17.4261863133
 21
93.3289326084
  0
LINE
  5
227
100
AcDbEntity
  8
_1
100
AcDbLine
 62
7
  6
CONTINUOUS
 10
17.4261863133
 20
75.8283326084
 11
17.4261863133
 21
77.7333326084
  0
LINE
  5
228
100
AcDbEntity
  8
_1
100
AcDbLine
 62
7
  6
CONTINUOUS
 10
17.4392121197
 20
78.6160504
 11
17.4392121197
 21
92.4462148162
  0
LINE
  5
229
100
AcDbEntity
  8
_1
100
AcDbLine
 62
7
  6
CONTINUOUS
 10
17.5237252161
 20
95.8364927719
 11
17.5237252161
 21
75.2257724448
  0
LINE
  5
22A
100
AcDbEntity
  8
_1
100
AcDbLine
 62
7
  6
CONTINUOUS
 10
19.9272794717
 20
95.8016940169
 11
19.9272794717
 21
75.2605711998
  0
LINE
  5
22B
100
AcDbEntity
  8
_1
100
AcDbLine
 62
7
  6
CONTINUOUS
 10
26.1614489289
 20
75.5402569845
 11
26.1614489289
 21
76.9732334333
  0
LINE
  5
22C
100
AcDbEntity
  8
_1
100
AcDbLine
 62
7
  6
CONTINUOUS
 10
26.1614489289
 20
94.0890317835
 11
26.1614489289
 21
95.5220082322
  0
LINE
  5
22D
100
AcDbEntity
  8
_1
100
AcDbLine
 62
7
  6
CONTINUOUS
 10
26.174866085
 20
95.278967502
 11
26.174866085
 21
94.1024489395
  0
LINE
  5
22E
100
AcDbEntity
  8
_1
100
AcDbLine
 62
7
  6
CONTINUOUS
 10
26.174866085
 20
76.9598162772
 11
26.174866085
 21
75.7832977147
  0
LINE
  5
22F
100
AcDbEntity
  8
_1
100
AcDbLine
 62
7
  6
CONTINUOUS
 10
26.2429371533
 20
75.6217452089
 11
26.2429371533
 21
75.6471452089
  0
LINE
  5
230
100
AcDbEntity
  8
_1
100
AcDbLine
 62
7
  6
CONTINUOUS
 10
26.2429371533
 20
95.4151200078
 11
26.2429371533
 21
95.4405200078
  0
LINE
  5
231
100
AcDbEntity
  8
_1
100
AcDbLine
 62
7
  6
CONTINUOUS
 10
26.2683371533
 20
76.6364160824
 11
26.2683371533
 21
75.6471452089
  0
LINE
  5
232
100
AcDbEntity
  8
_1
100
AcDbLine
 62
7
  6
CONTINUOUS
 10
26.2683371533
 20
94.4258491344
 11
26.2683371533
 21
95.4151200078
  0
LINE
  5
233
100
AcDbEntity
  8
_1
100
AcDbLine
 62
7
  6
CONTINUOUS
 10
28.1914182358
 20
76.7926228974
 11
28.1914182358
 21
76.9605895787
  0
LINE
  5
234
100
AcDbEntity
  8
_1
100
AcDbLine
 62
7
  6
CONTINUOUS
 10
28.1914182358
 20
94.101675638
 11
28.1914182358
 21
94.2696423193
  0
LINE
  5
235
100
AcDbEntity
  8
_1
100
AcDbLine
 62
7
  6
CONTINUOUS
 10
26.2429371533
 20
95.4151200078
 11
26.174866085
 21
95.278967502
  0
LINE
  5
236
100
AcDbEntity
  8
_1
100
AcDbLine
 62
7
  6
CONTINUOUS
 10
26.174866085
 20
75.7832977147
 11
26.2429371533
 21
75.6471452089
  0
LINE
  5
237
100
AcDbEntity
  8
_1
100
AcDbLine
 62
7
  6
CONTINUOUS
 10
31.1343992344
 20
76.6364160824
 11
31.1343992344
 21
75.6471452089
  0
LINE
  5
238
100
AcDbEntity
  8
_1
100
AcDbLine
 62
7
  6
CONTINUOUS
 10
31.1343992344
 20
94.4258491344
 11
31.1343992344
 21
95.4151200078
  0
LINE
  5
239
100
AcDbEntity
  8
_1
100
AcDbLine
 62
7
  6
CONTINUOUS
 10
31.1597992344
 20
95.4405200078
 11
31.1597992344
 21
95.4151200078
  0
LINE
  5
23A
100
AcDbEntity
  8
_1
100
AcDbLine
 62
7
  6
CONTINUOUS
 10
31.1597992344
 20
75.6471452089
 11
31.1597992344
 21
75.6217452089
  0
LINE
  5
23B
100
AcDbEntity
  8
_1
100
AcDbLine
 62
7
  6
CONTINUOUS
 10
31.2297275812
 20
75.7870125546
 11
31.2297275812
 21
76.9616735557
  0
LINE
  5
23C
100
AcDbEntity
  8
_1
100
AcDbLine
 62
7
  6
CONTINUOUS
 10
31.2297275812
 20
94.100591661
 11
31.2297275812
 21
95.2752526621
  0
LINE
  5
23D
100
AcDbEntity
  8
_1
100
AcDbLine
 62
7
  6
CONTINUOUS
 10
31.2431508632
 20
95.5238716367
 11
31.2431508632
 21
94.087168379
  0
LINE
  5
23E
100
AcDbEntity
  8
_1
100
AcDbLine
 62
7
  6
CONTINUOUS
 10
31.2431508632
 20
76.9750968378
 11
31.2431508632
 21
75.53839358
  0
LINE
  5
23F
100
AcDbEntity
  8
_1
100
AcDbLine
 62
7
  6
CONTINUOUS
 10
31.5458959655
 20
75.2698792774
 11
31.5458959655
 21
95.7923859393
  0
LINE
  5
240
100
AcDbEntity
  8
_1
100
AcDbLine
 62
7
  6
CONTINUOUS
 10
32.0267238879
 20
75.2845210772
 11
32.0267238879
 21
95.7777441395
  0
LINE
  5
241
100
AcDbEntity
  8
_1
100
AcDbLine
 62
7
  6
CONTINUOUS
 10
32.1099005798
 20
95.7695102632
 11
32.1099005798
 21
75.2927549535
  0
LINE
  5
242
100
AcDbEntity
  8
_1
100
AcDbLine
 62
7
  6
CONTINUOUS
 10
32.5914171683
 20
95.7695102632
 11
32.5914171683
 21
75.2927549535
  0
LINE
  5
243
100
AcDbEntity
  8
_1
100
AcDbLine
 62
7
  6
CONTINUOUS
 10
31.1597992344
 20
95.4405200078
 11
31.2431508632
 21
95.5238716367
  0
LINE
  5
244
100
AcDbEntity
  8
_1
100
AcDbLine
 62
7
  6
CONTINUOUS
 10
31.1597992344
 20
75.6217452089
 11
31.2431508632
 21
75.53839358
  0
LINE
  5
245
100
AcDbEntity
  8
_1
100
AcDbLine
 62
7
  6
CONTINUOUS
 10
37.5151681938
 20
92.3073601675
 11
37.5151681938
 21
93.9957470693
  0
LINE
  5
246
100
AcDbEntity
  8
_1
100
AcDbLine
 62
7
  6
CONTINUOUS
 10
17.1743496627
 20
74.8763968914
 11
17.5237252161
 21
75.2257724448
  0
LINE
  5
247
100
AcDbEntity
  8
_1
100
AcDbLine
 62
7
  6
CONTINUOUS
 10
17.0896682778
 20
74.7890552375
 11
17.1751287931
 21
74.8745157528
  0
LINE
  5
248
100
AcDbEntity
  8
_1
100
AcDbLine
 62
7
  6
CONTINUOUS
 10
17.5237252161
 20
95.8364927719
 11
17.1743496627
 21
96.1858683253
  0
LINE
  5
249
100
AcDbEntity
  8
_1
100
AcDbLine
 62
7
  6
CONTINUOUS
 10
17.1751287836
 20
96.1877494735
 11
17.0896682778
 21
96.2732099792
  0
LINE
  5
24A
100
AcDbEntity
  8
_1
100
AcDbLine
 62
7
  6
CONTINUOUS
 10
31.1597992344
 20
75.6471452089
 11
31.2297275812
 21
75.7870125546
  0
LINE
  5
24B
100
AcDbEntity
  8
_1
100
AcDbLine
 62
7
  6
CONTINUOUS
 10
18.0316478453
 20
74.7178498157
 11
17.6822722919
 21
74.3684742623
  0
LINE
  5
24C
100
AcDbEntity
  8
_1
100
AcDbLine
 62
7
  6
CONTINUOUS
 10
17.6840458436
 20
74.367587545
 11
17.597590907
 21
74.2811326084
  0
LINE
  5
24D
100
AcDbEntity
  8
_1
100
AcDbLine
 62
7
  6
CONTINUOUS
 10
17.6822722919
 20
96.6937909545
 11
18.0316478453
 21
96.3444154011
  0
LINE
  5
24E
100
AcDbEntity
  8
_1
100
AcDbLine
 62
7
  6
CONTINUOUS
 10
17.597590907
 20
96.7811326084
 11
17.6840458436
 21
96.6946776718
  0
LINE
  5
24F
100
AcDbEntity
  8
_1
100
AcDbLine
 62
7
  6
CONTINUOUS
 10
31.2297275812
 20
95.2752526621
 11
31.1597992344
 21
95.4151200078
  0
LINE
  5
250
100
AcDbEntity
  8
_1
100
AcDbLine
 62
7
  6
CONTINUOUS
 10
43.8653545085
 20
78.8001326084
 11
43.8653545085
 21
92.2621326084
  0
LINE
  5
251
100
AcDbEntity
  8
_1
100
AcDbLine
 62
7
  6
CONTINUOUS
 10
44.2461681938
 20
79.1728846213
 11
44.2461681938
 21
91.8893805954
  0
LINE
  5
252
100
AcDbEntity
  8
_1
100
AcDbLine
 62
7
  6
CONTINUOUS
 10
26.2429371533
 20
75.6217452089
 11
26.1614489289
 21
75.5402569845
  0
LINE
  5
253
100
AcDbEntity
  8
_1
100
AcDbLine
 62
7
  6
CONTINUOUS
 10
26.2429371533
 20
95.4405200078
 11
26.1614489289
 21
95.5220082322
  0
LINE
  5
254
100
AcDbEntity
  8
_1
100
AcDbLine
 62
7
  6
CONTINUOUS
 10
47.4043789358
 20
90.5311326084
 11
47.4043789358
 21
80.5311326084
  0
LINE
  5
255
100
AcDbEntity
  8
_1
100
AcDbLine
 62
7
  6
CONTINUOUS
 10
48.4543789898
 20
90.5311326084
 11
48.4543789898
 21
80.5311326084
  0
LINE
  5
256
100
AcDbEntity
  8
_1
100
AcDbLine
 62
7
  6
CONTINUOUS
 10
48.7543789898
 20
80.5311326084
 11
48.7543789898
 21
90.5311326084
  0
LINE
  5
257
100
AcDbEntity
  8
_1
100
AcDbLine
 62
7
  6
CONTINUOUS
 10
49.3543789898
 20
80.5311326084
 11
49.3543789898
 21
90.5311326084
  0
LINE
  5
258
100
AcDbEntity
  8
_1
100
AcDbLine
 62
7
  6
CONTINUOUS
 10
49.6558789898
 20
79.1811326084
 11
49.6558789898
 21
80.5311326084
  0
LINE
  5
259
100
AcDbEntity
  8
_1
100
AcDbLine
 62
7
  6
CONTINUOUS
 10
49.6558789898
 20
90.5311326084
 11
49.6558789898
 21
91.8811326084
  0
LINE
  5
25A
100
AcDbEntity
  8
_1
100
AcDbLine
 62
7
  6
CONTINUOUS
 10
50.86789872
 20
80.3931523385
 11
50.86789872
 21
80.5311326084
  0
LINE
  5
25B
100
AcDbEntity
  8
_1
100
AcDbLine
 62
7
  6
CONTINUOUS
 10
50.86789872
 20
90.5311326084
 11
50.86789872
 21
90.6691128782
  0
LINE
  5
25C
100
AcDbEntity
  8
_1
100
AcDbLine
 62
7
  6
CONTINUOUS
 10
50.9049247315
 20
90.6320868667
 11
50.9049247315
 21
90.5311326084
  0
LINE
  5
25D
100
AcDbEntity
  8
_1
100
AcDbLine
 62
7
  6
CONTINUOUS
 10
50.9049247315
 20
80.5311326084
 11
50.9049247315
 21
80.43017835
  0
LINE
  5
25E
100
AcDbEntity
  8
_1
100
AcDbLine
 62
7
  6
CONTINUOUS
 10
31.5458959655
 20
75.2698792774
 11
19.9272794717
 21
75.2605711998
  0
LINE
  5
25F
100
AcDbEntity
  8
_1
100
AcDbLine
 62
7
  6
CONTINUOUS
 10
107.0261681938
 20
74.2811326064
 11
17.0261681938
 21
74.2811326064
  0
LINE
  5
260
100
AcDbEntity
  8
_1
100
AcDbLine
 62
7
  6
CONTINUOUS
 10
106.3682905441
 20
74.367587545
 11
72.1632132572
 21
74.367587545
  0
LINE
  5
261
100
AcDbEntity
  8
_1
100
AcDbLine
 62
7
  6
CONTINUOUS
 10
56.4611231304
 20
74.367587545
 11
17.6840458436
 21
74.367587545
  0
LINE
  5
262
100
AcDbEntity
  8
_1
100
AcDbLine
 62
7
  6
CONTINUOUS
 10
106.3700640958
 20
74.3684742623
 11
72.4152911087
 21
74.3684742623
  0
LINE
  5
263
100
AcDbEntity
  8
_1
100
AcDbLine
 62
7
  6
CONTINUOUS
 10
56.209045279
 20
74.3684742623
 11
17.6822722919
 21
74.3684742623
  0
LINE
  5
264
100
AcDbEntity
  8
_1
100
AcDbLine
 62
7
  6
CONTINUOUS
 10
72.1122270126
 20
74.4185737896
 11
56.5121093751
 21
74.4185737896
  0
LINE
  5
265
100
AcDbEntity
  8
_1
100
AcDbLine
 62
7
  6
CONTINUOUS
 10
56.3342776873
 20
74.4203472242
 11
72.2900587004
 21
74.4203472242
  0
LINE
  5
266
100
AcDbEntity
  8
_1
100
AcDbLine
 62
7
  6
CONTINUOUS
 10
91.9424358079
 20
75.2927549535
 11
32.1099005798
 21
75.2927549535
  0
LINE
  5
267
100
AcDbEntity
  8
_1
100
AcDbLine
 62
7
  6
CONTINUOUS
 10
97.8093992344
 20
75.6217452089
 11
92.8925371533
 21
75.6217452089
  0
LINE
  5
268
100
AcDbEntity
  8
_1
100
AcDbLine
 62
7
  6
CONTINUOUS
 10
31.1597992344
 20
75.6217452089
 11
26.2429371533
 21
75.6217452089
  0
LINE
  5
269
100
AcDbEntity
  8
_1
100
AcDbLine
 62
7
  6
CONTINUOUS
 10
97.8093992344
 20
75.6471452089
 11
97.7839992344
 21
75.6471452089
  0
LINE
  5
26A
100
AcDbEntity
  8
_1
100
AcDbLine
 62
7
  6
CONTINUOUS
 10
92.9179371533
 20
75.6471452089
 11
92.8925371533
 21
75.6471452089
  0
LINE
  5
26B
100
AcDbEntity
  8
_1
100
AcDbLine
 62
7
  6
CONTINUOUS
 10
26.2429371533
 20
75.6471452089
 11
26.2683371533
 21
75.6471452089
  0
LINE
  5
26C
100
AcDbEntity
  8
_1
100
AcDbLine
 62
7
  6
CONTINUOUS
 10
31.1343992344
 20
75.6471452089
 11
31.1597992344
 21
75.6471452089
  0
LINE
  5
26D
100
AcDbEntity
  8
_1
100
AcDbLine
 62
7
  6
CONTINUOUS
 10
107.0261681938
 20
75.8242628944
 11
107.0515681938
 21
75.8242628944
  0
LINE
  5
26E
100
AcDbEntity
  8
_1
100
AcDbLine
 62
7
  6
CONTINUOUS
 10
17.4261863133
 20
75.8283326084
 11
17.5237252161
 21
75.8283326084
  0
LINE
  5
26F
100
AcDbEntity
  8
_1
100
AcDbLine
 62
7
  6
CONTINUOUS
 10
104.1250569159
 20
75.2605711998
 11
92.5064404221
 21
75.2698792774
  0
LINE
  5
270
100
AcDbEntity
  8
_1
100
AcDbLine
 62
7
  6
CONTINUOUS
 10
52.2638125958
 20
82.6247326084
 11
52.2638125958
 21
83.4375326084
  0
LINE
  5
271
100
AcDbEntity
  8
_1
100
AcDbLine
 62
7
  6
CONTINUOUS
 10
52.2638125958
 20
87.6247326084
 11
52.2638125958
 21
88.4375326084
  0
LINE
  5
272
100
AcDbEntity
  8
_1
100
AcDbLine
 62
7
  6
CONTINUOUS
 10
53.2043789898
 20
89.9390110112
 11
53.2043789898
 21
88.4375326084
  0
LINE
  5
273
100
AcDbEntity
  8
_1
100
AcDbLine
 62
7
  6
CONTINUOUS
 10
53.2043789898
 20
87.6247326084
 11
53.2043789898
 21
86.1232542055
  0
LINE
  5
274
100
AcDbEntity
  8
_1
100
AcDbLine
 62
7
  6
CONTINUOUS
 10
53.2043789898
 20
84.9390110112
 11
53.2043789898
 21
83.4375326084
  0
LINE
  5
275
100
AcDbEntity
  8
_1
100
AcDbLine
 62
7
  6
CONTINUOUS
 10
53.2043789898
 20
82.6247326084
 11
53.2043789898
 21
81.1232542055
  0
LINE
  5
276
100
AcDbEntity
  8
_1
100
AcDbLine
 62
7
  6
CONTINUOUS
 10
56.1548052314
 20
90.6330588499
 11
56.1908592597
 21
90.6691128782
  0
LINE
  5
277
100
AcDbEntity
  8
_1
100
AcDbLine
 62
7
  6
CONTINUOUS
 10
66.8290587004
 20
96.6419179925
 11
66.9542911087
 21
96.6937909545
  0
LINE
  5
278
100
AcDbEntity
  8
_1
100
AcDbLine
 62
7
  6
CONTINUOUS
 10
32.6101829183
 20
74.7848323244
 11
32.5270062264
 21
74.776598448
  0
LINE
  5
279
100
AcDbEntity
  8
_1
100
AcDbLine
 62
7
  6
CONTINUOUS
 10
32.1099005798
 20
75.2927549535
 11
32.0267238879
 21
75.2845210772
  0
LINE
  5
27A
100
AcDbEntity
  8
_1
100
AcDbLine
 62
7
  6
CONTINUOUS
 10
108.0001681938
 20
77.1801677138
 11
106.6449532252
 21
77.1565123485
  0
LINE
  5
27B
100
AcDbEntity
  8
_1
100
AcDbLine
 62
7
  6
CONTINUOUS
 10
26.2683371533
 20
76.6364160824
 11
31.1343992344
 21
76.6364160824
  0
LINE
  5
27C
100
AcDbEntity
  8
_1
100
AcDbLine
 62
7
  6
CONTINUOUS
 10
92.9179371533
 20
76.6364160824
 11
97.7839992344
 21
76.6364160824
  0
LINE
  5
27D
100
AcDbEntity
  8
_1
100
AcDbLine
 62
7
  6
CONTINUOUS
 10
97.8774703027
 20
76.7926228974
 11
95.8609181518
 21
76.7926228974
  0
LINE
  5
27E
100
AcDbEntity
  8
_1
100
AcDbLine
 62
7
  6
CONTINUOUS
 10
26.174866085
 20
76.7926228974
 11
28.1914182358
 21
76.7926228974
  0
LINE
  5
27F
100
AcDbEntity
  8
_1
100
AcDbLine
 62
7
  6
CONTINUOUS
 10
17.5237252161
 20
77.7333326084
 11
17.4261863133
 21
77.7333326084
  0
LINE
  5
280
100
AcDbEntity
  8
_1
100
AcDbLine
 62
7
  6
CONTINUOUS
 10
43.8653628209
 20
78.8001326084
 11
80.1869735668
 21
78.8001326084
  0
LINE
  5
281
100
AcDbEntity
  8
_1
100
AcDbLine
 62
7
  6
CONTINUOUS
 10
44.2461681938
 20
79.1811326084
 11
79.8061681938
 21
79.1811326084
  0
LINE
  5
282
100
AcDbEntity
  8
_1
100
AcDbLine
 62
7
  6
CONTINUOUS
 10
15.0409689208
 20
79.3081326084
 11
16.0521681938
 21
79.3081326084
  0
LINE
  5
283
100
AcDbEntity
  8
_1
100
AcDbLine
 62
7
  6
CONTINUOUS
 10
16.0521681938
 20
77.1801677138
 11
17.4073831625
 21
77.1565123485
  0
LINE
  5
284
100
AcDbEntity
  8
_1
100
AcDbLine
 62
7
  6
CONTINUOUS
 10
91.5253301612
 20
74.776598448
 11
91.4421534694
 21
74.7848323244
  0
LINE
  5
285
100
AcDbEntity
  8
_1
100
AcDbLine
 62
7
  6
CONTINUOUS
 10
92.0256124998
 20
75.2845210772
 11
91.9424358079
 21
75.2927549535
  0
LINE
  5
286
100
AcDbEntity
  8
_1
100
AcDbLine
 62
7
  6
CONTINUOUS
 10
56.1548052314
 20
80.4292063668
 11
56.1908592597
 21
80.3931523385
  0
LINE
  5
287
100
AcDbEntity
  8
_1
100
AcDbLine
 62
7
  6
CONTINUOUS
 10
54.4043789898
 20
81.1232542055
 11
54.4043789898
 21
82.6247326084
  0
LINE
  5
288
100
AcDbEntity
  8
_1
100
AcDbLine
 62
7
  6
CONTINUOUS
 10
54.4043789898
 20
83.4375326084
 11
54.4043789898
 21
84.9390110112
  0
LINE
  5
289
100
AcDbEntity
  8
_1
100
AcDbLine
 62
7
  6
CONTINUOUS
 10
54.4043789898
 20
86.1232542055
 11
54.4043789898
 21
87.6247326084
  0
LINE
  5
28A
100
AcDbEntity
  8
_1
100
AcDbLine
 62
7
  6
CONTINUOUS
 10
54.4043789898
 20
88.4375326084
 11
54.4043789898
 21
89.9390110112
  0
LINE
  5
28B
100
AcDbEntity
  8
_1
100
AcDbLine
 62
7
  6
CONTINUOUS
 10
55.3449453839
 20
88.4375326084
 11
55.3449453839
 21
87.6247326084
  0
LINE
  5
28C
100
AcDbEntity
  8
_1
100
AcDbLine
 62
7
  6
CONTINUOUS
 10
55.3449453839
 20
83.4375326084
 11
55.3449453839
 21
82.6247326084
  0
LINE
  5
28D
100
AcDbEntity
  8
_1
100
AcDbLine
 62
7
  6
CONTINUOUS
 10
56.1548052314
 20
80.4292063668
 11
56.1548052314
 21
80.5311326084
  0
LINE
  5
28E
100
AcDbEntity
  8
_1
100
AcDbLine
 62
7
  6
CONTINUOUS
 10
56.1548052314
 20
90.5311326084
 11
56.1548052314
 21
90.6330588499
  0
LINE
  5
28F
100
AcDbEntity
  8
_1
100
AcDbLine
 62
7
  6
CONTINUOUS
 10
56.1908592597
 20
90.6691128782
 11
56.1908592597
 21
90.5311326084
  0
LINE
  5
290
100
AcDbEntity
  8
_1
100
AcDbLine
 62
7
  6
CONTINUOUS
 10
56.1908592597
 20
80.5311326084
 11
56.1908592597
 21
80.3931523385
  0
LINE
  5
291
100
AcDbEntity
  8
_1
100
AcDbLine
 62
7
  6
CONTINUOUS
 10
56.3543789898
 20
90.5311326084
 11
56.3543789898
 21
80.5311326084
  0
LINE
  5
292
100
AcDbEntity
  8
_1
100
AcDbLine
 62
7
  6
CONTINUOUS
 10
56.9995751408
 20
89.5951326084
 11
56.9995751408
 21
89.3451280481
  0
LINE
  5
293
100
AcDbEntity
  8
_1
100
AcDbLine
 62
7
  6
CONTINUOUS
 10
56.9995751408
 20
88.1335674866
 11
56.9995751408
 21
87.884031978
  0
LINE
  5
294
100
AcDbEntity
  8
_1
100
AcDbLine
 62
7
  6
CONTINUOUS
 10
56.9995751408
 20
87.0735106268
 11
56.9995751408
 21
86.8333561524
  0
LINE
  5
295
100
AcDbEntity
  8
_1
100
AcDbLine
 62
7
  6
CONTINUOUS
 10
56.9995751408
 20
84.7092180132
 11
56.9995751408
 21
84.4592134529
  0
LINE
  5
296
100
AcDbEntity
  8
_1
100
AcDbLine
 62
7
  6
CONTINUOUS
 10
56.9995751408
 20
83.2476528915
 11
56.9995751408
 21
82.9981173829
  0
LINE
  5
297
100
AcDbEntity
  8
_1
100
AcDbLine
 62
7
  6
CONTINUOUS
 10
56.9995751408
 20
82.818001527
 11
56.9995751408
 21
81.5872098456
  0
LINE
  5
298
100
AcDbEntity
  8
_1
100
AcDbLine
 62
7
  6
CONTINUOUS
 10
57.2697489245
 20
81.5872098456
 11
57.2697489245
 21
82.4877891247
  0
LINE
  5
299
100
AcDbEntity
  8
_1
100
AcDbLine
 62
7
  6
CONTINUOUS
 10
66.7022132572
 20
96.6946776718
 11
66.6512270126
 21
96.6436914271
  0
LINE
  5
29A
100
AcDbEntity
  8
_1
100
AcDbLine
 62
7
  6
CONTINUOUS
 10
50.9049247315
 20
80.43017835
 11
50.86789872
 21
80.3931523385
  0
LINE
  5
29B
100
AcDbEntity
  8
_1
100
AcDbLine
 62
7
  6
CONTINUOUS
 10
56.9995751408
 20
87.884031978
 11
59.3110619572
 21
88.6227884179
  0
LINE
  5
29C
100
AcDbEntity
  8
_1
100
AcDbLine
 62
7
  6
CONTINUOUS
 10
58.595289051
 20
88.608247815
 11
57.9601930385
 21
88.4149985114
  0
LINE
  5
29D
100
AcDbEntity
  8
_1
100
AcDbLine
 62
7
  6
CONTINUOUS
 10
57.6900192548
 20
88.3357287727
 11
56.9995751408
 21
88.1335674866
  0
LINE
  5
29E
100
AcDbEntity
  8
_1
100
AcDbLine
 62
7
  6
CONTINUOUS
 10
78.5178648077
 20
80.4135915247
 11
72.4220969247
 21
80.3603945643
  0
LINE
  5
29F
100
AcDbEntity
  8
_1
100
AcDbLine
 62
7
  6
CONTINUOUS
 10
78.5565626917
 20
80.1259381105
 11
72.292773696
 21
80.1259381105
  0
LINE
  5
2A0
100
AcDbEntity
  8
_1
100
AcDbLine
 62
7
  6
CONTINUOUS
 10
56.1908592597
 20
80.3931523385
 11
50.86789872
 21
80.3931523385
  0
LINE
  5
2A1
100
AcDbEntity
  8
_1
100
AcDbLine
 62
7
  6
CONTINUOUS
 10
47.4043789358
 20
80.5311326084
 11
60.0543789898
 21
80.5311326084
  0
LINE
  5
2A2
100
AcDbEntity
  8
_1
100
AcDbLine
 62
7
  6
CONTINUOUS
 10
16.0521681938
 20
81.0861326084
 11
12.7803689208
 21
81.0861326084
  0
LINE
  5
2A3
100
AcDbEntity
  8
_1
100
AcDbLine
 62
7
  6
CONTINUOUS
 10
56.9995751408
 20
81.5872098456
 11
57.2697489245
 21
81.5872098456
  0
LINE
  5
2A4
100
AcDbEntity
  8
_1
100
AcDbLine
 62
7
  6
CONTINUOUS
 10
72.292773696
 20
81.5941326084
 11
72.4113302559
 21
81.5941326084
  0
LINE
  5
2A5
100
AcDbEntity
  8
_1
100
AcDbLine
 62
7
  6
CONTINUOUS
 10
78.5075623818
 20
81.5941326084
 11
78.5565626917
 21
81.5941326084
  0
LINE
  5
2A6
100
AcDbEntity
  8
_1
100
AcDbLine
 62
7
  6
CONTINUOUS
 10
55.3449453839
 20
82.6247326084
 11
54.4043789898
 21
82.6247326084
  0
LINE
  5
2A7
100
AcDbEntity
  8
_1
100
AcDbLine
 62
7
  6
CONTINUOUS
 10
53.2043789898
 20
82.6247326084
 11
52.2638125958
 21
82.6247326084
  0
LINE
  5
2A8
100
AcDbEntity
  8
_1
100
AcDbLine
 62
7
  6
CONTINUOUS
 10
72.2900587004
 20
74.4203472242
 11
72.4152911087
 21
74.3684742623
  0
LINE
  5
2A9
100
AcDbEntity
  8
_1
100
AcDbLine
 62
7
  6
CONTINUOUS
 10
50.9049247315
 20
90.6320868667
 11
50.86789872
 21
90.6691128782
  0
LINE
  5
2AA
100
AcDbEntity
  8
_1
100
AcDbLine
 62
7
  6
CONTINUOUS
 10
57.6900192548
 20
89.1434358137
 11
57.6900192548
 21
88.3357287727
  0
LINE
  5
2AB
100
AcDbEntity
  8
_1
100
AcDbLine
 62
7
  6
CONTINUOUS
 10
57.6900192548
 20
84.2575212185
 11
57.6900192548
 21
83.4498141776
  0
LINE
  5
2AC
100
AcDbEntity
  8
_1
100
AcDbLine
 62
7
  6
CONTINUOUS
 10
57.9601930385
 20
83.5290839162
 11
57.9601930385
 21
84.1787205316
  0
LINE
  5
2AD
100
AcDbEntity
  8
_1
100
AcDbLine
 62
7
  6
CONTINUOUS
 10
57.9601930385
 20
88.4149985114
 11
57.9601930385
 21
89.0646351268
  0
LINE
  5
2AE
100
AcDbEntity
  8
_1
100
AcDbLine
 62
7
  6
CONTINUOUS
 10
58.3553789898
 20
91.8811326084
 11
58.3553789898
 21
90.5311326084
  0
LINE
  5
2AF
100
AcDbEntity
  8
_1
100
AcDbLine
 62
7
  6
CONTINUOUS
 10
58.3553789898
 20
80.5311326084
 11
58.3553789898
 21
79.1811326084
  0
LINE
  5
2B0
100
AcDbEntity
  8
_1
100
AcDbLine
 62
7
  6
CONTINUOUS
 10
59.3110619572
 20
83.7368738228
 11
59.3110619572
 21
83.970930625
  0
LINE
  5
2B1
100
AcDbEntity
  8
_1
100
AcDbLine
 62
7
  6
CONTINUOUS
 10
59.3110619572
 20
88.6227884179
 11
59.3110619572
 21
88.8568452202
  0
LINE
  5
2B2
100
AcDbEntity
  8
_1
100
AcDbLine
 62
7
  6
CONTINUOUS
 10
59.3410812665
 20
86.8333561524
 11
59.3410812665
 21
86.9890813194
  0
LINE
  5
2B3
100
AcDbEntity
  8
_1
100
AcDbLine
 62
7
  6
CONTINUOUS
 10
60.0543789898
 20
90.5311326084
 11
60.0543789898
 21
80.5311326084
  0
LINE
  5
2B4
100
AcDbEntity
  8
_1
100
AcDbLine
 62
7
  6
CONTINUOUS
 10
58.6506371525
 20
82.7879822177
 11
58.6206178432
 21
82.5478277433
  0
LINE
  5
2B5
100
AcDbEntity
  8
_1
100
AcDbLine
 62
7
  6
CONTINUOUS
 10
68.6500789229
 20
83.3086326084
 11
72.2763920315
 21
83.3086326084
  0
LINE
  5
2B6
100
AcDbEntity
  8
_1
100
AcDbLine
 62
7
  6
CONTINUOUS
 10
52.2638125958
 20
83.4375326084
 11
53.2043789898
 21
83.4375326084
  0
LINE
  5
2B7
100
AcDbEntity
  8
_1
100
AcDbLine
 62
7
  6
CONTINUOUS
 10
54.4043789898
 20
83.4375326084
 11
55.3449453839
 21
83.4375326084
  0
LINE
  5
2B8
100
AcDbEntity
  8
_1
100
AcDbLine
 62
7
  6
CONTINUOUS
 10
102.0144965655
 20
84.7691326084
 11
101.2291220711
 21
84.7691326084
  0
LINE
  5
2B9
100
AcDbEntity
  8
_1
100
AcDbLine
 62
7
  6
CONTINUOUS
 10
29.7220766342
 20
84.7691326084
 11
28.9876221551
 21
84.7691326084
  0
LINE
  5
2BA
100
AcDbEntity
  8
_1
100
AcDbLine
 62
7
  6
CONTINUOUS
 10
22.0449998038
 20
84.7691326084
 11
22.8232143166
 21
84.7691326084
  0
LINE
  5
2BB
100
AcDbEntity
  8
_1
100
AcDbLine
 62
7
  6
CONTINUOUS
 10
94.337424201
 20
84.7691326084
 11
95.0647142326
 21
84.7691326084
  0
LINE
  5
2BC
100
AcDbEntity
  8
_1
100
AcDbLine
 62
7
  6
CONTINUOUS
 10
56.9995751408
 20
84.4592134529
 11
57.6900192548
 21
84.2575212185
  0
LINE
  5
2BD
100
AcDbEntity
  8
_1
100
AcDbLine
 62
7
  6
CONTINUOUS
 10
59.3110619572
 20
83.970930625
 11
56.9995751408
 21
84.7092180132
  0
LINE
  5
2BE
100
AcDbEntity
  8
_1
100
AcDbLine
 62
7
  6
CONTINUOUS
 10
57.9601930385
 20
84.1787205316
 11
58.6328131876
 21
83.9610805391
  0
LINE
  5
2BF
100
AcDbEntity
  8
_1
100
AcDbLine
 62
7
  6
CONTINUOUS
 10
72.1632132572
 20
74.367587545
 11
72.1122270126
 21
74.4185737896
  0
LINE
  5
2C0
100
AcDbEntity
  8
_1
100
AcDbLine
 62
7
  6
CONTINUOUS
 10
56.9995751408
 20
82.9981173829
 11
59.3110619572
 21
83.7368738228
  0
LINE
  5
2C1
100
AcDbEntity
  8
_1
100
AcDbLine
 62
7
  6
CONTINUOUS
 10
58.595289051
 20
83.7223332198
 11
57.9601930385
 21
83.5290839162
  0
LINE
  5
2C2
100
AcDbEntity
  8
_1
100
AcDbLine
 62
7
  6
CONTINUOUS
 10
57.6900192548
 20
83.4498141776
 11
56.9995751408
 21
83.2476528915
  0
LINE
  5
2C3
100
AcDbEntity
  8
_1
100
AcDbLine
 62
7
  6
CONTINUOUS
 10
102.0102043623
 20
86.2931326084
 11
101.2291220711
 21
86.2931326084
  0
LINE
  5
2C4
100
AcDbEntity
  8
_1
100
AcDbLine
 62
7
  6
CONTINUOUS
 10
29.7177748092
 20
86.2931326084
 11
28.9876221551
 21
86.2931326084
  0
LINE
  5
2C5
100
AcDbEntity
  8
_1
100
AcDbLine
 62
7
  6
CONTINUOUS
 10
22.0352182988
 20
86.2931326084
 11
22.8232143166
 21
86.2931326084
  0
LINE
  5
2C6
100
AcDbEntity
  8
_1
100
AcDbLine
 62
7
  6
CONTINUOUS
 10
94.3276366371
 20
86.2931326084
 11
95.0647142326
 21
86.2931326084
  0
LINE
  5
2C7
100
AcDbEntity
  8
_1
100
AcDbLine
 62
7
  6
CONTINUOUS
 10
56.9995751408
 20
86.8333561524
 11
59.3410812665
 21
86.8333561524
  0
LINE
  5
2C8
100
AcDbEntity
  8
_1
100
AcDbLine
 62
7
  6
CONTINUOUS
 10
58.8307530083
 20
87.0735106268
 11
56.9995751408
 21
87.0735106268
  0
LINE
  5
2C9
100
AcDbEntity
  8
_1
100
AcDbLine
 62
7
  6
CONTINUOUS
 10
58.7406950804
 20
87.5538195757
 11
58.4705212967
 21
87.5538195757
  0
LINE
  5
2CA
100
AcDbEntity
  8
_1
100
AcDbLine
 62
7
  6
CONTINUOUS
 10
55.3449453839
 20
87.6247326084
 11
54.4043789898
 21
87.6247326084
  0
LINE
  5
2CB
100
AcDbEntity
  8
_1
100
AcDbLine
 62
7
  6
CONTINUOUS
 10
53.2043789898
 20
87.6247326084
 11
52.2638125958
 21
87.6247326084
  0
LINE
  5
2CC
100
AcDbEntity
  8
_1
100
AcDbLine
 62
7
  6
CONTINUOUS
 10
72.2763920315
 20
87.7536326084
 11
68.6500789229
 21
87.7536326084
  0
LINE
  5
2CD
100
AcDbEntity
  8
_1
100
AcDbLine
 62
7
  6
CONTINUOUS
 10
52.2638125958
 20
88.4375326084
 11
53.2043789898
 21
88.4375326084
  0
LINE
  5
2CE
100
AcDbEntity
  8
_1
100
AcDbLine
 62
7
  6
CONTINUOUS
 10
54.4043789898
 20
88.4375326084
 11
55.3449453839
 21
88.4375326084
  0
LINE
  5
2CF
100
AcDbEntity
  8
_1
100
AcDbLine
 62
7
  6
CONTINUOUS
 10
56.9995751408
 20
89.3451280481
 11
57.6900192548
 21
89.1434358137
  0
LINE
  5
2D0
100
AcDbEntity
  8
_1
100
AcDbLine
 62
7
  6
CONTINUOUS
 10
59.3110619572
 20
88.8568452202
 11
56.9995751408
 21
89.5951326084
  0
LINE
  5
2D1
100
AcDbEntity
  8
_1
100
AcDbLine
 62
7
  6
CONTINUOUS
 10
57.9601930385
 20
89.0646351268
 11
58.6328131876
 21
88.8469951343
  0
LINE
  5
2D2
100
AcDbEntity
  8
_1
100
AcDbLine
 62
7
  6
CONTINUOUS
 10
51.0001231304
 20
96.6946776718
 11
51.0511093751
 21
96.6436914271
  0
LINE
  5
2D3
100
AcDbEntity
  8
_1
100
AcDbLine
 62
7
  6
CONTINUOUS
 10
65.173038456
 20
82.4241362408
 11
65.1715375288
 21
83.1816330881
  0
LINE
  5
2D4
100
AcDbEntity
  8
_1
100
AcDbLine
 62
7
  6
CONTINUOUS
 10
65.1770195154
 20
88.6381288754
 11
65.1745460931
 21
87.8806321246
  0
LINE
  5
2D5
100
AcDbEntity
  8
_1
100
AcDbLine
 62
7
  6
CONTINUOUS
 10
56.4611231304
 20
74.367587545
 11
56.5121093751
 21
74.4185737896
  0
LINE
  5
2D6
100
AcDbEntity
  8
_1
100
AcDbLine
 62
7
  6
CONTINUOUS
 10
78.4260400823
 20
90.9356628641
 11
72.3302721993
 21
90.8824659037
  0
LINE
  5
2D7
100
AcDbEntity
  8
_1
100
AcDbLine
 62
7
  6
CONTINUOUS
 10
78.5565626917
 20
89.4681326084
 11
78.4388470248
 21
89.4681326084
  0
LINE
  5
2D8
100
AcDbEntity
  8
_1
100
AcDbLine
 62
7
  6
CONTINUOUS
 10
72.3426148989
 20
89.4681326084
 11
72.292773696
 21
89.4681326084
  0
LINE
  5
2D9
100
AcDbEntity
  8
_1
100
AcDbLine
 62
7
  6
CONTINUOUS
 10
12.7803689208
 20
89.9761326084
 11
16.0521681938
 21
89.9761326084
  0
LINE
  5
2DA
100
AcDbEntity
  8
_1
100
AcDbLine
 62
7
  6
CONTINUOUS
 10
47.4043789358
 20
90.5311326084
 11
60.0543789898
 21
90.5311326084
  0
LINE
  5
2DB
100
AcDbEntity
  8
_1
100
AcDbLine
 62
7
  6
CONTINUOUS
 10
50.86789872
 20
90.6691128782
 11
56.1908592597
 21
90.6691128782
  0
LINE
  5
2DC
100
AcDbEntity
  8
_1
100
AcDbLine
 62
7
  6
CONTINUOUS
 10
72.292773696
 20
90.9363271062
 11
78.5565626917
 21
90.9363271062
  0
LINE
  5
2DD
100
AcDbEntity
  8
_1
100
AcDbLine
 62
7
  6
CONTINUOUS
 10
16.0521681938
 20
91.7541326084
 11
15.0409689208
 21
91.7541326084
  0
LINE
  5
2DE
100
AcDbEntity
  8
_1
100
AcDbLine
 62
7
  6
CONTINUOUS
 10
79.8061681938
 20
91.8811326084
 11
44.2461681938
 21
91.8811326084
  0
LINE
  5
2DF
100
AcDbEntity
  8
_1
100
AcDbLine
 62
7
  6
CONTINUOUS
 10
80.1869735668
 20
92.2621326084
 11
43.8653628209
 21
92.2621326084
  0
LINE
  5
2E0
100
AcDbEntity
  8
_1
100
AcDbLine
 62
7
  6
CONTINUOUS
 10
50.748045279
 20
96.6937909545
 11
50.8732776873
 21
96.6419179925
  0
LINE
  5
2E1
100
AcDbEntity
  8
_1
100
AcDbLine
 62
7
  6
CONTINUOUS
 10
68.6500789229
 20
83.3086326084
 11
68.6500789229
 21
87.7536326084
  0
LINE
  5
2E2
100
AcDbEntity
  8
_1
100
AcDbLine
 62
7
  6
CONTINUOUS
 10
56.209045279
 20
74.3684742623
 11
56.3342776873
 21
74.4203472242
  0
LINE
  5
2E3
100
AcDbEntity
  8
_1
100
AcDbLine
 62
7
  6
CONTINUOUS
 10
91.9424358079
 20
95.7695102632
 11
92.0256124998
 21
95.7777441395
  0
LINE
  5
2E4
100
AcDbEntity
  8
_1
100
AcDbLine
 62
7
  6
CONTINUOUS
 10
91.4421534694
 20
96.2774328923
 11
91.5253301612
 21
96.2856667687
  0
LINE
  5
2E5
100
AcDbEntity
  8
_1
100
AcDbLine
 62
7
  6
CONTINUOUS
 10
16.0521681938
 20
93.8820975029
 11
17.4073831625
 21
93.9057528682
  0
LINE
  5
2E6
100
AcDbEntity
  8
_1
100
AcDbLine
 62
7
  6
CONTINUOUS
 10
17.4261863133
 20
93.3289326084
 11
17.5237252161
 21
93.3289326084
  0
LINE
  5
2E7
100
AcDbEntity
  8
_1
100
AcDbLine
 62
7
  6
CONTINUOUS
 10
28.1914182358
 20
94.2696423193
 11
26.174866085
 21
94.2696423193
  0
LINE
  5
2E8
100
AcDbEntity
  8
_1
100
AcDbLine
 62
7
  6
CONTINUOUS
 10
95.8609181518
 20
94.2696423193
 11
97.8774703027
 21
94.2696423193
  0
LINE
  5
2E9
100
AcDbEntity
  8
_1
100
AcDbLine
 62
7
  6
CONTINUOUS
 10
26.2683371533
 20
94.4258491344
 11
31.1343992344
 21
94.4258491344
  0
LINE
  5
2EA
100
AcDbEntity
  8
_1
100
AcDbLine
 62
7
  6
CONTINUOUS
 10
92.9179371533
 20
94.4258491344
 11
97.7839992344
 21
94.4258491344
  0
LINE
  5
2EB
100
AcDbEntity
  8
_1
100
AcDbLine
 62
7
  6
CONTINUOUS
 10
17.5237252161
 20
95.2339326084
 11
17.4261863133
 21
95.2339326084
  0
LINE
  5
2EC
100
AcDbEntity
  8
_1
100
AcDbLine
 62
7
  6
CONTINUOUS
 10
97.8093992344
 20
95.4151200078
 11
97.7839992344
 21
95.4151200078
  0
LINE
  5
2ED
100
AcDbEntity
  8
_1
100
AcDbLine
 62
7
  6
CONTINUOUS
 10
92.9179371533
 20
95.4151200078
 11
92.8925371533
 21
95.4151200078
  0
LINE
  5
2EE
100
AcDbEntity
  8
_1
100
AcDbLine
 62
7
  6
CONTINUOUS
 10
26.2429371533
 20
95.4151200078
 11
26.2683371533
 21
95.4151200078
  0
LINE
  5
2EF
100
AcDbEntity
  8
_1
100
AcDbLine
 62
7
  6
CONTINUOUS
 10
31.1343992344
 20
95.4151200078
 11
31.1597992344
 21
95.4151200078
  0
LINE
  5
2F0
100
AcDbEntity
  8
_1
100
AcDbLine
 62
7
  6
CONTINUOUS
 10
26.2429371533
 20
95.4405200078
 11
31.1597992344
 21
95.4405200078
  0
LINE
  5
2F1
100
AcDbEntity
  8
_1
100
AcDbLine
 62
7
  6
CONTINUOUS
 10
92.8925371533
 20
95.4405200078
 11
97.8093992344
 21
95.4405200078
  0
LINE
  5
2F2
100
AcDbEntity
  8
_1
100
AcDbLine
 62
7
  6
CONTINUOUS
 10
108.0001681938
 20
93.8820975029
 11
106.6449532252
 21
93.9057528682
  0
LINE
  5
2F3
100
AcDbEntity
  8
_1
100
AcDbLine
 62
7
  6
CONTINUOUS
 10
32.0267238879
 20
95.7777441395
 11
32.1099005798
 21
95.7695102632
  0
LINE
  5
2F4
100
AcDbEntity
  8
_1
100
AcDbLine
 62
7
  6
CONTINUOUS
 10
32.5270062264
 20
96.2856667687
 11
32.6101829183
 21
96.2774328923
  0
LINE
  5
2F5
100
AcDbEntity
  8
_1
100
AcDbLine
 62
7
  6
CONTINUOUS
 10
72.2985667346
 20
89.0726098989
 11
72.292773696
 21
89.4681326084
  0
LINE
  5
2F6
100
AcDbEntity
  8
_1
100
AcDbLine
 62
7
  6
CONTINUOUS
 10
72.4220969247
 20
80.3603945643
 11
72.3302721993
 21
90.8824659037
  0
LINE
  5
2F7
100
AcDbEntity
  8
_1
100
AcDbLine
 62
7
  6
CONTINUOUS
 10
72.2763920315
 20
80.109556446
 11
72.2763920315
 21
83.3086326084
  0
LINE
  5
2F8
100
AcDbEntity
  8
_1
100
AcDbLine
 62
7
  6
CONTINUOUS
 10
72.2763920315
 20
87.7536326084
 11
72.2763920315
 21
90.9527087707
  0
LINE
  5
2F9
100
AcDbEntity
  8
_1
100
AcDbLine
 62
7
  6
CONTINUOUS
 10
72.2915743013
 20
83.3086326084
 11
72.2915743013
 21
87.7536326084
  0
LINE
  5
2FA
100
AcDbEntity
  8
_1
100
AcDbLine
 62
7
  6
CONTINUOUS
 10
72.292773696
 20
80.1259381105
 11
72.292773696
 21
81.5941326084
  0
LINE
  5
2FB
100
AcDbEntity
  8
_1
100
AcDbLine
 62
7
  6
CONTINUOUS
 10
72.292773696
 20
89.4681326084
 11
72.292773696
 21
90.9363271062
  0
LINE
  5
2FC
100
AcDbEntity
  8
_1
100
AcDbLine
 62
7
  6
CONTINUOUS
 10
72.2985667346
 20
89.0726098989
 11
72.2985667346
 21
87.7536326084
  0
LINE
  5
2FD
100
AcDbEntity
  8
_1
100
AcDbLine
 62
7
  6
CONTINUOUS
 10
72.2985667346
 20
83.3086326084
 11
72.2985667346
 21
81.9896553178
  0
LINE
  5
2FE
100
AcDbEntity
  8
_1
100
AcDbLine
 62
7
  6
CONTINUOUS
 10
72.292773696
 20
81.5941326084
 11
72.2985667346
 21
81.9896553178
  0
LINE
  5
2FF
100
AcDbEntity
  8
_1
100
AcDbLine
 62
7
  6
CONTINUOUS
 10
72.292773696
 20
80.1259381105
 11
72.2763920315
 21
80.109556446
  0
LINE
  5
300
100
AcDbEntity
  8
_1
100
AcDbLine
 62
7
  6
CONTINUOUS
 10
92.5064404221
 20
95.7923859393
 11
104.1250569159
 21
95.8016940169
  0
LINE
  5
301
100
AcDbEntity
  8
_1
100
AcDbLine
 62
7
  6
CONTINUOUS
 10
32.1099005798
 20
95.7695102632
 11
91.9424358079
 21
95.7695102632
  0
LINE
  5
302
100
AcDbEntity
  8
_1
100
AcDbLine
 62
7
  6
CONTINUOUS
 10
66.8290587004
 20
96.6419179925
 11
50.8732776873
 21
96.6419179925
  0
LINE
  5
303
100
AcDbEntity
  8
_1
100
AcDbLine
 62
7
  6
CONTINUOUS
 10
51.0511093751
 20
96.6436914271
 11
66.6512270126
 21
96.6436914271
  0
LINE
  5
304
100
AcDbEntity
  8
_1
100
AcDbLine
 62
7
  6
CONTINUOUS
 10
17.6822722919
 20
96.6937909545
 11
50.748045279
 21
96.6937909545
  0
LINE
  5
305
100
AcDbEntity
  8
_1
100
AcDbLine
 62
7
  6
CONTINUOUS
 10
66.9542911087
 20
96.6937909545
 11
106.3700640958
 21
96.6937909545
  0
LINE
  5
306
100
AcDbEntity
  8
_1
100
AcDbLine
 62
7
  6
CONTINUOUS
 10
17.6840458436
 20
96.6946776718
 11
51.0001231304
 21
96.6946776718
  0
LINE
  5
307
100
AcDbEntity
  8
_1
100
AcDbLine
 62
7
  6
CONTINUOUS
 10
66.7022132572
 20
96.6946776718
 11
106.3682905441
 21
96.6946776718
  0
LINE
  5
308
100
AcDbEntity
  8
_1
100
AcDbLine
 62
7
  6
CONTINUOUS
 10
17.0261681938
 20
96.7811326064
 11
107.0261681938
 21
96.7811326064
  0
LINE
  5
309
100
AcDbEntity
  8
_1
100
AcDbLine
 62
7
  6
CONTINUOUS
 10
19.9272794717
 20
95.8016940169
 11
31.5458959655
 21
95.7923859393
  0
LINE
  5
30A
100
AcDbEntity
  8
_1
100
AcDbLine
 62
7
  6
CONTINUOUS
 10
72.292773696
 20
90.9363271062
 11
72.2763920315
 21
90.9527087707
  0
LINE
  5
30B
100
AcDbEntity
  8
_1
100
AcDbLine
 62
7
  6
CONTINUOUS
 10
78.5489447092
 20
82.1142543096
 11
78.5565626917
 21
81.5941326084
  0
LINE
  5
30C
100
AcDbEntity
  8
_1
100
AcDbLine
 62
7
  6
CONTINUOUS
 10
78.5178648077
 20
80.4135915247
 11
78.4260400823
 21
90.9356628641
  0
LINE
  5
30D
100
AcDbEntity
  8
_1
100
AcDbLine
 62
7
  6
CONTINUOUS
 10
78.5489447092
 20
82.1142543096
 11
78.5489447092
 21
88.9480109072
  0
LINE
  5
30E
100
AcDbEntity
  8
_1
100
AcDbLine
 62
7
  6
CONTINUOUS
 10
78.5565626917
 20
90.9363271062
 11
78.5565626917
 21
89.4681326084
  0
LINE
  5
30F
100
AcDbEntity
  8
_1
100
AcDbLine
 62
7
  6
CONTINUOUS
 10
78.5565626917
 20
81.5941326084
 11
78.5565626917
 21
80.1259381105
  0
LINE
  5
310
100
AcDbEntity
  8
_1
100
AcDbLine
 62
7
  6
CONTINUOUS
 10
78.5711093768
 20
90.9508737913
 11
78.5711093768
 21
80.1113914254
  0
LINE
  5
311
100
AcDbEntity
  8
_1
100
AcDbLine
 62
7
  6
CONTINUOUS
 10
79.8061681938
 20
91.8893805954
 11
79.8061681938
 21
79.1728846213
  0
LINE
  5
312
100
AcDbEntity
  8
_1
100
AcDbLine
 62
7
  6
CONTINUOUS
 10
80.1869818792
 20
92.2621326084
 11
80.1869818792
 21
78.8001326084
  0
LINE
  5
313
100
AcDbEntity
  8
_1
100
AcDbLine
 62
7
  6
CONTINUOUS
 10
78.5565626917
 20
89.4681326084
 11
78.5489447092
 21
88.9480109072
  0
LINE
  5
314
100
AcDbEntity
  8
_1
100
AcDbLine
 62
7
  6
CONTINUOUS
 10
97.8093992344
 20
95.4405200078
 11
97.8908874587
 21
95.5220082322
  0
LINE
  5
315
100
AcDbEntity
  8
_1
100
AcDbLine
 62
7
  6
CONTINUOUS
 10
97.8093992344
 20
75.6217452089
 11
97.8908874587
 21
75.5402569845
  0
LINE
  5
316
100
AcDbEntity
  8
_1
100
AcDbLine
 62
7
  6
CONTINUOUS
 10
86.5371681938
 20
78.7549050492
 11
86.5371681938
 21
77.0665181474
  0
LINE
  5
317
100
AcDbEntity
  8
_1
100
AcDbLine
 62
7
  6
CONTINUOUS
 10
92.8925371533
 20
95.4151200078
 11
92.8226088065
 21
95.2752526621
  0
LINE
  5
318
100
AcDbEntity
  8
_1
100
AcDbLine
 62
7
  6
CONTINUOUS
 10
106.3682905441
 20
96.6946776718
 11
106.4547454807
 21
96.7811326084
  0
LINE
  5
319
100
AcDbEntity
  8
_1
100
AcDbLine
 62
7
  6
CONTINUOUS
 10
106.0206885424
 20
96.3444154011
 11
106.3700640958
 21
96.6937909545
  0
LINE
  5
31A
100
AcDbEntity
  8
_1
100
AcDbLine
 62
7
  6
CONTINUOUS
 10
106.9626681098
 20
96.2732099792
 11
106.8772075946
 21
96.187749464
  0
LINE
  5
31B
100
AcDbEntity
  8
_1
100
AcDbLine
 62
7
  6
CONTINUOUS
 10
106.8779867249
 20
96.1858683253
 11
106.5286111715
 21
95.8364927719
  0
LINE
  5
31C
100
AcDbEntity
  8
_1
100
AcDbLine
 62
7
  6
CONTINUOUS
 10
106.4547454807
 20
74.2811326084
 11
106.3682905441
 21
74.367587545
  0
LINE
  5
31D
100
AcDbEntity
  8
_1
100
AcDbLine
 62
7
  6
CONTINUOUS
 10
106.3700640958
 20
74.3684742623
 11
106.0206885424
 21
74.7178498157
  0
LINE
  5
31E
100
AcDbEntity
  8
_1
100
AcDbLine
 62
7
  6
CONTINUOUS
 10
106.8772076041
 20
74.8745157433
 11
106.9626681098
 21
74.7890552375
  0
LINE
  5
31F
100
AcDbEntity
  8
_1
100
AcDbLine
 62
7
  6
CONTINUOUS
 10
106.5286111715
 20
75.2257724448
 11
106.8779867249
 21
74.8763968914
  0
LINE
  5
320
100
AcDbEntity
  8
_1
100
AcDbLine
 62
7
  6
CONTINUOUS
 10
92.8226088065
 20
75.7870125546
 11
92.8925371533
 21
75.6471452089
  0
LINE
  5
321
100
AcDbEntity
  8
_1
100
AcDbLine
 62
7
  6
CONTINUOUS
 10
91.4609192193
 20
75.2927549535
 11
91.4609192193
 21
95.7695102632
  0
LINE
  5
322
100
AcDbEntity
  8
_1
100
AcDbLine
 62
7
  6
CONTINUOUS
 10
91.9424358079
 20
75.2927549535
 11
91.9424358079
 21
95.7695102632
  0
LINE
  5
323
100
AcDbEntity
  8
_1
100
AcDbLine
 62
7
  6
CONTINUOUS
 10
92.0256124998
 20
95.7777441395
 11
92.0256124998
 21
75.2845210772
  0
LINE
  5
324
100
AcDbEntity
  8
_1
100
AcDbLine
 62
7
  6
CONTINUOUS
 10
92.5064404221
 20
95.7923859393
 11
92.5064404221
 21
75.2698792774
  0
LINE
  5
325
100
AcDbEntity
  8
_1
100
AcDbLine
 62
7
  6
CONTINUOUS
 10
92.8091855244
 20
75.53839358
 11
92.8091855244
 21
76.9750968378
  0
LINE
  5
326
100
AcDbEntity
  8
_1
100
AcDbLine
 62
7
  6
CONTINUOUS
 10
92.8091855244
 20
94.087168379
 11
92.8091855244
 21
95.5238716367
  0
LINE
  5
327
100
AcDbEntity
  8
_1
100
AcDbLine
 62
7
  6
CONTINUOUS
 10
92.8226088065
 20
95.2752526621
 11
92.8226088065
 21
94.100591661
  0
LINE
  5
328
100
AcDbEntity
  8
_1
100
AcDbLine
 62
7
  6
CONTINUOUS
 10
92.8226088065
 20
76.9616735557
 11
92.8226088065
 21
75.7870125546
  0
LINE
  5
329
100
AcDbEntity
  8
_1
100
AcDbLine
 62
7
  6
CONTINUOUS
 10
92.8925371533
 20
75.6217452089
 11
92.8925371533
 21
75.6471452089
  0
LINE
  5
32A
100
AcDbEntity
  8
_1
100
AcDbLine
 62
7
  6
CONTINUOUS
 10
92.8925371533
 20
95.4151200078
 11
92.8925371533
 21
95.4405200078
  0
LINE
  5
32B
100
AcDbEntity
  8
_1
100
AcDbLine
 62
7
  6
CONTINUOUS
 10
92.9179371533
 20
76.6364160824
 11
92.9179371533
 21
75.6471452089
  0
LINE
  5
32C
100
AcDbEntity
  8
_1
100
AcDbLine
 62
7
  6
CONTINUOUS
 10
92.9179371533
 20
94.4258491344
 11
92.9179371533
 21
95.4151200078
  0
LINE
  5
32D
100
AcDbEntity
  8
_1
100
AcDbLine
 62
7
  6
CONTINUOUS
 10
92.8925371533
 20
75.6217452089
 11
92.8091855244
 21
75.53839358
  0
LINE
  5
32E
100
AcDbEntity
  8
_1
100
AcDbLine
 62
7
  6
CONTINUOUS
 10
92.8925371533
 20
95.4405200078
 11
92.8091855244
 21
95.5238716367
  0
LINE
  5
32F
100
AcDbEntity
  8
_1
100
AcDbLine
 62
7
  6
CONTINUOUS
 10
95.8609181518
 20
94.2696423193
 11
95.8609181518
 21
94.101675638
  0
LINE
  5
330
100
AcDbEntity
  8
_1
100
AcDbLine
 62
7
  6
CONTINUOUS
 10
95.8609181518
 20
76.9605895787
 11
95.8609181518
 21
76.7926228974
  0
LINE
  5
331
100
AcDbEntity
  8
_1
100
AcDbLine
 62
7
  6
CONTINUOUS
 10
97.7839992344
 20
76.6364160824
 11
97.7839992344
 21
75.6471452089
  0
LINE
  5
332
100
AcDbEntity
  8
_1
100
AcDbLine
 62
7
  6
CONTINUOUS
 10
97.7839992344
 20
94.4258491344
 11
97.7839992344
 21
95.4151200078
  0
LINE
  5
333
100
AcDbEntity
  8
_1
100
AcDbLine
 62
7
  6
CONTINUOUS
 10
97.8093992344
 20
95.4405200078
 11
97.8093992344
 21
95.4151200078
  0
LINE
  5
334
100
AcDbEntity
  8
_1
100
AcDbLine
 62
7
  6
CONTINUOUS
 10
97.8093992344
 20
75.6471452089
 11
97.8093992344
 21
75.6217452089
  0
LINE
  5
335
100
AcDbEntity
  8
_1
100
AcDbLine
 62
7
  6
CONTINUOUS
 10
97.8774703027
 20
75.7832977147
 11
97.8774703027
 21
76.9598162772
  0
LINE
  5
336
100
AcDbEntity
  8
_1
100
AcDbLine
 62
7
  6
CONTINUOUS
 10
97.8774703027
 20
94.1024489395
 11
97.8774703027
 21
95.278967502
  0
LINE
  5
337
100
AcDbEntity
  8
_1
100
AcDbLine
 62
7
  6
CONTINUOUS
 10
97.8908874587
 20
95.5220082322
 11
97.8908874587
 21
94.0890317835
  0
LINE
  5
338
100
AcDbEntity
  8
_1
100
AcDbLine
 62
7
  6
CONTINUOUS
 10
97.8908874587
 20
76.9732334333
 11
97.8908874587
 21
75.5402569845
  0
LINE
  5
339
100
AcDbEntity
  8
_1
100
AcDbLine
 62
7
  6
CONTINUOUS
 10
97.8093992344
 20
75.6471452089
 11
97.8774703027
 21
75.7832977147
  0
LINE
  5
33A
100
AcDbEntity
  8
_1
100
AcDbLine
 62
7
  6
CONTINUOUS
 10
97.8774703027
 20
95.278967502
 11
97.8093992344
 21
95.4151200078
  0
LINE
  5
33B
100
AcDbEntity
  8
_1
100
AcDbLine
 62
7
  6
CONTINUOUS
 10
104.1250569159
 20
75.2605711998
 11
104.1250569159
 21
95.8016940169
  0
LINE
  5
33C
100
AcDbEntity
  8
_1
100
AcDbLine
 62
7
  6
CONTINUOUS
 10
106.5286111715
 20
75.2257724448
 11
106.5286111715
 21
95.8364927719
  0
LINE
  5
33D
100
AcDbEntity
  8
_1
100
AcDbLine
 62
7
  6
CONTINUOUS
 10
106.6131242679
 20
92.4462148162
 11
106.6131242679
 21
78.6160504005
  0
LINE
  5
33E
100
AcDbEntity
  8
_1
100
AcDbLine
 62
7
  6
CONTINUOUS
 10
106.6449532252
 20
77.1565123485
 11
106.6449532252
 21
78.4195833004
  0
LINE
  5
33F
100
AcDbEntity
  8
_1
100
AcDbLine
 62
7
  6
CONTINUOUS
 10
106.6449532252
 20
92.6426819163
 11
106.6449532252
 21
93.9057528682
  0
LINE
  5
340
100
AcDbEntity
  8
_1
100
AcDbLine
 62
7
  6
CONTINUOUS
 10
106.8762131732
 20
93.9424537903
 11
106.8762131732
 21
93.9017162108
  0
LINE
  5
341
100
AcDbEntity
  8
_1
100
AcDbLine
 62
7
  6
CONTINUOUS
 10
106.8762131732
 20
77.1605490059
 11
106.8762131732
 21
77.1198114265
  0
LINE
  5
342
100
AcDbEntity
  8
_1
100
AcDbLine
 62
7
  6
CONTINUOUS
 10
106.8779867249
 20
96.1858683253
 11
106.8779867249
 21
93.9424537903
  0
LINE
  5
343
100
AcDbEntity
  8
_1
100
AcDbLine
 62
7
  6
CONTINUOUS
 10
106.8779867249
 20
77.1198114265
 11
106.8779867249
 21
74.8763968914
  0
LINE
  5
344
100
AcDbEntity
  8
_1
100
AcDbLine
 62
7
  6
CONTINUOUS
 10
106.9626681098
 20
96.2732099792
 11
106.9626681098
 21
93.9002071343
  0
LINE
  5
345
100
AcDbEntity
  8
_1
100
AcDbLine
 62
7
  6
CONTINUOUS
 10
106.9626681098
 20
77.1620580825
 11
106.9626681098
 21
74.7890552375
  0
LINE
  5
346
100
AcDbEntity
  8
_1
100
AcDbLine
 62
7
  6
CONTINUOUS
 10
107.0261681938
 20
96.7811326064
 11
107.0261681938
 21
93.8990987362
  0
LINE
  5
347
100
AcDbEntity
  8
_1
100
AcDbLine
 62
7
  6
CONTINUOUS
 10
107.0261681938
 20
77.1631664806
 11
107.0261681938
 21
74.2811326064
  0
LINE
  5
348
100
AcDbEntity
  8
_1
100
AcDbLine
 62
7
  6
CONTINUOUS
 10
107.0515681938
 20
77.1636098392
 11
107.0515681938
 21
75.8242628944
  0
LINE
  5
349
100
AcDbEntity
  8
_1
100
AcDbLine
 62
7
  6
CONTINUOUS
 10
108.0001681938
 20
77.1801677138
 11
108.0001681938
 21
93.8820975029
  0
ARC
  5
34A
100
AcDbEntity
  8
_1
100
AcDbCircle
 62
7
  6
CONTINUOUS
 10
38.1534429991
 20
85.5310418731
 40
4.5768274747
100
AcDbArc
 50
263.7067303845
 51
269.959003719
  0
CIRCLE
  5
34B
100
AcDbEntity
  8
_1
100
AcDbCircle
 62
7
  6
CONTINUOUS
 10
53.8043789898
 20
83.0311326084
 40
2.0
  0
CIRCLE
  5
34C
100
AcDbEntity
  8
_1
100
AcDbCircle
 62
7
  6
CONTINUOUS
 10
37.2865681938
 20
77.9111326084
 40
1.651
  0
ARC
  5
34D
100
AcDbEntity
  8
_1
100
AcDbCircle
 62
7
  6
CONTINUOUS
 10
36.1181681938
 20
78.2159326084
 40
1.397
100
AcDbArc
 50
309.28592647
 51
29.1600755954
  0
ARC
  5
34E
100
AcDbEntity
  8
_1
100
AcDbCircle
 62
7
  6
CONTINUOUS
 10
36.1181681938
 20
78.2159326084
 40
1.0795
100
AcDbArc
 50
298.0229979108
 51
32.4234669843
  0
CIRCLE
  5
34F
100
AcDbEntity
  8
_1
100
AcDbCircle
 62
7
  6
CONTINUOUS
 10
37.2865681938
 20
77.9111326084
 40
0.9525
  0
ARC
  5
350
100
AcDbEntity
  8
_1
100
AcDbCircle
 62
7
  6
CONTINUOUS
 10
18.0318336602
 20
75.2259582598
 40
0.5081094508
100
AcDbArc
 50
180.0209530324
 51
269.9790469676
  0
ARC
  5
351
100
AcDbEntity
  8
_1
100
AcDbCircle
 62
7
  6
CONTINUOUS
 10
-25.5908750606
 20
85.5311326084
 40
43.5818965935
100
AcDbArc
 50
350.6087757472
 51
350.8704303568
  0
ARC
  5
352
100
AcDbEntity
  8
_1
100
AcDbCircle
 62
7
  6
CONTINUOUS
 10
-25.5908750606
 20
85.5311326084
 40
43.5818965935
100
AcDbArc
 50
9.1295696432
 51
9.3912242528
  0
CIRCLE
  5
353
100
AcDbEntity
  8
_1
100
AcDbCircle
 62
7
  6
CONTINUOUS
 10
25.8800182358
 20
85.5311326084
 40
5.08127
  0
ARC
  5
354
100
AcDbEntity
  8
_1
100
AcDbCircle
 62
7
  6
CONTINUOUS
 10
38.1547960624
 20
85.5314493998
 40
4.5763475784
100
AcDbArc
 50
83.7530836492
 51
90.0579390824
  0
CIRCLE
  5
355
100
AcDbEntity
  8
_1
100
AcDbCircle
 62
7
  6
CONTINUOUS
 10
38.1501681938
 20
85.5311326084
 40
4.333395702
  0
CIRCLE
  5
356
100
AcDbEntity
  8
_1
100
AcDbCircle
 62
7
  6
CONTINUOUS
 10
38.1501681938
 20
85.5311326084
 40
4.1275
  0
CIRCLE
  5
357
100
AcDbEntity
  8
_1
100
AcDbCircle
 62
7
  6
CONTINUOUS
 10
25.8800182358
 20
85.5311326084
 40
3.93827
  0
ARC
  5
358
100
AcDbEntity
  8
_1
100
AcDbCircle
 62
7
  6
CONTINUOUS
 10
25.9054182358
 20
85.5311326084
 40
3.175
100
AcDbArc
 50
193.8865403626
 51
346.1134596374
  0
ARC
  5
359
100
AcDbEntity
  8
_1
100
AcDbCircle
 62
7
  6
CONTINUOUS
 10
25.9054182358
 20
85.5311326084
 40
3.175
100
AcDbArc
 50
13.8865403626
 51
166.1134596374
  0
CIRCLE
  5
35A
100
AcDbEntity
  8
_1
100
AcDbCircle
 62
7
  6
CONTINUOUS
 10
25.9054182358
 20
85.5311326084
 40
2.340220364
  0
CIRCLE
  5
35B
100
AcDbEntity
  8
_1
100
AcDbCircle
 62
7
  6
CONTINUOUS
 10
38.1501681938
 20
85.5311326084
 40
2.2479
  0
ARC
  5
35C
100
AcDbEntity
  8
_1
100
AcDbCircle
 62
7
  6
CONTINUOUS
 10
27.7071186557
 20
89.5658361853
 40
2.0718031707
100
AcDbArc
 50
183.2535502258
 51
184.1380461365
  0
CIRCLE
  5
35D
100
AcDbEntity
  8
_1
100
AcDbCircle
 62
7
  6
CONTINUOUS
 10
53.8043789898
 20
88.0311326084
 40
2.0
  0
CIRCLE
  5
35E
100
AcDbEntity
  8
_1
100
AcDbCircle
 62
7
  6
CONTINUOUS
 10
38.1501681938
 20
85.5311326064
 40
1.7272
  0
CIRCLE
  5
35F
100
AcDbEntity
  8
_1
100
AcDbCircle
 62
7
  6
CONTINUOUS
 10
37.1849681938
 20
93.1511326084
 40
1.651
  0
CIRCLE
  5
360
100
AcDbEntity
  8
_1
100
AcDbCircle
 62
7
  6
CONTINUOUS
 10
37.1849681938
 20
93.1511326084
 40
0.9525
  0
ARC
  5
361
100
AcDbEntity
  8
_1
100
AcDbCircle
 62
7
  6
CONTINUOUS
 10
18.0318336802
 20
95.8363069376
 40
0.5081094509
100
AcDbArc
 50
90.0209552848
 51
179.9790447817
  0
ARC
  5
362
100
AcDbEntity
  8
_1
100
AcDbCircle
 62
7
  6
CONTINUOUS
 10
94.5093134867
 20
81.3488546799
 40
3.8508861845
100
AcDbArc
 50
3.8067170667
 51
4.2169212287
  0
CIRCLE
  5
363
100
AcDbEntity
  8
_1
100
AcDbCircle
 62
7
  6
CONTINUOUS
 10
86.8673681938
 20
77.9111326084
 40
1.651
  0
CIRCLE
  5
364
100
AcDbEntity
  8
_1
100
AcDbCircle
 62
7
  6
CONTINUOUS
 10
86.8673681938
 20
77.9111326084
 40
0.9525
  0
ARC
  5
365
100
AcDbEntity
  8
_1
100
AcDbCircle
 62
7
  6
CONTINUOUS
 10
106.0205028058
 20
75.2259581808
 40
0.5081094509
100
AcDbArc
 50
270.0209441996
 51
359.979055867
  0
ARC
  5
366
100
AcDbEntity
  8
_1
100
AcDbCircle
 62
7
  6
CONTINUOUS
 10
149.6432114482
 20
85.5311326084
 40
43.5818965935
100
AcDbArc
 50
170.6087757472
 51
170.8704303568
  0
ARC
  5
367
100
AcDbEntity
  8
_1
100
AcDbCircle
 62
7
  6
CONTINUOUS
 10
149.6432114482
 20
85.5311326084
 40
43.5818965935
100
AcDbArc
 50
189.1295696432
 51
189.3912242528
  0
CIRCLE
  5
368
100
AcDbEntity
  8
_1
100
AcDbCircle
 62
7
  6
CONTINUOUS
 10
98.1723181518
 20
85.5311326084
 40
5.08127
  0
ARC
  5
369
100
AcDbEntity
  8
_1
100
AcDbCircle
 62
7
  6
CONTINUOUS
 10
85.9000255336
 20
85.5330278032
 40
4.5788139668
100
AcDbArc
 50
264.2473056469
 51
270.0268117303
  0
ARC
  5
36A
100
AcDbEntity
  8
_1
100
AcDbCircle
 62
7
  6
CONTINUOUS
 10
85.9017162031
 20
85.5386486838
 40
4.5691524799
100
AcDbArc
 50
84.2550069063
 51
89.9943332643
  0
CIRCLE
  5
36B
100
AcDbEntity
  8
_1
100
AcDbCircle
 62
7
  6
CONTINUOUS
 10
85.9021681938
 20
85.5311326084
 40
4.333395702
  0
CIRCLE
  5
36C
100
AcDbEntity
  8
_1
100
AcDbCircle
 62
7
  6
CONTINUOUS
 10
85.9021681938
 20
85.5311326084
 40
4.1275
  0
CIRCLE
  5
36D
100
AcDbEntity
  8
_1
100
AcDbCircle
 62
7
  6
CONTINUOUS
 10
98.1723181518
 20
85.5311326084
 40
3.93827
  0
ARC
  5
36E
100
AcDbEntity
  8
_1
100
AcDbCircle
 62
7
  6
CONTINUOUS
 10
98.1469181518
 20
85.5311326084
 40
3.175
100
AcDbArc
 50
193.8865403626
 51
346.1134596374
  0
ARC
  5
36F
100
AcDbEntity
  8
_1
100
AcDbCircle
 62
7
  6
CONTINUOUS
 10
98.1469181518
 20
85.5311326084
 40
3.175
100
AcDbArc
 50
13.8865403626
 51
166.1134596374
  0
CIRCLE
  5
370
100
AcDbEntity
  8
_1
100
AcDbCircle
 62
7
  6
CONTINUOUS
 10
65.1730384558
 20
85.5311326084
 40
2.3495
  0
CIRCLE
  5
371
100
AcDbEntity
  8
_1
100
AcDbCircle
 62
7
  6
CONTINUOUS
 10
98.1469181518
 20
85.5311326084
 40
2.340220364
  0
CIRCLE
  5
372
100
AcDbEntity
  8
_1
100
AcDbCircle
 62
7
  6
CONTINUOUS
 10
65.1730384558
 20
85.5311326084
 40
2.286
  0
CIRCLE
  5
373
100
AcDbEntity
  8
_1
100
AcDbCircle
 62
7
  6
CONTINUOUS
 10
85.9021681938
 20
85.5311326084
 40
2.2479
  0
CIRCLE
  5
374
100
AcDbEntity
  8
_1
100
AcDbCircle
 62
7
  6
CONTINUOUS
 10
85.9021681938
 20
85.5311326064
 40
1.7272
  0
CIRCLE
  5
375
100
AcDbEntity
  8
_1
100
AcDbCircle
 62
7
  6
CONTINUOUS
 10
86.7657681938
 20
93.1511326084
 40
1.651
  0
ARC
  5
376
100
AcDbEntity
  8
_1
100
AcDbCircle
 62
7
  6
CONTINUOUS
 10
87.9341681938
 20
92.8463326084
 40
1.397
100
AcDbArc
 50
129.28592647
 51
209.1600755954
  0
ARC
  5
377
100
AcDbEntity
  8
_1
100
AcDbCircle
 62
7
  6
CONTINUOUS
 10
87.9341681938
 20
92.8463326084
 40
1.0795
100
AcDbArc
 50
118.0229979108
 51
212.4234669843
  0
CIRCLE
  5
378
100
AcDbEntity
  8
_1
100
AcDbCircle
 62
7
  6
CONTINUOUS
 10
86.7657681938
 20
93.1511326084
 40
0.9525
  0
ARC
  5
379
100
AcDbEntity
  8
_1
100
AcDbCircle
 62
7
  6
CONTINUOUS
 10
106.0205028065
 20
95.836307036
 40
0.5081094508
100
AcDbArc
 50
0.020944126
 51
89.979055874
  0
SPLINE
  5
37A
100
AcDbEntity
  8
_1
100
AcDbSpline
 62
7
  6
CONTINUOUS
 70
0
 71
3
 72
11
 73
7
 74
0
 42
0.0000001
 43
0.0000001
 44
0.0000000001
 40
0.0
 40
0.0
 40
0.0
 40
0.0
 40
0.2520586563
 40
0.5025802897
 40
0.7511248428
 40
1.0
 40
1.0
 40
1.0
 40
1.0
 10
58.6328131876
 20
88.8469951343
 30
0.0
 10
58.6690006154
 20
88.8357510017
 30
0.0
 10
58.7411548045
 20
88.8133313019
 30
0.0
 10
58.8505231754
 20
88.7851645458
 30
0.0
 10
58.9600892621
 20
88.7598468038
 30
0.0
 10
59.0336390801
 20
88.7463401224
 30
0.0
 10
59.0704384311
 20
88.7395822932
 30
0.0
  0
SPLINE
  5
37B
100
AcDbEntity
  8
_1
100
AcDbSpline
 62
7
  6
CONTINUOUS
 70
0
 71
3
 72
15
 73
11
 74
0
 42
0.0000001
 43
0.0000001
 44
0.0000000001
 40
0.0
 40
0.0
 40
0.0
 40
0.0
 40
0.0987560525
 40
0.2055809104
 40
0.3186409175
 40
0.4397881307
 40
0.5692829787
 40
0.7050516708
 40
0.8489268372
 40
1.0
 40
1.0
 40
1.0
 40
1.0
 10
59.0704384311
 20
88.7395822932
 30
0.0
 10
59.054640663
 20
88.7358566431
 30
0.0
 10
59.0217543794
 20
88.7281009408
 30
0.0
 10
58.9709103257
 20
88.7155406709
 30
0.0
 10
58.9167058848
 20
88.7012711638
 30
0.0
 10
58.8589338188
 20
88.685916854
 30
0.0
 10
58.7978414705
 20
88.6685555103
 30
0.0
 10
58.7333118516
 20
88.6496428951
 30
0.0
 10
58.665424616
 20
88.6295746608
 30
0.0
 10
58.6190448606
 20
88.6154714894
 30
0.0
 10
58.595289051
 20
88.608247815
 30
0.0
  0
SPLINE
  5
37C
100
AcDbEntity
  8
_1
100
AcDbSpline
 62
7
  6
CONTINUOUS
 70
0
 71
3
 72
15
 73
11
 74
0
 42
0.0000001
 43
0.0000001
 44
0.0000000001
 40
0.0
 40
0.0
 40
0.0
 40
0.0
 40
0.1036817038
 40
0.2146561024
 40
0.3344572197
 40
0.4630517985
 40
0.5968363993
 40
0.7305917208
 40
0.8647166621
 40
1.0
 40
1.0
 40
1.0
 40
1.0
 10
59.3410812665
 20
86.9890813194
 30
0.0
 10
59.3145179537
 20
87.0006938844
 30
0.0
 10
59.2595229355
 20
87.0247358114
 30
0.0
 10
59.1797736757
 20
87.0738720042
 30
0.0
 10
59.0985518123
 20
87.1329672948
 30
0.0
 10
59.0178405113
 20
87.2030222684
 30
0.0
 10
58.9394887891
 20
87.2812791715
 30
0.0
 10
58.8662159785
 20
87.3663545003
 30
0.0
 10
58.7990423265
 20
87.4569435678
 30
0.0
 10
58.7601998339
 20
87.5214351399
 30
0.0
 10
58.7406950804
 20
87.5538195757
 30
0.0
  0
SPLINE
  5
37D
100
AcDbEntity
  8
_1
100
AcDbSpline
 62
7
  6
CONTINUOUS
 70
0
 71
3
 72
15
 73
11
 74
0
 42
0.0000001
 43
0.0000001
 44
0.0000000001
 40
0.0
 40
0.0
 40
0.0
 40
0.0
 40
0.1107292192
 40
0.2306820895
 40
0.3609327002
 40
0.5000614557
 40
0.6388629179
 40
0.7687615494
 40
0.8884253004
 40
1.0
 40
1.0
 40
1.0
 40
1.0
 10
58.4705212967
 20
87.5538195757
 30
0.0
 10
58.4800997161
 20
87.533665401
 30
0.0
 10
58.5000544291
 20
87.4916782258
 30
0.0
 10
58.5368106531
 20
87.4288623477
 30
0.0
 10
58.5793469083
 20
87.3629553971
 30
0.0
 10
58.6271526676
 20
87.2960187546
 30
0.0
 10
58.677626168
 20
87.2311606722
 30
0.0
 10
58.7285143318
 20
87.1717221914
 30
0.0
 10
58.7786150944
 20
87.1188466517
 30
0.0
 10
58.8137837874
 20
87.0882660508
 30
0.0
 10
58.8307530083
 20
87.0735106268
 30
0.0
  0
SPLINE
  5
37E
100
AcDbEntity
  8
_1
100
AcDbSpline
 62
7
  6
CONTINUOUS
 70
0
 71
3
 72
17
 73
13
 74
0
 42
0.0000001
 43
0.0000001
 44
0.0000000001
 40
0.0
 40
0.0
 40
0.0
 40
0.0
 40
0.1538022735
 40
0.3184965268
 40
0.3660739543
 40
0.4244749493
 40
0.4938279806
 40
0.5734419106
 40
0.6645578842
 40
0.7654289602
 40
0.8772573629
 40
1.0
 40
1.0
 40
1.0
 40
1.0
 10
57.2697489245
 20
82.4877891247
 30
0.0
 10
57.2960198133
 20
82.4742632938
 30
0.0
 10
57.3504220444
 20
82.4462537587
 30
0.0
 10
57.4082681103
 20
82.4059907571
 30
0.0
 10
57.4492778466
 20
82.3740875277
 30
0.0
 10
57.4748701412
 20
82.3522188553
 30
0.0
 10
57.5054947164
 20
82.3267851242
 30
0.0
 10
57.5396596095
 20
82.2958433283
 30
0.0
 10
57.5784829388
 20
82.2610474443
 30
0.0
 10
57.6211331483
 20
82.2212676024
 30
0.0
 10
57.6686899086
 20
82.1778559571
 30
0.0
 10
57.7014757504
 20
82.1469911992
 30
0.0
 10
57.718631409
 20
82.130840775
 30
0.0
  0
SPLINE
  5
37F
100
AcDbEntity
  8
_1
100
AcDbSpline
 62
7
  6
CONTINUOUS
 70
0
 71
3
 72
23
 73
19
 74
0
 42
0.0000001
 43
0.0000001
 44
0.0000000001
 40
0.0
 40
0.0
 40
0.0
 40
0.0
 40
0.0983003513
 40
0.1902962769
 40
0.2757478806
 40
0.3547015714
 40
0.4274646232
 40
0.4940916246
 40
0.5544274719
 40
0.6085999195
 40
0.6591685419
 40
0.7088768574
 40
0.7578812607
 40
0.8066177846
 40
0.8549201792
 40
0.9030764135
 40
0.9512204477
 40
1.0
 40
1.0
 40
1.0
 40
1.0
 10
57.718631409
 20
82.130840775
 30
0.0
 10
57.7462273002
 20
82.1054260966
 30
0.0
 10
57.7996492391
 20
82.0562266928
 30
0.0
 10
57.87833335
 20
81.98633373
 30
0.0
 10
57.9528596659
 20
81.9229074624
 30
0.0
 10
58.0233181107
 20
81.8660738902
 30
0.0
 10
58.0894275393
 20
81.8153352145
 30
0.0
 10
58.1511730714
 20
81.7706137618
 30
0.0
 10
58.2088516277
 20
81.7324685231
 30
0.0
 10
58.2630859909
 20
81.7003386124
 30
0.0
 10
58.3156898254
 20
81.6736625693
 30
0.0
 10
58.3678239562
 20
81.6506329907
 30
0.0
 10
58.4204859915
 20
81.6306927862
 30
0.0
 10
58.4739544964
 20
81.6147715974
 30
0.0
 10
58.5280631884
 20
81.602672087
 30
0.0
 10
58.5825309805
 20
81.5935973458
 30
0.0
 10
58.6377151715
 20
81.5884028837
 30
0.0
 10
58.6747047834
 20
81.5876092595
 30
0.0
 10
58.6933208579
 20
81.5872098456
 30
0.0
  0
SPLINE
  5
380
100
AcDbEntity
  8
_1
100
AcDbSpline
 62
7
  6
CONTINUOUS
 70
0
 71
3
 72
23
 73
19
 74
0
 42
0.0000001
 43
0.0000001
 44
0.0000000001
 40
0.0
 40
0.0
 40
0.0
 40
0.0
 40
0.0631693531
 40
0.1252744446
 40
0.1866125713
 40
0.2468483991
 40
0.3070728362
 40
0.3680332408
 40
0.4293060874
 40
0.4915197109
 40
0.55360823
 40
0.6141828946
 40
0.6738886719
 40
0.7344255718
 40
0.7965011982
 40
0.8611041843
 40
0.9286677101
 40
1.0
 40
1.0
 40
1.0
 40
1.0
 10
58.6933208579
 20
81.5872098456
 30
0.0
 10
58.7139830304
 20
81.5876349885
 30
0.0
 10
58.7549592641
 20
81.5884781116
 30
0.0
 10
58.8155786805
 20
81.5960017099
 30
0.0
 10
58.8747486132
 20
81.6066887458
 30
0.0
 10
58.931786313
 20
81.6237003247
 30
0.0
 10
58.98755653
 20
81.6440708219
 30
0.0
 10
59.0413102912
 20
81.6701359812
 30
0.0
 10
59.0936475963
 20
81.7001842961
 30
0.0
 10
59.1436941821
 20
81.7346239186
 30
0.0
 10
59.1900703931
 20
81.7735831807
 30
0.0
 10
59.2307540623
 20
81.8174009488
 30
0.0
 10
59.2649753471
 20
81.8658403345
 30
0.0
 10
59.2925295675
 20
81.9188508889
 30
0.0
 10
59.31496584
 20
81.9759531629
 30
0.0
 10
59.3302254885
 20
82.0377679574
 30
0.0
 10
59.3390785475
 20
82.1038472293
 30
0.0
 10
59.3404017259
 20
82.149262565
 30
0.0
 10
59.3410812665
 20
82.172586377
 30
0.0
  0
SPLINE
  5
381
100
AcDbEntity
  8
_1
100
AcDbSpline
 62
7
  6
CONTINUOUS
 70
0
 71
3
 72
23
 73
19
 74
0
 42
0.0000001
 43
0.0000001
 44
0.0000000001
 40
0.0
 40
0.0
 40
0.0
 40
0.0
 40
0.0625389293
 40
0.1223468869
 40
0.1804441017
 40
0.2364264093
 40
0.2919232802
 40
0.3468259888
 40
0.4023394786
 40
0.4586994885
 40
0.5165527373
 40
0.5763246965
 40
0.6380885584
 40
0.7028322254
 40
0.7707059129
 40
0.8428543311
 40
0.9189989729
 40
1.0
 40
1.0
 40
1.0
 40
1.0
 10
59.3410812665
 20
82.172586377
 30
0.0
 10
59.3405243864
 20
82.1941869531
 30
0.0
 10
59.3394349441
 20
82.2364448438
 30
0.0
 10
59.3313725915
 20
82.2983594112
 30
0.0
 10
59.3178538581
 20
82.3569631948
 30
0.0
 10
59.2989454043
 20
82.4124908335
 30
0.0
 10
59.274695192
 20
82.4647353717
 30
0.0
 10
59.2441452365
 20
82.5133512113
 30
0.0
 10
59.2089205433
 20
82.5590226021
 30
0.0
 10
59.1683918228
 20
82.6015346394
 30
0.0
 10
59.1221718291
 20
82.6401143296
 30
0.0
 10
59.07043468
 20
82.6744383898
 30
0.0
 10
59.0130936538
 20
82.7037901694
 30
0.0
 10
58.9511461257
 20
82.7298685672
 30
0.0
 10
58.8834579081
 20
82.7506286864
 30
0.0
 10
58.8108378308
 20
82.7681076858
 30
0.0
 10
58.7325704865
 20
82.7807060269
 30
0.0
 10
58.6785052033
 20
82.7855073611
 30
0.0
 10
58.6506371525
 20
82.7879822177
 30
0.0
  0
SPLINE
  5
382
100
AcDbEntity
  8
_1
100
AcDbSpline
 62
7
  6
CONTINUOUS
 70
0
 71
3
 72
23
 73
19
 74
0
 42
0.0000001
 43
0.0000001
 44
0.0000000001
 40
0.0
 40
0.0
 40
0.0
 40
0.0
 40
0.0828603151
 40
0.1612314468
 40
0.235336893
 40
0.3049840749
 40
0.3719988152
 40
0.435640127
 40
0.4968581109
 40
0.5570517658
 40
0.6151876978
 40
0.6704494684
 40
0.7254172913
 40
0.7788554885
 40
0.8324361641
 40
0.8866841106
 40
0.9419501923
 40
1.0
 40
1.0
 40
1.0
 40
1.0
 10
58.6206178432
 20
82.5478277433
 30
0.0
 10
58.6393959745
 20
82.5476675223
 30
0.0
 10
58.6759348805
 20
82.5473557607
 30
0.0
 10
58.7290015418
 20
82.5417804901
 30
0.0
 10
58.7787770233
 20
82.5342110096
 30
0.0
 10
58.8251817438
 20
82.5227695718
 30
0.0
 10
58.8683351304
 20
82.508528454
 30
0.0
 10
58.9079101947
 20
82.490424705
 30
0.0
 10
58.9445752835
 20
82.4699368619
 30
0.0
 10
58.9771555956
 20
82.4454260719
 30
0.0
 10
59.0062069043
 20
82.418843935
 30
0.0
 10
59.0315051572
 20
82.3902183884
 30
0.0
 10
59.0530773461
 20
82.3599629709
 30
0.0
 10
59.0705660204
 20
82.3276281909
 30
0.0
 10
59.0844640308
 20
82.2937255916
 30
0.0
 10
59.0934067541
 20
82.2578205985
 30
0.0
 10
59.1001126332
 20
82.2203645925
 30
0.0
 10
59.1006509973
 20
82.1946642228
 30
0.0
 10
59.1009267921
 20
82.1814983595
 30
0.0
  0
SPLINE
  5
383
100
AcDbEntity
  8
_1
100
AcDbSpline
 62
7
  6
CONTINUOUS
 70
0
 71
3
 72
23
 73
19
 74
0
 42
0.0000001
 43
0.0000001
 44
0.0000000001
 40
0.0
 40
0.0
 40
0.0
 40
0.0
 40
0.0610766514
 40
0.1203545925
 40
0.178586508
 40
0.2362485432
 40
0.2932546097
 40
0.3520352787
 40
0.4120106314
 40
0.4739423776
 40
0.5367224427
 40
0.5994050231
 40
0.6623796047
 40
0.7255481039
 40
0.7908631949
 40
0.8578834691
 40
0.9272355768
 40
1.0
 40
1.0
 40
1.0
 40
1.0
 10
59.1009267921
 20
82.1814983595
 30
0.0
 10
59.1005326299
 20
82.1692871171
 30
0.0
 10
59.0997559135
 20
82.1452242542
 30
0.0
 10
59.0946062919
 20
82.1097937091
 30
0.0
 10
59.0855417126
 20
82.0759032867
 30
0.0
 10
59.0734439382
 20
82.0434492546
 30
0.0
 10
59.0576328278
 20
82.0125134784
 30
0.0
 10
59.0385446856
 20
81.9829111015
 30
0.0
 10
59.0151918752
 20
81.9552503356
 30
0.0
 10
58.9891039138
 20
81.9290720026
 30
0.0
 10
58.9601944244
 20
81.9051016035
 30
0.0
 10
58.9285017978
 20
81.8846377867
 30
0.0
 10
58.895323836
 20
81.8664759661
 30
0.0
 10
58.8595834435
 20
81.8525619375
 30
0.0
 10
58.8221439141
 20
81.8411503288
 30
0.0
 10
58.7825167739
 20
81.8334761433
 30
0.0
 10
58.7410120526
 20
81.8278435638
 30
0.0
 10
58.7125725515
 20
81.8275266048
 30
0.0
 10
58.698011375
 20
81.82736432
 30
0.0
  0
SPLINE
  5
384
100
AcDbEntity
  8
_1
100
AcDbSpline
 62
7
  6
CONTINUOUS
 70
0
 71
3
 72
19
 73
15
 74
0
 42
0.0000001
 43
0.0000001
 44
0.0000000001
 40
0.0
 40
0.0
 40
0.0
 40
0.0
 40
0.0782472602
 40
0.1611550633
 40
0.2504613807
 40
0.3476555499
 40
0.4018098507
 40
0.464018007
 40
0.5333957747
 40
0.6109954831
 40
0.69601946
 40
0.7894212004
 40
0.8906324038
 40
1.0
 40
1.0
 40
1.0
 40
1.0
 10
58.698011375
 20
81.82736432
 30
0.0
 10
58.6716353798
 20
81.8285551873
 30
0.0
 10
58.6173123891
 20
81.8310078519
 30
0.0
 10
58.5350432575
 20
81.8514660801
 30
0.0
 10
58.449592826
 20
81.882115855
 30
0.0
 10
58.3766537562
 20
81.9179014945
 30
0.0
 10
58.3150297533
 20
81.9550074155
 30
0.0
 10
58.2633240015
 20
81.9902298494
 30
0.0
 10
58.2066980143
 20
82.032152401
 30
0.0
 10
58.1462749446
 20
82.0816802924
 30
0.0
 10
58.0801082739
 20
82.136944181
 30
0.0
 10
58.0102008398
 20
82.2000342338
 30
0.0
 10
57.9349171264
 20
82.269375456
 30
0.0
 10
57.8839442989
 20
82.3186616821
 30
0.0
 10
57.8574707145
 20
82.3442593021
 30
0.0
  0
SPLINE
  5
385
100
AcDbEntity
  8
_1
100
AcDbSpline
 62
7
  6
CONTINUOUS
 70
0
 71
3
 72
23
 73
19
 74
0
 42
0.0000001
 43
0.0000001
 44
0.0000000001
 40
0.0
 40
0.0
 40
0.0
 40
0.0
 40
0.0947551165
 40
0.1839907765
 40
0.2680852605
 40
0.3471066615
 40
0.4211370725
 40
0.4900127317
 40
0.5541376909
 40
0.6134455445
 40
0.6691952426
 40
0.7227665806
 40
0.7738522144
 40
0.8230321192
 40
0.8699144472
 40
0.9148824934
 40
0.9579877493
 40
1.0
 40
1.0
 40
1.0
 40
1.0
 10
57.8574707145
 20
82.3442593021
 30
0.0
 10
57.8346178066
 20
82.3662879374
 30
0.0
 10
57.7902431656
 20
82.4090620467
 30
0.0
 10
57.7234338837
 20
82.4690863884
 30
0.0
 10
57.6592389035
 20
82.5240920125
 30
0.0
 10
57.5973054963
 20
82.5738491989
 30
0.0
 10
57.5379205132
 20
82.6186035001
 30
0.0
 10
57.4805195094
 20
82.6575497486
 30
0.0
 10
57.4258182862
 20
82.6916315228
 30
0.0
 10
57.3728006284
 20
82.719844609
 30
0.0
 10
57.3217215072
 20
82.743995777
 30
0.0
 10
57.2720829549
 20
82.7646199438
 30
0.0
 10
57.2235929625
 20
82.7820998107
 30
0.0
 10
57.1763717589
 20
82.7963784722
 30
0.0
 10
57.1301900229
 20
82.8064488497
 30
0.0
 10
57.0856551119
 20
82.8143354383
 30
0.0
 10
57.0421729313
 20
82.8181739691
 30
0.0
 10
57.0136523253
 20
82.8180585135
 30
0.0
 10
56.9995751408
 20
82.818001527
 30
0.0
  0
SPLINE
  5
386
100
AcDbEntity
  8
_1
100
AcDbSpline
 62
7
  6
CONTINUOUS
 70
0
 71
3
 72
11
 73
7
 74
0
 42
0.0000001
 43
0.0000001
 44
0.0000000001
 40
0.0
 40
0.0
 40
0.0
 40
0.0
 40
0.2520586563
 40
0.5025802897
 40
0.7511248428
 40
1.0
 40
1.0
 40
1.0
 40
1.0
 10
58.6328131876
 20
83.9610805391
 30
0.0
 10
58.6690006154
 20
83.9498364066
 30
0.0
 10
58.7411548045
 20
83.9274167067
 30
0.0
 10
58.8505231754
 20
83.8992499506
 30
0.0
 10
58.9600892621
 20
83.8739322086
 30
0.0
 10
59.0336390801
 20
83.8604255273
 30
0.0
 10
59.0704384311
 20
83.853667698
 30
0.0
  0
SPLINE
  5
387
100
AcDbEntity
  8
_1
100
AcDbSpline
 62
7
  6
CONTINUOUS
 70
0
 71
3
 72
15
 73
11
 74
0
 42
0.0000001
 43
0.0000001
 44
0.0000000001
 40
0.0
 40
0.0
 40
0.0
 40
0.0
 40
0.0987560525
 40
0.2055809104
 40
0.3186409175
 40
0.4397881307
 40
0.5692829787
 40
0.7050516708
 40
0.8489268372
 40
1.0
 40
1.0
 40
1.0
 40
1.0
 10
59.0704384311
 20
83.853667698
 30
0.0
 10
59.054640663
 20
83.8499420479
 30
0.0
 10
59.0217543794
 20
83.8421863457
 30
0.0
 10
58.9709103257
 20
83.8296260757
 30
0.0
 10
58.9167058848
 20
83.8153565686
 30
0.0
 10
58.8589338188
 20
83.8000022588
 30
0.0
 10
58.7978414705
 20
83.7826409151
 30
0.0
 10
58.7333118516
 20
83.7637283
 30
0.0
 10
58.665424616
 20
83.7436600656
 30
0.0
 10
58.6190448606
 20
83.7295568943
 30
0.0
 10
58.595289051
 20
83.7223332198
 30
0.0
  0
SPLINE
  5
388
100
AcDbEntity
  8
_1
100
AcDbSpline
 62
7
  6
CONTINUOUS
 70
0
 71
3
 72
18
 73
14
 74
0
 42
0.0000001
 43
0.0000001
 44
0.0000000001
 40
0.0
 40
0.0
 40
0.0
 40
0.0
 40
0.0065651527
 40
0.1140174487
 40
0.2124769815
 40
0.3003646868
 40
0.3784897625
 40
0.4469825731
 40
0.5744596576
 40
0.6997149272
 40
0.8276258712
 40
0.9592132485
 40
1.0
 40
1.0
 40
1.0
 40
1.0
 10
25.6407164965
 20
89.4163353668
 30
0.0
 10
25.6408230862
 20
89.4148766343
 30
0.0
 10
25.6427085784
 20
89.3895447864
 30
0.0
 10
25.6474003483
 20
89.3424080103
 30
0.0
 10
25.6579240171
 20
89.2778014902
 30
0.0
 10
25.6681143625
 20
89.2197398247
 30
0.0
 10
25.6819059872
 20
89.1692625423
 30
0.0
 10
25.7026325942
 20
89.1118061796
 30
0.0
 10
25.7345654916
 20
89.0472508178
 30
0.0
 10
25.7867420743
 20
88.9799697388
 30
0.0
 10
25.8469493871
 20
88.9185659888
 30
0.0
 10
25.9018154002
 20
88.87970602
 30
0.0
 10
25.9351285569
 20
88.8605079675
 30
0.0
 10
25.9431049626
 20
88.8561399177
 30
0.0
  0
SPLINE
  5
389
100
AcDbEntity
  8
_1
100
AcDbSpline
 62
7
  6
CONTINUOUS
 70
0
 71
3
 72
11
 73
7
 74
0
 42
0.0000001
 43
0.0000001
 44
0.0000000001
 40
0.0
 40
0.0
 40
0.0
 40
0.0
 40
0.1755687597
 40
0.4359893443
 40
0.7097019845
 40
1.0
 40
1.0
 40
1.0
 40
1.0
 10
25.9431049626
 20
88.8561399177
 30
0.0
 10
25.9616173361
 20
88.8460021471
 30
0.0
 10
26.0088454536
 20
88.8231618613
 30
0.0
 10
26.0898146488
 20
88.7954813606
 30
0.0
 10
26.187784114
 20
88.7784546113
 30
0.0
 10
26.255524625
 20
88.7758551662
 30
0.0
 10
26.290390874
 20
88.7745172238
 30
0.0
  0
SPLINE
  5
38A
100
AcDbEntity
  8
_1
100
AcDbSpline
 62
7
  6
CONTINUOUS
 70
0
 71
3
 72
17
 73
13
 74
0
 42
0.0000001
 43
0.0000001
 44
0.0000000001
 40
0.0
 40
0.0
 40
0.0
 40
0.0
 40
0.129836977
 40
0.2531601233
 40
0.3700433513
 40
0.4855488492
 40
0.5973897732
 40
0.7034372977
 40
0.804804169
 40
0.9073304571
 40
0.9635680993
 40
1.0
 40
1.0
 40
1.0
 40
1.0
 10
26.290390874
 20
88.7745172238
 30
0.0
 10
26.3274319608
 20
88.7755981095
 30
0.0
 10
26.3996558089
 20
88.7777056536
 30
0.0
 10
26.5035383165
 20
88.7983934807
 30
0.0
 10
26.599786049
 20
88.8313355865
 30
0.0
 10
26.6863611135
 20
88.8783523669
 30
0.0
 10
26.763177354
 20
88.9347102182
 30
0.0
 10
26.828200692
 20
88.9989758295
 30
0.0
 10
26.8795168714
 20
89.0712773787
 30
0.0
 10
26.912962848
 20
89.1379810636
 30
0.0
 10
26.9292524915
 20
89.1912395182
 30
0.0
 10
26.9361047483
 20
89.2167622587
 30
0.0
 10
26.9386041389
 20
89.2268407212
 30
0.0
  0
SPLINE
  5
38B
100
AcDbEntity
  8
_1
100
AcDbSpline
 62
7
  6
CONTINUOUS
 70
0
 71
3
 72
13
 73
9
 74
0
 42
0.0000001
 43
0.0000001
 44
0.0000000001
 40
0.0
 40
0.0
 40
0.0
 40
0.0
 40
0.0371871969
 40
0.2198013552
 40
0.4077707804
 40
0.6046503506
 40
0.8108872855
 40
1.0
 40
1.0
 40
1.0
 40
1.0
 10
27.7327014177
 20
88.986306814
 30
0.0
 10
27.7304377528
 20
88.9770429629
 30
0.0
 10
27.7163855268
 20
88.922453654
 30
0.0
 10
27.681828536
 20
88.8234258139
 30
0.0
 10
27.6178236747
 20
88.6924227098
 30
0.0
 10
27.536573646
 20
88.5641627355
 30
0.0
 10
27.4435127664
 20
88.4438983794
 30
0.0
 10
27.3742750416
 20
88.3696305729
 30
0.0
 10
27.3394757846
 20
88.3358333358
 30
0.0
  0
SPLINE
  5
38C
100
AcDbEntity
  8
_1
100
AcDbSpline
 62
7
  6
CONTINUOUS
 70
0
 71
3
 72
16
 73
12
 74
0
 42
0.0000001
 43
0.0000001
 44
0.0000000001
 40
0.0
 40
0.0
 40
0.0
 40
0.0
 40
0.0276576686
 40
0.1452542147
 40
0.2623530722
 40
0.3796814643
 40
0.5047837573
 40
0.6454651784
 40
0.8025305141
 40
0.9775125421
 40
1.0
 40
1.0
 40
1.0
 40
1.0
 10
25.1206618455
 20
88.4951161008
 30
0.0
 10
25.1160864468
 20
88.5008962613
 30
0.0
 10
25.0923296468
 20
88.5314687259
 30
0.0
 10
25.0520789161
 20
88.5887269248
 30
0.0
 10
25.0043687163
 20
88.6695994737
 30
0.0
 10
24.9619840515
 20
88.7556497178
 30
0.0
 10
24.9257069153
 20
88.8512512805
 30
0.0
 10
24.8951239266
 20
88.9598047487
 30
0.0
 10
24.8684059079
 20
89.0830115896
 30
0.0
 10
24.8549581179
 20
89.1765711049
 30
0.0
 10
24.8481820771
 20
89.2287670586
 30
0.0
 10
24.8474205492
 20
89.2347121995
 30
0.0
  0
SPLINE
  5
38D
100
AcDbEntity
  8
_1
100
AcDbSpline
 62
7
  6
CONTINUOUS
 70
0
 71
3
 72
17
 73
13
 74
0
 42
0.0000001
 43
0.0000001
 44
0.0000000001
 40
0.0
 40
0.0
 40
0.0
 40
0.0
 40
0.127014001
 40
0.2470324243
 40
0.3606775111
 40
0.4711577281
 40
0.577992228
 40
0.6810581308
 40
0.7836424709
 40
0.8871398645
 40
0.942748505
 40
1.0
 40
1.0
 40
1.0
 40
1.0
 10
97.672190706
 20
82.287747993
 30
0.0
 10
97.6372866012
 20
82.2869434125
 30
0.0
 10
97.5694008126
 20
82.2853785656
 30
0.0
 10
97.4719618627
 20
82.2660751757
 30
0.0
 10
97.3815589817
 20
82.237615938
 30
0.0
 10
97.3011310352
 20
82.1945882113
 30
0.0
 10
97.229093015
 20
82.1437166803
 30
0.0
 10
97.1679221691
 20
82.0831298471
 30
0.0
 10
97.1166975711
 20
82.0150612107
 30
0.0
 10
97.0844013893
 20
81.9504824762
 30
0.0
 10
97.0642892128
 20
81.8945928054
 30
0.0
 10
97.0559811572
 20
81.8647160037
 30
0.0
 10
97.0523786705
 20
81.8494239279
 30
0.0
  0
SPLINE
  5
38E
100
AcDbEntity
  8
_1
100
AcDbSpline
 62
7
  6
CONTINUOUS
 70
0
 71
3
 72
10
 73
6
 74
0
 42
0.0000001
 43
0.0000001
 44
0.0000000001
 40
0.0
 40
0.0
 40
0.0
 40
0.0
 40
0.2471863592
 40
0.6887657572
 40
1.0
 40
1.0
 40
1.0
 40
1.0
 10
98.3497745683
 20
81.6320208615
 30
0.0
 10
98.3487531596
 20
81.6457615581
 30
0.0
 10
98.3455988017
 20
81.6840210508
 30
0.0
 10
98.3385228883
 20
81.7393366764
 30
0.0
 10
98.3317672455
 20
81.7807603277
 30
0.0
 10
98.3285818462
 20
81.7978142047
 30
0.0
  0
SPLINE
  5
38F
100
AcDbEntity
  8
_1
100
AcDbSpline
 62
7
  6
CONTINUOUS
 70
0
 71
3
 72
14
 73
10
 74
0
 42
0.0000001
 43
0.0000001
 44
0.0000000001
 40
0.0
 40
0.0
 40
0.0
 40
0.0
 40
0.0288638076
 40
0.1541289264
 40
0.2608638785
 40
0.4554513119
 40
0.6490270647
 40
0.8488650736
 40
1.0
 40
1.0
 40
1.0
 40
1.0
 10
98.3285818462
 20
81.7978142047
 30
0.0
 10
98.3277860255
 20
81.8020748408
 30
0.0
 10
98.3234056528
 20
81.8248021383
 30
0.0
 10
98.3146982163
 20
81.8630259281
 30
0.0
 10
98.2955191451
 20
81.924226853
 30
0.0
 10
98.2624527371
 20
81.9913578614
 30
0.0
 10
98.2098509998
 20
82.0626587499
 30
0.0
 10
98.1524269117
 20
82.12133819
 30
0.0
 10
98.1104869959
 20
82.1534137165
 30
0.0
 10
98.0917728096
 20
82.1663058324
 30
0.0
  0
SPLINE
  5
390
100
AcDbEntity
  8
_1
100
AcDbSpline
 62
7
  6
CONTINUOUS
 70
0
 71
3
 72
12
 73
8
 74
0
 42
0.0000001
 43
0.0000001
 44
0.0000000001
 40
0.0
 40
0.0
 40
0.0
 40
0.0
 40
0.0620879271
 40
0.2847405499
 40
0.5119992861
 40
0.7497214939
 40
1.0
 40
1.0
 40
1.0
 40
1.0
 10
98.0917728096
 20
82.1663058324
 30
0.0
 10
98.0842033014
 20
82.1715204315
 30
0.0
 10
98.0489980836
 20
82.1947446378
 30
0.0
 10
97.9822975735
 20
82.2311745273
 30
0.0
 10
97.8855744293
 20
82.263688025
 30
0.0
 10
97.7814685544
 20
82.2845939428
 30
0.0
 10
97.7092361705
 20
82.2866787621
 30
0.0
 10
97.672190706
 20
82.287747993
 30
0.0
  0
SPLINE
  5
391
100
AcDbEntity
  8
_1
100
AcDbSpline
 62
7
  6
CONTINUOUS
 70
0
 71
3
 72
15
 73
11
 74
0
 42
0.0000001
 43
0.0000001
 44
0.0000000001
 40
0.0
 40
0.0
 40
0.0
 40
0.0
 40
0.1245943398
 40
0.2565303888
 40
0.3802678848
 40
0.503763308
 40
0.627783606
 40
0.7530860891
 40
0.8804051897
 40
1.0
 40
1.0
 40
1.0
 40
1.0
 10
96.2836266416
 20
82.1238704995
 30
0.0
 10
96.2915825615
 20
82.1543422489
 30
0.0
 10
96.309643328
 20
82.2166383516
 30
0.0
 10
96.3437832287
 20
82.3066157022
 30
0.0
 10
96.3861690367
 20
82.3926652943
 30
0.0
 10
96.4338774237
 20
82.4735398976
 30
0.0
 10
96.48811946
 20
82.5506848396
 30
0.0
 10
96.5487771419
 20
82.6241395256
 30
0.0
 10
96.6140365062
 20
82.6919908576
 30
0.0
 10
96.6603626912
 20
82.7338474746
 30
0.0
 10
96.6834153583
 20
82.7533986005
 30
0.0
  0
LINE
  5
392
100
AcDbEntity
  8
_1
100
AcDbLine
 62
7
  6
CONTINUOUS
 10
17.1822239236
 20
93.9018294401
 11
17.1743496627
 21
93.9424537903
  0
LINE
  5
393
100
AcDbEntity
  8
_1
100
AcDbLine
 62
7
  6
CONTINUOUS
 10
17.1743496627
 20
77.1198114265
 11
17.1822239236
 21
77.1604357766
  0
LINE
  5
394
100
AcDbEntity
  8
_1
100
AcDbLine
 62
7
  6
CONTINUOUS
 10
106.8701124622
 20
93.9018294305
 11
106.8779867249
 21
93.9424537903
  0
LINE
  5
395
100
AcDbEntity
  8
_1
100
AcDbLine
 62
7
  6
CONTINUOUS
 10
106.8779867249
 20
77.1198114265
 11
106.8701124622
 21
77.1604357863
  0
LINE
  5
396
100
AcDbEntity
  8
_1
100
AcDbLine
 62
7
  6
CONTINUOUS
 10
26.174866085
 20
76.9598162772
 11
31.2297275812
 21
76.9616735557
  0
LINE
  5
397
100
AcDbEntity
  8
_1
100
AcDbLine
 62
7
  6
CONTINUOUS
 10
31.2297275812
 20
94.100591661
 11
26.174866085
 21
94.1024489395
  0
LINE
  5
398
100
AcDbEntity
  8
_1
100
AcDbLine
 62
7
  6
CONTINUOUS
 10
56.1548052314
 20
80.4292063668
 11
50.9049247315
 21
80.43017835
  0
LINE
  5
399
100
AcDbEntity
  8
_1
100
AcDbLine
 62
7
  6
CONTINUOUS
 10
50.9049247315
 20
90.6320868667
 11
56.1548052314
 21
90.6330588499
  0
LINE
  5
39A
100
AcDbEntity
  8
_1
100
AcDbLine
 62
7
  6
CONTINUOUS
 10
92.8226088065
 20
76.9616735557
 11
97.8774703027
 21
76.9598162772
  0
LINE
  5
39B
100
AcDbEntity
  8
_1
100
AcDbLine
 62
7
  6
CONTINUOUS
 10
97.8774703027
 20
94.1024489395
 11
92.8226088065
 21
94.100591661
  0
SPLINE
  5
39C
100
AcDbEntity
  8
_1
100
AcDbSpline
 62
7
  6
CONTINUOUS
 70
0
 71
3
 72
11
 73
7
 74
0
 42
0.0000001
 43
0.0000001
 44
0.0000000001
 40
0.0
 40
0.0
 40
0.0
 40
0.0
 40
0.2481333049
 40
0.4975197795
 40
0.7483538904
 40
1.0
 40
1.0
 40
1.0
 40
1.0
 10
32.6101829183
 20
96.2774328923
 30
0.0
 10
32.5451674093
 20
96.2772330374
 30
0.0
 10
32.4134518742
 20
96.2503228661
 30
0.0
 10
32.2474442598
 20
96.1369398723
 30
0.0
 10
32.1363306707
 20
95.9684230487
 30
0.0
 10
32.110097398
 20
95.8354462097
 30
0.0
 10
32.1099005798
 20
95.7695102632
 30
0.0
  0
SPLINE
  5
39D
100
AcDbEntity
  8
_1
100
AcDbSpline
 62
7
  6
CONTINUOUS
 70
0
 71
3
 72
11
 73
7
 74
0
 42
0.0000001
 43
0.0000001
 44
0.0000000001
 40
0.0
 40
0.0
 40
0.0
 40
0.0
 40
0.2516461639
 40
0.50248022
 40
0.7518666403
 40
1.0
 40
1.0
 40
1.0
 40
1.0
 10
32.1099005798
 20
75.2927549535
 30
0.0
 10
32.1100973981
 20
75.2268189929
 30
0.0
 10
32.1363306804
 20
75.0938421547
 30
0.0
 10
32.2474442626
 20
74.9253253476
 30
0.0
 10
32.4134518604
 20
74.8119423601
 30
0.0
 10
32.5451673951
 20
74.7850321794
 30
0.0
 10
32.6101829183
 20
74.7848323244
 30
0.0
  0
SPLINE
  5
39E
100
AcDbEntity
  8
_1
100
AcDbSpline
 62
7
  6
CONTINUOUS
 70
0
 71
3
 72
11
 73
7
 74
0
 42
0.0000001
 43
0.0000001
 44
0.0000000001
 40
0.0
 40
0.0
 40
0.0
 40
0.0
 40
0.2383537345
 40
0.4975333385
 40
0.7582704351
 40
1.0
 40
1.0
 40
1.0
 40
1.0
 10
32.5270062264
 20
74.7765984589
 30
0.0
 10
32.4645550223
 20
74.7767914916
 30
0.0
 10
32.3329931845
 20
74.8025586083
 30
0.0
 10
32.1634507683
 20
74.9163499837
 30
0.0
 10
32.0520393447
 20
75.0883733298
 30
0.0
 10
32.0269129445
 20
75.2211853493
 30
0.0
 10
32.0267238879
 20
75.2845210772
 30
0.0
  0
SPLINE
  5
39F
100
AcDbEntity
  8
_1
100
AcDbSpline
 62
7
  6
CONTINUOUS
 70
0
 71
3
 72
18
 73
14
 74
0
 42
0.0000001
 43
0.0000001
 44
0.0000000001
 40
0.0
 40
0.0
 40
0.0
 40
0.0
 40
0.0065260829
 40
0.020956818
 40
0.0441910466
 40
0.0768356622
 40
0.1192610128
 40
0.1710741585
 40
0.3005089383
 40
0.4591903207
 40
0.6362602044
 40
0.8199783735
 40
1.0
 40
1.0
 40
1.0
 40
1.0
 10
31.5653504999
 20
74.7619566488
 30
0.0
 10
31.5643425329
 20
74.7624155955
 30
0.0
 10
31.5631091208
 20
74.7663322585
 30
0.0
 10
31.5614234405
 20
74.7731975224
 30
0.0
 10
31.5597683794
 20
74.7852656257
 30
0.0
 10
31.5580212224
 20
74.8017498329
 30
0.0
 10
31.5563254864
 20
74.8232605801
 30
0.0
 10
31.5539263386
 20
74.8611245811
 30
0.0
 10
31.5513466385
 20
74.9187731414
 30
0.0
 10
31.54896779
 20
74.9976793949
 30
0.0
 10
31.5472078045
 20
75.0858234391
 30
0.0
 10
31.5461723297
 20
75.1775980899
 30
0.0
 10
31.5459164325
 20
75.239328048
 30
0.0
 10
31.5458960251
 20
75.2698792777
 30
0.0
  0
SPLINE
  5
3A0
100
AcDbEntity
  8
_1
100
AcDbSpline
 62
7
  6
CONTINUOUS
 70
0
 71
3
 72
18
 73
14
 74
0
 42
0.0000001
 43
0.0000001
 44
0.0000000001
 40
0.0
 40
0.0
 40
0.0
 40
0.0
 40
0.0073107087
 40
0.0221070516
 40
0.0455449063
 40
0.0782993551
 40
0.1207677969
 40
0.1725727399
 40
0.3018686455
 40
0.4602874545
 40
0.6370172973
 40
0.820358174
 40
1.0
 40
1.0
 40
1.0
 40
1.0
 10
19.9544913165
 20
74.7526485707
 30
0.0
 10
19.9533089656
 20
74.753033179
 30
0.0
 10
19.951266025
 20
74.7567878716
 30
0.0
 10
19.9490919699
 20
74.7638780232
 30
0.0
 10
19.9466523187
 20
74.7758971766
 30
0.0
 10
19.9442566735
 20
74.79242937
 30
0.0
 10
19.9418635564
 20
74.8139335678
 30
0.0
 10
19.9385176045
 20
74.8517961203
 30
0.0
 10
19.9349024245
 20
74.9094423483
 30
0.0
 10
19.9315770091
 20
74.9883593998
 30
0.0
 10
19.9291142201
 20
75.0765085144
 30
0.0
 10
19.9276660439
 20
75.1682874545
 30
0.0
 10
19.9273080776
 20
75.2300201152
 30
0.0
 10
19.9272795545
 20
75.2605718079
 30
0.0
  0
SPLINE
  5
3A1
100
AcDbEntity
  8
_1
100
AcDbSpline
 62
7
  6
CONTINUOUS
 70
0
 71
3
 72
13
 73
9
 74
0
 42
0.0000001
 43
0.0000001
 44
0.0000000001
 40
0.0
 40
0.0
 40
0.0
 40
0.0
 40
0.3488800959
 40
0.653517052
 40
0.7776602598
 40
0.8784926784
 40
0.9533971721
 40
1.0
 40
1.0
 40
1.0
 40
1.0
 10
31.5458960308
 20
75.2698750396
 30
0.0
 10
31.6018634444
 20
75.2699499186
 30
0.0
 10
31.7066990768
 20
75.2707113149
 30
0.0
 10
31.8314383499
 20
75.2731160232
 30
0.0
 10
31.9163423661
 20
75.2761184498
 30
0.0
 10
31.9644059398
 20
75.2784480215
 30
0.0
 10
31.9999583653
 20
75.2810578788
 30
0.0
 10
32.0193902237
 20
75.2830648502
 30
0.0
 10
32.0267239134
 20
75.2845168115
 30
0.0
  0
SPLINE
  5
3A2
100
AcDbEntity
  8
_1
100
AcDbSpline
 62
7
  6
CONTINUOUS
 70
0
 71
3
 72
13
 73
9
 74
0
 42
0.0000001
 43
0.0000001
 44
0.0000000001
 40
0.0
 40
0.0
 40
0.0
 40
0.0
 40
0.0466028279
 40
0.1215073216
 40
0.2223397402
 40
0.346482948
 40
0.6511199041
 40
1.0
 40
1.0
 40
1.0
 40
1.0
 10
32.0267239134
 20
95.7777484051
 30
0.0
 10
32.0193902237
 20
95.7792003664
 30
0.0
 10
31.9999583653
 20
95.7812073378
 30
0.0
 10
31.9644059398
 20
95.7838171951
 30
0.0
 10
31.9163423661
 20
95.7861467669
 30
0.0
 10
31.8314383499
 20
95.7891491934
 30
0.0
 10
31.7066990768
 20
95.7915539017
 30
0.0
 10
31.6018634444
 20
95.792315298
 30
0.0
 10
31.5458960308
 20
95.792390177
 30
0.0
  0
SPLINE
  5
3A3
100
AcDbEntity
  8
_1
100
AcDbSpline
 62
7
  6
CONTINUOUS
 70
0
 71
3
 72
18
 73
14
 74
0
 42
0.0000001
 43
0.0000001
 44
0.0000000001
 40
0.0
 40
0.0
 40
0.0
 40
0.0
 40
0.1923242688
 40
0.3781441954
 40
0.5493741962
 40
0.6998328843
 40
0.82408342
 40
0.874948642
 40
0.9175829048
 40
0.9515409593
 40
0.9766230418
 40
0.9927142328
 40
1.0
 40
1.0
 40
1.0
 40
1.0
 10
91.4609214808
 20
95.7695106231
 30
0.0
 10
91.4608992507
 20
95.8021206211
 30
0.0
 10
91.4606256243
 20
95.866237967
 30
0.0
 10
91.4595595573
 20
95.9593825959
 30
0.0
 10
91.4578635396
 20
96.0454208352
 30
0.0
 10
91.4556203862
 20
96.1209955061
 30
0.0
 10
91.4532662094
 20
96.1761655487
 30
0.0
 10
91.4510627792
 20
96.2130003116
 30
0.0
 10
91.449467526
 20
96.2346009404
 30
0.0
 10
91.4477667597
 20
96.2516335412
 30
0.0
 10
91.4461841245
 20
96.2645722574
 30
0.0
 10
91.444415236
 20
96.2720487232
 30
0.0
 10
91.4432748759
 20
96.2765501457
 30
0.0
 10
91.4421534655
 20
96.2770683567
 30
0.0
  0
SPLINE
  5
3A4
100
AcDbEntity
  8
_1
100
AcDbSpline
 62
7
  6
CONTINUOUS
 70
0
 71
3
 72
18
 73
14
 74
0
 42
0.0000001
 43
0.0000001
 44
0.0000000001
 40
0.0
 40
0.0
 40
0.0
 40
0.0
 40
0.007277675
 40
0.0233466434
 40
0.0484002471
 40
0.0823312425
 40
0.1249249335
 40
0.1757263569
 40
0.2998856099
 40
0.4503533235
 40
0.6216863548
 40
0.8076320974
 40
1.0
 40
1.0
 40
1.0
 40
1.0
 10
32.6101829222
 20
96.2770683567
 30
0.0
 10
32.6090627787
 20
96.2765507312
 30
0.0
 10
32.6079202236
 20
96.2720573682
 30
0.0
 10
32.6061530633
 20
96.2645891209
 30
0.0
 10
32.604570341
 20
96.2516648108
 30
0.0
 10
32.6028720759
 20
96.2346483243
 30
0.0
 10
32.6012785273
 20
96.213070478
 30
0.0
 10
32.5990751836
 20
96.1762695868
 30
0.0
 10
32.5967211185
 20
96.1211254085
 30
0.0
 10
32.594475824
 20
96.0455487201
 30
0.0
 10
32.5927782351
 20
95.9594718113
 30
0.0
 10
32.5917116799
 20
95.8662827681
 30
0.0
 10
32.5914372072
 20
95.8021379209
 30
0.0
 10
32.5914149139
 20
95.7695211485
 30
0.0
  0
SPLINE
  5
3A5
100
AcDbEntity
  8
_1
100
AcDbSpline
 62
7
  6
CONTINUOUS
 70
0
 71
3
 72
11
 73
7
 74
0
 42
0.0000001
 43
0.0000001
 44
0.0000000001
 40
0.0
 40
0.0
 40
0.0
 40
0.0
 40
0.2516461639
 40
0.50248022
 40
0.7518666403
 40
1.0
 40
1.0
 40
1.0
 40
1.0
 10
91.9424358079
 20
95.7695102632
 30
0.0
 10
91.9422389896
 20
95.8354462238
 30
0.0
 10
91.9160057072
 20
95.968423062
 30
0.0
 10
91.804892125
 20
96.1369398692
 30
0.0
 10
91.6388845273
 20
96.2503228566
 30
0.0
 10
91.5071689926
 20
96.2772330373
 30
0.0
 10
91.4421534694
 20
96.2774328923
 30
0.0
  0
LINE
  5
3A6
100
AcDbEntity
  8
_1
100
AcDbLine
 62
7
  6
CONTINUOUS
 10
26.1614489289
 20
75.5402569845
 11
31.2431508632
 21
75.53839358
  0
SPLINE
  5
3A7
100
AcDbEntity
  8
_1
100
AcDbSpline
 62
7
  6
CONTINUOUS
 70
0
 71
3
 72
23
 73
19
 74
0
 42
0.0000001
 43
0.0000001
 44
0.0000000001
 40
0.0
 40
0.0
 40
0.0
 40
0.0
 40
0.1955717553
 40
0.3823048234
 40
0.5536301535
 40
0.631662604
 40
0.7036541602
 40
0.7689289755
 40
0.8269694439
 40
0.8772978365
 40
0.9194371544
 40
0.9529620573
 40
0.9664217392
 40
0.9776517653
 40
0.9866327218
 40
0.9933481359
 40
0.9977906099
 40
1.0
 40
1.0
 40
1.0
 40
1.0
 10
19.9544878057
 20
74.752649717
 30
0.0
 10
19.8290619862
 20
74.7525322745
 30
0.0
 10
19.5838790086
 20
74.7519047702
 30
0.0
 10
19.228825431
 20
74.7497947093
 30
0.0
 10
18.9491601469
 20
74.7470462114
 30
0.0
 10
18.7430880445
 20
74.7442604577
 30
0.0
 10
18.6050288359
 20
74.7420065696
 30
0.0
 10
18.4797967774
 20
74.739539086
 30
0.0
 10
18.3684655585
 20
74.7368859869
 30
0.0
 10
18.2719794974
 20
74.7340810441
 30
0.0
 10
18.191231696
 20
74.7311497138
 30
0.0
 10
18.1341281165
 20
74.7284880673
 30
0.0
 10
18.0968707557
 20
74.7262109341
 30
0.0
 10
18.0753149693
 20
74.7246374517
 30
0.0
 10
18.0581697702
 20
74.7230184543
 30
0.0
 10
18.0452200396
 20
74.7215396077
 30
0.0
 10
18.0370264167
 20
74.719876686
 30
0.0
 10
18.0325836979
 20
74.7188517644
 30
0.0
 10
18.0315817574
 20
74.7178498402
 30
0.0
  0
LINE
  5
3A8
100
AcDbEntity
  8
_1
100
AcDbLine
 62
7
  6
CONTINUOUS
 10
31.2431508632
 20
76.9750968378
 11
26.1614489289
 21
76.9732334333
  0
SPLINE
  5
3A9
100
AcDbEntity
  8
_1
100
AcDbSpline
 62
7
  6
CONTINUOUS
 70
0
 71
3
 72
9
 73
5
 74
0
 42
0.0000001
 43
0.0000001
 44
0.0000000001
 40
0.0
 40
0.0
 40
0.0
 40
0.0
 40
0.2500637286
 40
1.0
 40
1.0
 40
1.0
 40
1.0
 10
31.5653504999
 20
74.7619566488
 30
0.0
 10
30.597532157
 20
74.7613092232
 30
0.0
 10
26.7272454638
 20
74.7585936212
 30
0.0
 10
22.8569591283
 20
74.7553662979
 30
0.0
 10
19.954491315
 20
74.7526485711
 30
0.0
  0
SPLINE
  5
3AA
100
AcDbEntity
  8
_1
100
AcDbSpline
 62
7
  6
CONTINUOUS
 70
0
 71
3
 72
13
 73
9
 74
0
 42
0.0000001
 43
0.0000001
 44
0.0000000001
 40
0.0
 40
0.0
 40
0.0
 40
0.0
 40
0.0460213272
 40
0.1205994422
 40
0.2215736049
 40
0.3460965303
 40
0.6507671761
 40
1.0
 40
1.0
 40
1.0
 40
1.0
 10
32.5270062264
 20
74.776598448
 30
0.0
 10
32.5123224344
 20
74.7751448621
 30
0.0
 10
32.4736860512
 20
74.7731317716
 30
0.0
 10
32.4027021421
 20
74.770517657
 30
0.0
 10
32.3065119266
 20
74.7681990341
 30
0.0
 10
32.1365554075
 20
74.7652065185
 30
0.0
 10
31.8869797467
 20
74.7627723028
 30
0.0
 10
31.6773230655
 20
74.7620315528
 30
0.0
 10
31.5653505009
 20
74.7619566483
 30
0.0
  0
SPLINE
  5
3AB
100
AcDbEntity
  8
_1
100
AcDbSpline
 62
7
  6
CONTINUOUS
 70
0
 71
3
 72
9
 73
5
 74
0
 42
0.0000001
 43
0.0000001
 44
0.0000000001
 40
0.0
 40
0.0
 40
0.0
 40
0.0
 40
0.2499573086
 40
1.0
 40
1.0
 40
1.0
 40
1.0
 10
91.4421534694
 20
74.7848323244
 30
0.0
 10
86.5403272801
 20
74.7879728658
 30
0.0
 10
66.9296718126
 20
74.7973933604
 30
0.0
 10
47.3190103088
 20
74.7942560942
 30
0.0
 10
32.6101829183
 20
74.7848323244
 30
0.0
  0
SPLINE
  5
3AC
100
AcDbEntity
  8
_1
100
AcDbSpline
 62
7
  6
CONTINUOUS
 70
0
 71
3
 72
13
 73
9
 74
0
 42
0.0000001
 43
0.0000001
 44
0.0000000001
 40
0.0
 40
0.0
 40
0.0
 40
0.0
 40
0.3492330048
 40
0.653903659
 40
0.778426556
 40
0.8794006536
 40
0.9539787108
 40
1.0
 40
1.0
 40
1.0
 40
1.0
 10
92.4869858868
 20
74.7619566483
 30
0.0
 10
92.3750132641
 20
74.7620315528
 30
0.0
 10
92.1653565222
 20
74.7627723033
 30
0.0
 10
91.9157808099
 20
74.7652065208
 30
0.0
 10
91.745824318
 20
74.7681990367
 30
0.0
 10
91.6496341511
 20
74.7705176607
 30
0.0
 10
91.5786502935
 20
74.7731317717
 30
0.0
 10
91.5400139411
 20
74.7751448633
 30
0.0
 10
91.5253301612
 20
74.776598448
 30
0.0
  0
SPLINE
  5
3AD
100
AcDbEntity
  8
_1
100
AcDbSpline
 62
7
  6
CONTINUOUS
 70
0
 71
3
 72
9
 73
5
 74
0
 42
0.0000001
 43
0.0000001
 44
0.0000000001
 40
0.0
 40
0.0
 40
0.0
 40
0.0
 40
0.2499320873
 40
1.0
 40
1.0
 40
1.0
 40
1.0
 10
104.0978450726
 20
74.7526485712
 30
0.0
 10
103.1305364269
 20
74.7535543109
 30
0.0
 10
99.2602503556
 20
74.7570460622
 30
0.0
 10
95.3899638137
 20
74.7600146913
 30
0.0
 10
92.4869858878
 20
74.7619566488
 30
0.0
  0
SPLINE
  5
3AE
100
AcDbEntity
  8
_1
100
AcDbSpline
 62
7
  6
CONTINUOUS
 70
0
 71
3
 72
19
 73
15
 74
0
 42
0.0000001
 43
0.0000001
 44
0.0000000001
 40
0.0
 40
0.0
 40
0.0
 40
0.0
 40
0.180406596
 40
0.364383283
 40
0.5415883196
 40
0.700311366
 40
0.7691297377
 40
0.8297245766
 40
0.8815055061
 40
0.9238840871
 40
0.9564624705
 40
0.9795966709
 40
0.9938581142
 40
1.0
 40
1.0
 40
1.0
 40
1.0
 10
38.7142497714
 20
90.8379004297
 30
0.0
 10
38.7092552245
 20
90.7924411731
 30
0.0
 10
38.6994082197
 20
90.7005964963
 30
0.0
 10
38.685506275
 20
90.5640092307
 30
0.0
 10
38.6730262199
 20
90.432806238
 30
0.0
 10
38.6640814194
 20
90.3305903508
 30
0.0
 10
38.6583758024
 20
90.2577744417
 30
0.0
 10
38.655108582
 20
90.2119493991
 30
0.0
 10
38.6526879827
 20
90.1728184143
 30
0.0
 10
38.651037566
 20
90.1406634138
 30
0.0
 10
38.6503644371
 20
90.1159754548
 30
0.0
 10
38.6500904565
 20
90.097854693
 30
0.0
 10
38.6511306058
 20
90.0875220629
 30
0.0
 10
38.6515270141
 20
90.0815690557
 30
0.0
 10
38.6527639497
 20
90.080623481
 30
0.0
  0
SPLINE
  5
3AF
100
AcDbEntity
  8
_1
100
AcDbSpline
 62
7
  6
CONTINUOUS
 70
0
 71
3
 72
19
 73
15
 74
0
 42
0.0000001
 43
0.0000001
 44
0.0000000001
 40
0.0
 40
0.0
 40
0.0
 40
0.0
 40
0.1799582861
 40
0.3637432052
 40
0.5409763774
 40
0.6998509781
 40
0.7687580479
 40
0.8294385596
 40
0.8812960091
 40
0.9237360178
 40
0.9563572511
 40
0.9795210818
 40
0.993809006
 40
1.0
 40
1.0
 40
1.0
 40
1.0
 10
37.5454637924
 20
80.2244429945
 30
0.0
 10
37.5504848718
 20
80.2700915047
 30
0.0
 10
37.5608892924
 20
80.3623312016
 30
0.0
 10
37.5771392194
 20
80.4994252502
 30
0.0
 10
37.5936691035
 20
80.6310638826
 30
0.0
 10
37.6073592589
 20
80.7335136967
 30
0.0
 10
37.6178040052
 20
80.8063790059
 30
0.0
 10
37.6247135088
 20
80.8521729949
 30
0.0
 10
37.6309924586
 20
80.8911956332
 30
0.0
 10
37.6365079796
 20
80.9231827099
 30
0.0
 10
37.6413369267
 20
80.9476049609
 30
0.0
 10
37.645148586
 20
80.9654755587
 30
0.0
 10
37.6484832487
 20
80.9754034165
 30
0.0
 10
37.6502945361
 20
80.9811627344
 30
0.0
 10
37.6517423532
 20
80.981795091
 30
0.0
  0
SPLINE
  5
3B0
100
AcDbEntity
  8
_1
100
AcDbSpline
 62
7
  6
CONTINUOUS
 70
0
 71
3
 72
28
 73
24
 74
0
 42
0.0000001
 43
0.0000001
 44
0.0000000001
 40
0.0
 40
0.0
 40
0.0
 40
0.0
 40
0.0622878178
 40
0.0937317774
 40
0.1249373126
 40
0.1873341733
 40
0.2498249286
 40
0.3123793982
 40
0.3436194691
 40
0.3748289133
 40
0.4374187161
 40
0.4685846347
 40
0.499828114
 40
0.5312351168
 40
0.5624936508
 40
0.6248886899
 40
0.687392982
 40
0.7498976094
 40
0.8122817071
 40
0.8749158339
 40
0.9060880046
 40
0.9372487856
 40
1.0
 40
1.0
 40
1.0
 40
1.0
 10
38.1501682825
 20
80.9542156176
 30
0.0
 10
38.4380260751
 20
80.9540561218
 30
0.0
 10
38.8726860453
 20
80.9949778041
 30
0.0
 10
39.4345956462
 20
81.1303762384
 30
0.0
 10
39.982154439
 20
81.3176451474
 30
0.0
 10
40.627795318
 20
81.649734137
 30
0.0
 10
41.315853605
 20
82.1841048043
 30
0.0
 10
41.79374492
 20
82.732049532
 30
0.0
 10
42.1093712445
 20
83.2167789767
 30
0.0
 10
42.3771769324
 20
83.7296275529
 30
0.0
 10
42.5712001006
 20
84.2779194712
 30
0.0
 10
42.6848841438
 20
84.8449844917
 30
0.0
 10
42.7290283418
 20
85.2769903852
 30
0.0
 10
42.7324605312
 20
85.7116106279
 30
0.0
 10
42.6832326727
 20
86.288201672
 30
0.0
 10
42.5175939322
 20
86.9954896131
 30
0.0
 10
42.1641086616
 20
87.7916349065
 30
0.0
 10
41.6662720499
 20
88.5067180858
 30
0.0
 10
41.0426568514
 20
89.1157853821
 30
0.0
 10
40.436294847
 20
89.5159474032
 30
0.0
 10
39.9136663292
 20
89.7635408941
 30
0.0
 10
39.3692572455
 20
89.9597545255
 30
0.0
 10
38.9410285649
 20
90.0489498635
 30
0.0
 10
38.652764052
 20
90.0806234129
 30
0.0
  0
SPLINE
  5
3B1
100
AcDbEntity
  8
_1
100
AcDbSpline
 62
7
  6
CONTINUOUS
 70
0
 71
3
 72
29
 73
25
 74
0
 42
0.0000001
 43
0.0000001
 44
0.0000000001
 40
0.0
 40
0.0
 40
0.0
 40
0.0
 40
0.0624372583
 40
0.0936464605
 40
0.1250958173
 40
0.1873924331
 40
0.2500283348
 40
0.3123122023
 40
0.3749662988
 40
0.4060925828
 40
0.4373889092
 40
0.4999296673
 40
0.5623957938
 40
0.6248397723
 40
0.6561319604
 40
0.6875435979
 40
0.7187123712
 40
0.7499277094
 40
0.7813169284
 40
0.8126233378
 40
0.8437462639
 40
0.8749962061
 40
0.9375688253
 40
1.0
 40
1.0
 40
1.0
 40
1.0
 10
38.1501684016
 20
90.1077946042
 30
0.0
 10
37.8617432089
 20
90.107596676
 30
0.0
 10
37.427619548
 20
90.0669015508
 30
0.0
 10
36.8654957316
 20
89.9301942004
 30
0.0
 10
36.3190216762
 20
89.7419370915
 30
0.0
 10
35.672180649
 20
89.4099484843
 30
0.0
 10
34.986875324
 20
88.8740068998
 30
0.0
 10
34.4137651514
 20
88.2173977905
 30
0.0
 10
34.0478199604
 20
87.5907979843
 30
0.0
 10
33.8299389543
 20
87.0548361186
 30
0.0
 10
33.664639062
 20
86.5009941342
 30
0.0
 10
33.5553265399
 20
85.7825195351
 30
0.0
 10
33.5910168875
 20
84.9123256744
 30
0.0
 10
33.7557829414
 20
84.2049759529
 30
0.0
 10
33.9664062026
 20
83.6658277379
 30
0.0
 10
34.1614499603
 20
83.2777845743
 30
0.0
 10
34.3922037387
 20
82.9102793929
 30
0.0
 10
34.6572633474
 20
82.5668211994
 30
0.0
 10
34.9538075752
 20
82.2493320127
 30
0.0
 10
35.2781485026
 20
81.9609258142
 30
0.0
 10
35.6281060656
 20
81.7051850296
 30
0.0
 10
36.1252388221
 20
81.4105077013
 30
0.0
 10
36.7956758052
 20
81.1312178106
 30
0.0
 10
37.3650801463
 20
81.0133814771
 30
0.0
 10
37.651742353
 20
80.981795091
 30
0.0
  0
SPLINE
  5
3B2
100
AcDbEntity
  8
_1
100
AcDbSpline
 62
7
  6
CONTINUOUS
 70
0
 71
3
 72
23
 73
19
 74
0
 42
0.0000001
 43
0.0000001
 44
0.0000000001
 40
0.0
 40
0.0
 40
0.0
 40
0.0
 40
0.0022093901
 40
0.0066518641
 40
0.0133672782
 40
0.0223482347
 40
0.0335782608
 40
0.0470379427
 40
0.0805628456
 40
0.1227021635
 40
0.1730305561
 40
0.2310710245
 40
0.2963458398
 40
0.368337396
 40
0.4463698465
 40
0.6176951766
 40
0.8044282447
 40
1.0
 40
1.0
 40
1.0
 40
1.0
 10
106.0207546303
 20
74.7178498402
 30
0.0
 10
106.0197526897
 20
74.7188517644
 30
0.0
 10
106.0153099709
 20
74.719876686
 30
0.0
 10
106.0071163481
 20
74.7215396077
 30
0.0
 10
105.9941666175
 20
74.7230184543
 30
0.0
 10
105.9770214184
 20
74.7246374517
 30
0.0
 10
105.955465632
 20
74.7262109341
 30
0.0
 10
105.9182082711
 20
74.7284880673
 30
0.0
 10
105.8611046917
 20
74.7311497138
 30
0.0
 10
105.7803568903
 20
74.7340810441
 30
0.0
 10
105.6838708291
 20
74.7368859869
 30
0.0
 10
105.5725396103
 20
74.739539086
 30
0.0
 10
105.4473075518
 20
74.7420065696
 30
0.0
 10
105.3092483431
 20
74.7442604577
 30
0.0
 10
105.1031762408
 20
74.7470462114
 30
0.0
 10
104.8235109567
 20
74.7497947093
 30
0.0
 10
104.4684573791
 20
74.7519047702
 30
0.0
 10
104.2232744015
 20
74.7525322745
 30
0.0
 10
104.0978485819
 20
74.752649717
 30
0.0
  0
LINE
  5
3B3
100
AcDbEntity
  8
_1
100
AcDbLine
 62
7
  6
CONTINUOUS
 10
44.2461681938
 20
79.1728846213
 11
43.8653545085
 21
78.8001326084
  0
LINE
  5
3B4
100
AcDbEntity
  8
_1
100
AcDbLine
 62
7
  6
CONTINUOUS
 10
80.1869818792
 20
78.8001326084
 11
79.8061681938
 21
79.1728846213
  0
LINE
  5
3B5
100
AcDbEntity
  8
_1
100
AcDbLine
 62
7
  6
CONTINUOUS
 10
43.8653545085
 20
92.2621326084
 11
44.2461681938
 21
91.8893805954
  0
LINE
  5
3B6
100
AcDbEntity
  8
_1
100
AcDbLine
 62
7
  6
CONTINUOUS
 10
31.2431508632
 20
95.5238716367
 11
26.1614489289
 21
95.5220082322
  0
SPLINE
  5
3B7
100
AcDbEntity
  8
_1
100
AcDbSpline
 62
7
  6
CONTINUOUS
 70
0
 71
3
 72
30
 73
26
 74
0
 42
0.0000001
 43
0.0000001
 44
0.0000000001
 40
0.0
 40
0.0
 40
0.0
 40
0.0
 40
0.0624289476
 40
0.0936559361
 40
0.125105967
 40
0.1563146527
 40
0.1874564487
 40
0.2188041001
 40
0.2501579486
 40
0.2813158138
 40
0.312536538
 40
0.3750530421
 40
0.4375446935
 40
0.4998512682
 40
0.5311801796
 40
0.5625305803
 40
0.5936656849
 40
0.6248568444
 40
0.6874506126
 40
0.7498425259
 40
0.8122899673
 40
0.8748805837
 40
0.9060895195
 40
0.9372446646
 40
1.0
 40
1.0
 40
1.0
 40
1.0
 10
85.3865362143
 20
80.2192616723
 30
0.0
 10
85.0394695866
 20
80.2541923824
 30
0.0
 10
84.5220962881
 20
80.3581898028
 30
0.0
 10
83.8636158129
 20
80.5950608319
 30
0.0
 10
83.3890441066
 20
80.8207206757
 30
0.0
 10
82.9389631165
 20
81.0908653559
 30
0.0
 10
82.5185305021
 20
81.4043073636
 30
0.0
 10
82.1303775354
 20
81.7580518708
 30
0.0
 10
81.7777923506
 20
82.1473657332
 30
0.0
 10
81.4655793902
 20
82.5689971237
 30
0.0
 10
81.1078966007
 20
83.1692736264
 30
0.0
 10
80.7722979599
 20
83.9817584013
 30
0.0
 10
80.5691198002
 20
85.0150503382
 30
0.0
 10
80.5704741869
 20
85.8935983751
 30
0.0
 10
80.6754941049
 20
86.584945641
 30
0.0
 10
80.8036552769
 20
87.0940904436
 30
0.0
 10
80.9810428163
 20
87.5874907469
 30
0.0
 10
81.2819106683
 20
88.2183257206
 30
0.0
 10
81.7714088768
 20
88.9480999354
 30
0.0
 10
82.5186700912
 20
89.6912944938
 30
0.0
 10
83.3961960947
 20
90.2749894461
 30
0.0
 10
84.2093134819
 20
90.609048042
 30
0.0
 10
84.8877688084
 20
90.7780934094
 30
0.0
 10
85.580395553
 20
90.8788095399
 30
0.0
 10
86.1095396971
 20
90.8780920353
 30
0.0
 10
86.4584161953
 20
90.8429325767
 30
0.0
  0
LINE
  5
3B8
100
AcDbEntity
  8
_1
100
AcDbLine
 62
7
  6
CONTINUOUS
 10
26.1614489289
 20
94.0890317835
 11
31.2431508632
 21
94.087168379
  0
SPLINE
  5
3B9
100
AcDbEntity
  8
_1
100
AcDbSpline
 62
7
  6
CONTINUOUS
 70
0
 71
3
 72
30
 73
26
 74
0
 42
0.0000001
 43
0.0000001
 44
0.0000000001
 40
0.0
 40
0.0
 40
0.0
 40
0.0
 40
0.0627564564
 40
0.0939095656
 40
0.12511526
 40
0.1876965175
 40
0.2501322116
 40
0.3125157347
 40
0.3751034082
 40
0.4062937676
 40
0.4374287769
 40
0.4687804496
 40
0.5001118141
 40
0.5624231756
 40
0.6249229741
 40
0.6874449483
 40
0.7186685216
 40
0.7498290309
 40
0.7811845619
 40
0.8125334806
 40
0.8436767615
 40
0.874886874
 40
0.906338096
 40
0.9375666909
 40
1.0
 40
1.0
 40
1.0
 40
1.0
 10
86.4584160725
 20
90.8429313575
 30
0.0
 10
86.8072707753
 20
90.8077740942
 30
0.0
 10
87.3258720628
 20
90.7029087098
 30
0.0
 10
87.9843979884
 20
90.4660367226
 30
0.0
 10
88.6153496528
 20
90.1650630368
 30
0.0
 10
89.3452686862
 20
89.6755605329
 30
0.0
 10
90.0884398264
 20
88.9286151541
 30
0.0
 10
90.6721258495
 20
88.051364748
 30
0.0
 10
91.0059364098
 20
87.2386656563
 30
0.0
 10
91.1746938264
 20
86.5605339175
 30
0.0
 10
91.2499183163
 20
86.0416794628
 30
0.0
 10
91.2737609639
 20
85.5172155195
 30
0.0
 10
91.2385177191
 20
84.8188341268
 30
0.0
 10
91.0642867306
 20
83.9577194202
 30
0.0
 10
90.6587562818
 20
82.9858390794
 30
0.0
 10
90.1676396521
 20
82.256735895
 30
0.0
 10
89.6973086468
 20
81.7399540932
 30
0.0
 10
89.307224548
 20
81.3891248823
 30
0.0
 10
88.884056087
 20
81.0780016186
 30
0.0
 10
88.4331520944
 20
80.808809678
 30
0.0
 10
87.9586722638
 20
80.5855214216
 30
0.0
 10
87.4637849975
 20
80.4105453137
 30
0.0
 10
86.9537730887
 20
80.2840213378
 30
0.0
 10
86.2613102157
 20
80.1831452316
 30
0.0
 10
85.7335993289
 20
80.184332549
 30
0.0
 10
85.3865363365
 20
80.2192628879
 30
0.0
  0
SPLINE
  5
3BA
100
AcDbEntity
  8
_1
100
AcDbSpline
 62
7
  6
CONTINUOUS
 70
0
 71
3
 72
30
 73
26
 74
0
 42
0.0000001
 43
0.0000001
 44
0.0000000001
 40
0.0
 40
0.0
 40
0.0
 40
0.0
 40
0.0624295844
 40
0.0936556042
 40
0.1251037511
 40
0.1563101925
 40
0.1874497634
 40
0.2187954392
 40
0.2501475248
 40
0.2813038785
 40
0.3125239594
 40
0.3750424602
 40
0.4375371662
 40
0.4998493461
 40
0.5311804113
 40
0.5625327634
 40
0.5936694196
 40
0.6248614067
 40
0.6874544851
 40
0.7498438137
 40
0.8122873451
 40
0.8748754784
 40
0.9060842166
 40
0.9372399937
 40
1.0
 40
1.0
 40
1.0
 40
1.0
 10
37.5454634021
 20
80.2244396351
 30
0.0
 10
37.1987588324
 20
80.2625739301
 30
0.0
 10
36.682412091
 20
80.371335831
 30
0.0
 10
36.0262088727
 20
80.614245843
 30
0.0
 10
35.5537996783
 20
80.8442360454
 30
0.0
 10
35.1062883408
 20
81.1184671261
 30
0.0
 10
34.6888139896
 20
81.4357087998
 30
0.0
 10
34.3039762217
 20
81.7929455319
 30
0.0
 10
33.9550175135
 20
82.1854170199
 30
0.0
 10
33.6467097952
 20
82.6098328621
 30
0.0
 10
33.2945547733
 20
83.2133025062
 30
0.0
 10
32.9664028888
 20
84.0287734192
 30
0.0
 10
32.7726668885
 20
85.0638518757
 30
0.0
 10
32.782040114
 20
85.9423414651
 30
0.0
 10
32.8933679268
 20
86.6326989894
 30
0.0
 10
33.0261689487
 20
87.1406423268
 30
0.0
 10
33.208046574
 20
87.6323859487
 30
0.0
 10
33.5146351779
 20
88.2604082539
 30
0.0
 10
34.0107110913
 20
88.9856230991
 30
0.0
 10
34.7645979602
 20
89.7219133802
 30
0.0
 10
35.6472520218
 20
90.2975719687
 30
0.0
 10
36.4632445434
 20
90.6242496651
 30
0.0
 10
37.1431262121
 20
90.7871724489
 30
0.0
 10
37.836601774
 20
90.8816605334
 30
0.0
 10
38.3657054274
 20
90.8761933518
 30
0.0
 10
38.714250123
 20
90.837903782
 30
0.0
  0
SPLINE
  5
3BB
100
AcDbEntity
  8
_1
100
AcDbSpline
 62
7
  6
CONTINUOUS
 70
0
 71
3
 72
30
 73
26
 74
0
 42
0.0000001
 43
0.0000001
 44
0.0000000001
 40
0.0
 40
0.0
 40
0.0
 40
0.0
 40
0.0627563599
 40
0.0939106164
 40
0.1251176145
 40
0.1877031978
 40
0.2501415597
 40
0.3125264994
 40
0.3751122401
 40
0.4063007893
 40
0.4374336541
 40
0.4687827976
 40
0.5001115976
 40
0.5624186628
 40
0.6249169034
 40
0.6874394251
 40
0.7186646743
 40
0.7498273192
 40
0.781184996
 40
0.8125359118
 40
0.8436808982
 40
0.874892069
 40
0.906343478
 40
0.937571646
 40
1.0
 40
1.0
 40
1.0
 40
1.0
 10
38.7142498113
 20
90.8379009419
 30
0.0
 10
39.0628022271
 20
90.7996105267
 30
0.0
 10
39.5804881262
 20
90.6900785833
 30
0.0
 10
40.2369204687
 20
90.4472646146
 30
0.0
 10
40.8652158997
 20
90.1405697332
 30
0.0
 10
41.5907761059
 20
89.6444179622
 30
0.0
 10
42.3272268367
 20
88.8906585467
 30
0.0
 10
42.9029503993
 20
88.0080448353
 30
0.0
 10
43.2293497975
 20
87.1922785855
 30
0.0
 10
43.3919104256
 20
86.512611064
 30
0.0
 10
43.4623927007
 20
85.9930854677
 30
0.0
 10
43.48144415
 20
85.4684241196
 30
0.0
 10
43.4398232676
 20
84.7703903646
 30
0.0
 10
43.2577333035
 20
83.9108799901
 30
0.0
 10
42.8433235485
 20
82.9426927776
 30
0.0
 10
42.3455205194
 20
82.218047294
 30
0.0
 10
41.8704231884
 20
81.7055340735
 30
0.0
 10
41.4770831018
 20
81.3582451135
 30
0.0
 10
41.0510132533
 20
81.0509747681
 30
0.0
 10
40.5975882455
 20
80.7859025608
 30
0.0
 10
40.1210094968
 20
80.5669650014
 30
0.0
 10
39.6244744378
 20
80.3965401597
 30
0.0
 10
39.1132707023
 20
80.2747189514
 30
0.0
 10
38.4198785515
 20
80.1802410888
 30
0.0
 10
37.8921892762
 20
80.1863058821
 30
0.0
 10
37.5454637153
 20
80.2244424846
 30
0.0
  0
SPLINE
  5
3BC
100
AcDbEntity
  8
_1
100
AcDbSpline
 62
7
  6
CONTINUOUS
 70
0
 71
3
 72
19
 73
15
 74
0
 42
0.0000001
 43
0.0000001
 44
0.0000000001
 40
0.0
 40
0.0
 40
0.0
 40
0.0
 40
0.1799770278
 40
0.3637695408
 40
0.5410008232
 40
0.699868362
 40
0.7687714435
 40
0.8294481744
 40
0.8813023308
 40
0.9237398102
 40
0.9563594421
 40
0.9795223905
 40
0.9938098102
 40
1.0
 40
1.0
 40
1.0
 40
1.0
 10
86.4584157872
 20
90.8429287321
 30
0.0
 10
86.4538116177
 20
90.7972446512
 30
0.0
 10
86.4442503022
 20
90.7049336218
 30
0.0
 10
86.4292549514
 20
90.567730029
 30
0.0
 10
86.4139316969
 20
90.4359839457
 30
0.0
 10
86.4011820831
 20
90.3334458837
 30
0.0
 10
86.3914074032
 20
90.2605126701
 30
0.0
 10
86.3849195547
 20
90.2146732415
 30
0.0
 10
86.3790003812
 20
90.1756082875
 30
0.0
 10
86.3737803644
 20
90.1435829875
 30
0.0
 10
86.3691774594
 20
90.1191255999
 30
0.0
 10
86.3655323131
 20
90.1012265308
 30
0.0
 10
86.3622902847
 20
90.0912714878
 30
0.0
 10
86.3605345082
 20
90.0854975303
 30
0.0
 10
86.359093441
 20
90.0848515405
 30
0.0
  0
SPLINE
  5
3BD
100
AcDbEntity
  8
_1
100
AcDbSpline
 62
7
  6
CONTINUOUS
 70
0
 71
3
 72
19
 73
15
 74
0
 42
0.0000001
 43
0.0000001
 44
0.0000000001
 40
0.0
 40
0.0
 40
0.0
 40
0.0
 40
0.180388498
 40
0.3643571964
 40
0.5415629569
 40
0.7002916333
 40
0.7691133733
 40
0.8297115152
 40
0.8814954328
 40
0.9238764488
 40
0.9564566109
 40
0.9795921977
 40
0.9938551151
 40
1.0
 40
1.0
 40
1.0
 40
1.0
 10
85.3865365835
 20
80.219265509
 30
0.0
 10
85.3911175348
 20
80.2647759365
 30
0.0
 10
85.4001283718
 20
80.3567244968
 30
0.0
 10
85.4127846956
 20
80.4934630856
 30
0.0
 10
85.4240658962
 20
80.6248094187
 30
0.0
 10
85.4320744096
 20
80.7271328236
 30
0.0
 10
85.4371109973
 20
80.8000206968
 30
0.0
 10
85.4399561125
 20
80.8458886045
 30
0.0
 10
85.442015235
 20
80.8850529406
 30
0.0
 10
85.4433671025
 20
80.9172323295
 30
0.0
 10
85.4438101792
 20
80.9419334071
 30
0.0
 10
85.4439121199
 20
80.9600621932
 30
0.0
 10
85.4427744707
 20
80.9703882684
 30
0.0
 10
85.4423165349
 20
80.9763403744
 30
0.0
 10
85.4410688095
 20
80.9772736286
 30
0.0
  0
SPLINE
  5
3BE
100
AcDbEntity
  8
_1
100
AcDbSpline
 62
7
  6
CONTINUOUS
 70
0
 71
3
 72
29
 73
25
 74
0
 42
0.0000001
 43
0.0000001
 44
0.0000000001
 40
0.0
 40
0.0
 40
0.0
 40
0.0
 40
0.0622767778
 40
0.0937205913
 40
0.1249460473
 40
0.1560700118
 40
0.187387651
 40
0.2498895714
 40
0.3124172406
 40
0.3436728732
 40
0.3748712119
 40
0.4374577201
 40
0.4686300418
 40
0.4998612494
 40
0.531266746
 40
0.5625337587
 40
0.6249137028
 40
0.6874233215
 40
0.7499127754
 40
0.8122943301
 40
0.8749178322
 40
0.9060900485
 40
0.9372483269
 40
1.0
 40
1.0
 40
1.0
 40
1.0
 10
85.9021682739
 20
80.9542143023
 30
0.0
 10
86.1907146332
 20
80.9543941824
 30
0.0
 10
86.6264123501
 20
80.9960291735
 30
0.0
 10
87.1895240483
 20
81.1328415452
 30
0.0
 10
87.6010685786
 20
81.2745794143
 30
0.0
 10
87.9964640026
 20
81.455174286
 30
0.0
 10
88.4982641744
 20
81.7452025941
 30
0.0
 10
89.0729143208
 20
82.1939016676
 30
0.0
 10
89.5500284274
 20
82.7448403029
 30
0.0
 10
89.8646627088
 20
83.2318861347
 30
0.0
 10
90.1311132513
 20
83.747120876
 30
0.0
 10
90.3232640482
 20
84.2976387183
 30
0.0
 10
90.4345762673
 20
84.8666474753
 30
0.0
 10
90.4767424286
 20
85.2999421623
 30
0.0
 10
90.4778936639
 20
85.7356706689
 30
0.0
 10
90.4254528715
 20
86.3134357737
 30
0.0
 10
90.2553337775
 20
87.0215983982
 30
0.0
 10
89.8960178953
 20
87.8174887548
 30
0.0
 10
89.3921483501
 20
88.5310346556
 30
0.0
 10
88.7626594575
 20
89.1371122047
 30
0.0
 10
88.1517320979
 20
89.5336364489
 30
0.0
 10
87.6258537048
 20
89.7776656058
 30
0.0
 10
87.0784582522
 20
89.9699042062
 30
0.0
 10
86.6483694727
 20
90.0556445122
 30
0.0
 10
86.3590934485
 20
90.0848515397
 30
0.0
  0
SPLINE
  5
3BF
100
AcDbEntity
  8
_1
100
AcDbSpline
 62
7
  6
CONTINUOUS
 70
0
 71
3
 72
29
 73
25
 74
0
 42
0.0000001
 43
0.0000001
 44
0.0000000001
 40
0.0
 40
0.0
 40
0.0
 40
0.0
 40
0.0624634181
 40
0.0936463338
 40
0.1250898362
 40
0.1874032855
 40
0.2500355562
 40
0.3123208362
 40
0.3749848354
 40
0.4061105749
 40
0.43739156
 40
0.4999456662
 40
0.5623958845
 40
0.6248477576
 40
0.6561270384
 40
0.6875456825
 40
0.718719839
 40
0.7499313768
 40
0.7813202626
 40
0.8126325221
 40
0.8437577422
 40
0.8750041228
 40
0.9375771626
 40
1.0
 40
1.0
 40
1.0
 40
1.0
 10
85.902168036
 20
90.1078011058
 30
0.0
 10
85.6126113165
 20
90.1079145785
 30
0.0
 10
85.1769149475
 20
90.0674535628
 30
0.0
 10
84.6127771843
 20
89.9305388384
 30
0.0
 10
84.0644758755
 20
89.7415734272
 30
0.0
 10
83.4154252382
 20
89.4081723808
 30
0.0
 10
82.7282763123
 20
88.8694684248
 30
0.0
 10
82.154264526
 20
88.2094974664
 30
0.0
 10
81.7886258888
 20
87.5796842413
 30
0.0
 10
81.5715207722
 20
87.0412472545
 30
0.0
 10
81.4075066856
 20
86.4849169575
 30
0.0
 10
81.3005772912
 20
85.7635633336
 30
0.0
 10
81.340265036
 20
84.8904295674
 30
0.0
 10
81.5092546062
 20
84.1815274966
 30
0.0
 10
81.7236231526
 20
83.6416602655
 30
0.0
 10
81.9216928414
 20
83.2534412324
 30
0.0
 10
82.1555637584
 20
82.8860578123
 30
0.0
 10
82.4238219658
 20
82.5431454773
 30
0.0
 10
82.7236382528
 20
82.2266273941
 30
0.0
 10
83.0512490625
 20
81.9395683574
 30
0.0
 10
83.4043894869
 20
81.6855866884
 30
0.0
 10
83.9056031442
 20
81.3938571728
 30
0.0
 10
84.5807131635
 20
81.119294503
 30
0.0
 10
85.1531550727
 20
81.0062543512
 30
0.0
 10
85.4410688078
 20
80.9772736288
 30
0.0
  0
SPLINE
  5
3C0
100
AcDbEntity
  8
_1
100
AcDbSpline
 62
7
  6
CONTINUOUS
 70
0
 71
3
 72
23
 73
19
 74
0
 42
0.0000001
 43
0.0000001
 44
0.0000000001
 40
0.0
 40
0.0
 40
0.0
 40
0.0
 40
0.195610779
 40
0.3823800882
 40
0.5537366754
 40
0.6317821707
 40
0.7037846475
 40
0.7690678948
 40
0.8271139149
 40
0.8774444664
 40
0.9195817757
 40
0.9530991902
 40
0.9665523085
 40
0.9777732145
 40
0.9867414716
 40
0.9934385398
 40
0.9978517708
 40
1.0
 40
1.0
 40
1.0
 40
1.0
 10
104.125056833
 20
75.260571807
 30
0.0
 10
104.2818338847
 20
75.2604543684
 30
0.0
 10
104.5883016507
 20
75.2598268875
 30
0.0
 10
105.032103124
 20
75.2577169052
 30
0.0
 10
105.3816734662
 20
75.254968503
 30
0.0
 10
105.6392562159
 20
75.2521828361
 30
0.0
 10
105.8118241715
 20
75.2499290199
 30
0.0
 10
105.9683585175
 20
75.2474616658
 30
0.0
 10
106.1075171675
 20
75.2448085721
 30
0.0
 10
106.2281190829
 20
75.2420040964
 30
0.0
 10
106.3290485011
 20
75.2390720504
 30
0.0
 10
106.4004243502
 20
75.2364127312
 30
0.0
 10
106.4469990428
 20
75.2341322534
 30
0.0
 10
106.47393704
 20
75.2325662344
 30
0.0
 10
106.4953731384
 20
75.2309283876
 30
0.0
 10
106.5115258142
 20
75.2294975286
 30
0.0
 10
106.5217842024
 20
75.2277481093
 30
0.0
 10
106.5272667091
 20
75.2268486268
 30
0.0
 10
106.5286111711
 20
75.2257730572
 30
0.0
  0
SPLINE
  5
3C1
100
AcDbEntity
  8
_1
100
AcDbSpline
 62
7
  6
CONTINUOUS
 70
0
 71
3
 72
23
 73
19
 74
0
 42
0.0000001
 43
0.0000001
 44
0.0000000001
 40
0.0
 40
0.0
 40
0.0
 40
0.0
 40
0.0021482292
 40
0.0065614602
 40
0.0132585284
 40
0.0222267855
 40
0.0334476915
 40
0.0469008098
 40
0.0804182243
 40
0.1225555336
 40
0.1728860851
 40
0.2309321052
 40
0.2962153525
 40
0.3682178293
 40
0.4462633246
 40
0.6176199118
 40
0.804389221
 40
1.0
 40
1.0
 40
1.0
 40
1.0
 10
106.5286111717
 20
95.8364921587
 30
0.0
 10
106.5272667097
 20
95.835416589
 30
0.0
 10
106.521784203
 20
95.8345171065
 30
0.0
 10
106.5115258148
 20
95.8327676872
 30
0.0
 10
106.495373139
 20
95.8313368283
 30
0.0
 10
106.4739370406
 20
95.8296989814
 30
0.0
 10
106.4469990433
 20
95.8281329625
 30
0.0
 10
106.4004243508
 20
95.8258524846
 30
0.0
 10
106.3290485017
 20
95.8231931655
 30
0.0
 10
106.2281190834
 20
95.8202611195
 30
0.0
 10
106.107517168
 20
95.8174566438
 30
0.0
 10
105.968358518
 20
95.81480355
 30
0.0
 10
105.8118241719
 20
95.812336196
 30
0.0
 10
105.6392562163
 20
95.8100823797
 30
0.0
 10
105.3816734666
 20
95.8072967128
 30
0.0
 10
105.0321031243
 20
95.8045483107
 30
0.0
 10
104.5883016509
 20
95.8024383283
 30
0.0
 10
104.2818338848
 20
95.8018108474
 30
0.0
 10
104.125056833
 20
95.8016934088
 30
0.0
  0
SPLINE
  5
3C2
100
AcDbEntity
  8
_1
100
AcDbSpline
 62
7
  6
CONTINUOUS
 70
0
 71
3
 72
18
 73
14
 74
0
 42
0.0000001
 43
0.0000001
 44
0.0000000001
 40
0.0
 40
0.0
 40
0.0
 40
0.0
 40
0.1796420697
 40
0.36298243
 40
0.5397127883
 40
0.6981311686
 40
0.827426987
 40
0.8792322578
 40
0.9217007226
 40
0.9544550115
 40
0.9778928593
 40
0.9926892598
 40
1.0
 40
1.0
 40
1.0
 40
1.0
 10
104.1250568331
 20
75.260571807
 30
0.0
 10
104.1250282978
 20
75.2300200733
 30
0.0
 10
104.1246703612
 20
75.1682874595
 30
0.0
 10
104.123222151
 20
75.0765084794
 30
0.0
 10
104.1207593723
 20
74.988359439
 30
0.0
 10
104.1174339794
 20
74.909442387
 30
0.0
 10
104.1138187557
 20
74.8517961948
 30
0.0
 10
104.1104728343
 20
74.8139335956
 30
0.0
 10
104.1080797259
 20
74.7924293634
 30
0.0
 10
104.1056840678
 20
74.7758971979
 30
0.0
 10
104.1032444193
 20
74.7638780601
 30
0.0
 10
104.1010703596
 20
74.7567879029
 30
0.0
 10
104.0990274272
 20
74.7530331806
 30
0.0
 10
104.0978450712
 20
74.7526485707
 30
0.0
  0
LINE
  5
3C3
100
AcDbEntity
  8
_1
100
AcDbLine
 62
7
  6
CONTINUOUS
 10
79.8061681938
 20
91.8893805954
 11
80.1869818792
 21
92.2621326084
  0
SPLINE
  5
3C4
100
AcDbEntity
  8
_1
100
AcDbSpline
 62
7
  6
CONTINUOUS
 70
0
 71
3
 72
18
 73
14
 74
0
 42
0.0000001
 43
0.0000001
 44
0.0000000001
 40
0.0
 40
0.0
 40
0.0
 40
0.0
 40
0.1800216265
 40
0.3637397956
 40
0.5408096793
 40
0.6994910617
 40
0.8289258415
 40
0.8807389872
 40
0.9231643378
 40
0.9558089534
 40
0.979043182
 40
0.9934739171
 40
1.0
 40
1.0
 40
1.0
 40
1.0
 10
92.5064403625
 20
75.2698792777
 30
0.0
 10
92.5064199551
 20
75.239328048
 30
0.0
 10
92.5061640579
 20
75.17759809
 30
0.0
 10
92.5051285831
 20
75.0858234391
 30
0.0
 10
92.5033685976
 20
74.9976793949
 30
0.0
 10
92.5009897491
 20
74.9187731414
 30
0.0
 10
92.498410049
 20
74.8611245811
 30
0.0
 10
92.4960109012
 20
74.8232605801
 30
0.0
 10
92.4943151652
 20
74.8017498329
 30
0.0
 10
92.4925680083
 20
74.7852656257
 30
0.0
 10
92.4909129472
 20
74.7731975224
 30
0.0
 10
92.4892272668
 20
74.7663322585
 30
0.0
 10
92.4879938548
 20
74.7624155955
 30
0.0
 10
92.4869858878
 20
74.7619566488
 30
0.0
  0
SPLINE
  5
3C5
100
AcDbEntity
  8
_1
100
AcDbSpline
 62
7
  6
CONTINUOUS
 70
0
 71
3
 72
11
 73
7
 74
0
 42
0.0000001
 43
0.0000001
 44
0.0000000001
 40
0.0
 40
0.0
 40
0.0
 40
0.0
 40
0.2417295649
 40
0.5024666615
 40
0.7616462655
 40
1.0
 40
1.0
 40
1.0
 40
1.0
 10
92.0256124998
 20
75.2845210772
 30
0.0
 10
92.0254234431
 20
75.2211853493
 30
0.0
 10
92.0002970429
 20
75.0883733298
 30
0.0
 10
91.8888856193
 20
74.9163499837
 30
0.0
 10
91.7193432032
 20
74.8025586083
 30
0.0
 10
91.5877813654
 20
74.7767914916
 30
0.0
 10
91.5253301612
 20
74.7765984589
 30
0.0
  0
SPLINE
  5
3C6
100
AcDbEntity
  8
_1
100
AcDbSpline
 62
7
  6
CONTINUOUS
 70
0
 71
3
 72
13
 73
9
 74
0
 42
0.0000001
 43
0.0000001
 44
0.0000000001
 40
0.0
 40
0.0
 40
0.0
 40
0.0
 40
0.0466028279
 40
0.1215073216
 40
0.2223397402
 40
0.346482948
 40
0.6511199041
 40
1.0
 40
1.0
 40
1.0
 40
1.0
 10
92.0256124743
 20
75.2845168116
 30
0.0
 10
92.032946164
 20
75.2830648503
 30
0.0
 10
92.0523780224
 20
75.2810578789
 30
0.0
 10
92.0879304479
 20
75.2784480216
 30
0.0
 10
92.1359940216
 20
75.2761184499
 30
0.0
 10
92.2208980378
 20
75.2731160233
 30
0.0
 10
92.3456373108
 20
75.270711315
 30
0.0
 10
92.4504729432
 20
75.2699499187
 30
0.0
 10
92.5064403569
 20
75.2698750397
 30
0.0
  0
SPLINE
  5
3C7
100
AcDbEntity
  8
_1
100
AcDbSpline
 62
7
  6
CONTINUOUS
 70
0
 71
3
 72
13
 73
9
 74
0
 42
0.0000001
 43
0.0000001
 44
0.0000000001
 40
0.0
 40
0.0
 40
0.0
 40
0.0
 40
0.3488800959
 40
0.653517052
 40
0.7776602598
 40
0.8784926784
 40
0.9533971721
 40
1.0
 40
1.0
 40
1.0
 40
1.0
 10
92.5064403569
 20
95.7923901771
 30
0.0
 10
92.4504729432
 20
95.7923152981
 30
0.0
 10
92.3456373108
 20
95.7915539018
 30
0.0
 10
92.2208980378
 20
95.7891491935
 30
0.0
 10
92.1359940216
 20
95.786146767
 30
0.0
 10
92.0879304479
 20
95.7838171952
 30
0.0
 10
92.0523780224
 20
95.7812073379
 30
0.0
 10
92.032946164
 20
95.7792003665
 30
0.0
 10
92.0256124743
 20
95.7777484052
 30
0.0
  0
SPLINE
  5
3C8
100
AcDbEntity
  8
_1
100
AcDbSpline
 62
7
  6
CONTINUOUS
 70
0
 71
3
 72
11
 73
7
 74
0
 42
0.0000001
 43
0.0000001
 44
0.0000000001
 40
0.0
 40
0.0
 40
0.0
 40
0.0
 40
0.2383537345
 40
0.4975333385
 40
0.7582704351
 40
1.0
 40
1.0
 40
1.0
 40
1.0
 10
91.5253301612
 20
96.2856667578
 30
0.0
 10
91.5877813654
 20
96.2854737251
 30
0.0
 10
91.7193432032
 20
96.2597066084
 30
0.0
 10
91.8888856193
 20
96.145915233
 30
0.0
 10
92.0002970429
 20
95.973891887
 30
0.0
 10
92.0254234431
 20
95.8410798674
 30
0.0
 10
92.0256124998
 20
95.7777441395
 30
0.0
  0
SPLINE
  5
3C9
100
AcDbEntity
  8
_1
100
AcDbSpline
 62
7
  6
CONTINUOUS
 70
0
 71
3
 72
18
 73
14
 74
0
 42
0.0000001
 43
0.0000001
 44
0.0000000001
 40
0.0
 40
0.0
 40
0.0
 40
0.0
 40
0.0065260829
 40
0.020956818
 40
0.0441910466
 40
0.0768356622
 40
0.1192610128
 40
0.1710741585
 40
0.3005089383
 40
0.4591903207
 40
0.6362602044
 40
0.8199783735
 40
1.0
 40
1.0
 40
1.0
 40
1.0
 10
92.4869858878
 20
96.300308568
 30
0.0
 10
92.4879938548
 20
96.2998496213
 30
0.0
 10
92.4892272668
 20
96.2959329582
 30
0.0
 10
92.4909129472
 20
96.2890676943
 30
0.0
 10
92.4925680083
 20
96.2769995911
 30
0.0
 10
92.4943151652
 20
96.2605153839
 30
0.0
 10
92.4960109012
 20
96.2390046367
 30
0.0
 10
92.498410049
 20
96.2011406356
 30
0.0
 10
92.5009897491
 20
96.1434920753
 30
0.0
 10
92.5033685976
 20
96.0645858218
 30
0.0
 10
92.5051285831
 20
95.9764417776
 30
0.0
 10
92.5061640579
 20
95.8846671268
 30
0.0
 10
92.5064199551
 20
95.8229371687
 30
0.0
 10
92.5064403625
 20
95.792385939
 30
0.0
  0
SPLINE
  5
3CA
100
AcDbEntity
  8
_1
100
AcDbSpline
 62
7
  6
CONTINUOUS
 70
0
 71
3
 72
18
 73
14
 74
0
 42
0.0000001
 43
0.0000001
 44
0.0000000001
 40
0.0
 40
0.0
 40
0.0
 40
0.0
 40
0.0073107087
 40
0.0221070516
 40
0.0455449063
 40
0.0782993551
 40
0.1207677969
 40
0.1725727399
 40
0.3018686455
 40
0.4602874545
 40
0.6370172973
 40
0.820358174
 40
1.0
 40
1.0
 40
1.0
 40
1.0
 10
104.0978450712
 20
96.309616646
 30
0.0
 10
104.0990274221
 20
96.3092320378
 30
0.0
 10
104.1010703626
 20
96.3054773452
 30
0.0
 10
104.1032444178
 20
96.2983871936
 30
0.0
 10
104.105684069
 20
96.2863680402
 30
0.0
 10
104.1080797142
 20
96.2698358467
 30
0.0
 10
104.1104728313
 20
96.2483316489
 30
0.0
 10
104.1138187831
 20
96.2104690964
 30
0.0
 10
104.1174339632
 20
96.1528228684
 30
0.0
 10
104.1207593786
 20
96.0739058169
 30
0.0
 10
104.1232221676
 20
95.9857567023
 30
0.0
 10
104.1246703438
 20
95.8939777622
 30
0.0
 10
104.1250283101
 20
95.8322451015
 30
0.0
 10
104.1250568331
 20
95.8016934088
 30
0.0
  0
SPLINE
  5
3CB
100
AcDbEntity
  8
_1
100
AcDbSpline
 62
7
  6
CONTINUOUS
 70
0
 71
3
 72
23
 73
19
 74
0
 42
0.0000001
 43
0.0000001
 44
0.0000000001
 40
0.0
 40
0.0
 40
0.0
 40
0.0
 40
0.1955717553
 40
0.3823048234
 40
0.5536301535
 40
0.631662604
 40
0.7036541602
 40
0.7689289755
 40
0.8269694439
 40
0.8772978365
 40
0.9194371544
 40
0.9529620573
 40
0.9664217392
 40
0.9776517653
 40
0.9866327218
 40
0.9933481359
 40
0.9977906099
 40
1.0
 40
1.0
 40
1.0
 40
1.0
 10
104.0978485819
 20
96.3096154997
 30
0.0
 10
104.2232744015
 20
96.3097329422
 30
0.0
 10
104.4684573791
 20
96.3103604465
 30
0.0
 10
104.8235109567
 20
96.3124705074
 30
0.0
 10
105.1031762408
 20
96.3152190053
 30
0.0
 10
105.3092483431
 20
96.3180047591
 30
0.0
 10
105.4473075518
 20
96.3202586471
 30
0.0
 10
105.5725396103
 20
96.3227261308
 30
0.0
 10
105.6838708291
 20
96.3253792298
 30
0.0
 10
105.7803568903
 20
96.3281841726
 30
0.0
 10
105.8611046917
 20
96.3311155029
 30
0.0
 10
105.9182082711
 20
96.3337771495
 30
0.0
 10
105.955465632
 20
96.3360542826
 30
0.0
 10
105.9770214184
 20
96.337627765
 30
0.0
 10
105.9941666175
 20
96.3392467624
 30
0.0
 10
106.0071163481
 20
96.340725609
 30
0.0
 10
106.0153099709
 20
96.3423885307
 30
0.0
 10
106.0197526897
 20
96.3434134523
 30
0.0
 10
106.0207546303
 20
96.3444153765
 30
0.0
  0
SPLINE
  5
3CC
100
AcDbEntity
  8
_1
100
AcDbSpline
 62
7
  6
CONTINUOUS
 70
0
 71
3
 72
9
 73
5
 74
0
 42
0.0000001
 43
0.0000001
 44
0.0000000001
 40
0.0
 40
0.0
 40
0.0
 40
0.0
 40
0.2500637286
 40
1.0
 40
1.0
 40
1.0
 40
1.0
 10
92.4869858878
 20
96.300308568
 30
0.0
 10
93.4548042306
 20
96.3009559935
 30
0.0
 10
97.3250909238
 20
96.3036715955
 30
0.0
 10
101.1953772593
 20
96.3068989188
 30
0.0
 10
104.0978450726
 20
96.3096166456
 30
0.0
  0
SPLINE
  5
3CD
100
AcDbEntity
  8
_1
100
AcDbSpline
 62
7
  6
CONTINUOUS
 70
0
 71
3
 72
13
 73
9
 74
0
 42
0.0000001
 43
0.0000001
 44
0.0000000001
 40
0.0
 40
0.0
 40
0.0
 40
0.0
 40
0.0460213272
 40
0.1205994422
 40
0.2215736049
 40
0.3460965303
 40
0.6507671761
 40
1.0
 40
1.0
 40
1.0
 40
1.0
 10
91.5253301612
 20
96.2856667687
 30
0.0
 10
91.5400139533
 20
96.2871203546
 30
0.0
 10
91.5786503365
 20
96.2891334452
 30
0.0
 10
91.6496342456
 20
96.2917475598
 30
0.0
 10
91.745824461
 20
96.2940661826
 30
0.0
 10
91.9157809802
 20
96.2970586983
 30
0.0
 10
92.1653566409
 20
96.2994929139
 30
0.0
 10
92.3750133221
 20
96.300233664
 30
0.0
 10
92.4869858868
 20
96.3003085684
 30
0.0
  0
SPLINE
  5
3CE
100
AcDbEntity
  8
_1
100
AcDbSpline
 62
7
  6
CONTINUOUS
 70
0
 71
3
 72
9
 73
5
 74
0
 42
0.0000001
 43
0.0000001
 44
0.0000000001
 40
0.0
 40
0.0
 40
0.0
 40
0.0
 40
0.2499573086
 40
1.0
 40
1.0
 40
1.0
 40
1.0
 10
32.6101829183
 20
96.2774328923
 30
0.0
 10
37.5120091076
 20
96.2742923509
 30
0.0
 10
57.1226645751
 20
96.2648718564
 30
0.0
 10
76.7333260789
 20
96.2680091225
 30
0.0
 10
91.4421534694
 20
96.2774328923
 30
0.0
  0
SPLINE
  5
3CF
100
AcDbEntity
  8
_1
100
AcDbSpline
 62
7
  6
CONTINUOUS
 70
0
 71
3
 72
13
 73
9
 74
0
 42
0.0000001
 43
0.0000001
 44
0.0000000001
 40
0.0
 40
0.0
 40
0.0
 40
0.0
 40
0.3492330048
 40
0.653903659
 40
0.778426556
 40
0.8794006536
 40
0.9539787108
 40
1.0
 40
1.0
 40
1.0
 40
1.0
 10
31.5653505009
 20
96.3003085684
 30
0.0
 10
31.6773231235
 20
96.3002336639
 30
0.0
 10
31.8869798655
 20
96.2994929135
 30
0.0
 10
32.1365555778
 20
96.2970586959
 30
0.0
 10
32.3065120697
 20
96.29406618
 30
0.0
 10
32.4027022365
 20
96.291747556
 30
0.0
 10
32.4736860942
 20
96.289133445
 30
0.0
 10
32.5123224465
 20
96.2871203534
 30
0.0
 10
32.5270062264
 20
96.2856667687
 30
0.0
  0
SPLINE
  5
3D0
100
AcDbEntity
  8
_1
100
AcDbSpline
 62
7
  6
CONTINUOUS
 70
0
 71
3
 72
9
 73
5
 74
0
 42
0.0000001
 43
0.0000001
 44
0.0000000001
 40
0.0
 40
0.0
 40
0.0
 40
0.0
 40
0.2499320873
 40
1.0
 40
1.0
 40
1.0
 40
1.0
 10
19.954491315
 20
96.3096166456
 30
0.0
 10
20.9217999607
 20
96.3087109058
 30
0.0
 10
24.7920860321
 20
96.3052191545
 30
0.0
 10
28.662372574
 20
96.3022505255
 30
0.0
 10
31.5653504999
 20
96.300308568
 30
0.0
  0
SPLINE
  5
3D1
100
AcDbEntity
  8
_1
100
AcDbSpline
 62
7
  6
CONTINUOUS
 70
0
 71
3
 72
23
 73
19
 74
0
 42
0.0000001
 43
0.0000001
 44
0.0000000001
 40
0.0
 40
0.0
 40
0.0
 40
0.0
 40
0.0022093901
 40
0.0066518641
 40
0.0133672782
 40
0.0223482347
 40
0.0335782608
 40
0.0470379427
 40
0.0805628456
 40
0.1227021635
 40
0.1730305561
 40
0.2310710245
 40
0.2963458398
 40
0.368337396
 40
0.4463698465
 40
0.6176951766
 40
0.8044282447
 40
1.0
 40
1.0
 40
1.0
 40
1.0
 10
18.0315817574
 20
96.3444153765
 30
0.0
 10
18.0325836979
 20
96.3434134523
 30
0.0
 10
18.0370264167
 20
96.3423885307
 30
0.0
 10
18.0452200396
 20
96.340725609
 30
0.0
 10
18.0581697702
 20
96.3392467624
 30
0.0
 10
18.0753149693
 20
96.337627765
 30
0.0
 10
18.0968707557
 20
96.3360542826
 30
0.0
 10
18.1341281165
 20
96.3337771495
 30
0.0
 10
18.191231696
 20
96.3311155029
 30
0.0
 10
18.2719794974
 20
96.3281841726
 30
0.0
 10
18.3684655585
 20
96.3253792298
 30
0.0
 10
18.4797967774
 20
96.3227261308
 30
0.0
 10
18.6050288359
 20
96.3202586471
 30
0.0
 10
18.7430880445
 20
96.3180047591
 30
0.0
 10
18.9491601469
 20
96.3152190053
 30
0.0
 10
19.228825431
 20
96.3124705074
 30
0.0
 10
19.5838790086
 20
96.3103604465
 30
0.0
 10
19.8290619862
 20
96.3097329422
 30
0.0
 10
19.9544878057
 20
96.3096154997
 30
0.0
  0
SPLINE
  5
3D2
100
AcDbEntity
  8
_1
100
AcDbSpline
 62
7
  6
CONTINUOUS
 70
0
 71
3
 72
23
 73
19
 74
0
 42
0.0000001
 43
0.0000001
 44
0.0000000001
 40
0.0
 40
0.0
 40
0.0
 40
0.0
 40
0.0624607374
 40
0.1251018128
 40
0.187410794
 40
0.2500737959
 40
0.3124152908
 40
0.3749616824
 40
0.4374925773
 40
0.4998271697
 40
0.5624648252
 40
0.6247442336
 40
0.6873638296
 40
0.7497883336
 40
0.8122593004
 40
0.8748834952
 40
0.937203947
 40
1.0
 40
1.0
 40
1.0
 40
1.0
 10
65.1730384558
 20
82.4241363043
 30
0.0
 10
64.9700758548
 20
82.4242624492
 30
0.0
 10
64.5624699553
 20
82.4645637769
 30
0.0
 10
63.9762119771
 20
82.6427604303
 30
0.0
 10
63.4351495133
 20
82.9321157362
 30
0.0
 10
62.9616586625
 20
83.3208214374
 30
0.0
 10
62.5726279688
 20
83.7949974686
 30
0.0
 10
62.2837103067
 20
84.3355787619
 30
0.0
 10
62.1059657048
 20
84.9221629099
 30
0.0
 10
62.046021403
 20
85.5324142953
 30
0.0
 10
62.1062979344
 20
86.1418605328
 30
0.0
 10
62.2845913628
 20
86.7286593434
 30
0.0
 10
62.5736192717
 20
87.2688437504
 30
0.0
 10
62.9629263816
 20
87.7426595684
 30
0.0
 10
63.437121191
 20
88.1315153925
 30
0.0
 10
63.9778770378
 20
88.4201917288
 30
0.0
 10
64.565241711
 20
88.5982590293
 30
0.0
 10
64.972967328
 20
88.6382591959
 30
0.0
 10
65.1770195156
 20
88.6381289068
 30
0.0
  0
SPLINE
  5
3D3
100
AcDbEntity
  8
_1
100
AcDbSpline
 62
7
  6
CONTINUOUS
 70
0
 71
3
 72
11
 73
7
 74
0
 42
0.0000001
 43
0.0000001
 44
0.0000000001
 40
0.0
 40
0.0
 40
0.0
 40
0.0
 40
0.2481333049
 40
0.4975197795
 40
0.7483538904
 40
1.0
 40
1.0
 40
1.0
 40
1.0
 10
91.4421534694
 20
74.7848323244
 30
0.0
 10
91.5071689784
 20
74.7850321794
 30
0.0
 10
91.6388845134
 20
74.8119423506
 30
0.0
 10
91.8048921279
 20
74.9253253444
 30
0.0
 10
91.916005717
 20
75.0938421681
 30
0.0
 10
91.9422389896
 20
75.226819007
 30
0.0
 10
91.9424358079
 20
75.2927549535
 30
0.0
  0
SPLINE
  5
3D4
100
AcDbEntity
  8
_1
100
AcDbSpline
 62
7
  6
CONTINUOUS
 70
0
 71
3
 72
18
 73
14
 74
0
 42
0.0000001
 43
0.0000001
 44
0.0000000001
 40
0.0
 40
0.0
 40
0.0
 40
0.0
 40
0.0072776729
 40
0.0233466955
 40
0.048400403
 40
0.0823315486
 40
0.1249254224
 40
0.1757270406
 40
0.2998866629
 40
0.4503546072
 40
0.6216876861
 40
0.8076331103
 40
1.0
 40
1.0
 40
1.0
 40
1.0
 10
91.4421534655
 20
74.78519686
 30
0.0
 10
91.4432736319
 20
74.785714496
 30
0.0
 10
91.444416189
 20
74.7902079761
 30
0.0
 10
91.4461833812
 20
74.797676397
 30
0.0
 10
91.4477661175
 20
74.8106010347
 30
0.0
 10
91.4494644039
 20
74.8276179467
 30
0.0
 10
91.4510579675
 20
74.8491963313
 30
0.0
 10
91.4532613304
 20
74.885998112
 30
0.0
 10
91.4556154073
 20
74.9411435678
 30
0.0
 10
91.457860701
 20
75.0167219311
 30
0.0
 10
91.4595582671
 20
75.1028006151
 30
0.0
 10
91.4606247793
 20
75.1959913693
 30
0.0
 10
91.4608992123
 20
75.2601373181
 30
0.0
 10
91.460921481
 20
75.2927545936
 30
0.0
  0
SPLINE
  5
3D5
100
AcDbEntity
  8
_1
100
AcDbSpline
 62
7
  6
CONTINUOUS
 70
0
 71
3
 72
18
 73
14
 74
0
 42
0.0000001
 43
0.0000001
 44
0.0000000001
 40
0.0
 40
0.0
 40
0.0
 40
0.0
 40
0.1924613303
 40
0.3784012702
 40
0.5497175166
 40
0.7002245567
 40
0.8244763215
 40
0.8753135945
 40
0.9178937665
 40
0.9517734184
 40
0.97676658
 40
0.992773539
 40
1.0
 40
1.0
 40
1.0
 40
1.0
 10
32.5914149067
 20
75.2927545936
 30
0.0
 10
32.5914371534
 20
75.2601201994
 30
0.0
 10
32.5917111375
 20
75.1959569871
 30
0.0
 10
32.5927786701
 20
75.1027508676
 30
0.0
 10
32.594477037
 20
75.0166663938
 30
0.0
 10
32.596723107
 20
74.941066223
 30
0.0
 10
32.599080076
 20
74.885890324
 30
0.0
 10
32.6012860981
 20
74.8490686456
 30
0.0
 10
32.6028834616
 20
74.8274935842
 30
0.0
 10
32.6045846514
 20
74.810500874
 30
0.0
 10
32.6061720915
 20
74.7975991536
 30
0.0
 10
32.6079352794
 20
74.7901724873
 30
0.0
 10
32.6090860553
 20
74.7856863403
 30
0.0
 10
32.6102051641
 20
74.7851872791
 30
0.0
  0
SPLINE
  5
3D6
100
AcDbEntity
  8
_1
100
AcDbSpline
 62
7
  6
CONTINUOUS
 70
0
 71
3
 72
23
 73
19
 74
0
 42
0.0000001
 43
0.0000001
 44
0.0000000001
 40
0.0
 40
0.0
 40
0.0
 40
0.0
 40
0.0021482292
 40
0.0065614602
 40
0.0132585284
 40
0.0222267855
 40
0.0334476915
 40
0.0469008098
 40
0.0804182243
 40
0.1225555336
 40
0.1728860851
 40
0.2309321052
 40
0.2962153525
 40
0.3682178293
 40
0.4462633246
 40
0.6176199118
 40
0.804389221
 40
1.0
 40
1.0
 40
1.0
 40
1.0
 10
17.523725216
 20
75.2257730581
 30
0.0
 10
17.5250696779
 20
75.2268486277
 30
0.0
 10
17.5305521846
 20
75.2277481103
 30
0.0
 10
17.5408105728
 20
75.2294975295
 30
0.0
 10
17.5569632487
 20
75.2309283885
 30
0.0
 10
17.5783993471
 20
75.2325662353
 30
0.0
 10
17.6053373443
 20
75.2341322543
 30
0.0
 10
17.6519120369
 20
75.2364127321
 30
0.0
 10
17.723287886
 20
75.2390720513
 30
0.0
 10
17.8242173043
 20
75.2420040973
 30
0.0
 10
17.9448192196
 20
75.244808573
 30
0.0
 10
18.0839778697
 20
75.2474616667
 30
0.0
 10
18.2405122158
 20
75.2499290207
 30
0.0
 10
18.4130801714
 20
75.252182837
 30
0.0
 10
18.6706629211
 20
75.2549685039
 30
0.0
 10
19.0202332634
 20
75.2577169061
 30
0.0
 10
19.4640347368
 20
75.2598268884
 30
0.0
 10
19.7705025029
 20
75.2604543693
 30
0.0
 10
19.9272795547
 20
75.2605718079
 30
0.0
  0
LINE
  5
3D7
100
AcDbEntity
  8
_1
100
AcDbLine
 62
7
  6
CONTINUOUS
 10
92.8091855244
 20
75.53839358
 11
97.8908874587
 21
75.5402569845
  0
LINE
  5
3D8
100
AcDbEntity
  8
_1
100
AcDbLine
 62
7
  6
CONTINUOUS
 10
97.8908874587
 20
76.9732334333
 11
92.8091855244
 21
76.9750968378
  0
SPLINE
  5
3D9
100
AcDbEntity
  8
_1
100
AcDbSpline
 62
7
  6
CONTINUOUS
 70
0
 71
3
 72
23
 73
19
 74
0
 42
0.0000001
 43
0.0000001
 44
0.0000000001
 40
0.0
 40
0.0
 40
0.0
 40
0.0
 40
0.0627910381
 40
0.1251145783
 40
0.1877323459
 40
0.250213734
 40
0.3126269017
 40
0.3752505736
 40
0.4375283228
 40
0.5001639167
 40
0.5625062176
 40
0.6250283718
 40
0.6875826299
 40
0.7499170755
 40
0.8125809993
 40
0.8748920019
 40
0.9375276203
 40
1.0
 40
1.0
 40
1.0
 40
1.0
 10
65.1770195156
 20
88.6381289068
 30
0.0
 10
65.3810550379
 20
88.6379986388
 30
0.0
 10
65.7887217043
 20
88.5974779952
 30
0.0
 10
66.3758329665
 20
88.4186728478
 30
0.0
 10
66.9162413154
 20
88.1293021714
 30
0.0
 10
67.3899229591
 20
87.7398581308
 30
0.0
 10
67.7786321037
 20
87.2655421544
 30
0.0
 10
68.0669655251
 20
86.7250201334
 30
0.0
 10
68.2445172393
 20
86.1379967222
 30
0.0
 10
68.3040285903
 20
85.5284637184
 30
0.0
 10
68.2433126767
 20
84.9182986005
 30
0.0
 10
68.0648211612
 20
84.3319207426
 30
0.0
 10
67.7752337848
 20
83.7917269893
 30
0.0
 10
67.3856026887
 20
83.3180399053
 30
0.0
 10
66.9116368131
 20
82.9299359975
 30
0.0
 10
66.3702193493
 20
82.6412654448
 30
0.0
 10
65.7837155635
 20
82.4637910135
 30
0.0
 10
65.3760385188
 20
82.4240087706
 30
0.0
 10
65.1730384558
 20
82.4241363043
 30
0.0
  0
SPLINE
  5
3DA
100
AcDbEntity
  8
_1
100
AcDbSpline
 62
7
  6
CONTINUOUS
 70
0
 71
3
 72
23
 73
19
 74
0
 42
0.0000001
 43
0.0000001
 44
0.0000000001
 40
0.0
 40
0.0
 40
0.0
 40
0.0
 40
0.195610779
 40
0.3823800882
 40
0.5537366754
 40
0.6317821707
 40
0.7037846475
 40
0.7690678948
 40
0.8271139149
 40
0.8774444664
 40
0.9195817757
 40
0.9530991902
 40
0.9665523085
 40
0.9777732145
 40
0.9867414716
 40
0.9934385398
 40
0.9978517708
 40
1.0
 40
1.0
 40
1.0
 40
1.0
 10
19.9272795547
 20
95.8016934097
 30
0.0
 10
19.7705025029
 20
95.8018108483
 30
0.0
 10
19.464034737
 20
95.8024383292
 30
0.0
 10
19.0202332636
 20
95.8045483115
 30
0.0
 10
18.6706629214
 20
95.8072967137
 30
0.0
 10
18.4130801718
 20
95.8100823806
 30
0.0
 10
18.2405122162
 20
95.8123361969
 30
0.0
 10
18.0839778702
 20
95.8148035509
 30
0.0
 10
17.9448192201
 20
95.8174566447
 30
0.0
 10
17.8242173048
 20
95.8202611204
 30
0.0
 10
17.7232878866
 20
95.8231931664
 30
0.0
 10
17.6519120375
 20
95.8258524855
 30
0.0
 10
17.6053373449
 20
95.8281329634
 30
0.0
 10
17.5783993476
 20
95.8296989823
 30
0.0
 10
17.5569632493
 20
95.8313368292
 30
0.0
 10
17.5408105734
 20
95.8327676881
 30
0.0
 10
17.5305521852
 20
95.8345171074
 30
0.0
 10
17.5250696785
 20
95.83541659
 30
0.0
 10
17.5237252166
 20
95.8364921596
 30
0.0
  0
LINE
  5
3DB
100
AcDbEntity
  8
_1
100
AcDbLine
 62
7
  6
CONTINUOUS
 10
97.8908874587
 20
95.5220082322
 11
92.8091855244
 21
95.5238716367
  0
LINE
  5
3DC
100
AcDbEntity
  8
_1
100
AcDbLine
 62
7
  6
CONTINUOUS
 10
92.8091855244
 20
94.087168379
 11
97.8908874587
 21
94.0890317835
  0
SPLINE
  5
3DD
100
AcDbEntity
  8
_1
100
AcDbSpline
 62
7
  6
CONTINUOUS
 70
0
 71
3
 72
18
 73
14
 74
0
 42
0.0000001
 43
0.0000001
 44
0.0000000001
 40
0.0
 40
0.0
 40
0.0
 40
0.0
 40
0.0073107117
 40
0.0221070528
 40
0.0455448999
 40
0.0782993349
 40
0.1207677567
 40
0.1725726752
 40
0.3018685286
 40
0.4602872978
 40
0.6370171365
 40
0.8203580645
 40
1.0
 40
1.0
 40
1.0
 40
1.0
 10
19.954491315
 20
96.3096166456
 30
0.0
 10
19.9533089654
 20
96.3092320366
 30
0.0
 10
19.9512660271
 20
96.3054773498
 30
0.0
 10
19.9490919734
 20
96.298387207
 30
0.0
 10
19.9466523245
 20
96.2863680727
 30
0.0
 10
19.9442566812
 20
96.269835906
 30
0.0
 10
19.9418635659
 20
96.248331744
 30
0.0
 10
19.9385176162
 20
96.2104692533
 30
0.0
 10
19.9349024376
 20
96.1528231142
 30
0.0
 10
19.9315770217
 20
96.0739061735
 30
0.0
 10
19.9291142303
 20
95.985757163
 30
0.0
 10
19.9276660499
 20
95.8939783058
 30
0.0
 10
19.9273080801
 20
95.8322456915
 30
0.0
 10
19.9272795551
 20
95.8016940167
 30
0.0
  0
SPLINE
  5
3DE
100
AcDbEntity
  8
_1
100
AcDbSpline
 62
7
  6
CONTINUOUS
 70
0
 71
3
 72
11
 73
7
 74
0
 42
0.0000001
 43
0.0000001
 44
0.0000000001
 40
0.0
 40
0.0
 40
0.0
 40
0.0
 40
0.2417295649
 40
0.5024666615
 40
0.7616462655
 40
1.0
 40
1.0
 40
1.0
 40
1.0
 10
32.0267238879
 20
95.7777441395
 30
0.0
 10
32.0269129445
 20
95.8410798674
 30
0.0
 10
32.0520393447
 20
95.973891887
 30
0.0
 10
32.1634507683
 20
96.145915233
 30
0.0
 10
32.3329931845
 20
96.2597066084
 30
0.0
 10
32.4645550223
 20
96.2854737251
 30
0.0
 10
32.5270062264
 20
96.2856667578
 30
0.0
  0
SPLINE
  5
3DF
100
AcDbEntity
  8
_1
100
AcDbSpline
 62
7
  6
CONTINUOUS
 70
0
 71
3
 72
18
 73
14
 74
0
 42
0.0000001
 43
0.0000001
 44
0.0000000001
 40
0.0
 40
0.0
 40
0.0
 40
0.0
 40
0.0064811574
 40
0.020871778
 40
0.0441759938
 40
0.076841407
 40
0.1191000458
 40
0.1707829739
 40
0.3005135213
 40
0.4591403801
 40
0.6362626401
 40
0.8201439954
 40
1.0
 40
1.0
 40
1.0
 40
1.0
 10
31.5653505001
 20
96.3003085573
 30
0.0
 10
31.5643496006
 20
96.2998524694
 30
0.0
 10
31.5631002496
 20
96.2959656484
 30
0.0
 10
31.561426537
 20
96.2890931158
 30
0.0
 10
31.5597720662
 20
96.2770193106
 30
0.0
 10
31.5580255025
 20
96.2605463318
 30
0.0
 10
31.5563216424
 20
96.2390839291
 30
0.0
 10
31.553918608
 20
96.2012196557
 30
0.0
 10
31.5513559519
 20
96.1435512807
 30
0.0
 10
31.5489548661
 20
96.0645952981
 30
0.0
 10
31.5472117281
 20
95.9764229058
 30
0.0
 10
31.546168917
 20
95.8846392829
 30
0.0
 10
31.5459164139
 20
95.822909273
 30
0.0
 10
31.5458960251
 20
95.7923859393
 30
0.0
  0
ELLIPSE
  5
3E0
100
AcDbEntity
  8
_1
100
AcDbEllipse
 62
7
  6
CONTINUOUS
 10
106.4545907272
 20
96.2730552257
 30
0.0
 11
0.3593196721
 21
0.3593196721
 31
0.0
 40
0.9996954599
 41
-0.7852458702
 42
0.7852458701
  0
ELLIPSE
  5
3E1
100
AcDbEntity
  8
_1
100
AcDbEllipse
 62
7
  6
CONTINUOUS
 10
106.4545907272
 20
74.789209991
 30
0.0
 11
0.3593196721
 21
-0.3593196721
 31
0.0
 40
0.9996954599
 41
-0.7852458701
 42
0.7852458701
  0
ELLIPSE
  5
3E2
100
AcDbEntity
  8
_1
100
AcDbEllipse
 62
7
  6
CONTINUOUS
 10
17.5977456605
 20
74.789209991
 30
0.0
 11
-0.3593196721
 21
-0.3593196721
 31
0.0
 40
0.9996954599
 41
-0.7852458701
 42
0.7852458702
  0
ELLIPSE
  5
3E3
100
AcDbEntity
  8
_1
100
AcDbEllipse
 62
7
  6
CONTINUOUS
 10
17.5977456605
 20
96.2730552257
 30
0.0
 11
-0.3593196721
 21
0.3593196721
 31
0.0
 40
0.9996954599
 41
-0.7852458701
 42
0.7852458701
  0
ELLIPSE
  5
3E4
100
AcDbEntity
  8
_1
100
AcDbEllipse
 62
7
  6
CONTINUOUS
 10
106.3699093423
 20
74.8765516449
 30
0.0
 11
0.3593196721
 21
-0.3593196721
 31
0.0
 40
0.9996954599
 41
-0.7852458701
 42
0.7852458701
  0
ELLIPSE
  5
3E5
100
AcDbEntity
  8
_1
100
AcDbEllipse
 62
7
  6
CONTINUOUS
 10
106.3699093423
 20
96.1857135718
 30
0.0
 11
0.3593196721
 21
0.3593196721
 31
0.0
 40
0.9996954599
 41
-0.7852458701
 42
0.7852458701
  0
ELLIPSE
  5
3E6
100
AcDbEntity
  8
_1
100
AcDbEllipse
 62
7
  6
CONTINUOUS
 10
17.6824270454
 20
74.8765516449
 30
0.0
 11
-0.3593196721
 21
-0.3593196721
 31
0.0
 40
0.9996954599
 41
-0.7852458701
 42
0.7852458701
  0
ELLIPSE
  5
3E7
100
AcDbEntity
  8
_1
100
AcDbEllipse
 62
7
  6
CONTINUOUS
 10
17.6824270454
 20
96.1857135718
 30
0.0
 11
-0.3593196721
 21
0.3593196721
 31
0.0
 40
0.9996954599
 41
-0.7852458701
 42
0.7852458701
  0
ELLIPSE
  5
3E8
100
AcDbEntity
  8
_1
100
AcDbEllipse
 62
7
  6
CONTINUOUS
 10
62.0261681938
 20
-865.5234549993
 30
0.0
 11
0.0
 21
954.6745611951
 31
0.0
 40
0.8390996312
 41
-0.012883057
 42
-0.0128237453
  0
ELLIPSE
  5
3E9
100
AcDbEntity
  8
_1
100
AcDbEllipse
 62
7
  6
CONTINUOUS
 10
62.0261681938
 20
-865.5234549993
 30
0.0
 11
0.0
 21
954.6745611951
 31
0.0
 40
0.8390996312
 41
-0.0206274217
 42
-0.0204956028
  0
ELLIPSE
  5
3EA
100
AcDbEntity
  8
_1
100
AcDbEllipse
 62
7
  6
CONTINUOUS
 10
62.0261681938
 20
1036.585720216
 30
0.0
 11
0.0
 21
954.6745611951
 31
0.0
 40
0.8390996312
 41
-3.1210225542
 42
-3.1209652319
  0
ELLIPSE
  5
3EB
100
AcDbEntity
  8
_1
100
AcDbEllipse
 62
7
  6
CONTINUOUS
 10
62.0261681938
 20
1036.585720216
 30
0.0
 11
-0.0
 21
954.6745611951
 31
0.0
 40
0.8390996312
 41
-3.1287689083
 42
-3.1286324539
  0
ELLIPSE
  5
3EC
100
AcDbEntity
  8
_1
100
AcDbEllipse
 62
7
  6
CONTINUOUS
 10
62.0261681938
 20
76.9490060097
 30
0.0
 11
802.3370721932
 21
0.0
 31
0.0
 40
0.0174550649
 41
1.5501739294
 42
1.5580205209
  0
ELLIPSE
  5
3ED
100
AcDbEntity
  8
_1
100
AcDbEllipse
 62
7
  6
CONTINUOUS
 10
62.0261681938
 20
94.1132592071
 30
0.0
 11
802.3370721932
 21
0.0
 31
0.0
 40
0.0174550649
 41
-1.5580205209
 42
-1.5501739294
  0
ENDSEC
  0
SECTION
  2
OBJECTS
  0
DICTIONARY
  5
C
100
AcDbDictionary
280
0
281
1
  3
ACAD_GROUP
350
D
  3
ACAD_MLINESTYLE
350
17
  3
ACAD_LAYOUT
350
1A
  3
ACAD_PLOTSETTINGS
350
19
  3
ACAD_PLOTSTYLENAME
350
E
  0
DICTIONARY
  5
D
102
{ACAD_REACTORS
330
C
102
}
100
AcDbDictionary
280
0
281
1
  0
ACDBDICTIONARYWDFLT
  5
E
102
{ACAD_REACTORS
330
C
102
}
100
AcDbDictionary
281
1
  3
Normal
350
F
100
AcDbDictionaryWithDefault
340
F
  0
DICTIONARY
  5
17
102
{ACAD_REACTORS
330
C
102
}
100
AcDbDictionary
280
0
281
1
  3
Standard
350
18
  0
DICTIONARY
  5
19
102
{ACAD_REACTORS
330
C
102
}
100
AcDbDictionary
281
1
  0
DICTIONARY
  5
1A
102
{ACAD_REACTORS
330
C
102
}
100
AcDbDictionary
281
1
  3
Model
350
3EE
  3
Layout1
350
3EF
  0
ACDBPLACEHOLDER
  5
F
102
{ACAD_REACTORS
330
E
102
}
  0
MLINESTYLE
  5
18
102
{ACAD_REACTORS
330
17
102
}
100
AcDbMlineStyle
  2
STANDARD
 70
0
  3

 62
256
 51
90.0
 52
90.0
 71
2
 49
0.5
 62
256
  6
BYLAYER
 49
-0.5
 62
256
  6
BYLAYER
  0
LAYOUT
  5
3EE
102
{ACAD_REACTORS
330
1A
102
}
100
AcDbPlotSettings
  1

  2
none_device
  4

  6

 40
0.0
 41
0.0
 42
0.0
 43
0.0
 44
210.0
 45
297.0
 46
0.0
 47
0.0
 48
0.0
 49
0.0
140
0.0
141
0.0
142
1.0
143
1.0
 70
1024
 72
1
 73
0
 74
0
  7

 75
0
147
1.0
148
0.0
149
0.0
100
AcDbLayout
  1
Model
 70
0
 71
0
 10
0.0
 20
0.0
 11
210.0
 21
297.0
 12
0.0
 22
0.0
 32
0.0
 14
0.0
 24
0.0
 34
0.0
 15
0.0
 25
0.0
 35
0.0
146
0.0
 13
0.0
 23
0.0
 33
0.0
 16
1.0
 26
0.0
 36
0.0
 17
0.0
 27
1.0
 37
0.0
 76
0
330
211
345
0
346
0
  0
LAYOUT
  5
3EF
102
{ACAD_REACTORS
330
1A
102
}
100
AcDbPlotSettings
  1

  2
none_device
  4

  6

 40
0.0
 41
0.0
 42
0.0
 43
0.0
 44
210.0
 45
297.0
 46
0.0
 47
0.0
 48
0.0
 49
0.0
140
0.0
141
0.0
142
1.0
143
1.0
 70
0
 72
1
 73
0
 74
0
  7

 75
0
147
1.0
148
0.0
149
0.0
100
AcDbLayout
  1
Layout1
 70
0
 71
1
 10
0.0
 20
0.0
 11
210.0
 21
297.0
 12
0.0
 22
0.0
 32
0.0
 14
0.0
 24
0.0
 34
0.0
 15
0.0
 25
0.0
 35
0.0
146
0.0
 13
0.0
 23
0.0
 33
0.0
 16
1.0
 26
0.0
 36
0.0
 17
0.0
 27
1.0
 37
0.0
 76
0
330
212
345
0
346
0
  0
ENDSEC
  0
EOF
