999
DXF file: C:\Users\sesa63760\Dev\_Creo\CAD\MCADID0000581_3D-CAD\drw0001_4.dxf
999
Pro/ENGINEER 2019471 by Parametric Technology Corporation
  0
SECTION
  2
HEADER
  9
$ACADVER
  1
AC1024
  9
$DWGCODEPAGE
  3
ANSI_1252
  9
$EXTMAX
 10
282.8698149324
 20
400.0587382615
 30
0.0
  9
$EXTMIN
 10
0.0
 20
0.0
 30
0.0
  9
$LIMMIN
 10
0.0
 20
0.0
  9
$LIMMAX
 10
282.8698149324
 20
400.0587382615
  9
$VIEWCTR
 10
141.4349074662
 20
200.0293691307
  9
$VIEWSIZE
 40
400.0587382615
  9
$CLAYER
  8
0
  9
$LTSCALE
 40
26.0779029385
  9
$CELTYPE
  6
BYLAYER
  9
$DIMSCALE
 40
1.0
  9
$DIMASZ
 40
3.3674977968
  9
$DIMEXO
 40
1.0
  9
$DIMDLI
 40
18.0174602121
  9
$DIMEXE
 40
1.0
  9
$DIMCEN
 40
4.2672932081
  9
$DIMLFAC
 40
1.0
  9
$DIMBLK
  1
_FILLED
  9
$DIMALT
 70
0
  9
$DIMALTF
 40
0.0393700787
  9
$DIMTXT
 40
4.7144969155
  9
$DIMTOL
 70
1
  9
$DIMLIM
 70
0
  9
$DIMTFAC
 40
1.0
  9
$DIMTP
 40
0.01
  9
$DIMTM
 40
0.01
  9
$DIMGAP
 40
0.625
  9
$DIMDSEP
 70
46
  9
$AUNITS
 70
0
  9
$PDMODE
 70
3
  9
$PDSIZE
 40
0.3125
  9
$HANDSEED
  5
418
  9
$TILEMODE
 70
1
  9
$MEASUREMENT
 70
1
  9
$INSUNITS
 70
4
  0
ENDSEC
  0
SECTION
  2
CLASSES
  0
CLASS
  1
ACDBDICTIONARYWDFLT
  2
AcDbDictionaryWithDefault
  3
AutoCAD 2000
 90
0
 91
1
280
0
281
0
  0
CLASS
  1
ACDBPLACEHOLDER
  2
AcDbPlaceHolder
  3
AutoCAD 2000
 90
0
 91
1
280
0
281
0
  0
CLASS
  1
LAYOUT
  2
AcDbLayout
  3
AutoCAD 2000
 90
0
 91
0
280
0
281
0
  0
ENDSEC
  0
SECTION
  2
TABLES
  0
TABLE
  2
VPORT
  5
8
100
AcDbSymbolTable
 70
2
  0
VPORT
  5
1F4
100
AcDbSymbolTableRecord
100
AcDbViewportTableRecord
  2
*ACTIVE
 70
0
 10
0.0
 20
0.0
 11
1.0
 21
1.0
 12
141.4349074662
 22
200.0293691307
 13
0.0
 23
0.0
 14
1.0
 24
1.0
 15
0.0
 25
0.0
 16
0.0
 26
0.0
 36
1.0
 17
0.0
 27
0.0
 37
0.0
 40
400.0587382615
 41
0.7070707071
 42
50.0
 43
0.0
 44
0.0
 50
0.0
 51
0.0
 71
0
 72
100
 73
1
 74
1
 75
0
 76
0
 77
0
 78
0
  0
ENDTAB
  0
TABLE
  2
LTYPE
  5
5
100
AcDbSymbolTable
 70
6
  0
LTYPE
  5
14
100
AcDbSymbolTableRecord
100
AcDbLinetypeTableRecord
  2
BYBLOCK
 70
0
  3

 72
65
 73
0
 40
0.0
  0
LTYPE
  5
15
100
AcDbSymbolTableRecord
100
AcDbLinetypeTableRecord
  2
BYLAYER
 70
0
  3

 72
65
 73
0
 40
0.0
  0
LTYPE
  5
16
100
AcDbSymbolTableRecord
100
AcDbLinetypeTableRecord
  2
CONTINUOUS
 70
64
  3
Solid line
 72
65
 73
0
 40
0.0
  0
LTYPE
  5
1F5
100
AcDbSymbolTableRecord
100
AcDbLinetypeTableRecord
  2
CENTER
 70
64
  3
____ _ ____ _ ____ _ ____ _ ____ _ ____ _ ____
 72
65
 73
4
 40
0.6
 49
0.375
 74
0
 49
-0.075
 74
0
 49
0.075
 74
0
 49
-0.075
 74
0
  0
LTYPE
  5
1F6
100
AcDbSymbolTableRecord
100
AcDbLinetypeTableRecord
  2
HIDDEN
 70
64
  3
- - - - - - - - - - - - - - - - - - - -
 72
65
 73
2
 40
0.2
 49
0.1
 74
0
 49
-0.1
 74
0
  0
LTYPE
  5
1F7
100
AcDbSymbolTableRecord
100
AcDbLinetypeTableRecord
  2
PHANTOM
 70
64
  3
_____ _ _ _____ _ _ _____ _ _ _____
 72
65
 73
6
 40
0.8
 49
0.45
 74
0
 49
-0.05
 74
0
 49
0.1
 74
0
 49
-0.05
 74
0
 49
0.1
 74
0
 49
-0.05
 74
0
  0
LTYPE
  5
1F8
100
AcDbSymbolTableRecord
100
AcDbLinetypeTableRecord
  2
DOT
 70
64
  3
. . . . . . . . . . . . . . . . . . . .
 72
65
 73
2
 40
0.2
 49
0.1
 74
0
 49
-0.1
 74
0
  0
LTYPE
  5
1F9
100
AcDbSymbolTableRecord
100
AcDbLinetypeTableRecord
  2
DASHED
 70
64
  3
- - - - - - - - - - - - - - - - - - - -
 72
65
 73
2
 40
0.2
 49
0.1
 74
0
 49
-0.1
 74
0
  0
ENDTAB
  0
TABLE
  2
LAYER
  5
2
100
AcDbSymbolTable
 70
36
  0
LAYER
  5
10
100
AcDbSymbolTableRecord
100
AcDbLayerTableRecord
  2
0
 70
0
 62
7
  6
CONTINUOUS
370
-3
390
F
  0
LAYER
  5
1FA
100
AcDbSymbolTableRecord
100
AcDbLayerTableRecord
  2
DEFAULT_1
 70
0
 62
7
  6
CENTER
370
-3
390
F
  0
LAYER
  5
1FB
100
AcDbSymbolTableRecord
100
AcDbLayerTableRecord
  2
DEFAULT_2
 70
0
 62
8
  6
HIDDEN
370
-3
390
F
  0
LAYER
  5
1FC
100
AcDbSymbolTableRecord
100
AcDbLayerTableRecord
  2
DEFAULT_3
 70
0
 62
7
  6
PHANTOM
370
-3
390
F
  0
LAYER
  5
1FD
100
AcDbSymbolTableRecord
100
AcDbLayerTableRecord
  2
00_COMPONENTS
 70
0
 62
7
  6
CONTINUOUS
370
-3
390
F
  0
LAYER
  5
1FE
100
AcDbSymbolTableRecord
100
AcDbLayerTableRecord
  2
01_1_DEFAULT_DATUMS
 70
0
 62
7
  6
CONTINUOUS
370
-3
390
F
  0
LAYER
  5
1FF
100
AcDbSymbolTableRecord
100
AcDbLayerTableRecord
  2
01_PLANES
 70
0
 62
7
  6
CONTINUOUS
370
-3
390
F
  0
LAYER
  5
200
100
AcDbSymbolTableRecord
100
AcDbLayerTableRecord
  2
02_COORD_SYS
 70
0
 62
7
  6
CONTINUOUS
370
-3
390
F
  0
LAYER
  5
201
100
AcDbSymbolTableRecord
100
AcDbLayerTableRecord
  2
03_AXES
 70
0
 62
7
  6
CONTINUOUS
370
-3
390
F
  0
LAYER
  5
202
100
AcDbSymbolTableRecord
100
AcDbLayerTableRecord
  2
04_POINTS
 70
0
 62
7
  6
CONTINUOUS
370
-3
390
F
  0
LAYER
  5
203
100
AcDbSymbolTableRecord
100
AcDbLayerTableRecord
  2
05_CURVES
 70
0
 62
7
  6
CONTINUOUS
370
-3
390
F
  0
LAYER
  5
204
100
AcDbSymbolTableRecord
100
AcDbLayerTableRecord
  2
06_SURFS
 70
0
 62
7
  6
CONTINUOUS
370
-3
390
F
  0
LAYER
  5
205
100
AcDbSymbolTableRecord
100
AcDbLayerTableRecord
  2
07_COSMETICS
 70
0
 62
7
  6
CONTINUOUS
370
-3
390
F
  0
LAYER
  5
206
100
AcDbSymbolTableRecord
100
AcDbLayerTableRecord
  2
10_NOTES
 70
0
 62
7
  6
CONTINUOUS
370
-3
390
F
  0
LAYER
  5
207
100
AcDbSymbolTableRecord
100
AcDbLayerTableRecord
  2
11_NOTES_PUB
 70
0
 62
7
  6
CONTINUOUS
370
-3
390
F
  0
LAYER
  5
208
100
AcDbSymbolTableRecord
100
AcDbLayerTableRecord
  2
13_REF_GTOL
 70
0
 62
7
  6
CONTINUOUS
370
-3
390
F
  0
LAYER
  5
209
100
AcDbSymbolTableRecord
100
AcDbLayerTableRecord
  2
16_MISC
 70
0
 62
7
  6
CONTINUOUS
370
-3
390
F
  0
LAYER
  5
20A
100
AcDbSymbolTableRecord
100
AcDbLayerTableRecord
  2
17_NO_PRINT
 70
0
 62
7
  6
CONTINUOUS
370
-3
390
F
  0
LAYER
  5
20B
100
AcDbSymbolTableRecord
100
AcDbLayerTableRecord
  2
18_DATUM_CAMS_JOINTS
 70
0
 62
7
  6
CONTINUOUS
370
-3
390
F
  0
LAYER
  5
20C
100
AcDbSymbolTableRecord
100
AcDbLayerTableRecord
  2
19_DATUM_FUNCTIONAL
 70
0
 62
7
  6
CONTINUOUS
370
-3
390
F
  0
LAYER
  5
20D
100
AcDbSymbolTableRecord
100
AcDbLayerTableRecord
  2
20_DATUM_KINEMATIC_SCHEME
 70
0
 62
7
  6
CONTINUOUS
370
-3
390
F
  0
ENDTAB
  0
TABLE
  2
STYLE
  5
3
100
AcDbSymbolTable
 70
1
  0
STYLE
  5
11
100
AcDbSymbolTableRecord
100
AcDbTextStyleTableRecord
  2
STANDARD
 70
0
 40
0.0
 41
0.8
 50
0.0
 71
0
 42
0.2
  3
txt
  4

  0
STYLE
  5
20E
100
AcDbSymbolTableRecord
100
AcDbTextStyleTableRecord
  2
TEXTSTYLE_1
 70
0
 40
0.0
 41
0.8
 50
0.0
 71
0
 42
0.2
  3
gdt
  4

  0
ENDTAB
  0
TABLE
  2
VIEW
  5
6
100
AcDbSymbolTable
 70
0
  0
ENDTAB
  0
TABLE
  2
UCS
  5
7
100
AcDbSymbolTable
 70
0
  0
ENDTAB
  0
TABLE
  2
APPID
  5
9
100
AcDbSymbolTable
 70
1
  0
APPID
  5
20F
100
AcDbSymbolTableRecord
100
AcDbRegAppTableRecord
  2
ACAD
 70
0
  0
ENDTAB
  0
TABLE
  2
BLOCK_RECORD
  5
1
100
AcDbSymbolTable
 70
0
  0
BLOCK_RECORD
  5
210
100
AcDbSymbolTableRecord
100
AcDbBlockTableRecord
  2
*Model_Space
  0
BLOCK_RECORD
  5
211
100
AcDbSymbolTableRecord
100
AcDbBlockTableRecord
  2
*Paper_Space
  0
BLOCK_RECORD
  5
212
100
AcDbSymbolTableRecord
100
AcDbBlockTableRecord
  2
_FILLED
  0
ENDTAB
  0
TABLE
  2
DIMSTYLE
  5
A
100
AcDbSymbolTable
 70
1
100
AcDbDimStyleTable
 71
0
  0
DIMSTYLE
105
213
100
AcDbSymbolTableRecord
100
AcDbDimStyleTableRecord
  2
STANDARD
 70
0
  3

  4

 40
1.0
 41
3.3674977968
 42
1.0
 43
0.38
 44
1.0
 45
0.0
 46
0.0
 47
0.01
 48
0.01
140
4.7144969155
141
0.09
142
0.0
143
25.4
144
1.0
145
0.0
146
1.0
147
0.625
 71
1
 72
0
 73
0
 74
0
 75
0
 76
0
 77
1
 78
8
 79
2
170
0
171
1
172
0
173
0
174
0
175
0
176
0
177
0
178
0
270
2
179
2
271
2
272
2
273
2
274
2
275
0
280
0
281
0
282
0
283
1
284
8
285
0
286
0
287
3
288
0
340
11
278
46
341
212
342
212
343
212
344
212
  0
ENDTAB
  0
ENDSEC
  0
SECTION
  2
BLOCKS
  0
BLOCK
  5
20
100
AcDbEntity
  8
0
100
AcDbBlockBegin
  2
*Model_Space
 70
0
 10
0.0
 20
0.0
 30
0.0
  3
*Model_Space
  1

  0
ENDBLK
  5
21
100
AcDbEntity
  8
0
100
AcDbBlockEnd
  0
BLOCK
  5
1C
100
AcDbEntity
  8
0
100
AcDbBlockBegin
  2
*Paper_Space
 70
0
 10
0.0
 20
0.0
 30
0.0
  3
*Paper_Space
  1

  0
ENDBLK
  5
1D
100
AcDbEntity
  8
0
100
AcDbBlockEnd
  0
BLOCK
  5
214
100
AcDbEntity
  8
0
100
AcDbBlockBegin
  2
_FILLED
 70
64
 10
0.0
 20
0.0
  3
_FILLED
  1

  0
SOLID
  5
215
100
AcDbEntity
  8
0
  6
BYBLOCK
 62
0
100
AcDbTrace
 10
0.0
 20
0.0
 11
-1.0
 21
0.25
 12
-1.0
 22
-0.25
 13
-1.0
 23
-0.25
  0
ENDBLK
  5
216
100
AcDbEntity
  8
0
  6
BYBLOCK
 62
0
100
AcDbBlockEnd
  0
ENDSEC
  0
SECTION
  2
ENTITIES
  0
LINE
  5
217
100
AcDbEntity
  8
0
100
AcDbLine
 62
7
  6
CONTINUOUS
 10
36.2509294358
 20
242.405199185
 11
35.3006227938
 21
236.405199185
  0
LINE
  5
218
100
AcDbEntity
  8
0
100
AcDbLine
 62
7
  6
CONTINUOUS
 10
39.0006227938
 20
242.405199185
 11
39.0006227938
 21
239.405199185
  0
LINE
  5
219
100
AcDbEntity
  8
0
100
AcDbLine
 62
7
  6
CONTINUOUS
 10
39.0006227938
 20
236.405199185
 11
39.0006227938
 21
150.205199185
  0
LINE
  5
21A
100
AcDbEntity
  8
0
100
AcDbLine
 62
7
  6
CONTINUOUS
 10
44.5006227938
 20
242.405199185
 11
44.5006227938
 21
245.405199185
  0
LINE
  5
21B
100
AcDbEntity
  8
0
100
AcDbLine
 62
7
  6
CONTINUOUS
 10
44.526944688
 20
242.405199185
 11
44.526944688
 21
245.405199185
  0
LINE
  5
21C
100
AcDbEntity
  8
0
100
AcDbLine
 62
7
  6
CONTINUOUS
 10
45.0006227938
 20
242.405199185
 11
45.0006227938
 21
239.405199185
  0
LINE
  5
21D
100
AcDbEntity
  8
0
100
AcDbLine
 62
7
  6
CONTINUOUS
 10
47.0006227938
 20
245.405199185
 11
47.0006227938
 21
248.405199185
  0
LINE
  5
21E
100
AcDbEntity
  8
0
100
AcDbLine
 62
7
  6
CONTINUOUS
 10
47.7506227938
 20
248.405199185
 11
47.7506227938
 21
254.405199185
  0
LINE
  5
21F
100
AcDbEntity
  8
0
100
AcDbLine
 62
7
  6
CONTINUOUS
 10
47.9506227938
 20
238.905199185
 11
47.9506227938
 21
213.605199185
  0
LINE
  5
220
100
AcDbEntity
  8
0
100
AcDbLine
 62
7
  6
CONTINUOUS
 10
48.5006227938
 20
248.405199185
 11
48.5006227938
 21
258.405199185
  0
LINE
  5
221
100
AcDbEntity
  8
0
100
AcDbLine
 62
7
  6
CONTINUOUS
 10
48.8858436316
 20
245.405199185
 11
48.8858436316
 21
242.405199185
  0
LINE
  5
222
100
AcDbEntity
  8
0
100
AcDbLine
 62
7
  6
CONTINUOUS
 10
49.2506227938
 20
258.405199185
 11
49.2506227938
 21
259.405199185
  0
LINE
  5
223
100
AcDbEntity
  8
0
100
AcDbLine
 62
7
  6
CONTINUOUS
 10
50.1417238503
 20
242.405199185
 11
50.1417238503
 21
245.405199185
  0
LINE
  5
224
100
AcDbEntity
  8
0
100
AcDbLine
 62
7
  6
CONTINUOUS
 10
53.2506227938
 20
220.5184478391
 11
53.2506227938
 21
226.291950531
  0
LINE
  5
225
100
AcDbEntity
  8
0
100
AcDbLine
 62
7
  6
CONTINUOUS
 10
58.8595217374
 20
245.405199185
 11
58.8595217374
 21
242.405199185
  0
LINE
  5
226
100
AcDbEntity
  8
0
100
AcDbLine
 62
7
  6
CONTINUOUS
 10
59.7506227938
 20
259.405199185
 11
59.7506227938
 21
258.405199185
  0
LINE
  5
227
100
AcDbEntity
  8
0
100
AcDbLine
 62
7
  6
CONTINUOUS
 10
60.1154019561
 20
242.405199185
 11
60.1154019561
 21
245.405199185
  0
LINE
  5
228
100
AcDbEntity
  8
0
100
AcDbLine
 62
7
  6
CONTINUOUS
 10
60.5006227938
 20
258.405199185
 11
60.5006227938
 21
248.405199185
  0
LINE
  5
229
100
AcDbEntity
  8
0
100
AcDbLine
 62
7
  6
CONTINUOUS
 10
61.2506227938
 20
254.405199185
 11
61.2506227938
 21
248.405199185
  0
LINE
  5
22A
100
AcDbEntity
  8
0
100
AcDbLine
 62
7
  6
CONTINUOUS
 10
62.0006227938
 20
248.405199185
 11
62.0006227938
 21
245.405199185
  0
LINE
  5
22B
100
AcDbEntity
  8
0
100
AcDbLine
 62
7
  6
CONTINUOUS
 10
63.2506227938
 20
226.291950531
 11
63.2506227938
 21
220.5184478391
  0
LINE
  5
22C
100
AcDbEntity
  8
0
100
AcDbLine
 62
7
  6
CONTINUOUS
 10
64.4743008997
 20
245.405199185
 11
64.4743008997
 21
242.405199185
  0
LINE
  5
22D
100
AcDbEntity
  8
0
100
AcDbLine
 62
7
  6
CONTINUOUS
 10
64.5006227938
 20
245.405199185
 11
64.5006227938
 21
242.405199185
  0
LINE
  5
22E
100
AcDbEntity
  8
0
100
AcDbLine
 62
7
  6
CONTINUOUS
 10
66.7506227938
 20
220.5184478391
 11
66.7506227938
 21
226.291950531
  0
LINE
  5
22F
100
AcDbEntity
  8
0
100
AcDbLine
 62
7
  6
CONTINUOUS
 10
71.0006227938
 20
244.905199185
 11
71.0006227938
 21
242.405199185
  0
LINE
  5
230
100
AcDbEntity
  8
0
100
AcDbLine
 62
7
  6
CONTINUOUS
 10
71.0006227938
 20
247.905199185
 11
71.0006227938
 21
251.905199185
  0
LINE
  5
231
100
AcDbEntity
  8
0
100
AcDbLine
 62
7
  6
CONTINUOUS
 10
71.5006227938
 20
251.905199185
 11
71.5006227938
 21
247.905199185
  0
LINE
  5
232
100
AcDbEntity
  8
0
100
AcDbLine
 62
7
  6
CONTINUOUS
 10
73.5006227938
 20
254.905199185
 11
73.5006227938
 21
244.905199185
  0
LINE
  5
233
100
AcDbEntity
  8
0
100
AcDbLine
 62
7
  6
CONTINUOUS
 10
75.0006227938
 20
254.905199185
 11
75.0006227938
 21
244.905199185
  0
LINE
  5
234
100
AcDbEntity
  8
0
100
AcDbLine
 62
7
  6
CONTINUOUS
 10
76.7506227938
 20
220.5184478391
 11
76.7506227938
 21
226.291950531
  0
LINE
  5
235
100
AcDbEntity
  8
0
100
AcDbLine
 62
7
  6
CONTINUOUS
 10
58.2506227938
 20
229.1787018769
 11
53.2506227938
 21
226.291950531
  0
LINE
  5
236
100
AcDbEntity
  8
0
100
AcDbLine
 62
7
  6
CONTINUOUS
 10
79.0006227938
 20
246.505199185
 11
79.0006227938
 21
244.905199185
  0
LINE
  5
237
100
AcDbEntity
  8
0
100
AcDbLine
 62
7
  6
CONTINUOUS
 10
79.4312797282
 20
244.905199185
 11
79.4312797282
 21
242.405199185
  0
LINE
  5
238
100
AcDbEntity
  8
0
100
AcDbLine
 62
7
  6
CONTINUOUS
 10
80.2506227938
 20
220.5184478391
 11
80.2506227938
 21
226.291950531
  0
LINE
  5
239
100
AcDbEntity
  8
0
100
AcDbLine
 62
7
  6
CONTINUOUS
 10
84.5699658595
 20
242.405199185
 11
84.5699658595
 21
244.905199185
  0
LINE
  5
23A
100
AcDbEntity
  8
0
100
AcDbLine
 62
7
  6
CONTINUOUS
 10
85.0006227938
 20
246.505199185
 11
85.0006227938
 21
244.905199185
  0
LINE
  5
23B
100
AcDbEntity
  8
0
100
AcDbLine
 62
7
  6
CONTINUOUS
 10
85.5006227938
 20
208.105199185
 11
85.5006227938
 21
192.6829852598
  0
LINE
  5
23C
100
AcDbEntity
  8
0
100
AcDbLine
 62
7
  6
CONTINUOUS
 10
85.5006227938
 20
155.405199185
 11
85.5006227938
 21
187.405199185
  0
LINE
  5
23D
100
AcDbEntity
  8
0
100
AcDbLine
 62
7
  6
CONTINUOUS
 10
66.7506227938
 20
226.291950531
 11
71.7506227938
 21
229.1787018769
  0
LINE
  5
23E
100
AcDbEntity
  8
0
100
AcDbLine
 62
7
  6
CONTINUOUS
 10
58.2506227938
 20
217.6316964931
 11
63.2506227938
 21
220.5184478391
  0
LINE
  5
23F
100
AcDbEntity
  8
0
100
AcDbLine
 62
7
  6
CONTINUOUS
 10
150.6006227938
 20
138.205199185
 11
167.0006227938
 21
138.4914622498
  0
LINE
  5
240
100
AcDbEntity
  8
0
100
AcDbLine
 62
7
  6
CONTINUOUS
 10
180.1006227938
 20
138.255199185
 11
169.5006227938
 21
138.255199185
  0
LINE
  5
241
100
AcDbEntity
  8
0
100
AcDbLine
 62
7
  6
CONTINUOUS
 10
62.6845332456
 20
138.405199185
 11
91.5006227938
 21
138.405199185
  0
LINE
  5
242
100
AcDbEntity
  8
0
100
AcDbLine
 62
7
  6
CONTINUOUS
 10
167.3006227938
 20
138.505199185
 11
182.0006227938
 21
138.505199185
  0
LINE
  5
243
100
AcDbEntity
  8
0
100
AcDbLine
 62
7
  6
CONTINUOUS
 10
167.0006227938
 20
138.805199185
 11
167.3006227938
 21
138.805199185
  0
LINE
  5
244
100
AcDbEntity
  8
0
100
AcDbLine
 62
7
  6
CONTINUOUS
 10
91.5006227938
 20
138.905199185
 11
135.1006227938
 21
138.905199185
  0
LINE
  5
245
100
AcDbEntity
  8
0
100
AcDbLine
 62
7
  6
CONTINUOUS
 10
117.1006227938
 20
138.925199185
 11
135.1006227938
 21
138.925199185
  0
LINE
  5
246
100
AcDbEntity
  8
0
100
AcDbLine
 62
7
  6
CONTINUOUS
 10
135.4003372603
 20
138.8688579839
 11
150.6006227938
 21
138.205199185
  0
LINE
  5
247
100
AcDbEntity
  8
0
100
AcDbLine
 62
7
  6
CONTINUOUS
 10
89.0006227938
 20
254.905199185
 11
89.0006227938
 21
244.905199185
  0
LINE
  5
248
100
AcDbEntity
  8
0
100
AcDbLine
 62
7
  6
CONTINUOUS
 10
90.2506227938
 20
220.5184478391
 11
90.2506227938
 21
226.291950531
  0
LINE
  5
249
100
AcDbEntity
  8
0
100
AcDbLine
 62
7
  6
CONTINUOUS
 10
90.5006227938
 20
254.905199185
 11
90.5006227938
 21
244.905199185
  0
LINE
  5
24A
100
AcDbEntity
  8
0
100
AcDbLine
 62
7
  6
CONTINUOUS
 10
91.5006227938
 20
138.405199185
 11
91.5006227938
 21
193.0151297679
  0
LINE
  5
24B
100
AcDbEntity
  8
0
100
AcDbLine
 62
7
  6
CONTINUOUS
 10
92.5006227938
 20
247.905199185
 11
92.5006227938
 21
251.905199185
  0
LINE
  5
24C
100
AcDbEntity
  8
0
100
AcDbLine
 62
7
  6
CONTINUOUS
 10
93.0006227938
 20
251.905199185
 11
93.0006227938
 21
247.905199185
  0
LINE
  5
24D
100
AcDbEntity
  8
0
100
AcDbLine
 62
7
  6
CONTINUOUS
 10
93.0006227938
 20
244.905199185
 11
93.0006227938
 21
242.405199185
  0
LINE
  5
24E
100
AcDbEntity
  8
0
100
AcDbLine
 62
7
  6
CONTINUOUS
 10
80.2506227938
 20
226.291950531
 11
85.2506227938
 21
229.1787018769
  0
LINE
  5
24F
100
AcDbEntity
  8
0
100
AcDbLine
 62
7
  6
CONTINUOUS
 10
76.7506227938
 20
220.5184478391
 11
71.7506227938
 21
217.6316964931
  0
LINE
  5
250
100
AcDbEntity
  8
0
100
AcDbLine
 62
7
  6
CONTINUOUS
 10
180.6006227938
 20
140.105199185
 11
178.6006227938
 21
140.105199185
  0
LINE
  5
251
100
AcDbEntity
  8
0
100
AcDbLine
 62
7
  6
CONTINUOUS
 10
182.6006227938
 20
140.205199185
 11
180.6454546462
 21
140.205199185
  0
LINE
  5
252
100
AcDbEntity
  8
0
100
AcDbLine
 62
7
  6
CONTINUOUS
 10
153.6006227938
 20
141.6393885116
 11
135.1006227938
 21
141.6393885116
  0
LINE
  5
253
100
AcDbEntity
  8
0
100
AcDbLine
 62
7
  6
CONTINUOUS
 10
91.5006227938
 20
142.0832750293
 11
61.600474815
 21
142.0832750293
  0
LINE
  5
254
100
AcDbEntity
  8
0
100
AcDbLine
 62
7
  6
CONTINUOUS
 10
135.1006227938
 20
142.2362867421
 11
91.5006227938
 21
142.2362867421
  0
LINE
  5
255
100
AcDbEntity
  8
0
100
AcDbLine
 62
7
  6
CONTINUOUS
 10
181.4062075102
 20
142.5441978495
 11
181.4808316695
 21
142.5441978495
  0
LINE
  5
256
100
AcDbEntity
  8
0
100
AcDbLine
 62
7
  6
CONTINUOUS
 10
181.510381784
 20
142.6804824215
 11
181.4215150397
 21
142.6804824215
  0
LINE
  5
257
100
AcDbEntity
  8
0
100
AcDbLine
 62
7
  6
CONTINUOUS
 10
250.6506227938
 20
143.255199185
 11
240.0506227938
 21
143.255199185
  0
LINE
  5
258
100
AcDbEntity
  8
0
100
AcDbLine
 62
7
  6
CONTINUOUS
 10
182.6006227938
 20
143.505199185
 11
251.5006227938
 21
143.505199185
  0
LINE
  5
259
100
AcDbEntity
  8
0
100
AcDbLine
 62
7
  6
CONTINUOUS
 10
252.6006227938
 20
143.505199185
 11
256.0006227938
 21
143.505199185
  0
LINE
  5
25A
100
AcDbEntity
  8
0
100
AcDbLine
 62
7
  6
CONTINUOUS
 10
257.8006227938
 20
144.2521508578
 11
256.3006227938
 21
144.2521508578
  0
LINE
  5
25B
100
AcDbEntity
  8
0
100
AcDbLine
 62
7
  6
CONTINUOUS
 10
181.4600236689
 20
144.590199185
 11
182.6006227938
 21
144.590199185
  0
LINE
  5
25C
100
AcDbEntity
  8
0
100
AcDbLine
 62
7
  6
CONTINUOUS
 10
178.6006227938
 20
145.005199185
 11
167.3006227938
 21
145.005199185
  0
LINE
  5
25D
100
AcDbEntity
  8
0
100
AcDbLine
 62
7
  6
CONTINUOUS
 10
167.0006227938
 20
145.005199185
 11
153.6006227938
 21
145.005199185
  0
LINE
  5
25E
100
AcDbEntity
  8
0
100
AcDbLine
 62
7
  6
CONTINUOUS
 10
256.0006227938
 20
145.505199185
 11
252.6006227938
 21
145.505199185
  0
LINE
  5
25F
100
AcDbEntity
  8
0
100
AcDbLine
 62
7
  6
CONTINUOUS
 10
181.510381784
 20
145.5299159485
 11
181.4213803826
 21
145.5299159485
  0
LINE
  5
260
100
AcDbEntity
  8
0
100
AcDbLine
 62
7
  6
CONTINUOUS
 10
167.3006227938
 20
145.605199185
 11
167.0006227938
 21
145.605199185
  0
LINE
  5
261
100
AcDbEntity
  8
0
100
AcDbLine
 62
7
  6
CONTINUOUS
 10
181.4057997801
 20
145.6662005582
 11
181.4808316613
 21
145.6662005582
  0
LINE
  5
262
100
AcDbEntity
  8
0
100
AcDbLine
 62
7
  6
CONTINUOUS
 10
60.8589358775
 20
146.5374858598
 11
91.5006227938
 21
146.5374858598
  0
LINE
  5
263
100
AcDbEntity
  8
0
100
AcDbLine
 62
7
  6
CONTINUOUS
 10
258.6352363155
 20
146.6744056389
 11
258.6808316714
 21
146.6744056389
  0
LINE
  5
264
100
AcDbEntity
  8
0
100
AcDbLine
 62
7
  6
CONTINUOUS
 10
91.5006227938
 20
146.6904975726
 11
135.1006227938
 21
146.6904975726
  0
LINE
  5
265
100
AcDbEntity
  8
0
100
AcDbLine
 62
7
  6
CONTINUOUS
 10
135.1006227938
 20
146.7198059772
 11
153.6006227938
 21
146.7198059772
  0
LINE
  5
266
100
AcDbEntity
  8
0
100
AcDbLine
 62
7
  6
CONTINUOUS
 10
258.7079115049
 20
146.8874290632
 11
258.6808316654
 21
146.8874290632
  0
LINE
  5
267
100
AcDbEntity
  8
0
100
AcDbLine
 62
7
  6
CONTINUOUS
 10
252.3006227938
 20
147.505199185
 11
251.8006227938
 21
147.505199185
  0
LINE
  5
268
100
AcDbEntity
  8
0
100
AcDbLine
 62
7
  6
CONTINUOUS
 10
251.5006227938
 20
147.505199185
 11
240.0006227938
 21
147.505199185
  0
LINE
  5
269
100
AcDbEntity
  8
0
100
AcDbLine
 62
7
  6
CONTINUOUS
 10
258.6076700687
 20
147.5871377801
 11
258.6808316714
 21
147.5871377801
  0
LINE
  5
26A
100
AcDbEntity
  8
0
100
AcDbLine
 62
7
  6
CONTINUOUS
 10
178.6006227938
 20
148.105199185
 11
180.6006227938
 21
148.105199185
  0
LINE
  5
26B
100
AcDbEntity
  8
0
100
AcDbLine
 62
7
  6
CONTINUOUS
 10
258.6391061206
 20
148.1091302056
 11
258.6808316638
 21
148.1091302056
  0
LINE
  5
26C
100
AcDbEntity
  8
0
100
AcDbLine
 62
7
  6
CONTINUOUS
 10
95.5506227938
 20
213.605199185
 11
95.5506227938
 21
238.905199185
  0
LINE
  5
26D
100
AcDbEntity
  8
0
100
AcDbLine
 62
7
  6
CONTINUOUS
 10
97.5006227938
 20
245.905199185
 11
97.5006227938
 21
242.405199185
  0
LINE
  5
26E
100
AcDbEntity
  8
0
100
AcDbLine
 62
7
  6
CONTINUOUS
 10
98.0006227938
 20
242.405199185
 11
98.0006227938
 21
239.405199185
  0
LINE
  5
26F
100
AcDbEntity
  8
0
100
AcDbLine
 62
7
  6
CONTINUOUS
 10
101.0006227938
 20
241.805199185
 11
101.0006227938
 21
242.405199185
  0
LINE
  5
270
100
AcDbEntity
  8
0
100
AcDbLine
 62
7
  6
CONTINUOUS
 10
101.5006227938
 20
239.405199185
 11
101.5006227938
 21
208.105199185
  0
LINE
  5
271
100
AcDbEntity
  8
0
100
AcDbLine
 62
7
  6
CONTINUOUS
 10
90.2506227938
 20
220.5184478391
 11
85.2506227938
 21
217.6316964931
  0
LINE
  5
272
100
AcDbEntity
  8
0
100
AcDbLine
 62
7
  6
CONTINUOUS
 10
153.6006227938
 20
148.6489329876
 11
135.1006227938
 21
148.6489329876
  0
LINE
  5
273
100
AcDbEntity
  8
0
100
AcDbLine
 62
7
  6
CONTINUOUS
 10
91.5006227938
 20
148.9276879197
 11
60.4920314466
 21
148.9276879197
  0
LINE
  5
274
100
AcDbEntity
  8
0
100
AcDbLine
 62
7
  6
CONTINUOUS
 10
258.6890566621
 20
149.161165621
 11
258.6400650207
 21
149.161165621
  0
LINE
  5
275
100
AcDbEntity
  8
0
100
AcDbLine
 62
7
  6
CONTINUOUS
 10
135.1006227938
 20
149.4001638231
 11
117.1006227938
 21
149.4001638231
  0
LINE
  5
276
100
AcDbEntity
  8
0
100
AcDbLine
 62
7
  6
CONTINUOUS
 10
117.1006227938
 20
149.4036999109
 11
91.5006227938
 21
149.4036999109
  0
LINE
  5
277
100
AcDbEntity
  8
0
100
AcDbLine
 62
7
  6
CONTINUOUS
 10
258.6006810599
 20
149.5470080196
 11
258.6808316615
 21
149.5470080196
  0
LINE
  5
278
100
AcDbEntity
  8
0
100
AcDbLine
 62
7
  6
CONTINUOUS
 10
182.6006227938
 20
149.589440717
 11
178.6006227938
 21
149.589440717
  0
LINE
  5
279
100
AcDbEntity
  8
0
100
AcDbLine
 62
7
  6
CONTINUOUS
 10
258.7079115049
 20
149.6168726525
 11
258.5953328435
 21
149.6168726525
  0
LINE
  5
27A
100
AcDbEntity
  8
0
100
AcDbLine
 62
7
  6
CONTINUOUS
 10
178.6006227938
 20
149.6595025722
 11
182.6006227938
 21
149.6595025722
  0
LINE
  5
27B
100
AcDbEntity
  8
0
100
AcDbLine
 62
7
  6
CONTINUOUS
 10
258.6024192699
 20
149.6900286387
 11
258.6808316695
 21
149.6900286387
  0
LINE
  5
27C
100
AcDbEntity
  8
0
100
AcDbLine
 62
7
  6
CONTINUOUS
 10
34.6127820189
 20
150.205199185
 11
60.3048648808
 21
150.205199185
  0
LINE
  5
27D
100
AcDbEntity
  8
0
100
AcDbLine
 62
7
  6
CONTINUOUS
 10
60.2825733573
 20
150.3594720785
 11
91.5006227938
 21
150.3594720785
  0
LINE
  5
27E
100
AcDbEntity
  8
0
100
AcDbLine
 62
7
  6
CONTINUOUS
 10
135.1006227938
 20
150.7079032096
 11
153.6006227938
 21
150.7079032096
  0
LINE
  5
27F
100
AcDbEntity
  8
0
100
AcDbLine
 62
7
  6
CONTINUOUS
 10
91.5006227938
 20
150.8354840697
 11
117.1006227938
 21
150.8354840697
  0
LINE
  5
280
100
AcDbEntity
  8
0
100
AcDbLine
 62
7
  6
CONTINUOUS
 10
117.1006227938
 20
150.859525313
 11
135.1006227938
 21
150.859525313
  0
LINE
  5
281
100
AcDbEntity
  8
0
100
AcDbLine
 62
7
  6
CONTINUOUS
 10
182.6006227938
 20
151.659199185
 11
178.6006227938
 21
151.659199185
  0
LINE
  5
282
100
AcDbEntity
  8
0
100
AcDbLine
 62
7
  6
CONTINUOUS
 10
257.8006227938
 20
152.2521508578
 11
256.3006227938
 21
152.2521508578
  0
LINE
  5
283
100
AcDbEntity
  8
0
100
AcDbLine
 62
7
  6
CONTINUOUS
 10
59.9220833624
 20
153.205199185
 11
34.1927184253
 21
153.205199185
  0
LINE
  5
284
100
AcDbEntity
  8
0
100
AcDbLine
 62
7
  6
CONTINUOUS
 10
117.1006227938
 20
155.405199185
 11
85.5006227938
 21
155.405199185
  0
LINE
  5
285
100
AcDbEntity
  8
0
100
AcDbLine
 62
7
  6
CONTINUOUS
 10
135.1006227938
 20
155.8629205576
 11
117.1006227938
 21
155.8629205576
  0
LINE
  5
286
100
AcDbEntity
  8
0
100
AcDbLine
 62
7
  6
CONTINUOUS
 10
135.1006227938
 20
139.1819438001
 11
135.4003372603
 21
138.8688579839
  0
LINE
  5
287
100
AcDbEntity
  8
0
100
AcDbLine
 62
7
  6
CONTINUOUS
 10
104.0006227938
 20
241.005199185
 11
104.0006227938
 21
239.405199185
  0
LINE
  5
288
100
AcDbEntity
  8
0
100
AcDbLine
 62
7
  6
CONTINUOUS
 10
104.5006227938
 20
208.005199185
 11
104.5006227938
 21
193.0151297679
  0
LINE
  5
289
100
AcDbEntity
  8
0
100
AcDbLine
 62
7
  6
CONTINUOUS
 10
104.5006227938
 20
208.105199185
 11
104.5006227938
 21
242.405199185
  0
LINE
  5
28A
100
AcDbEntity
  8
0
100
AcDbLine
 62
7
  6
CONTINUOUS
 10
106.5006227938
 20
238.905199185
 11
106.5006227938
 21
208.805199185
  0
LINE
  5
28B
100
AcDbEntity
  8
0
100
AcDbLine
 62
7
  6
CONTINUOUS
 10
108.0006227938
 20
227.4051917384
 11
108.0006227938
 21
219.4052066317
  0
LINE
  5
28C
100
AcDbEntity
  8
0
100
AcDbLine
 62
7
  6
CONTINUOUS
 10
110.0006227938
 20
228.1551900509
 11
110.0006227938
 21
218.6552083192
  0
LINE
  5
28D
100
AcDbEntity
  8
0
100
AcDbLine
 62
7
  6
CONTINUOUS
 10
240.0006227938
 20
158.505199185
 11
217.6143743085
 21
158.505199185
  0
LINE
  5
28E
100
AcDbEntity
  8
0
100
AcDbLine
 62
7
  6
CONTINUOUS
 10
204.9868712792
 20
158.505199185
 11
182.6006227938
 21
158.505199185
  0
LINE
  5
28F
100
AcDbEntity
  8
0
100
AcDbLine
 62
7
  6
CONTINUOUS
 10
167.0006227938
 20
161.9579773712
 11
167.3006227938
 21
161.9579773712
  0
LINE
  5
290
100
AcDbEntity
  8
0
100
AcDbLine
 62
7
  6
CONTINUOUS
 10
153.6006227938
 20
162.0307834166
 11
167.0006227938
 21
162.0307834166
  0
LINE
  5
291
100
AcDbEntity
  8
0
100
AcDbLine
 62
7
  6
CONTINUOUS
 10
167.3006227938
 20
162.0307834166
 11
182.6006227938
 21
162.0307834166
  0
LINE
  5
292
100
AcDbEntity
  8
0
100
AcDbLine
 62
7
  6
CONTINUOUS
 10
257.8006227938
 20
164.7582475122
 11
256.3006227938
 21
164.7582475122
  0
LINE
  5
293
100
AcDbEntity
  8
0
100
AcDbLine
 62
7
  6
CONTINUOUS
 10
117.1006227938
 20
203.905199185
 11
117.1006227938
 21
193.4132068529
  0
LINE
  5
294
100
AcDbEntity
  8
0
100
AcDbLine
 62
7
  6
CONTINUOUS
 10
117.1006227938
 20
149.3971915171
 11
117.1006227938
 21
138.905199185
  0
LINE
  5
295
100
AcDbEntity
  8
0
100
AcDbLine
 62
7
  6
CONTINUOUS
 10
117.1006227938
 20
149.4001638231
 11
117.1006227938
 21
193.410234547
  0
LINE
  5
296
100
AcDbEntity
  8
0
100
AcDbLine
 62
7
  6
CONTINUOUS
 10
146.6746227938
 20
166.130199185
 11
149.7746227938
 21
166.130199185
  0
LINE
  5
297
100
AcDbEntity
  8
0
100
AcDbLine
 62
7
  6
CONTINUOUS
 10
258.6352363155
 20
167.1805022933
 11
258.6808316714
 21
167.1805022933
  0
LINE
  5
298
100
AcDbEntity
  8
0
100
AcDbLine
 62
7
  6
CONTINUOUS
 10
258.7079115049
 20
167.3935257176
 11
258.6808316654
 21
167.3935257176
  0
LINE
  5
299
100
AcDbEntity
  8
0
100
AcDbLine
 62
7
  6
CONTINUOUS
 10
258.6076700687
 20
168.0932344346
 11
258.6808316714
 21
168.0932344346
  0
LINE
  5
29A
100
AcDbEntity
  8
0
100
AcDbLine
 62
7
  6
CONTINUOUS
 10
258.6391061206
 20
168.6152268601
 11
258.6808316638
 21
168.6152268601
  0
LINE
  5
29B
100
AcDbEntity
  8
0
100
AcDbLine
 62
7
  6
CONTINUOUS
 10
250.8006227938
 20
169.505199185
 11
251.5006227938
 21
169.505199185
  0
LINE
  5
29C
100
AcDbEntity
  8
0
100
AcDbLine
 62
7
  6
CONTINUOUS
 10
251.8006227938
 20
169.505199185
 11
252.3006227938
 21
169.505199185
  0
LINE
  5
29D
100
AcDbEntity
  8
0
100
AcDbLine
 62
7
  6
CONTINUOUS
 10
258.6890566621
 20
169.6672622754
 11
258.6400650207
 21
169.6672622754
  0
LINE
  5
29E
100
AcDbEntity
  8
0
100
AcDbLine
 62
7
  6
CONTINUOUS
 10
258.6006810599
 20
170.053104674
 11
258.6808316615
 21
170.053104674
  0
LINE
  5
29F
100
AcDbEntity
  8
0
100
AcDbLine
 62
7
  6
CONTINUOUS
 10
258.7079115049
 20
170.1229693069
 11
258.5953328435
 21
170.1229693069
  0
LINE
  5
2A0
100
AcDbEntity
  8
0
100
AcDbLine
 62
7
  6
CONTINUOUS
 10
258.6024192699
 20
170.1961252931
 11
258.6808316695
 21
170.1961252931
  0
LINE
  5
2A1
100
AcDbEntity
  8
0
100
AcDbLine
 62
7
  6
CONTINUOUS
 10
180.4816575154
 20
171.405199185
 11
153.6006227938
 21
171.405199185
  0
LINE
  5
2A2
100
AcDbEntity
  8
0
100
AcDbLine
 62
7
  6
CONTINUOUS
 10
252.6006227938
 20
171.505199185
 11
256.0006227938
 21
171.505199185
  0
LINE
  5
2A3
100
AcDbEntity
  8
0
100
AcDbLine
 62
7
  6
CONTINUOUS
 10
257.8006227938
 20
172.7582475122
 11
256.3006227938
 21
172.7582475122
  0
LINE
  5
2A4
100
AcDbEntity
  8
0
100
AcDbLine
 62
7
  6
CONTINUOUS
 10
256.0006227938
 20
173.505199185
 11
252.6006227938
 21
173.505199185
  0
LINE
  5
2A5
100
AcDbEntity
  8
0
100
AcDbLine
 62
7
  6
CONTINUOUS
 10
251.5006227938
 20
173.505199185
 11
250.8006227938
 21
173.505199185
  0
LINE
  5
2A6
100
AcDbEntity
  8
0
100
AcDbLine
 62
7
  6
CONTINUOUS
 10
53.2506227938
 20
220.5184478391
 11
58.2506227938
 21
217.6316964931
  0
LINE
  5
2A7
100
AcDbEntity
  8
0
100
AcDbLine
 62
7
  6
CONTINUOUS
 10
149.7746227938
 20
176.680199185
 11
146.6746227938
 21
176.680199185
  0
LINE
  5
2A8
100
AcDbEntity
  8
0
100
AcDbLine
 62
7
  6
CONTINUOUS
 10
153.6006227938
 20
180.9766761827
 11
167.0006227938
 21
180.9766761827
  0
LINE
  5
2A9
100
AcDbEntity
  8
0
100
AcDbLine
 62
7
  6
CONTINUOUS
 10
167.3006227938
 20
180.9766761827
 11
176.6254273634
 21
180.9766761827
  0
LINE
  5
2AA
100
AcDbEntity
  8
0
100
AcDbLine
 62
7
  6
CONTINUOUS
 10
167.0006227938
 20
181.2070286574
 11
167.3006227938
 21
181.2070286574
  0
LINE
  5
2AB
100
AcDbEntity
  8
0
100
AcDbLine
 62
7
  6
CONTINUOUS
 10
176.2611678286
 20
182.6405853749
 11
171.6006227938
 21
182.6405853749
  0
LINE
  5
2AC
100
AcDbEntity
  8
0
100
AcDbLine
 62
7
  6
CONTINUOUS
 10
71.7506227938
 20
217.6316964931
 11
66.7506227938
 21
220.5184478391
  0
LINE
  5
2AD
100
AcDbEntity
  8
0
100
AcDbLine
 62
7
  6
CONTINUOUS
 10
63.2506227938
 20
226.291950531
 11
58.2506227938
 21
229.1787018769
  0
LINE
  5
2AE
100
AcDbEntity
  8
0
100
AcDbLine
 62
7
  6
CONTINUOUS
 10
135.1006227938
 20
138.9056652764
 11
135.1006227938
 21
203.9047319715
  0
LINE
  5
2AF
100
AcDbEntity
  8
0
100
AcDbLine
 62
7
  6
CONTINUOUS
 10
135.4003372603
 20
189.6243218981
 11
135.4003372603
 21
153.1860764719
  0
LINE
  5
2B0
100
AcDbEntity
  8
0
100
AcDbLine
 62
7
  6
CONTINUOUS
 10
135.4003372603
 20
203.9415403861
 11
135.1006227938
 21
203.6284545699
  0
LINE
  5
2B1
100
AcDbEntity
  8
0
100
AcDbLine
 62
7
  6
CONTINUOUS
 10
171.6006227938
 20
184.5733321911
 11
175.9400466915
 21
184.5733321911
  0
LINE
  5
2B2
100
AcDbEntity
  8
0
100
AcDbLine
 62
7
  6
CONTINUOUS
 10
153.6006227938
 20
185.1049323471
 11
167.0006227938
 21
185.1049323471
  0
LINE
  5
2B3
100
AcDbEntity
  8
0
100
AcDbLine
 62
7
  6
CONTINUOUS
 10
167.3006227938
 20
185.1049323471
 11
171.6006227938
 21
185.1049323471
  0
LINE
  5
2B4
100
AcDbEntity
  8
0
100
AcDbLine
 62
7
  6
CONTINUOUS
 10
167.3006227938
 20
185.3492621871
 11
167.0006227938
 21
185.3492621871
  0
LINE
  5
2B5
100
AcDbEntity
  8
0
100
AcDbLine
 62
7
  6
CONTINUOUS
 10
173.6006227938
 20
185.405199185
 11
171.6006227938
 21
185.405199185
  0
LINE
  5
2B6
100
AcDbEntity
  8
0
100
AcDbLine
 62
7
  6
CONTINUOUS
 10
85.5006227938
 20
187.405199185
 11
117.1006227938
 21
187.405199185
  0
LINE
  5
2B7
100
AcDbEntity
  8
0
100
AcDbLine
 62
7
  6
CONTINUOUS
 10
117.1006227938
 20
187.8229205576
 11
135.1006227938
 21
187.8229205576
  0
LINE
  5
2B8
100
AcDbEntity
  8
0
100
AcDbLine
 62
7
  6
CONTINUOUS
 10
174.4062075125
 20
187.8441978654
 11
174.480831673
 21
187.8441978654
  0
LINE
  5
2B9
100
AcDbEntity
  8
0
100
AcDbLine
 62
7
  6
CONTINUOUS
 10
174.510381784
 20
187.9804824215
 11
174.4215150395
 21
187.9804824215
  0
LINE
  5
2BA
100
AcDbEntity
  8
0
100
AcDbLine
 62
7
  6
CONTINUOUS
 10
174.510381784
 20
190.8299159485
 11
174.4213803825
 21
190.8299159485
  0
LINE
  5
2BB
100
AcDbEntity
  8
0
100
AcDbLine
 62
7
  6
CONTINUOUS
 10
174.4057997794
 20
190.9662005647
 11
174.4808316599
 21
190.9662005647
  0
LINE
  5
2BC
100
AcDbEntity
  8
0
100
AcDbLine
 62
7
  6
CONTINUOUS
 10
85.2506227938
 20
217.6316964931
 11
80.2506227938
 21
220.5184478391
  0
LINE
  5
2BD
100
AcDbEntity
  8
0
100
AcDbLine
 62
7
  6
CONTINUOUS
 10
71.7506227938
 20
229.1787018769
 11
76.7506227938
 21
226.291950531
  0
LINE
  5
2BE
100
AcDbEntity
  8
0
100
AcDbLine
 62
7
  6
CONTINUOUS
 10
145.4746227938
 20
175.480199185
 11
145.4746227938
 21
167.330199185
  0
LINE
  5
2BF
100
AcDbEntity
  8
0
100
AcDbLine
 62
7
  6
CONTINUOUS
 10
135.1006227938
 20
191.9508730571
 11
117.1006227938
 21
191.9508730571
  0
LINE
  5
2C0
100
AcDbEntity
  8
0
100
AcDbLine
 62
7
  6
CONTINUOUS
 10
117.1006227938
 20
191.9749143003
 11
91.5006227938
 21
191.9749143003
  0
LINE
  5
2C1
100
AcDbEntity
  8
0
100
AcDbLine
 62
7
  6
CONTINUOUS
 10
153.6006227938
 20
192.1024951605
 11
135.1006227938
 21
192.1024951605
  0
LINE
  5
2C2
100
AcDbEntity
  8
0
100
AcDbLine
 62
7
  6
CONTINUOUS
 10
91.5006227938
 20
192.4509262915
 11
57.5805462905
 21
192.4509262915
  0
LINE
  5
2C3
100
AcDbEntity
  8
0
100
AcDbLine
 62
7
  6
CONTINUOUS
 10
57.8686193467
 20
192.6829852598
 11
85.5006227938
 21
192.6829852598
  0
LINE
  5
2C4
100
AcDbEntity
  8
0
100
AcDbLine
 62
7
  6
CONTINUOUS
 10
85.5006227938
 20
192.7151297679
 11
91.5006227938
 21
192.7151297679
  0
LINE
  5
2C5
100
AcDbEntity
  8
0
100
AcDbLine
 62
7
  6
CONTINUOUS
 10
104.5006227938
 20
193.0151297679
 11
91.5006227938
 21
193.0151297679
  0
LINE
  5
2C6
100
AcDbEntity
  8
0
100
AcDbLine
 62
7
  6
CONTINUOUS
 10
171.6006227938
 20
193.405199185
 11
173.6006227938
 21
193.405199185
  0
LINE
  5
2C7
100
AcDbEntity
  8
0
100
AcDbLine
 62
7
  6
CONTINUOUS
 10
104.5006227938
 20
193.4066984591
 11
117.1006227938
 21
193.4066984591
  0
LINE
  5
2C8
100
AcDbEntity
  8
0
100
AcDbLine
 62
7
  6
CONTINUOUS
 10
117.1006227938
 20
193.410234547
 11
135.1006227938
 21
193.410234547
  0
LINE
  5
2C9
100
AcDbEntity
  8
0
100
AcDbLine
 62
7
  6
CONTINUOUS
 10
171.6006227938
 20
193.5099335053
 11
175.6006227938
 21
193.5099335053
  0
LINE
  5
2CA
100
AcDbEntity
  8
0
100
AcDbLine
 62
7
  6
CONTINUOUS
 10
167.3006227938
 20
194.0661203988
 11
167.0006227938
 21
194.0661203988
  0
LINE
  5
2CB
100
AcDbEntity
  8
0
100
AcDbLine
 62
7
  6
CONTINUOUS
 10
135.1006227938
 20
194.1614653825
 11
153.6006227938
 21
194.1614653825
  0
LINE
  5
2CC
100
AcDbEntity
  8
0
100
AcDbLine
 62
7
  6
CONTINUOUS
 10
153.6006227938
 20
194.3420529803
 11
167.0006227938
 21
194.3420529803
  0
LINE
  5
2CD
100
AcDbEntity
  8
0
100
AcDbLine
 62
7
  6
CONTINUOUS
 10
167.3006227938
 20
194.3420529803
 11
171.6006227938
 21
194.3420529803
  0
LINE
  5
2CE
100
AcDbEntity
  8
0
100
AcDbLine
 62
7
  6
CONTINUOUS
 10
153.6006227938
 20
196.0905923928
 11
135.1006227938
 21
196.0905923928
  0
LINE
  5
2CF
100
AcDbEntity
  8
0
100
AcDbLine
 62
7
  6
CONTINUOUS
 10
135.1006227938
 20
196.1199007975
 11
104.5006227938
 21
196.1199007975
  0
LINE
  5
2D0
100
AcDbEntity
  8
0
100
AcDbLine
 62
7
  6
CONTINUOUS
 10
171.6006227938
 20
196.3075935247
 11
175.6006227938
 21
196.3075935247
  0
LINE
  5
2D1
100
AcDbEntity
  8
0
100
AcDbLine
 62
7
  6
CONTINUOUS
 10
213.3006227938
 20
196.905199185
 11
209.3006227938
 21
196.905199185
  0
LINE
  5
2D2
100
AcDbEntity
  8
0
100
AcDbLine
 62
7
  6
CONTINUOUS
 10
167.3006227938
 20
198.2650727484
 11
167.0006227938
 21
198.2650727484
  0
LINE
  5
2D3
100
AcDbEntity
  8
0
100
AcDbLine
 62
7
  6
CONTINUOUS
 10
153.6006227938
 20
198.5533360284
 11
167.0006227938
 21
198.5533360284
  0
LINE
  5
2D4
100
AcDbEntity
  8
0
100
AcDbLine
 62
7
  6
CONTINUOUS
 10
167.3006227938
 20
198.5533360284
 11
175.6006227938
 21
198.5533360284
  0
LINE
  5
2D5
100
AcDbEntity
  8
0
100
AcDbLine
 62
7
  6
CONTINUOUS
 10
85.2506227938
 20
229.1787018769
 11
90.2506227938
 21
226.291950531
  0
LINE
  5
2D6
100
AcDbEntity
  8
0
100
AcDbLine
 62
7
  6
CONTINUOUS
 10
150.6006227938
 20
155.805199185
 11
150.6006227938
 21
166.4597257506
  0
LINE
  5
2D7
100
AcDbEntity
  8
0
100
AcDbLine
 62
7
  6
CONTINUOUS
 10
150.6006227938
 20
176.3506726194
 11
150.6006227938
 21
187.005199185
  0
LINE
  5
2D8
100
AcDbEntity
  8
0
100
AcDbLine
 62
7
  6
CONTINUOUS
 10
150.9746227938
 20
167.330199185
 11
150.9746227938
 21
175.480199185
  0
LINE
  5
2D9
100
AcDbEntity
  8
0
100
AcDbLine
 62
7
  6
CONTINUOUS
 10
153.6006227938
 20
204.5528339902
 11
153.6006227938
 21
138.2575643798
  0
LINE
  5
2DA
100
AcDbEntity
  8
0
100
AcDbLine
 62
7
  6
CONTINUOUS
 10
135.4003372603
 20
203.9415403861
 11
150.6006227938
 21
204.605199185
  0
LINE
  5
2DB
100
AcDbEntity
  8
0
100
AcDbLine
 62
7
  6
CONTINUOUS
 10
104.5006227938
 20
200.574111628
 11
135.1006227938
 21
200.574111628
  0
LINE
  5
2DC
100
AcDbEntity
  8
0
100
AcDbLine
 62
7
  6
CONTINUOUS
 10
135.1006227938
 20
201.1710098585
 11
153.6006227938
 21
201.1710098585
  0
LINE
  5
2DD
100
AcDbEntity
  8
0
100
AcDbLine
 62
7
  6
CONTINUOUS
 10
135.1006227938
 20
203.885199185
 11
117.1006227938
 21
203.885199185
  0
LINE
  5
2DE
100
AcDbEntity
  8
0
100
AcDbLine
 62
7
  6
CONTINUOUS
 10
135.1006227938
 20
203.905199185
 11
104.5006227938
 21
203.905199185
  0
LINE
  5
2DF
100
AcDbEntity
  8
0
100
AcDbLine
 62
7
  6
CONTINUOUS
 10
167.3006227938
 20
204.005199185
 11
167.0006227938
 21
204.005199185
  0
LINE
  5
2E0
100
AcDbEntity
  8
0
100
AcDbLine
 62
7
  6
CONTINUOUS
 10
183.3693261902
 20
204.305199185
 11
182.1963326504
 21
204.305199185
  0
LINE
  5
2E1
100
AcDbEntity
  8
0
100
AcDbLine
 62
7
  6
CONTINUOUS
 10
172.6048270614
 20
204.305199185
 11
167.3006227938
 21
204.305199185
  0
LINE
  5
2E2
100
AcDbEntity
  8
0
100
AcDbLine
 62
7
  6
CONTINUOUS
 10
104.5006227938
 20
208.005199185
 11
85.5006227938
 21
208.005199185
  0
LINE
  5
2E3
100
AcDbEntity
  8
0
100
AcDbLine
 62
7
  6
CONTINUOUS
 10
104.5006227938
 20
208.105199185
 11
85.5006227938
 21
208.105199185
  0
LINE
  5
2E4
100
AcDbEntity
  8
0
100
AcDbLine
 62
7
  6
CONTINUOUS
 10
150.6006227938
 20
204.605199185
 11
167.0006227938
 21
204.3189361202
  0
LINE
  5
2E5
100
AcDbEntity
  8
0
100
AcDbLine
 62
7
  6
CONTINUOUS
 10
52.7506227938
 20
208.805199185
 11
90.7506227938
 21
208.805199185
  0
LINE
  5
2E6
100
AcDbEntity
  8
0
100
AcDbLine
 62
7
  6
CONTINUOUS
 10
104.5006227938
 20
208.805199185
 11
106.5006227938
 21
208.805199185
  0
LINE
  5
2E7
100
AcDbEntity
  8
0
100
AcDbLine
 62
7
  6
CONTINUOUS
 10
106.5006227938
 20
213.605199185
 11
104.5006227938
 21
213.605199185
  0
LINE
  5
2E8
100
AcDbEntity
  8
0
100
AcDbLine
 62
7
  6
CONTINUOUS
 10
58.2506227938
 20
216.405199185
 11
85.2506227938
 21
216.405199185
  0
LINE
  5
2E9
100
AcDbEntity
  8
0
100
AcDbLine
 62
7
  6
CONTINUOUS
 10
167.0006227938
 20
138.4914622498
 11
167.0006227938
 21
204.3189361202
  0
LINE
  5
2EA
100
AcDbEntity
  8
0
100
AcDbLine
 62
7
  6
CONTINUOUS
 10
167.3006227938
 20
138.505199185
 11
167.3006227938
 21
204.305199185
  0
LINE
  5
2EB
100
AcDbEntity
  8
0
100
AcDbLine
 62
7
  6
CONTINUOUS
 10
169.5006227938
 20
138.505199185
 11
169.5006227938
 21
138.255199185
  0
LINE
  5
2EC
100
AcDbEntity
  8
0
100
AcDbLine
 62
7
  6
CONTINUOUS
 10
170.8006227938
 20
138.255199185
 11
170.8006227938
 21
138.505199185
  0
LINE
  5
2ED
100
AcDbEntity
  8
0
100
AcDbLine
 62
7
  6
CONTINUOUS
 10
171.6006227938
 20
196.3075934903
 11
171.6006227938
 21
182.6405853749
  0
LINE
  5
2EE
100
AcDbEntity
  8
0
100
AcDbLine
 62
7
  6
CONTINUOUS
 10
110.0006227938
 20
218.655199185
 11
106.5006227938
 21
218.0380547525
  0
LINE
  5
2EF
100
AcDbEntity
  8
0
100
AcDbLine
 62
7
  6
CONTINUOUS
 10
108.0006227938
 20
219.405199185
 11
106.5006227938
 21
219.405199185
  0
LINE
  5
2F0
100
AcDbEntity
  8
0
100
AcDbLine
 62
7
  6
CONTINUOUS
 10
110.0006227938
 20
219.905199185
 11
108.0006227938
 21
219.905199185
  0
LINE
  5
2F1
100
AcDbEntity
  8
0
100
AcDbLine
 62
7
  6
CONTINUOUS
 10
110.0006227938
 20
228.155199185
 11
106.5006227938
 21
228.7723436175
  0
LINE
  5
2F2
100
AcDbEntity
  8
0
100
AcDbLine
 62
7
  6
CONTINUOUS
 10
181.5103813097
 20
145.529916025
 11
181.4808316613
 21
145.6662005582
  0
LINE
  5
2F3
100
AcDbEntity
  8
0
100
AcDbLine
 62
7
  6
CONTINUOUS
 10
173.6006227938
 20
193.405199185
 11
173.6006227938
 21
185.405199185
  0
LINE
  5
2F4
100
AcDbEntity
  8
0
100
AcDbLine
 62
7
  6
CONTINUOUS
 10
175.6006227938
 20
199.140360478
 11
175.6006227938
 21
189.505199185
  0
LINE
  5
2F5
100
AcDbEntity
  8
0
100
AcDbLine
 62
7
  6
CONTINUOUS
 10
178.6006227938
 20
151.659199185
 11
178.6006227938
 21
138.505199185
  0
LINE
  5
2F6
100
AcDbEntity
  8
0
100
AcDbLine
 62
7
  6
CONTINUOUS
 10
178.8006227938
 20
138.505199185
 11
178.8006227938
 21
138.255199185
  0
LINE
  5
2F7
100
AcDbEntity
  8
0
100
AcDbLine
 62
7
  6
CONTINUOUS
 10
180.1006227938
 20
138.255199185
 11
180.1006227938
 21
138.505199185
  0
LINE
  5
2F8
100
AcDbEntity
  8
0
100
AcDbLine
 62
7
  6
CONTINUOUS
 10
174.480831673
 20
187.8441978654
 11
174.5103812779
 21
187.9804824215
  0
LINE
  5
2F9
100
AcDbEntity
  8
0
100
AcDbLine
 62
7
  6
CONTINUOUS
 10
110.0006227938
 20
226.905199185
 11
108.0006227938
 21
226.905199185
  0
LINE
  5
2FA
100
AcDbEntity
  8
0
100
AcDbLine
 62
7
  6
CONTINUOUS
 10
108.0006227938
 20
227.405199185
 11
106.5006227938
 21
227.405199185
  0
LINE
  5
2FB
100
AcDbEntity
  8
0
100
AcDbLine
 62
7
  6
CONTINUOUS
 10
85.2506227938
 20
230.405199185
 11
58.2506227938
 21
230.405199185
  0
LINE
  5
2FC
100
AcDbEntity
  8
0
100
AcDbLine
 62
7
  6
CONTINUOUS
 10
174.5103813097
 20
190.829916025
 11
174.4808316599
 21
190.9662005647
  0
LINE
  5
2FD
100
AcDbEntity
  8
0
100
AcDbLine
 62
7
  6
CONTINUOUS
 10
180.6006227938
 20
148.105199185
 11
180.6006227938
 21
140.105199185
  0
LINE
  5
2FE
100
AcDbEntity
  8
0
100
AcDbLine
 62
7
  6
CONTINUOUS
 10
182.6006227938
 20
139.105199185
 11
182.6006227938
 21
166.2888256525
  0
LINE
  5
2FF
100
AcDbEntity
  8
0
100
AcDbLine
 62
7
  6
CONTINUOUS
 10
104.5006227938
 20
236.405199185
 11
95.5506227938
 21
236.405199185
  0
LINE
  5
300
100
AcDbEntity
  8
0
100
AcDbLine
 62
7
  6
CONTINUOUS
 10
34.6127820189
 20
236.405199185
 11
47.9506227938
 21
236.405199185
  0
LINE
  5
301
100
AcDbEntity
  8
0
100
AcDbLine
 62
7
  6
CONTINUOUS
 10
106.5006227938
 20
238.905199185
 11
104.5006227938
 21
238.905199185
  0
LINE
  5
302
100
AcDbEntity
  8
0
100
AcDbLine
 62
7
  6
CONTINUOUS
 10
95.5506227938
 20
238.905199185
 11
47.9506227938
 21
238.905199185
  0
LINE
  5
303
100
AcDbEntity
  8
0
100
AcDbLine
 62
7
  6
CONTINUOUS
 10
39.0006227938
 20
239.405199185
 11
45.0006227938
 21
239.405199185
  0
LINE
  5
304
100
AcDbEntity
  8
0
100
AcDbLine
 62
7
  6
CONTINUOUS
 10
98.0006227938
 20
239.405199185
 11
104.5006227938
 21
239.405199185
  0
LINE
  5
305
100
AcDbEntity
  8
0
100
AcDbLine
 62
7
  6
CONTINUOUS
 10
39.0006227938
 20
241.005199185
 11
45.0006227938
 21
241.005199185
  0
LINE
  5
306
100
AcDbEntity
  8
0
100
AcDbLine
 62
7
  6
CONTINUOUS
 10
98.0006227938
 20
241.005199185
 11
104.0006227938
 21
241.005199185
  0
LINE
  5
307
100
AcDbEntity
  8
0
100
AcDbLine
 62
7
  6
CONTINUOUS
 10
101.0069641102
 20
241.8052028898
 11
100.9942814775
 21
241.8052028898
  0
LINE
  5
308
100
AcDbEntity
  8
0
100
AcDbLine
 62
7
  6
CONTINUOUS
 10
42.0069641102
 20
241.8052028898
 11
41.9942814775
 21
241.8052028898
  0
LINE
  5
309
100
AcDbEntity
  8
0
100
AcDbLine
 62
7
  6
CONTINUOUS
 10
36.2509294358
 20
242.405199185
 11
104.5006227938
 21
242.405199185
  0
LINE
  5
30A
100
AcDbEntity
  8
0
100
AcDbLine
 62
7
  6
CONTINUOUS
 10
252.3006227938
 20
143.805199185
 11
252.6006227938
 21
143.505199185
  0
LINE
  5
30B
100
AcDbEntity
  8
0
100
AcDbLine
 62
7
  6
CONTINUOUS
 10
256.3006227938
 20
145.205199185
 11
256.0006227938
 21
145.505199185
  0
LINE
  5
30C
100
AcDbEntity
  8
0
100
AcDbLine
 62
7
  6
CONTINUOUS
 10
181.4808316695
 20
142.5441978495
 11
181.5103812779
 21
142.6804824215
  0
LINE
  5
30D
100
AcDbEntity
  8
0
100
AcDbLine
 62
7
  6
CONTINUOUS
 10
71.0006227938
 20
244.905199185
 11
93.0006227938
 21
244.905199185
  0
LINE
  5
30E
100
AcDbEntity
  8
0
100
AcDbLine
 62
7
  6
CONTINUOUS
 10
44.5006227938
 20
245.405199185
 11
64.5006227938
 21
245.405199185
  0
LINE
  5
30F
100
AcDbEntity
  8
0
100
AcDbLine
 62
7
  6
CONTINUOUS
 10
90.5006227938
 20
245.905199185
 11
97.5006227938
 21
245.905199185
  0
LINE
  5
310
100
AcDbEntity
  8
0
100
AcDbLine
 62
7
  6
CONTINUOUS
 10
79.0006227938
 20
246.505199185
 11
85.0006227938
 21
246.505199185
  0
LINE
  5
311
100
AcDbEntity
  8
0
100
AcDbLine
 62
7
  6
CONTINUOUS
 10
93.5065675521
 20
247.0052016896
 11
93.4946780356
 21
247.0052016896
  0
LINE
  5
312
100
AcDbEntity
  8
0
100
AcDbLine
 62
7
  6
CONTINUOUS
 10
93.0006227938
 20
247.905199185
 11
92.5006227938
 21
247.905199185
  0
LINE
  5
313
100
AcDbEntity
  8
0
100
AcDbLine
 62
7
  6
CONTINUOUS
 10
71.5006227938
 20
247.905199185
 11
71.0006227938
 21
247.905199185
  0
LINE
  5
314
100
AcDbEntity
  8
0
100
AcDbLine
 62
7
  6
CONTINUOUS
 10
92.5006227938
 20
248.405199185
 11
90.5006227938
 21
248.405199185
  0
LINE
  5
315
100
AcDbEntity
  8
0
100
AcDbLine
 62
7
  6
CONTINUOUS
 10
73.5006227938
 20
248.405199185
 11
71.5006227938
 21
248.405199185
  0
LINE
  5
316
100
AcDbEntity
  8
0
100
AcDbLine
 62
7
  6
CONTINUOUS
 10
47.0006227938
 20
248.405199185
 11
62.0006227938
 21
248.405199185
  0
LINE
  5
317
100
AcDbEntity
  8
0
100
AcDbLine
 62
7
  6
CONTINUOUS
 10
71.5006227938
 20
251.405199185
 11
73.5006227938
 21
251.405199185
  0
LINE
  5
318
100
AcDbEntity
  8
0
100
AcDbLine
 62
7
  6
CONTINUOUS
 10
90.5006227938
 20
251.405199185
 11
92.5006227938
 21
251.405199185
  0
LINE
  5
319
100
AcDbEntity
  8
0
100
AcDbLine
 62
7
  6
CONTINUOUS
 10
71.0006227938
 20
251.905199185
 11
71.5006227938
 21
251.905199185
  0
LINE
  5
31A
100
AcDbEntity
  8
0
100
AcDbLine
 62
7
  6
CONTINUOUS
 10
92.5006227938
 20
251.905199185
 11
93.0006227938
 21
251.905199185
  0
LINE
  5
31B
100
AcDbEntity
  8
0
100
AcDbLine
 62
7
  6
CONTINUOUS
 10
47.7506227938
 20
254.405199185
 11
48.5006227938
 21
254.405199185
  0
LINE
  5
31C
100
AcDbEntity
  8
0
100
AcDbLine
 62
7
  6
CONTINUOUS
 10
60.5006227938
 20
254.405199185
 11
61.2506227938
 21
254.405199185
  0
LINE
  5
31D
100
AcDbEntity
  8
0
100
AcDbLine
 62
7
  6
CONTINUOUS
 10
73.5006227938
 20
254.905199185
 11
90.5006227938
 21
254.905199185
  0
LINE
  5
31E
100
AcDbEntity
  8
0
100
AcDbLine
 62
7
  6
CONTINUOUS
 10
48.5006227938
 20
258.405199185
 11
60.5006227938
 21
258.405199185
  0
LINE
  5
31F
100
AcDbEntity
  8
0
100
AcDbLine
 62
7
  6
CONTINUOUS
 10
49.2506227938
 20
259.405199185
 11
59.7506227938
 21
259.405199185
  0
LINE
  5
320
100
AcDbEntity
  8
0
100
AcDbLine
 62
7
  6
CONTINUOUS
 10
252.3006227938
 20
171.805199185
 11
252.6006227938
 21
171.505199185
  0
LINE
  5
321
100
AcDbEntity
  8
0
100
AcDbLine
 62
7
  6
CONTINUOUS
 10
251.8006227938
 20
173.205199185
 11
251.5006227938
 21
173.505199185
  0
LINE
  5
322
100
AcDbEntity
  8
0
100
AcDbLine
 62
7
  6
CONTINUOUS
 10
256.3006227938
 20
173.205199185
 11
256.0006227938
 21
173.505199185
  0
LINE
  5
323
100
AcDbEntity
  8
0
100
AcDbLine
 62
7
  6
CONTINUOUS
 10
209.3006227938
 20
196.905199185
 11
209.3006227938
 21
194.7620534345
  0
LINE
  5
324
100
AcDbEntity
  8
0
100
AcDbLine
 62
7
  6
CONTINUOUS
 10
213.3006227938
 20
194.7620534345
 11
213.3006227938
 21
196.905199185
  0
LINE
  5
325
100
AcDbEntity
  8
0
100
AcDbLine
 62
7
  6
CONTINUOUS
 10
258.6808316746
 20
167.8455153737
 11
258.6892369912
 21
167.8492327478
  0
LINE
  5
326
100
AcDbEntity
  8
0
100
AcDbLine
 62
7
  6
CONTINUOUS
 10
258.6663242655
 20
167.8394303764
 11
258.6808316746
 21
167.8455153737
  0
LINE
  5
327
100
AcDbEntity
  8
0
100
AcDbLine
 62
7
  6
CONTINUOUS
 10
258.623113026
 20
149.809778021
 11
258.6808316695
 21
149.6900286387
  0
LINE
  5
328
100
AcDbEntity
  8
0
100
AcDbLine
 62
7
  6
CONTINUOUS
 10
240.0006227938
 20
143.505199185
 11
240.0006227938
 21
158.505199185
  0
LINE
  5
329
100
AcDbEntity
  8
0
100
AcDbLine
 62
7
  6
CONTINUOUS
 10
240.0506227938
 20
143.505199185
 11
240.0506227938
 21
143.255199185
  0
LINE
  5
32A
100
AcDbEntity
  8
0
100
AcDbLine
 62
7
  6
CONTINUOUS
 10
252.6006227938
 20
173.505199185
 11
252.3006227938
 21
173.205199185
  0
LINE
  5
32B
100
AcDbEntity
  8
0
100
AcDbLine
 62
7
  6
CONTINUOUS
 10
258.6808316746
 20
147.3394187192
 11
258.6892369912
 21
147.3431360934
  0
LINE
  5
32C
100
AcDbEntity
  8
0
100
AcDbLine
 62
7
  6
CONTINUOUS
 10
258.6663242655
 20
147.333333722
 11
258.6808316746
 21
147.3394187192
  0
LINE
  5
32D
100
AcDbEntity
  8
0
100
AcDbLine
 62
7
  6
CONTINUOUS
 10
258.623113026
 20
170.3158746754
 11
258.6808316695
 21
170.1961252931
  0
LINE
  5
32E
100
AcDbEntity
  8
0
100
AcDbLine
 62
7
  6
CONTINUOUS
 10
258.7078216683
 20
149.6168726525
 11
258.6808316695
 21
149.6900286387
  0
LINE
  5
32F
100
AcDbEntity
  8
0
100
AcDbLine
 62
7
  6
CONTINUOUS
 10
241.3506227938
 20
143.255199185
 11
241.3506227938
 21
143.505199185
  0
LINE
  5
330
100
AcDbEntity
  8
0
100
AcDbLine
 62
7
  6
CONTINUOUS
 10
256.0006227938
 20
171.505199185
 11
256.3006227938
 21
171.805199185
  0
LINE
  5
331
100
AcDbEntity
  8
0
100
AcDbLine
 62
7
  6
CONTINUOUS
 10
258.7078216683
 20
170.1229693069
 11
258.6808316695
 21
170.1961252931
  0
LINE
  5
332
100
AcDbEntity
  8
0
100
AcDbLine
 62
7
  6
CONTINUOUS
 10
258.639170984
 20
150.0366028863
 11
258.6808316714
 21
149.8298960768
  0
LINE
  5
333
100
AcDbEntity
  8
0
100
AcDbLine
 62
7
  6
CONTINUOUS
 10
249.3506227938
 20
143.505199185
 11
249.3506227938
 21
143.255199185
  0
LINE
  5
334
100
AcDbEntity
  8
0
100
AcDbLine
 62
7
  6
CONTINUOUS
 10
250.6506227938
 20
143.255199185
 11
250.6506227938
 21
143.505199185
  0
LINE
  5
335
100
AcDbEntity
  8
0
100
AcDbLine
 62
7
  6
CONTINUOUS
 10
250.7006227938
 20
174.105199185
 11
250.7006227938
 21
174.910199185
  0
LINE
  5
336
100
AcDbEntity
  8
0
100
AcDbLine
 62
7
  6
CONTINUOUS
 10
250.8006227938
 20
173.773536706
 11
250.8006227938
 21
169.505199185
  0
LINE
  5
337
100
AcDbEntity
  8
0
100
AcDbLine
 62
7
  6
CONTINUOUS
 10
251.5006227938
 20
169.505199185
 11
251.5006227938
 21
147.505199185
  0
LINE
  5
338
100
AcDbEntity
  8
0
100
AcDbLine
 62
7
  6
CONTINUOUS
 10
251.8006227938
 20
143.805199185
 11
251.8006227938
 21
173.205199185
  0
LINE
  5
339
100
AcDbEntity
  8
0
100
AcDbLine
 62
7
  6
CONTINUOUS
 10
252.3006227938
 20
143.805199185
 11
252.3006227938
 21
173.205199185
  0
LINE
  5
33A
100
AcDbEntity
  8
0
100
AcDbLine
 62
7
  6
CONTINUOUS
 10
252.6006227938
 20
171.505199185
 11
252.6006227938
 21
145.505199185
  0
LINE
  5
33B
100
AcDbEntity
  8
0
100
AcDbLine
 62
7
  6
CONTINUOUS
 10
256.0006227938
 20
171.505199185
 11
256.0006227938
 21
145.505199185
  0
LINE
  5
33C
100
AcDbEntity
  8
0
100
AcDbLine
 62
7
  6
CONTINUOUS
 10
256.3006227938
 20
143.805199185
 11
256.3006227938
 21
173.205199185
  0
LINE
  5
33D
100
AcDbEntity
  8
0
100
AcDbLine
 62
7
  6
CONTINUOUS
 10
257.8006227938
 20
172.7582475122
 11
257.8006227938
 21
164.7582475122
  0
LINE
  5
33E
100
AcDbEntity
  8
0
100
AcDbLine
 62
7
  6
CONTINUOUS
 10
257.8006227938
 20
152.2521508578
 11
257.8006227938
 21
144.2521508578
  0
LINE
  5
33F
100
AcDbEntity
  8
0
100
AcDbLine
 62
7
  6
CONTINUOUS
 10
258.639170984
 20
170.5426995407
 11
258.6808316714
 21
170.3359927312
  0
LINE
  5
340
100
AcDbEntity
  8
0
100
AcDbLine
 62
7
  6
CONTINUOUS
 10
258.6391685819
 20
166.9737844944
 11
258.6808316714
 21
167.1805022933
  0
LINE
  5
341
100
AcDbEntity
  8
0
100
AcDbLine
 62
7
  6
CONTINUOUS
 10
258.6391685819
 20
146.4676878399
 11
258.6808316714
 21
146.6744056389
  0
LINE
  5
342
100
AcDbEntity
  8
0
100
AcDbLine
 62
7
  6
CONTINUOUS
 10
252.6006227938
 20
145.505199185
 11
252.3006227938
 21
145.205199185
  0
LINE
  5
343
100
AcDbEntity
  8
0
100
AcDbLine
 62
7
  6
CONTINUOUS
 10
251.5006227938
 20
143.505199185
 11
251.8006227938
 21
143.805199185
  0
LINE
  5
344
100
AcDbEntity
  8
0
100
AcDbLine
 62
7
  6
CONTINUOUS
 10
256.0006227938
 20
143.505199185
 11
256.3006227938
 21
143.805199185
  0
ARC
  5
345
100
AcDbEntity
  8
0
100
AcDbCircle
 62
7
  6
CONTINUOUS
 10
173.3776227938
 20
144.105199185
 40
8.2566172855
100
AcDbArc
 50
331.0229072897
 51
347.4678545131
  0
ARC
  5
346
100
AcDbEntity
  8
0
100
AcDbCircle
 62
7
  6
CONTINUOUS
 10
173.3776227938
 20
144.105199185
 40
8.2566172855
100
AcDbArc
 50
12.5096689981
 51
28.9770926939
  0
ARC
  5
347
100
AcDbEntity
  8
0
100
AcDbCircle
 62
7
  6
CONTINUOUS
 10
166.3776227938
 20
189.405199185
 40
8.2566172855
100
AcDbArc
 50
331.0229072897
 51
347.4678545131
  0
ARC
  5
348
100
AcDbEntity
  8
0
100
AcDbCircle
 62
7
  6
CONTINUOUS
 10
166.3776227938
 20
189.405199185
 40
8.2566172855
100
AcDbArc
 50
12.5096689982
 51
28.9770926939
  0
ARC
  5
349
100
AcDbEntity
  8
0
100
AcDbCircle
 62
7
  6
CONTINUOUS
 10
176.6006227938
 20
166.2888256525
 40
6.0
100
AcDbArc
 50
0.0
 51
33.5573097619
  0
ARC
  5
34A
100
AcDbEntity
  8
0
100
AcDbCircle
 62
7
  6
CONTINUOUS
 10
178.3626219871
 20
144.988777261
 40
3.1909456115
100
AcDbArc
 50
12.2569066427
 51
12.5844438203
  0
ARC
  5
34B
100
AcDbEntity
  8
0
100
AcDbCircle
 62
7
  6
CONTINUOUS
 10
146.6746227938
 20
175.480199185
 40
1.2
100
AcDbArc
 50
90.0
 51
180.0
  0
ARC
  5
34C
100
AcDbEntity
  8
0
100
AcDbCircle
 62
7
  6
CONTINUOUS
 10
149.7746227938
 20
175.480199185
 40
1.2
100
AcDbArc
 50
0.0
 51
90.0
  0
ARC
  5
34D
100
AcDbEntity
  8
0
100
AcDbCircle
 62
7
  6
CONTINUOUS
 10
149.7746227938
 20
167.330199185
 40
1.2
100
AcDbArc
 50
270.0
 51
360.0
  0
ARC
  5
34E
100
AcDbEntity
  8
0
100
AcDbCircle
 62
7
  6
CONTINUOUS
 10
146.6746227938
 20
167.330199185
 40
1.2
100
AcDbArc
 50
180.0
 51
270.0
  0
ARC
  5
34F
100
AcDbEntity
  8
0
100
AcDbCircle
 62
7
  6
CONTINUOUS
 10
182.0006227938
 20
139.105199185
 40
0.6
100
AcDbArc
 50
270.0
 51
360.0
  0
ARC
  5
350
100
AcDbEntity
  8
0
100
AcDbCircle
 62
7
  6
CONTINUOUS
 10
62.6845332456
 20
138.905199185
 40
0.5
100
AcDbArc
 50
190.6190341104
 51
270.0
  0
ARC
  5
351
100
AcDbEntity
  8
0
100
AcDbCircle
 62
7
  6
CONTINUOUS
 10
90.7506227938
 20
213.605199185
 40
4.8
100
AcDbArc
 50
270.0
 51
360.0
  0
ARC
  5
352
100
AcDbEntity
  8
0
100
AcDbCircle
 62
7
  6
CONTINUOUS
 10
52.7506227938
 20
213.605199185
 40
4.8
100
AcDbArc
 50
180.0
 51
270.0
  0
ARC
  5
353
100
AcDbEntity
  8
0
100
AcDbCircle
 62
7
  6
CONTINUOUS
 10
58.0159979975
 20
192.205199185
 40
0.5
100
AcDbArc
 50
107.142984692
 51
179.3924648108
  0
ARC
  5
354
100
AcDbEntity
  8
0
100
AcDbCircle
 62
7
  6
CONTINUOUS
 10
93.5068734826
 20
239.2052016896
 40
7.8
100
AcDbArc
 50
59.2015823584
 51
90.045915144
  0
ARC
  5
355
100
AcDbEntity
  8
0
100
AcDbCircle
 62
7
  6
CONTINUOUS
 10
93.4943721051
 20
239.2052016896
 40
7.8
100
AcDbArc
 50
89.954084856
 51
112.6383307983
  0
ARC
  5
356
100
AcDbEntity
  8
0
100
AcDbCircle
 62
7
  6
CONTINUOUS
 10
85.2506227938
 20
223.405199185
 40
7.0
100
AcDbArc
 50
270.0
 51
90.0
  0
ARC
  5
357
100
AcDbEntity
  8
0
100
AcDbCircle
 62
7
  6
CONTINUOUS
 10
58.2506227938
 20
223.405199185
 40
7.0
100
AcDbArc
 50
90.0
 51
270.0
  0
ARC
  5
358
100
AcDbEntity
  8
0
100
AcDbCircle
 62
7
  6
CONTINUOUS
 10
81.954002868
 20
241.1053744631
 40
6.2
100
AcDbArc
 50
60.5679963153
 51
89.5691693284
  0
ARC
  5
359
100
AcDbEntity
  8
0
100
AcDbCircle
 62
7
  6
CONTINUOUS
 10
82.0472427197
 20
241.1053744631
 40
6.2
100
AcDbArc
 50
90.4308306716
 51
119.4320036847
  0
ARC
  5
35A
100
AcDbEntity
  8
0
100
AcDbCircle
 62
7
  6
CONTINUOUS
 10
101.0072904485
 20
235.8052028898
 40
6.0
100
AcDbArc
 50
60.0734942192
 51
90.0636714245
  0
ARC
  5
35B
100
AcDbEntity
  8
0
100
AcDbCircle
 62
7
  6
CONTINUOUS
 10
100.9939551392
 20
235.8052028898
 40
6.0
100
AcDbArc
 50
89.9363285755
 51
119.9265057808
  0
ARC
  5
35C
100
AcDbEntity
  8
0
100
AcDbCircle
 62
7
  6
CONTINUOUS
 10
42.0072904485
 20
235.8052028898
 40
6.0
100
AcDbArc
 50
60.0734942192
 51
90.0636714245
  0
ARC
  5
35D
100
AcDbEntity
  8
0
100
AcDbCircle
 62
7
  6
CONTINUOUS
 10
41.9939551392
 20
235.8052028898
 40
6.0
100
AcDbArc
 50
89.9363285755
 51
119.9265057808
  0
CIRCLE
  5
35E
100
AcDbEntity
  8
0
100
AcDbCircle
 62
7
  6
CONTINUOUS
 10
85.2506227938
 20
223.405199185
 40
4.75
  0
CIRCLE
  5
35F
100
AcDbEntity
  8
0
100
AcDbCircle
 62
7
  6
CONTINUOUS
 10
71.7506227938
 20
223.405199185
 40
4.75
  0
CIRCLE
  5
360
100
AcDbEntity
  8
0
100
AcDbCircle
 62
7
  6
CONTINUOUS
 10
58.2506227938
 20
223.405199185
 40
4.0
  0
CIRCLE
  5
361
100
AcDbEntity
  8
0
100
AcDbCircle
 62
7
  6
CONTINUOUS
 10
58.2506227938
 20
223.405199185
 40
3.5
  0
CIRCLE
  5
362
100
AcDbEntity
  8
0
100
AcDbCircle
 62
7
  6
CONTINUOUS
 10
71.7506227938
 20
223.405199185
 40
3.5
  0
CIRCLE
  5
363
100
AcDbEntity
  8
0
100
AcDbCircle
 62
7
  6
CONTINUOUS
 10
85.2506227938
 20
223.405199185
 40
3.5
  0
ARC
  5
364
100
AcDbEntity
  8
0
100
AcDbCircle
 62
7
  6
CONTINUOUS
 10
106.6849690349
 20
230.2077012155
 40
3.2589345406
100
AcDbArc
 50
293.922750051
 51
295.0703512686
  0
ARC
  5
365
100
AcDbEntity
  8
0
100
AcDbCircle
 62
7
  6
CONTINUOUS
 10
106.6867188112
 20
216.6064354986
 40
3.2548073112
100
AcDbArc
 50
64.915718387
 51
66.0732065594
  0
CIRCLE
  5
366
100
AcDbEntity
  8
0
100
AcDbCircle
 62
7
  6
CONTINUOUS
 10
71.7506227938
 20
223.405199185
 40
3.0
  0
CIRCLE
  5
367
100
AcDbEntity
  8
0
100
AcDbCircle
 62
7
  6
CONTINUOUS
 10
85.2506227938
 20
223.405199185
 40
3.0
  0
CIRCLE
  5
368
100
AcDbEntity
  8
0
100
AcDbCircle
 62
7
  6
CONTINUOUS
 10
58.2506227938
 20
223.405199185
 40
2.9
  0
ARC
  5
369
100
AcDbEntity
  8
0
100
AcDbCircle
 62
7
  6
CONTINUOUS
 10
177.3006227938
 20
204.100199185
 40
5.5
100
AcDbArc
 50
2.1360647487
 51
177.8639352513
  0
ARC
  5
36A
100
AcDbEntity
  8
0
100
AcDbCircle
 62
7
  6
CONTINUOUS
 10
177.6006227938
 20
204.100199185
 40
5.0
100
AcDbArc
 50
177.6502143945
 51
242.3359955038
  0
ARC
  5
36B
100
AcDbEntity
  8
0
100
AcDbCircle
 62
7
  6
CONTINUOUS
 10
177.3006227938
 20
204.100199185
 40
4.9
100
AcDbArc
 50
2.3977681476
 51
177.6022318524
  0
ARC
  5
36C
100
AcDbEntity
  8
0
100
AcDbCircle
 62
7
  6
CONTINUOUS
 10
171.362622075
 20
190.2887772806
 40
3.1909455215
100
AcDbArc
 50
12.256906754
 51
12.584443931
  0
CIRCLE
  5
36D
100
AcDbEntity
  8
0
100
AcDbCircle
 62
7
  6
CONTINUOUS
 10
184.0199838213
 20
198.4666920219
 40
3.0
  0
CIRCLE
  5
36E
100
AcDbEntity
  8
0
100
AcDbCircle
 62
7
  6
CONTINUOUS
 10
177.3006227938
 20
204.100199185
 40
2.65
  0
ARC
  5
36F
100
AcDbEntity
  8
0
100
AcDbCircle
 62
7
  6
CONTINUOUS
 10
185.5544968235
 20
199.3526435168
 40
0.747
100
AcDbArc
 50
170.6852752211
 51
249.3147247788
  0
ARC
  5
370
100
AcDbEntity
  8
0
100
AcDbCircle
 62
7
  6
CONTINUOUS
 10
185.5544968235
 20
197.580740527
 40
0.747
100
AcDbArc
 50
110.6852752212
 51
189.3147247788
  0
ARC
  5
371
100
AcDbEntity
  8
0
100
AcDbCircle
 62
7
  6
CONTINUOUS
 10
184.0199838213
 20
196.6947890321
 40
0.747
100
AcDbArc
 50
50.6852752212
 51
129.3147247789
  0
ARC
  5
372
100
AcDbEntity
  8
0
100
AcDbCircle
 62
7
  6
CONTINUOUS
 10
182.4854708191
 20
197.580740527
 40
0.747
100
AcDbArc
 50
350.6852752212
 51
69.3147247788
  0
ARC
  5
373
100
AcDbEntity
  8
0
100
AcDbCircle
 62
7
  6
CONTINUOUS
 10
182.4854708191
 20
199.3526435168
 40
0.747
100
AcDbArc
 50
290.6852752212
 51
9.3147247789
  0
ARC
  5
374
100
AcDbEntity
  8
0
100
AcDbCircle
 62
7
  6
CONTINUOUS
 10
184.0199838213
 20
200.2385950117
 40
0.747
100
AcDbArc
 50
230.6852752212
 51
309.3147247788
  0
ARC
  5
375
100
AcDbEntity
  8
0
100
AcDbCircle
 62
7
  6
CONTINUOUS
 10
175.0006227938
 20
199.140360478
 40
0.6
100
AcDbArc
 50
0.0
 51
62.3359955038
  0
ARC
  5
376
100
AcDbEntity
  8
0
100
AcDbCircle
 62
7
  6
CONTINUOUS
 10
183.4199838213
 20
197.4274615374
 40
0.2
100
AcDbArc
 50
170.6852752212
 51
309.3147247789
  0
ARC
  5
377
100
AcDbEntity
  8
0
100
AcDbCircle
 62
7
  6
CONTINUOUS
 10
184.6199838213
 20
197.4274615374
 40
0.2
100
AcDbArc
 50
230.6852752211
 51
9.3147247788
  0
ARC
  5
378
100
AcDbEntity
  8
0
100
AcDbCircle
 62
7
  6
CONTINUOUS
 10
185.2199838213
 20
198.4666920219
 40
0.2
100
AcDbArc
 50
290.685275221
 51
69.3147247788
  0
ARC
  5
379
100
AcDbEntity
  8
0
100
AcDbCircle
 62
7
  6
CONTINUOUS
 10
184.6199838213
 20
199.5059225064
 40
0.2
100
AcDbArc
 50
350.6852752212
 51
129.3147247788
  0
ARC
  5
37A
100
AcDbEntity
  8
0
100
AcDbCircle
 62
7
  6
CONTINUOUS
 10
183.4199838213
 20
199.5059225064
 40
0.2
100
AcDbArc
 50
50.6852752213
 51
189.3147247788
  0
ARC
  5
37B
100
AcDbEntity
  8
0
100
AcDbCircle
 62
7
  6
CONTINUOUS
 10
182.8199838213
 20
198.4666920219
 40
0.2
100
AcDbArc
 50
110.6852752212
 51
249.3147247789
  0
CIRCLE
  5
37C
100
AcDbEntity
  8
0
100
AcDbCircle
 62
7
  6
CONTINUOUS
 10
194.5548504774
 20
166.0437063481
 40
3.0
  0
ARC
  5
37D
100
AcDbEntity
  8
0
100
AcDbCircle
 62
7
  6
CONTINUOUS
 10
196.0893634796
 20
166.9296578431
 40
0.747
100
AcDbArc
 50
170.6852752212
 51
249.3147247789
  0
ARC
  5
37E
100
AcDbEntity
  8
0
100
AcDbCircle
 62
7
  6
CONTINUOUS
 10
196.0893634796
 20
165.1577548532
 40
0.747
100
AcDbArc
 50
110.6852752211
 51
189.3147247789
  0
ARC
  5
37F
100
AcDbEntity
  8
0
100
AcDbCircle
 62
7
  6
CONTINUOUS
 10
194.5548504774
 20
164.2718033583
 40
0.747
100
AcDbArc
 50
50.6852752212
 51
129.3147247788
  0
ARC
  5
380
100
AcDbEntity
  8
0
100
AcDbCircle
 62
7
  6
CONTINUOUS
 10
193.0203374751
 20
165.1577548532
 40
0.747
100
AcDbArc
 50
350.6852752212
 51
69.3147247788
  0
ARC
  5
381
100
AcDbEntity
  8
0
100
AcDbCircle
 62
7
  6
CONTINUOUS
 10
193.0203374751
 20
166.9296578431
 40
0.747
100
AcDbArc
 50
290.6852752212
 51
9.3147247788
  0
ARC
  5
382
100
AcDbEntity
  8
0
100
AcDbCircle
 62
7
  6
CONTINUOUS
 10
194.5548504774
 20
167.815609338
 40
0.747
100
AcDbArc
 50
230.6852752212
 51
309.3147247789
  0
ARC
  5
383
100
AcDbEntity
  8
0
100
AcDbCircle
 62
7
  6
CONTINUOUS
 10
193.9548504774
 20
165.0044758636
 40
0.2
100
AcDbArc
 50
170.6852752211
 51
309.3147247789
  0
ARC
  5
384
100
AcDbEntity
  8
0
100
AcDbCircle
 62
7
  6
CONTINUOUS
 10
195.1548504774
 20
165.0044758636
 40
0.2
100
AcDbArc
 50
230.6852752213
 51
9.3147247789
  0
ARC
  5
385
100
AcDbEntity
  8
0
100
AcDbCircle
 62
7
  6
CONTINUOUS
 10
195.7548504774
 20
166.0437063481
 40
0.2
100
AcDbArc
 50
290.6852752212
 51
69.3147247788
  0
ARC
  5
386
100
AcDbEntity
  8
0
100
AcDbCircle
 62
7
  6
CONTINUOUS
 10
195.1548504774
 20
167.0829368327
 40
0.2
100
AcDbArc
 50
350.6852752212
 51
129.3147247788
  0
ARC
  5
387
100
AcDbEntity
  8
0
100
AcDbCircle
 62
7
  6
CONTINUOUS
 10
193.9548504774
 20
167.0829368327
 40
0.2
100
AcDbArc
 50
50.6852752211
 51
189.3147247788
  0
ARC
  5
388
100
AcDbEntity
  8
0
100
AcDbCircle
 62
7
  6
CONTINUOUS
 10
193.3548504774
 20
166.0437063481
 40
0.2
100
AcDbArc
 50
110.6852752212
 51
249.3147247789
  0
ARC
  5
389
100
AcDbEntity
  8
0
100
AcDbCircle
 62
7
  6
CONTINUOUS
 10
250.5776227938
 20
148.2521508578
 40
8.2566172855
100
AcDbArc
 50
331.0229072897
 51
346.4918882957
  0
ARC
  5
38A
100
AcDbEntity
  8
0
100
AcDbCircle
 62
7
  6
CONTINUOUS
 10
250.5776227938
 20
148.2521508578
 40
8.2566172855
100
AcDbArc
 50
12.4814236449
 51
28.9770926939
  0
ARC
  5
38B
100
AcDbEntity
  8
0
100
AcDbCircle
 62
7
  6
CONTINUOUS
 10
250.5776227938
 20
168.7582475122
 40
8.2566172855
100
AcDbArc
 50
331.0229072897
 51
346.4918882957
  0
ARC
  5
38C
100
AcDbEntity
  8
0
100
AcDbCircle
 62
7
  6
CONTINUOUS
 10
250.5776227938
 20
168.7582475122
 40
8.2566172855
100
AcDbArc
 50
12.4814236449
 51
28.9770926939
  0
CIRCLE
  5
38D
100
AcDbEntity
  8
0
100
AcDbCircle
 62
7
  6
CONTINUOUS
 10
228.6463951103
 20
166.0437063481
 40
3.0
  0
ARC
  5
38E
100
AcDbEntity
  8
0
100
AcDbCircle
 62
7
  6
CONTINUOUS
 10
230.1809081126
 20
166.9296578431
 40
0.747
100
AcDbArc
 50
170.6852752212
 51
249.3147247789
  0
ARC
  5
38F
100
AcDbEntity
  8
0
100
AcDbCircle
 62
7
  6
CONTINUOUS
 10
230.1809081126
 20
165.1577548532
 40
0.747
100
AcDbArc
 50
110.6852752212
 51
189.3147247788
  0
ARC
  5
390
100
AcDbEntity
  8
0
100
AcDbCircle
 62
7
  6
CONTINUOUS
 10
228.6463951103
 20
164.2718033583
 40
0.747
100
AcDbArc
 50
50.6852752212
 51
129.3147247789
  0
ARC
  5
391
100
AcDbEntity
  8
0
100
AcDbCircle
 62
7
  6
CONTINUOUS
 10
227.1118821081
 20
165.1577548532
 40
0.747
100
AcDbArc
 50
350.6852752212
 51
69.3147247788
  0
ARC
  5
392
100
AcDbEntity
  8
0
100
AcDbCircle
 62
7
  6
CONTINUOUS
 10
227.1118821081
 20
166.9296578431
 40
0.747
100
AcDbArc
 50
290.6852752212
 51
9.3147247788
  0
ARC
  5
393
100
AcDbEntity
  8
0
100
AcDbCircle
 62
7
  6
CONTINUOUS
 10
228.6463951103
 20
167.815609338
 40
0.747
100
AcDbArc
 50
230.6852752212
 51
309.3147247788
  0
ARC
  5
394
100
AcDbEntity
  8
0
100
AcDbCircle
 62
7
  6
CONTINUOUS
 10
228.0463951103
 20
165.0044758636
 40
0.2
100
AcDbArc
 50
170.6852752212
 51
309.3147247789
  0
ARC
  5
395
100
AcDbEntity
  8
0
100
AcDbCircle
 62
7
  6
CONTINUOUS
 10
229.2463951103
 20
165.0044758636
 40
0.2
100
AcDbArc
 50
230.6852752211
 51
9.3147247789
  0
ARC
  5
396
100
AcDbEntity
  8
0
100
AcDbCircle
 62
7
  6
CONTINUOUS
 10
229.8463951103
 20
166.0437063481
 40
0.2
100
AcDbArc
 50
290.6852752212
 51
69.3147247788
  0
ARC
  5
397
100
AcDbEntity
  8
0
100
AcDbCircle
 62
7
  6
CONTINUOUS
 10
229.2463951103
 20
167.0829368327
 40
0.2
100
AcDbArc
 50
350.6852752211
 51
129.3147247788
  0
ARC
  5
398
100
AcDbEntity
  8
0
100
AcDbCircle
 62
7
  6
CONTINUOUS
 10
228.0463951103
 20
167.0829368327
 40
0.2
100
AcDbArc
 50
50.6852752213
 51
189.3147247788
  0
ARC
  5
399
100
AcDbEntity
  8
0
100
AcDbCircle
 62
7
  6
CONTINUOUS
 10
227.4463951103
 20
166.0437063481
 40
0.2
100
AcDbArc
 50
110.6852752212
 51
249.3147247789
  0
ARC
  5
39A
100
AcDbEntity
  8
0
100
AcDbCircle
 62
7
  6
CONTINUOUS
 10
211.6006227938
 20
189.505199185
 40
36.0
100
AcDbArc
 50
180.0
 51
213.5573097619
  0
ARC
  5
39B
100
AcDbEntity
  8
0
100
AcDbCircle
 62
7
  6
CONTINUOUS
 10
211.3006227938
 20
189.505199185
 40
32.0
100
AcDbArc
 50
309.0783881606
 51
15.0316100367
  0
ARC
  5
39C
100
AcDbEntity
  8
0
100
AcDbCircle
 62
7
  6
CONTINUOUS
 10
211.3006227938
 20
189.505199185
 40
32.0
100
AcDbArc
 50
20.5451643866
 51
304.4894708222
  0
ARC
  5
39D
100
AcDbEntity
  8
0
100
AcDbCircle
 62
7
  6
CONTINUOUS
 10
211.3006227938
 20
189.505199185
 40
31.7
100
AcDbArc
 50
93.0513905257
 51
161.3211050289
  0
ARC
  5
39E
100
AcDbEntity
  8
0
100
AcDbCircle
 62
7
  6
CONTINUOUS
 10
211.3006227938
 20
189.505199185
 40
31.7
100
AcDbArc
 50
163.533276586
 51
232.1514781294
  0
ARC
  5
39F
100
AcDbEntity
  8
0
100
AcDbCircle
 62
7
  6
CONTINUOUS
 10
211.3006227938
 20
189.505199185
 40
31.7
100
AcDbArc
 50
236.5808487089
 51
303.2494958689
  0
ARC
  5
3A0
100
AcDbEntity
  8
0
100
AcDbCircle
 62
7
  6
CONTINUOUS
 10
211.3006227938
 20
189.505199185
 40
31.7
100
AcDbArc
 50
309.9615397882
 51
13.8717969444
  0
ARC
  5
3A1
100
AcDbEntity
  8
0
100
AcDbCircle
 62
7
  6
CONTINUOUS
 10
211.3006227938
 20
189.505199185
 40
31.7
100
AcDbArc
 50
21.6568813157
 51
86.9200595511
  0
CIRCLE
  5
3A2
100
AcDbEntity
  8
0
100
AcDbCircle
 62
7
  6
CONTINUOUS
 10
211.3006227938
 20
189.505199185
 40
25.75
  0
CIRCLE
  5
3A3
100
AcDbEntity
  8
0
100
AcDbCircle
 62
7
  6
CONTINUOUS
 10
211.3006227938
 20
189.505199185
 40
19.75
  0
CIRCLE
  5
3A4
100
AcDbEntity
  8
0
100
AcDbCircle
 62
7
  6
CONTINUOUS
 10
211.3006227938
 20
189.505199185
 40
15.3
  0
CIRCLE
  5
3A5
100
AcDbEntity
  8
0
100
AcDbCircle
 62
7
  6
CONTINUOUS
 10
211.3006227938
 20
189.505199185
 40
15.0
  0
CIRCLE
  5
3A6
100
AcDbEntity
  8
0
100
AcDbCircle
 62
7
  6
CONTINUOUS
 10
211.3006227938
 20
189.505199185
 40
14.9437846722
  0
CIRCLE
  5
3A7
100
AcDbEntity
  8
0
100
AcDbCircle
 62
7
  6
CONTINUOUS
 10
211.3006227938
 20
189.505199185
 40
14.6377712579
  0
CIRCLE
  5
3A8
100
AcDbEntity
  8
0
100
AcDbCircle
 62
7
  6
CONTINUOUS
 10
211.3006227938
 20
189.505199185
 40
14.3658789218
  0
CIRCLE
  5
3A9
100
AcDbEntity
  8
0
100
AcDbCircle
 62
7
  6
CONTINUOUS
 10
211.3006227938
 20
189.505199185
 40
11.55
  0
CIRCLE
  5
3AA
100
AcDbEntity
  8
0
100
AcDbCircle
 62
7
  6
CONTINUOUS
 10
211.3006227938
 20
189.505199185
 40
10.95
  0
CIRCLE
  5
3AB
100
AcDbEntity
  8
0
100
AcDbCircle
 62
7
  6
CONTINUOUS
 10
211.3006227938
 20
189.505199185
 40
10.9255282581
  0
CIRCLE
  5
3AC
100
AcDbEntity
  8
0
100
AcDbCircle
 62
7
  6
CONTINUOUS
 10
211.3006227938
 20
189.505199185
 40
10.0
  0
CIRCLE
  5
3AD
100
AcDbEntity
  8
0
100
AcDbCircle
 62
7
  6
CONTINUOUS
 10
211.3006227938
 20
189.505199185
 40
9.7052558883
  0
ARC
  5
3AE
100
AcDbEntity
  8
0
100
AcDbCircle
 62
7
  6
CONTINUOUS
 10
211.3006227938
 20
189.105199185
 40
6.0
100
AcDbArc
 50
109.4712206345
 51
70.5287793655
  0
ARC
  5
3AF
100
AcDbEntity
  8
0
100
AcDbCircle
 62
7
  6
CONTINUOUS
 10
245.3006227938
 20
174.910199185
 40
5.5
100
AcDbArc
 50
350.0648435741
 51
118.518906807
  0
ARC
  5
3B0
100
AcDbEntity
  8
0
100
AcDbCircle
 62
7
  6
CONTINUOUS
 10
245.6006227938
 20
174.910199185
 40
5.1
100
AcDbArc
 50
0.0
 51
106.49613215
  0
CIRCLE
  5
3B1
100
AcDbEntity
  8
0
100
AcDbCircle
 62
7
  6
CONTINUOUS
 10
245.3006227938
 20
174.910199185
 40
2.65
  0
ARC
  5
3B2
100
AcDbEntity
  8
0
100
AcDbCircle
 62
7
  6
CONTINUOUS
 10
251.3006227938
 20
174.105199185
 40
0.6
100
AcDbArc
 50
179.9999999999
 51
213.5573097619
  0
ARC
  5
3B3
100
AcDbEntity
  8
0
100
AcDbCircle
 62
7
  6
CONTINUOUS
 10
243.3006227938
 20
182.6767943206
 40
3.0
100
AcDbArc
 50
242.8269558204
 51
286.49613215
  0
ARC
  5
3B4
100
AcDbEntity
  8
0
100
AcDbCircle
 62
7
  6
CONTINUOUS
 10
331.5006227938
 20
189.305199185
 40
274.0
100
AcDbArc
 50
179.3924648108
 51
190.6190341105
  0
ARC
  5
3B5
100
AcDbEntity
  8
0
100
AcDbCircle
 62
7
  6
CONTINUOUS
 10
331.5006227938
 20
193.305199185
 40
300.0
100
AcDbArc
 50
171.7399235704
 51
188.2600720671
  0
CIRCLE
  5
3B6
100
AcDbEntity
  8
0
100
AcDbCircle
 62
7
  6
CONTINUOUS
 10
211.3006227938
 20
218.505199185
 40
3.0
  0
CIRCLE
  5
3B7
100
AcDbEntity
  8
0
100
AcDbCircle
 62
7
  6
CONTINUOUS
 10
239.1812617664
 20
198.4666920219
 40
3.0
  0
ARC
  5
3B8
100
AcDbEntity
  8
0
100
AcDbCircle
 62
7
  6
CONTINUOUS
 10
212.8351357961
 20
219.3911506799
 40
0.747
100
AcDbArc
 50
170.6852752211
 51
249.3147247789
  0
ARC
  5
3B9
100
AcDbEntity
  8
0
100
AcDbCircle
 62
7
  6
CONTINUOUS
 10
212.8351357961
 20
217.6192476901
 40
0.747
100
AcDbArc
 50
110.6852752212
 51
189.3147247788
  0
ARC
  5
3BA
100
AcDbEntity
  8
0
100
AcDbCircle
 62
7
  6
CONTINUOUS
 10
211.3006227938
 20
216.7332961952
 40
0.747
100
AcDbArc
 50
50.6852752212
 51
129.3147247788
  0
ARC
  5
3BB
100
AcDbEntity
  8
0
100
AcDbCircle
 62
7
  6
CONTINUOUS
 10
209.7661097916
 20
217.6192476901
 40
0.747
100
AcDbArc
 50
350.6852752212
 51
69.3147247788
  0
ARC
  5
3BC
100
AcDbEntity
  8
0
100
AcDbCircle
 62
7
  6
CONTINUOUS
 10
209.7661097916
 20
219.3911506799
 40
0.747
100
AcDbArc
 50
290.6852752212
 51
9.3147247789
  0
ARC
  5
3BD
100
AcDbEntity
  8
0
100
AcDbCircle
 62
7
  6
CONTINUOUS
 10
211.3006227938
 20
220.2771021748
 40
0.747
100
AcDbArc
 50
230.6852752212
 51
309.3147247788
  0
ARC
  5
3BE
100
AcDbEntity
  8
0
100
AcDbCircle
 62
7
  6
CONTINUOUS
 10
240.7157747686
 20
199.3526435168
 40
0.747
100
AcDbArc
 50
170.6852752211
 51
249.3147247788
  0
ARC
  5
3BF
100
AcDbEntity
  8
0
100
AcDbCircle
 62
7
  6
CONTINUOUS
 10
240.7157747686
 20
197.580740527
 40
0.747
100
AcDbArc
 50
110.6852752212
 51
189.3147247788
  0
ARC
  5
3C0
100
AcDbEntity
  8
0
100
AcDbCircle
 62
7
  6
CONTINUOUS
 10
239.1812617664
 20
196.6947890321
 40
0.747
100
AcDbArc
 50
50.6852752212
 51
129.3147247788
  0
ARC
  5
3C1
100
AcDbEntity
  8
0
100
AcDbCircle
 62
7
  6
CONTINUOUS
 10
237.6467487642
 20
197.580740527
 40
0.747
100
AcDbArc
 50
350.6852752212
 51
69.3147247788
  0
ARC
  5
3C2
100
AcDbEntity
  8
0
100
AcDbCircle
 62
7
  6
CONTINUOUS
 10
237.6467487642
 20
199.3526435168
 40
0.747
100
AcDbArc
 50
290.6852752212
 51
9.3147247789
  0
ARC
  5
3C3
100
AcDbEntity
  8
0
100
AcDbCircle
 62
7
  6
CONTINUOUS
 10
239.1812617664
 20
200.2385950117
 40
0.747
100
AcDbArc
 50
230.6852752212
 51
309.3147247789
  0
ARC
  5
3C4
100
AcDbEntity
  8
0
100
AcDbCircle
 62
7
  6
CONTINUOUS
 10
210.7006227938
 20
217.4659687005
 40
0.2
100
AcDbArc
 50
170.6852752212
 51
309.3147247789
  0
ARC
  5
3C5
100
AcDbEntity
  8
0
100
AcDbCircle
 62
7
  6
CONTINUOUS
 10
211.9006227938
 20
217.4659687005
 40
0.2
100
AcDbArc
 50
230.6852752211
 51
9.3147247788
  0
ARC
  5
3C6
100
AcDbEntity
  8
0
100
AcDbCircle
 62
7
  6
CONTINUOUS
 10
212.5006227938
 20
218.505199185
 40
0.2
100
AcDbArc
 50
290.6852752212
 51
69.3147247788
  0
ARC
  5
3C7
100
AcDbEntity
  8
0
100
AcDbCircle
 62
7
  6
CONTINUOUS
 10
211.9006227938
 20
219.5444296696
 40
0.2
100
AcDbArc
 50
350.6852752212
 51
129.3147247788
  0
ARC
  5
3C8
100
AcDbEntity
  8
0
100
AcDbCircle
 62
7
  6
CONTINUOUS
 10
210.7006227938
 20
219.5444296696
 40
0.2
100
AcDbArc
 50
50.6852752211
 51
189.3147247788
  0
ARC
  5
3C9
100
AcDbEntity
  8
0
100
AcDbCircle
 62
7
  6
CONTINUOUS
 10
210.1006227938
 20
218.505199185
 40
0.2
100
AcDbArc
 50
110.6852752212
 51
249.3147247789
  0
ARC
  5
3CA
100
AcDbEntity
  8
0
100
AcDbCircle
 62
7
  6
CONTINUOUS
 10
238.5812617664
 20
197.4274615374
 40
0.2
100
AcDbArc
 50
170.6852752211
 51
309.3147247789
  0
ARC
  5
3CB
100
AcDbEntity
  8
0
100
AcDbCircle
 62
7
  6
CONTINUOUS
 10
239.7812617664
 20
197.4274615374
 40
0.2
100
AcDbArc
 50
230.6852752213
 51
9.3147247788
  0
ARC
  5
3CC
100
AcDbEntity
  8
0
100
AcDbCircle
 62
7
  6
CONTINUOUS
 10
240.3812617664
 20
198.4666920219
 40
0.2
100
AcDbArc
 50
290.6852752212
 51
69.3147247788
  0
ARC
  5
3CD
100
AcDbEntity
  8
0
100
AcDbCircle
 62
7
  6
CONTINUOUS
 10
239.7812617664
 20
199.5059225064
 40
0.2
100
AcDbArc
 50
350.6852752212
 51
129.3147247788
  0
ARC
  5
3CE
100
AcDbEntity
  8
0
100
AcDbCircle
 62
7
  6
CONTINUOUS
 10
238.5812617664
 20
199.5059225064
 40
0.2
100
AcDbArc
 50
50.6852752211
 51
189.3147247788
  0
ARC
  5
3CF
100
AcDbEntity
  8
0
100
AcDbCircle
 62
7
  6
CONTINUOUS
 10
237.9812617664
 20
198.4666920219
 40
0.2
100
AcDbArc
 50
110.6852752209
 51
249.3147247789
  0
SPLINE
  5
3D0
100
AcDbEntity
  8
0
100
AcDbSpline
 62
7
  6
CONTINUOUS
 70
0
 71
3
 72
23
 73
19
 74
0
 42
0.0000001
 43
0.0000001
 44
0.0000000001
 40
0.0
 40
0.0
 40
0.0
 40
0.0
 40
0.151085424
 40
0.2990670392
 40
0.3713587089
 40
0.4420318973
 40
0.5105016008
 40
0.5758696896
 40
0.6367495161
 40
0.6911841463
 40
0.7154695227
 40
0.7377951458
 40
0.7587171277
 40
0.7793137172
 40
0.8237676329
 40
0.8762097973
 40
0.9356327573
 40
1.0
 40
1.0
 40
1.0
 40
1.0
 10
106.5025805764
 20
218.1000659203
 30
0.0
 10
106.6549658671
 20
218.1370390852
 30
0.0
 10
106.9557997208
 20
218.2136043067
 30
0.0
 10
107.3262613112
 20
218.3203559598
 30
0.0
 10
107.6132124788
 20
218.4144956955
 30
0.0
 10
107.8195009759
 20
218.4894754788
 30
0.0
 10
108.0158125045
 20
218.5703701463
 30
0.0
 10
108.1979464314
 20
218.6584396651
 30
0.0
 10
108.3589543648
 20
218.7549880032
 30
0.0
 10
108.4720977274
 20
218.8474891662
 30
0.0
 10
108.5377963127
 20
218.9298209712
 30
0.0
 10
108.5704260133
 20
218.9925162149
 30
0.0
 10
108.5853858333
 20
219.0579554795
 30
0.0
 10
108.5787782709
 20
219.1483298059
 30
0.0
 10
108.5170681326
 20
219.2589808561
 30
0.0
 10
108.3960433919
 20
219.3684615508
 30
0.0
 10
108.2418075955
 20
219.4677542964
 30
0.0
 10
108.1270948698
 20
219.5259300669
 30
0.0
 10
108.0665975449
 20
219.5542661099
 30
0.0
  0
SPLINE
  5
3D1
100
AcDbEntity
  8
0
100
AcDbSpline
 62
7
  6
CONTINUOUS
 70
0
 71
3
 72
23
 73
19
 74
0
 42
0.0000001
 43
0.0000001
 44
0.0000000001
 40
0.0
 40
0.0
 40
0.0
 40
0.0
 40
0.0643807086
 40
0.123823308
 40
0.1762895741
 40
0.2207627254
 40
0.2413605824
 40
0.2622771512
 40
0.2845936117
 40
0.3088690459
 40
0.3632863386
 40
0.4241548384
 40
0.4895158911
 40
0.5579807377
 40
0.6286504584
 40
0.7009396361
 40
0.8489175264
 40
1.0
 40
1.0
 40
1.0
 40
1.0
 10
108.0658798547
 20
227.2557968052
 30
0.0
 10
108.1264148236
 20
227.2841320298
 30
0.0
 10
108.2412091263
 20
227.3423056339
 30
0.0
 10
108.3955845421
 20
227.441590836
 30
0.0
 10
108.5167655392
 20
227.5510594869
 30
0.0
 10
108.5786574592
 20
227.6616950421
 30
0.0
 10
108.585414443
 20
227.7521009576
 30
0.0
 10
108.5705453684
 20
227.8175689742
 30
0.0
 10
108.5379839786
 20
227.8802964487
 30
0.0
 10
108.4723488797
 20
227.9626722668
 30
0.0
 10
108.3592352782
 20
228.0552203401
 30
0.0
 10
108.1982299163
 20
228.1518092454
 30
0.0
 10
108.0160727257
 20
228.2399137591
 30
0.0
 10
107.8197227696
 20
228.320838332
 30
0.0
 10
107.6133864634
 20
228.3958440025
 30
0.0
 10
107.3263615925
 20
228.4900135656
 30
0.0
 10
106.9557998134
 20
228.5967953609
 30
0.0
 10
106.6548833915
 20
228.6733804828
 30
0.0
 10
106.5024556914
 20
228.7103626242
 30
0.0
  0
SPLINE
  5
3D2
100
AcDbEntity
  8
0
100
AcDbSpline
 62
7
  6
CONTINUOUS
 70
0
 71
3
 72
9
 73
5
 74
0
 42
0.0000001
 43
0.0000001
 44
0.0000000001
 40
0.0
 40
0.0
 40
0.0
 40
0.0
 40
0.4989994963
 40
1.0
 40
1.0
 40
1.0
 40
1.0
 10
60.1085181538
 20
151.5925691541
 30
0.0
 10
64.3473473012
 20
152.1164653303
 30
0.0
 10
72.8202097041
 20
153.3408344943
 30
0.0
 10
81.2681276592
 20
154.7161988953
 30
0.0
 10
85.5006227938
 20
155.405199185
 30
0.0
  0
SPLINE
  5
3D3
100
AcDbEntity
  8
0
100
AcDbSpline
 62
7
  6
CONTINUOUS
 70
0
 71
3
 72
10
 73
6
 74
0
 42
0.0000001
 43
0.0000001
 44
0.0000000001
 40
0.0
 40
0.0
 40
0.0
 40
0.0
 40
0.5012117423
 40
0.751064592
 40
1.0
 40
1.0
 40
1.0
 40
1.0
 10
85.5006227938
 20
187.405199185
 30
0.0
 10
80.8347228892
 20
188.1647526597
 30
0.0
 10
73.842744865
 20
189.3038331061
 30
0.0
 10
64.50945051
 20
190.6651347083
 30
0.0
 10
59.8423629221
 20
191.2606685267
 30
0.0
 10
57.5096323168
 20
191.5271662084
 30
0.0
  0
SPLINE
  5
3D4
100
AcDbEntity
  8
0
100
AcDbSpline
 62
7
  6
CONTINUOUS
 70
0
 71
3
 72
9
 73
5
 74
0
 42
0.0000001
 43
0.0000001
 44
0.0000000001
 40
0.0
 40
0.0
 40
0.0
 40
0.0
 40
0.289867373
 40
1.0
 40
1.0
 40
1.0
 40
1.0
 10
258.6890494473
 20
167.8491631688
 30
0.0
 10
258.699175431
 20
167.8490595228
 30
0.0
 10
258.7108969602
 20
167.8017783665
 30
0.0
 10
258.7104419012
 20
167.7738571406
 30
0.0
 10
258.7103797422
 20
167.7490487414
 30
0.0
  0
SPLINE
  5
3D5
100
AcDbEntity
  8
0
100
AcDbSpline
 62
7
  6
CONTINUOUS
 70
0
 71
3
 72
9
 73
5
 74
0
 42
0.0000001
 43
0.0000001
 44
0.0000000001
 40
0.0
 40
0.0
 40
0.0
 40
0.0
 40
0.2144904039
 40
1.0
 40
1.0
 40
1.0
 40
1.0
 10
258.7103797422
 20
167.7490487414
 30
0.0
 10
258.7103282632
 20
167.7285028493
 30
0.0
 10
258.7064796938
 20
167.6327426999
 30
0.0
 10
258.6939237757
 20
167.5374863045
 30
0.0
 10
258.6808316654
 20
167.4633903722
 30
0.0
  0
SPLINE
  5
3D6
100
AcDbEntity
  8
0
100
AcDbSpline
 62
7
  6
CONTINUOUS
 70
0
 71
3
 72
9
 73
5
 74
0
 42
0.0000001
 43
0.0000001
 44
0.0000000001
 40
0.0
 40
0.0
 40
0.0
 40
0.0
 40
0.2680079703
 40
1.0
 40
1.0
 40
1.0
 40
1.0
 10
258.642870784
 20
167.8904070197
 30
0.0
 10
258.645745221
 20
167.9086175415
 30
0.0
 10
258.6569392577
 20
167.9764879807
 30
0.0
 10
258.6698548397
 20
168.0440925058
 30
0.0
 10
258.6808316714
 20
168.0932344346
 30
0.0
  0
SPLINE
  5
3D7
100
AcDbEntity
  8
0
100
AcDbSpline
 62
7
  6
CONTINUOUS
 70
0
 71
3
 72
9
 73
5
 74
0
 42
0.0000001
 43
0.0000001
 44
0.0000000001
 40
0.0
 40
0.0
 40
0.0
 40
0.0
 40
0.2898673734
 40
1.0
 40
1.0
 40
1.0
 40
1.0
 10
258.6890494473
 20
169.6673318558
 30
0.0
 10
258.6991754308
 20
169.6674355017
 30
0.0
 10
258.7108969602
 20
169.7147166571
 30
0.0
 10
258.7104419011
 20
169.7426378826
 30
0.0
 10
258.7103797422
 20
169.7674462813
 30
0.0
  0
SPLINE
  5
3D8
100
AcDbEntity
  8
0
100
AcDbSpline
 62
7
  6
CONTINUOUS
 70
0
 71
3
 72
9
 73
5
 74
0
 42
0.0000001
 43
0.0000001
 44
0.0000000001
 40
0.0
 40
0.0
 40
0.0
 40
0.0
 40
0.2144904034
 40
1.0
 40
1.0
 40
1.0
 40
1.0
 10
258.7103797422
 20
169.7674462813
 30
0.0
 10
258.7103282633
 20
169.7879921751
 30
0.0
 10
258.7064796934
 20
169.8837523325
 30
0.0
 10
258.6939237737
 20
169.9790087357
 30
0.0
 10
258.6808316615
 20
170.053104674
 30
0.0
  0
SPLINE
  5
3D9
100
AcDbEntity
  8
0
100
AcDbSpline
 62
7
  6
CONTINUOUS
 70
0
 71
3
 72
9
 73
5
 74
0
 42
0.0000001
 43
0.0000001
 44
0.0000000001
 40
0.0
 40
0.0
 40
0.0
 40
0.0
 40
0.289867373
 40
1.0
 40
1.0
 40
1.0
 40
1.0
 10
258.6890494473
 20
147.3430665144
 30
0.0
 10
258.699175431
 20
147.3429628684
 30
0.0
 10
258.7108969602
 20
147.2956817121
 30
0.0
 10
258.7104419012
 20
147.2677604862
 30
0.0
 10
258.7103797422
 20
147.242952087
 30
0.0
  0
SPLINE
  5
3DA
100
AcDbEntity
  8
0
100
AcDbSpline
 62
7
  6
CONTINUOUS
 70
0
 71
3
 72
9
 73
5
 74
0
 42
0.0000001
 43
0.0000001
 44
0.0000000001
 40
0.0
 40
0.0
 40
0.0
 40
0.0
 40
0.2144904039
 40
1.0
 40
1.0
 40
1.0
 40
1.0
 10
258.7103797422
 20
147.242952087
 30
0.0
 10
258.7103282632
 20
147.2224061949
 30
0.0
 10
258.7064796938
 20
147.1266460455
 30
0.0
 10
258.6939237757
 20
147.0313896501
 30
0.0
 10
258.6808316654
 20
146.9572937178
 30
0.0
  0
SPLINE
  5
3DB
100
AcDbEntity
  8
0
100
AcDbSpline
 62
7
  6
CONTINUOUS
 70
0
 71
3
 72
9
 73
5
 74
0
 42
0.0000001
 43
0.0000001
 44
0.0000000001
 40
0.0
 40
0.0
 40
0.0
 40
0.0
 40
0.2680079703
 40
1.0
 40
1.0
 40
1.0
 40
1.0
 10
258.642870784
 20
147.3843103653
 30
0.0
 10
258.645745221
 20
147.402520887
 30
0.0
 10
258.6569392577
 20
147.4703913263
 30
0.0
 10
258.6698548397
 20
147.5379958513
 30
0.0
 10
258.6808316714
 20
147.5871377801
 30
0.0
  0
SPLINE
  5
3DC
100
AcDbEntity
  8
0
100
AcDbSpline
 62
7
  6
CONTINUOUS
 70
0
 71
3
 72
9
 73
5
 74
0
 42
0.0000001
 43
0.0000001
 44
0.0000000001
 40
0.0
 40
0.0
 40
0.0
 40
0.0
 40
0.2898673734
 40
1.0
 40
1.0
 40
1.0
 40
1.0
 10
258.6890494473
 20
149.1612352013
 30
0.0
 10
258.6991754308
 20
149.1613388473
 30
0.0
 10
258.7108969602
 20
149.2086200027
 30
0.0
 10
258.7104419011
 20
149.2365412281
 30
0.0
 10
258.7103797422
 20
149.2613496269
 30
0.0
  0
SPLINE
  5
3DD
100
AcDbEntity
  8
0
100
AcDbSpline
 62
7
  6
CONTINUOUS
 70
0
 71
3
 72
9
 73
5
 74
0
 42
0.0000001
 43
0.0000001
 44
0.0000000001
 40
0.0
 40
0.0
 40
0.0
 40
0.0
 40
0.2144904034
 40
1.0
 40
1.0
 40
1.0
 40
1.0
 10
258.7103797422
 20
149.2613496269
 30
0.0
 10
258.7103282633
 20
149.2818955207
 30
0.0
 10
258.7064796934
 20
149.3776556781
 30
0.0
 10
258.6939237737
 20
149.4729120813
 30
0.0
 10
258.6808316615
 20
149.5470080196
 30
0.0
  0
SPLINE
  5
3DE
100
AcDbEntity
  8
0
100
AcDbSpline
 62
7
  6
CONTINUOUS
 70
0
 71
3
 72
14
 73
10
 74
0
 42
0.0000001
 43
0.0000001
 44
0.0000000001
 40
0.0
 40
0.0
 40
0.0
 40
0.0
 40
0.024855075
 40
0.0890213744
 40
0.1913537233
 40
0.3259115184
 40
0.4839844561
 40
0.6559442896
 40
1.0
 40
1.0
 40
1.0
 40
1.0
 10
181.4076494614
 20
145.8892469714
 30
0.0
 10
181.4012031411
 20
145.8891834729
 30
0.0
 10
181.39509838
 20
145.8573046467
 30
0.0
 10
181.3940176139
 20
145.8156199812
 30
0.0
 10
181.3966868751
 20
145.7333091734
 30
0.0
 10
181.4053244338
 20
145.6329219142
 30
0.0
 10
181.4186759527
 20
145.5125658973
 30
0.0
 10
181.4422025698
 20
145.3395333512
 30
0.0
 10
181.4641251327
 20
145.2073621865
 30
0.0
 10
181.4808316714
 20
145.1197026441
 30
0.0
  0
SPLINE
  5
3DF
100
AcDbEntity
  8
0
100
AcDbSpline
 62
7
  6
CONTINUOUS
 70
0
 71
3
 72
14
 73
10
 74
0
 42
0.0000001
 43
0.0000001
 44
0.0000000001
 40
0.0
 40
0.0
 40
0.0
 40
0.0
 40
0.0248550749
 40
0.0890213739
 40
0.1913537222
 40
0.3259115168
 40
0.4839844541
 40
0.6559442876
 40
1.0
 40
1.0
 40
1.0
 40
1.0
 10
174.4076494614
 20
191.1892469714
 30
0.0
 10
174.4012031412
 20
191.1891834729
 30
0.0
 10
174.39509838
 20
191.1573046474
 30
0.0
 10
174.3940176139
 20
191.1156199825
 30
0.0
 10
174.3966868749
 20
191.0333091762
 30
0.0
 10
174.4053244334
 20
190.9329219187
 30
0.0
 10
174.4186759519
 20
190.8125659035
 30
0.0
 10
174.4422025686
 20
190.6395333592
 30
0.0
 10
174.4641251311
 20
190.5073621955
 30
0.0
 10
174.4808316695
 20
190.4197026538
 30
0.0
  0
SPLINE
  5
3E0
100
AcDbEntity
  8
0
100
AcDbSpline
 62
7
  6
CONTINUOUS
 70
0
 71
3
 72
16
 73
12
 74
0
 42
0.0000001
 43
0.0000001
 44
0.0000000001
 40
0.0
 40
0.0
 40
0.0
 40
0.0
 40
0.3690187913
 40
0.5416741484
 40
0.6955282933
 40
0.8235052799
 40
0.9195483599
 40
0.9539338189
 40
0.9787717964
 40
0.9939275127
 40
1.0
 40
1.0
 40
1.0
 40
1.0
 10
258.6808316654
 20
167.4633903722
 30
0.0
 10
258.667162732
 20
167.3860298539
 30
0.0
 10
258.6480799995
 20
167.2722881717
 30
0.0
 10
258.6257152722
 20
167.1259366964
 30
0.0
 10
258.6122285759
 20
167.030075799
 30
0.0
 10
258.6022450578
 20
166.9503874521
 30
0.0
 10
258.5967558346
 20
166.8953373328
 30
0.0
 10
258.594610881
 20
166.862766478
 30
0.0
 10
258.5945866099
 20
166.8462049592
 30
0.0
 10
258.5948049496
 20
166.8377232252
 30
0.0
 10
258.596594531
 20
166.8317945642
 30
0.0
 10
258.5978871535
 20
166.8318124149
 30
0.0
  0
SPLINE
  5
3E1
100
AcDbEntity
  8
0
100
AcDbSpline
 62
7
  6
CONTINUOUS
 70
0
 71
3
 72
13
 73
9
 74
0
 42
0.0000001
 43
0.0000001
 44
0.0000000001
 40
0.0
 40
0.0
 40
0.0
 40
0.0
 40
0.4044183094
 40
0.724755467
 40
0.8423575955
 40
0.9281537132
 40
0.980192777
 40
1.0
 40
1.0
 40
1.0
 40
1.0
 10
258.6808316714
 20
167.1805022933
 30
0.0
 10
258.6862003824
 20
167.2090950541
 30
0.0
 10
258.6953875209
 20
167.2602799446
 30
0.0
 10
258.7046412218
 20
167.320593761
 30
0.0
 10
258.7090724394
 20
167.3574305232
 30
0.0
 10
258.7103349213
 20
167.376776626
 30
0.0
 10
258.7106082093
 20
167.3862850956
 30
0.0
 10
258.7093122272
 20
167.3934845369
 30
0.0
 10
258.7078873956
 20
167.3934937735
 30
0.0
  0
SPLINE
  5
3E2
100
AcDbEntity
  8
0
100
AcDbSpline
 62
7
  6
CONTINUOUS
 70
0
 71
3
 72
9
 73
5
 74
0
 42
0.0000001
 43
0.0000001
 44
0.0000000001
 40
0.0
 40
0.0
 40
0.0
 40
0.0
 40
0.2249889044
 40
1.0
 40
1.0
 40
1.0
 40
1.0
 10
258.6808316714
 20
168.0932344346
 30
0.0
 10
258.6857438163
 20
168.1152255061
 30
0.0
 10
258.7035491563
 20
168.2138341363
 30
0.0
 10
258.7105234608
 20
168.3142942621
 30
0.0
 10
258.7103797422
 20
168.3919127579
 30
0.0
  0
SPLINE
  5
3E3
100
AcDbEntity
  8
0
100
AcDbSpline
 62
7
  6
CONTINUOUS
 70
0
 71
3
 72
9
 73
5
 74
0
 42
0.0000001
 43
0.0000001
 44
0.0000000001
 40
0.0
 40
0.0
 40
0.0
 40
0.0
 40
0.6016958168
 40
1.0
 40
1.0
 40
1.0
 40
1.0
 10
258.7103797422
 20
168.3919127579
 30
0.0
 10
258.7102957515
 20
168.4372738129
 30
0.0
 10
258.7062842797
 20
168.5121143895
 30
0.0
 10
258.6937687253
 20
168.5881290012
 30
0.0
 10
258.6808316638
 20
168.6152268601
 30
0.0
  0
SPLINE
  5
3E4
100
AcDbEntity
  8
0
100
AcDbSpline
 62
7
  6
CONTINUOUS
 70
0
 71
3
 72
9
 73
5
 74
0
 42
0.0000001
 43
0.0000001
 44
0.0000000001
 40
0.0
 40
0.0
 40
0.0
 40
0.0
 40
0.1922815639
 40
1.0
 40
1.0
 40
1.0
 40
1.0
 10
258.6808316638
 20
168.6152268601
 30
0.0
 10
258.6767118694
 20
168.6238561504
 30
0.0
 10
258.658202259
 20
168.6701040113
 30
0.0
 10
258.6469870982
 20
168.7188602552
 30
0.0
 10
258.6391061206
 20
168.7582479176
 30
0.0
  0
SPLINE
  5
3E5
100
AcDbEntity
  8
0
100
AcDbSpline
 62
7
  6
CONTINUOUS
 70
0
 71
3
 72
11
 73
7
 74
0
 42
0.0000001
 43
0.0000001
 44
0.0000000001
 40
0.0
 40
0.0
 40
0.0
 40
0.0
 40
0.4279119792
 40
0.7371750279
 40
0.9257549596
 40
1.0
 40
1.0
 40
1.0
 40
1.0
 10
258.5963855412
 20
170.6285409279
 30
0.0
 10
258.5957552602
 20
170.6366319027
 30
0.0
 10
258.5947509486
 20
170.6502930946
 30
0.0
 10
258.5945334764
 20
170.6687469657
 30
0.0
 10
258.594729996
 20
170.6780112674
 30
0.0
 10
258.596479207
 20
170.6847020529
 30
0.0
 10
258.5978871535
 20
170.6846826096
 30
0.0
  0
SPLINE
  5
3E6
100
AcDbEntity
  8
0
100
AcDbSpline
 62
7
  6
CONTINUOUS
 70
0
 71
3
 72
9
 73
5
 74
0
 42
0.0000001
 43
0.0000001
 44
0.0000000001
 40
0.0
 40
0.0
 40
0.0
 40
0.0
 40
0.6352784711
 40
1.0
 40
1.0
 40
1.0
 40
1.0
 10
258.6808316714
 20
170.3359927312
 30
0.0
 10
258.6888215744
 20
170.2934399871
 30
0.0
 10
258.6997688238
 20
170.2263606443
 30
0.0
 10
258.7105560777
 20
170.1586374082
 30
0.0
 10
258.7103797422
 20
170.1337810388
 30
0.0
  0
SPLINE
  5
3E7
100
AcDbEntity
  8
0
100
AcDbSpline
 62
7
  6
CONTINUOUS
 70
0
 71
3
 72
9
 73
5
 74
0
 42
0.0000001
 43
0.0000001
 44
0.0000000001
 40
0.0
 40
0.0
 40
0.0
 40
0.0
 40
0.4203293315
 40
1.0
 40
1.0
 40
1.0
 40
1.0
 10
258.7103797422
 20
170.1337810388
 30
0.0
 10
258.7103686037
 20
170.1322109412
 30
0.0
 10
258.7101231625
 20
170.1291082449
 30
0.0
 10
258.7100527056
 20
170.1230152878
 30
0.0
 10
258.7078873956
 20
170.123001251
 30
0.0
  0
SPLINE
  5
3E8
100
AcDbEntity
  8
0
100
AcDbSpline
 62
7
  6
CONTINUOUS
 70
0
 71
3
 72
10
 73
6
 74
0
 42
0.0000001
 43
0.0000001
 44
0.0000000001
 40
0.0
 40
0.0
 40
0.0
 40
0.0
 40
0.5658029983
 40
0.8271111834
 40
1.0
 40
1.0
 40
1.0
 40
1.0
 10
258.680831662
 20
169.4232606316
 30
0.0
 10
258.7024705986
 20
169.3263857848
 30
0.0
 10
258.714851104
 20
169.1797777349
 30
0.0
 10
258.7064975507
 20
169.0054670176
 30
0.0
 10
258.6938993712
 20
168.9286396817
 30
0.0
 10
258.6808316695
 20
168.9012681764
 30
0.0
  0
SPLINE
  5
3E9
100
AcDbEntity
  8
0
100
AcDbSpline
 62
7
  6
CONTINUOUS
 70
0
 71
3
 72
9
 73
5
 74
0
 42
0.0000001
 43
0.0000001
 44
0.0000000001
 40
0.0
 40
0.0
 40
0.0
 40
0.0
 40
0.1922815573
 40
1.0
 40
1.0
 40
1.0
 40
1.0
 10
258.6808316695
 20
168.9012681764
 30
0.0
 10
258.6767118744
 20
168.8926388858
 30
0.0
 10
258.6582022719
 20
168.8463910205
 30
0.0
 10
258.6469869471
 20
168.7976348036
 30
0.0
 10
258.6391061206
 20
168.7582471068
 30
0.0
  0
SPLINE
  5
3EA
100
AcDbEntity
  8
0
100
AcDbSpline
 62
7
  6
CONTINUOUS
 70
0
 71
3
 72
10
 73
6
 74
0
 42
0.0000001
 43
0.0000001
 44
0.0000000001
 40
0.0
 40
0.0
 40
0.0
 40
0.0
 40
0.5179560773
 40
0.7856309884
 40
1.0
 40
1.0
 40
1.0
 40
1.0
 10
258.6391061206
 20
168.7582471068
 30
0.0
 10
258.6118904167
 20
168.6222266031
 30
0.0
 10
258.5941027353
 20
168.4112387752
 30
0.0
 10
258.5939623717
 20
168.1435588914
 30
0.0
 10
258.6042528302
 20
168.0144408332
 30
0.0
 10
258.6139093995
 20
167.9578474944
 30
0.0
  0
SPLINE
  5
3EB
100
AcDbEntity
  8
0
100
AcDbSpline
 62
7
  6
CONTINUOUS
 70
0
 71
3
 72
9
 73
5
 74
0
 42
0.0000001
 43
0.0000001
 44
0.0000000001
 40
0.0
 40
0.0
 40
0.0
 40
0.0
 40
0.6638200608
 40
1.0
 40
1.0
 40
1.0
 40
1.0
 10
258.6139093995
 20
167.9578474944
 30
0.0
 10
258.6187238387
 20
167.9296319678
 30
0.0
 10
258.6268572628
 20
167.8904754486
 30
0.0
 10
258.6480062534
 20
167.8445728881
 30
0.0
 10
258.6618459643
 20
167.8402612799
 30
0.0
  0
SPLINE
  5
3EC
100
AcDbEntity
  8
0
100
AcDbSpline
 62
7
  6
CONTINUOUS
 70
0
 71
3
 72
9
 73
5
 74
0
 42
0.0000001
 43
0.0000001
 44
0.0000000001
 40
0.0
 40
0.0
 40
0.0
 40
0.0
 40
0.5042384362
 40
1.0
 40
1.0
 40
1.0
 40
1.0
 10
258.6618459643
 20
167.8402612799
 30
0.0
 10
258.6626339555
 20
167.84001579
 30
0.0
 10
258.6642333102
 20
167.8396379214
 30
0.0
 10
258.6658718897
 20
167.8395049367
 30
0.0
 10
258.6666833507
 20
167.8395009967
 30
0.0
  0
SPLINE
  5
3ED
100
AcDbEntity
  8
0
100
AcDbSpline
 62
7
  6
CONTINUOUS
 70
0
 71
3
 72
14
 73
10
 74
0
 42
0.0000001
 43
0.0000001
 44
0.0000000001
 40
0.0
 40
0.0
 40
0.0
 40
0.0
 40
0.3130560881
 40
0.4837145247
 40
0.6467063423
 40
0.7890885654
 40
0.8995598645
 40
0.9700941803
 40
1.0
 40
1.0
 40
1.0
 40
1.0
 10
258.680831662
 20
169.4232606316
 30
0.0
 10
258.6602434479
 20
169.5154315485
 30
0.0
 10
258.6360229204
 20
169.6596045023
 30
0.0
 10
258.6121651393
 20
169.8530739405
 30
0.0
 10
258.5997838735
 20
169.9966596991
 30
0.0
 10
258.5933154285
 20
170.1205363784
 30
0.0
 10
258.5959321515
 20
170.221931075
 30
0.0
 10
258.5999048036
 20
170.2780463303
 30
0.0
 10
258.6141091012
 20
170.3158835393
 30
0.0
 10
258.6231310445
 20
170.3158766965
 30
0.0
  0
SPLINE
  5
3EE
100
AcDbEntity
  8
0
100
AcDbSpline
 62
7
  6
CONTINUOUS
 70
0
 71
3
 72
12
 73
8
 74
0
 42
0.0000001
 43
0.0000001
 44
0.0000000001
 40
0.0
 40
0.0
 40
0.0
 40
0.0
 40
0.3521898851
 40
0.6581403349
 40
0.880333597
 40
0.9529636447
 40
1.0
 40
1.0
 40
1.0
 40
1.0
 10
174.3945675364
 20
189.4051989794
 30
0.0
 10
174.3945675425
 20
189.3394021917
 30
0.0
 10
174.398330138
 20
189.2162861612
 30
0.0
 10
174.4149896608
 20
189.0529125612
 30
0.0
 10
174.4365345076
 20
188.9416668609
 30
0.0
 10
174.4600824952
 20
188.8826353483
 30
0.0
 10
174.4734464076
 20
188.863463323
 30
0.0
 10
174.4808316695
 20
188.8587013182
 30
0.0
  0
SPLINE
  5
3EF
100
AcDbEntity
  8
0
100
AcDbSpline
 62
7
  6
CONTINUOUS
 70
0
 71
3
 72
12
 73
8
 74
0
 42
0.0000001
 43
0.0000001
 44
0.0000000001
 40
0.0
 40
0.0
 40
0.0
 40
0.0
 40
0.0470313126
 40
0.1196672743
 40
0.3419127674
 40
0.6478163562
 40
1.0
 40
1.0
 40
1.0
 40
1.0
 10
174.4808316585
 20
189.9516970447
 30
0.0
 10
174.4734472083
 20
189.9469355584
 30
0.0
 10
174.4600898672
 20
189.9277569056
 30
0.0
 10
174.4365577613
 20
189.8687110006
 30
0.0
 10
174.4149873073
 20
189.7574720533
 30
0.0
 10
174.3982446192
 20
189.5941035638
 30
0.0
 10
174.3945675304
 20
189.470994444
 30
0.0
 10
174.3945675364
 20
189.4051989794
 30
0.0
  0
SPLINE
  5
3F0
100
AcDbEntity
  8
0
100
AcDbSpline
 62
7
  6
CONTINUOUS
 70
0
 71
3
 72
12
 73
8
 74
0
 42
0.0000001
 43
0.0000001
 44
0.0000000001
 40
0.0
 40
0.0
 40
0.0
 40
0.0
 40
0.3241880151
 40
0.6396949695
 40
0.8788917094
 40
0.9547412318
 40
1.0
 40
1.0
 40
1.0
 40
1.0
 10
174.4808316695
 20
190.4197026538
 30
0.0
 10
174.4904437521
 20
190.3692678639
 30
0.0
 10
174.5045088541
 20
190.2686439728
 30
0.0
 10
174.5123150984
 20
190.1300459996
 30
0.0
 10
174.5087423111
 20
190.0288633147
 30
0.0
 10
174.4961717822
 20
189.974001868
 30
0.0
 10
174.4868557019
 20
189.955581331
 30
0.0
 10
174.4808316585
 20
189.9516970447
 30
0.0
  0
SPLINE
  5
3F1
100
AcDbEntity
  8
0
100
AcDbSpline
 62
7
  6
CONTINUOUS
 70
0
 71
3
 72
14
 73
10
 74
0
 42
0.0000001
 43
0.0000001
 44
0.0000000001
 40
0.0
 40
0.0
 40
0.0
 40
0.0
 40
0.3441309914
 40
0.5161371611
 40
0.6742001748
 40
0.8087339847
 40
0.9110270935
 40
0.9751825222
 40
1.0
 40
1.0
 40
1.0
 40
1.0
 10
174.4808316571
 20
188.3906956512
 30
0.0
 10
174.4641215665
 20
188.3030174647
 30
0.0
 10
174.4421989492
 20
188.170815057
 30
0.0
 10
174.4186683816
 20
187.997755117
 30
0.0
 10
174.4053169344
 20
187.8773962776
 30
0.0
 10
174.396675564
 20
187.7770296491
 30
0.0
 10
174.3940289909
 20
187.6947358033
 30
0.0
 10
174.3950847942
 20
187.6530783262
 30
0.0
 10
174.4012143052
 20
187.6212133913
 30
0.0
 10
174.4076509236
 20
187.6211597272
 30
0.0
  0
SPLINE
  5
3F2
100
AcDbEntity
  8
0
100
AcDbSpline
 62
7
  6
CONTINUOUS
 70
0
 71
3
 72
12
 73
8
 74
0
 42
0.0000001
 43
0.0000001
 44
0.0000000001
 40
0.0
 40
0.0
 40
0.0
 40
0.0
 40
0.0453092536
 40
0.12121398
 40
0.3604959386
 40
0.6759692919
 40
1.0
 40
1.0
 40
1.0
 40
1.0
 10
174.4808316695
 20
188.8587013182
 30
0.0
 10
174.4868624906
 20
188.8548126547
 30
0.0
 10
174.4961852613
 20
188.836376061
 30
0.0
 10
174.5088041555
 20
188.7814949514
 30
0.0
 10
174.5122964046
 20
188.6802810274
 30
0.0
 10
174.5044559144
 20
188.5417090165
 30
0.0
 10
174.4904391753
 20
188.4411064794
 30
0.0
 10
174.4808316571
 20
188.3906956512
 30
0.0
  0
SPLINE
  5
3F3
100
AcDbEntity
  8
0
100
AcDbSpline
 62
7
  6
CONTINUOUS
 70
0
 71
3
 72
16
 73
12
 74
0
 42
0.0000001
 43
0.0000001
 44
0.0000000001
 40
0.0
 40
0.0
 40
0.0
 40
0.0
 40
0.3690187913
 40
0.5416741484
 40
0.6955282933
 40
0.8235052799
 40
0.9195483599
 40
0.9539338189
 40
0.9787717964
 40
0.9939275127
 40
1.0
 40
1.0
 40
1.0
 40
1.0
 10
258.6808316654
 20
146.9572937178
 30
0.0
 10
258.667162732
 20
146.8799331995
 30
0.0
 10
258.6480799995
 20
146.7661915173
 30
0.0
 10
258.6257152722
 20
146.619840042
 30
0.0
 10
258.6122285759
 20
146.5239791446
 30
0.0
 10
258.6022450578
 20
146.4442907977
 30
0.0
 10
258.5967558346
 20
146.3892406784
 30
0.0
 10
258.594610881
 20
146.3566698236
 30
0.0
 10
258.5945866099
 20
146.3401083048
 30
0.0
 10
258.5948049496
 20
146.3316265707
 30
0.0
 10
258.596594531
 20
146.3256979098
 30
0.0
 10
258.5978871535
 20
146.3257157605
 30
0.0
  0
SPLINE
  5
3F4
100
AcDbEntity
  8
0
100
AcDbSpline
 62
7
  6
CONTINUOUS
 70
0
 71
3
 72
13
 73
9
 74
0
 42
0.0000001
 43
0.0000001
 44
0.0000000001
 40
0.0
 40
0.0
 40
0.0
 40
0.0
 40
0.4044183094
 40
0.724755467
 40
0.8423575955
 40
0.9281537132
 40
0.980192777
 40
1.0
 40
1.0
 40
1.0
 40
1.0
 10
258.6808316714
 20
146.6744056389
 30
0.0
 10
258.6862003824
 20
146.7029983997
 30
0.0
 10
258.6953875209
 20
146.7541832902
 30
0.0
 10
258.7046412218
 20
146.8144971066
 30
0.0
 10
258.7090724394
 20
146.8513338688
 30
0.0
 10
258.7103349213
 20
146.8706799716
 30
0.0
 10
258.7106082093
 20
146.8801884412
 30
0.0
 10
258.7093122272
 20
146.8873878825
 30
0.0
 10
258.7078873956
 20
146.8873971191
 30
0.0
  0
SPLINE
  5
3F5
100
AcDbEntity
  8
0
100
AcDbSpline
 62
7
  6
CONTINUOUS
 70
0
 71
3
 72
9
 73
5
 74
0
 42
0.0000001
 43
0.0000001
 44
0.0000000001
 40
0.0
 40
0.0
 40
0.0
 40
0.0
 40
0.2249889044
 40
1.0
 40
1.0
 40
1.0
 40
1.0
 10
258.6808316714
 20
147.5871377801
 30
0.0
 10
258.6857438163
 20
147.6091288517
 30
0.0
 10
258.7035491563
 20
147.7077374819
 30
0.0
 10
258.7105234608
 20
147.8081976076
 30
0.0
 10
258.7103797422
 20
147.8858161035
 30
0.0
  0
SPLINE
  5
3F6
100
AcDbEntity
  8
0
100
AcDbSpline
 62
7
  6
CONTINUOUS
 70
0
 71
3
 72
9
 73
5
 74
0
 42
0.0000001
 43
0.0000001
 44
0.0000000001
 40
0.0
 40
0.0
 40
0.0
 40
0.0
 40
0.6016958168
 40
1.0
 40
1.0
 40
1.0
 40
1.0
 10
258.7103797422
 20
147.8858161035
 30
0.0
 10
258.7102957515
 20
147.9311771585
 30
0.0
 10
258.7062842797
 20
148.0060177351
 30
0.0
 10
258.6937687253
 20
148.0820323468
 30
0.0
 10
258.6808316638
 20
148.1091302056
 30
0.0
  0
SPLINE
  5
3F7
100
AcDbEntity
  8
0
100
AcDbSpline
 62
7
  6
CONTINUOUS
 70
0
 71
3
 72
9
 73
5
 74
0
 42
0.0000001
 43
0.0000001
 44
0.0000000001
 40
0.0
 40
0.0
 40
0.0
 40
0.0
 40
0.1922815639
 40
1.0
 40
1.0
 40
1.0
 40
1.0
 10
258.6808316638
 20
148.1091302056
 30
0.0
 10
258.6767118694
 20
148.117759496
 30
0.0
 10
258.658202259
 20
148.1640073569
 30
0.0
 10
258.6469870982
 20
148.2127636008
 30
0.0
 10
258.6391061206
 20
148.2521512632
 30
0.0
  0
SPLINE
  5
3F8
100
AcDbEntity
  8
0
100
AcDbSpline
 62
7
  6
CONTINUOUS
 70
0
 71
3
 72
11
 73
7
 74
0
 42
0.0000001
 43
0.0000001
 44
0.0000000001
 40
0.0
 40
0.0
 40
0.0
 40
0.0
 40
0.4279119792
 40
0.7371750279
 40
0.9257549596
 40
1.0
 40
1.0
 40
1.0
 40
1.0
 10
258.5963855412
 20
150.1224442735
 30
0.0
 10
258.5957552602
 20
150.1305352483
 30
0.0
 10
258.5947509486
 20
150.1441964401
 30
0.0
 10
258.5945334764
 20
150.1626503113
 30
0.0
 10
258.594729996
 20
150.171914613
 30
0.0
 10
258.596479207
 20
150.1786053985
 30
0.0
 10
258.5978871535
 20
150.1785859552
 30
0.0
  0
SPLINE
  5
3F9
100
AcDbEntity
  8
0
100
AcDbSpline
 62
7
  6
CONTINUOUS
 70
0
 71
3
 72
9
 73
5
 74
0
 42
0.0000001
 43
0.0000001
 44
0.0000000001
 40
0.0
 40
0.0
 40
0.0
 40
0.0
 40
0.6352784711
 40
1.0
 40
1.0
 40
1.0
 40
1.0
 10
258.6808316714
 20
149.8298960768
 30
0.0
 10
258.6888215744
 20
149.7873433327
 30
0.0
 10
258.6997688238
 20
149.7202639899
 30
0.0
 10
258.7105560777
 20
149.6525407538
 30
0.0
 10
258.7103797422
 20
149.6276843843
 30
0.0
  0
SPLINE
  5
3FA
100
AcDbEntity
  8
0
100
AcDbSpline
 62
7
  6
CONTINUOUS
 70
0
 71
3
 72
9
 73
5
 74
0
 42
0.0000001
 43
0.0000001
 44
0.0000000001
 40
0.0
 40
0.0
 40
0.0
 40
0.0
 40
0.4203293315
 40
1.0
 40
1.0
 40
1.0
 40
1.0
 10
258.7103797422
 20
149.6276843843
 30
0.0
 10
258.7103686037
 20
149.6261142867
 30
0.0
 10
258.7101231625
 20
149.6230115905
 30
0.0
 10
258.7100527056
 20
149.6169186334
 30
0.0
 10
258.7078873956
 20
149.6169045966
 30
0.0
  0
SPLINE
  5
3FB
100
AcDbEntity
  8
0
100
AcDbSpline
 62
7
  6
CONTINUOUS
 70
0
 71
3
 72
10
 73
6
 74
0
 42
0.0000001
 43
0.0000001
 44
0.0000000001
 40
0.0
 40
0.0
 40
0.0
 40
0.0
 40
0.5658029983
 40
0.8271111834
 40
1.0
 40
1.0
 40
1.0
 40
1.0
 10
258.680831662
 20
148.9171639772
 30
0.0
 10
258.7024705986
 20
148.8202891304
 30
0.0
 10
258.714851104
 20
148.6736810805
 30
0.0
 10
258.7064975507
 20
148.4993703632
 30
0.0
 10
258.6938993712
 20
148.4225430273
 30
0.0
 10
258.6808316695
 20
148.395171522
 30
0.0
  0
SPLINE
  5
3FC
100
AcDbEntity
  8
0
100
AcDbSpline
 62
7
  6
CONTINUOUS
 70
0
 71
3
 72
9
 73
5
 74
0
 42
0.0000001
 43
0.0000001
 44
0.0000000001
 40
0.0
 40
0.0
 40
0.0
 40
0.0
 40
0.1922815573
 40
1.0
 40
1.0
 40
1.0
 40
1.0
 10
258.6808316695
 20
148.395171522
 30
0.0
 10
258.6767118744
 20
148.3865422314
 30
0.0
 10
258.6582022719
 20
148.3402943661
 30
0.0
 10
258.6469869471
 20
148.2915381492
 30
0.0
 10
258.6391061206
 20
148.2521504524
 30
0.0
  0
SPLINE
  5
3FD
100
AcDbEntity
  8
0
100
AcDbSpline
 62
7
  6
CONTINUOUS
 70
0
 71
3
 72
10
 73
6
 74
0
 42
0.0000001
 43
0.0000001
 44
0.0000000001
 40
0.0
 40
0.0
 40
0.0
 40
0.0
 40
0.5179560773
 40
0.7856309884
 40
1.0
 40
1.0
 40
1.0
 40
1.0
 10
258.6391061206
 20
148.2521504524
 30
0.0
 10
258.6118904167
 20
148.1161299487
 30
0.0
 10
258.5941027353
 20
147.9051421208
 30
0.0
 10
258.5939623717
 20
147.637462237
 30
0.0
 10
258.6042528302
 20
147.5083441788
 30
0.0
 10
258.6139093995
 20
147.45175084
 30
0.0
  0
SPLINE
  5
3FE
100
AcDbEntity
  8
0
100
AcDbSpline
 62
7
  6
CONTINUOUS
 70
0
 71
3
 72
9
 73
5
 74
0
 42
0.0000001
 43
0.0000001
 44
0.0000000001
 40
0.0
 40
0.0
 40
0.0
 40
0.0
 40
0.6638200608
 40
1.0
 40
1.0
 40
1.0
 40
1.0
 10
258.6139093995
 20
147.45175084
 30
0.0
 10
258.6187238387
 20
147.4235353134
 30
0.0
 10
258.6268572628
 20
147.3843787941
 30
0.0
 10
258.6480062534
 20
147.3384762337
 30
0.0
 10
258.6618459643
 20
147.3341646255
 30
0.0
  0
SPLINE
  5
3FF
100
AcDbEntity
  8
0
100
AcDbSpline
 62
7
  6
CONTINUOUS
 70
0
 71
3
 72
9
 73
5
 74
0
 42
0.0000001
 43
0.0000001
 44
0.0000000001
 40
0.0
 40
0.0
 40
0.0
 40
0.0
 40
0.5042384362
 40
1.0
 40
1.0
 40
1.0
 40
1.0
 10
258.6618459643
 20
147.3341646255
 30
0.0
 10
258.6626339555
 20
147.3339191356
 30
0.0
 10
258.6642333102
 20
147.333541267
 30
0.0
 10
258.6658718897
 20
147.3334082823
 30
0.0
 10
258.6666833507
 20
147.3334043423
 30
0.0
  0
SPLINE
  5
400
100
AcDbEntity
  8
0
100
AcDbSpline
 62
7
  6
CONTINUOUS
 70
0
 71
3
 72
14
 73
10
 74
0
 42
0.0000001
 43
0.0000001
 44
0.0000000001
 40
0.0
 40
0.0
 40
0.0
 40
0.0
 40
0.3130560881
 40
0.4837145247
 40
0.6467063423
 40
0.7890885654
 40
0.8995598645
 40
0.9700941803
 40
1.0
 40
1.0
 40
1.0
 40
1.0
 10
258.680831662
 20
148.9171639772
 30
0.0
 10
258.6602434479
 20
149.0093348941
 30
0.0
 10
258.6360229204
 20
149.1535078478
 30
0.0
 10
258.6121651393
 20
149.3469772861
 30
0.0
 10
258.5997838735
 20
149.4905630447
 30
0.0
 10
258.5933154285
 20
149.6144397239
 30
0.0
 10
258.5959321515
 20
149.7158344205
 30
0.0
 10
258.5999048036
 20
149.7719496759
 30
0.0
 10
258.6141091012
 20
149.8097868849
 30
0.0
 10
258.6231310445
 20
149.809780042
 30
0.0
  0
SPLINE
  5
401
100
AcDbEntity
  8
0
100
AcDbSpline
 62
7
  6
CONTINUOUS
 70
0
 71
3
 72
12
 73
8
 74
0
 42
0.0000001
 43
0.0000001
 44
0.0000000001
 40
0.0
 40
0.0
 40
0.0
 40
0.0
 40
0.3521898851
 40
0.6581403349
 40
0.880333597
 40
0.9529636447
 40
1.0
 40
1.0
 40
1.0
 40
1.0
 10
181.3945675364
 20
144.1051989794
 30
0.0
 10
181.3945675425
 20
144.0394021917
 30
0.0
 10
181.398330138
 20
143.9162861612
 30
0.0
 10
181.4149896608
 20
143.7529125612
 30
0.0
 10
181.4365345076
 20
143.6416668609
 30
0.0
 10
181.4600824952
 20
143.5826353483
 30
0.0
 10
181.4734464076
 20
143.563463323
 30
0.0
 10
181.4808316695
 20
143.5587013182
 30
0.0
  0
SPLINE
  5
402
100
AcDbEntity
  8
0
100
AcDbSpline
 62
7
  6
CONTINUOUS
 70
0
 71
3
 72
12
 73
8
 74
0
 42
0.0000001
 43
0.0000001
 44
0.0000000001
 40
0.0
 40
0.0
 40
0.0
 40
0.0
 40
0.0470313103
 40
0.11966727
 40
0.3419127617
 40
0.6478163523
 40
1.0
 40
1.0
 40
1.0
 40
1.0
 10
181.4808316608
 20
144.6516970462
 30
0.0
 10
181.4734472104
 20
144.6469355608
 30
0.0
 10
181.4600898688
 20
144.6277569088
 30
0.0
 10
181.4365577623
 20
144.568711005
 30
0.0
 10
181.4149873078
 20
144.4574720574
 30
0.0
 10
181.3982446193
 20
144.2941035665
 30
0.0
 10
181.3945675304
 20
144.1709944451
 30
0.0
 10
181.3945675364
 20
144.1051989794
 30
0.0
  0
SPLINE
  5
403
100
AcDbEntity
  8
0
100
AcDbSpline
 62
7
  6
CONTINUOUS
 70
0
 71
3
 72
12
 73
8
 74
0
 42
0.0000001
 43
0.0000001
 44
0.0000000001
 40
0.0
 40
0.0
 40
0.0
 40
0.0
 40
0.3241880128
 40
0.6396949632
 40
0.8788917033
 40
0.9547412283
 40
1.0
 40
1.0
 40
1.0
 40
1.0
 10
181.4808316714
 20
145.1197026441
 30
0.0
 10
181.4904437532
 20
145.0692678558
 30
0.0
 10
181.5045088544
 20
144.9686439683
 30
0.0
 10
181.5123150982
 20
144.8300459996
 30
0.0
 10
181.5087423113
 20
144.7288633178
 30
0.0
 10
181.4961717831
 20
144.6740018711
 30
0.0
 10
181.4868557038
 20
144.6555813337
 30
0.0
 10
181.4808316608
 20
144.6516970462
 30
0.0
  0
SPLINE
  5
404
100
AcDbEntity
  8
0
100
AcDbSpline
 62
7
  6
CONTINUOUS
 70
0
 71
3
 72
14
 73
10
 74
0
 42
0.0000001
 43
0.0000001
 44
0.0000000001
 40
0.0
 40
0.0
 40
0.0
 40
0.0
 40
0.3441309855
 40
0.5161371551
 40
0.6742001699
 40
0.8087339815
 40
0.911027092
 40
0.9751825219
 40
1.0
 40
1.0
 40
1.0
 40
1.0
 10
181.4808316626
 20
143.09069568
 30
0.0
 10
181.4641215712
 20
143.0030174918
 30
0.0
 10
181.4421989528
 20
142.8708150807
 30
0.0
 10
181.4186683839
 20
142.6977551356
 30
0.0
 10
181.4053169357
 20
142.5773962909
 30
0.0
 10
181.3966755645
 20
142.4770296576
 30
0.0
 10
181.3940289908
 20
142.3947358073
 30
0.0
 10
181.3950847942
 20
142.3530783282
 30
0.0
 10
181.4012143049
 20
142.3212133913
 30
0.0
 10
181.4076509236
 20
142.3211597272
 30
0.0
  0
SPLINE
  5
405
100
AcDbEntity
  8
0
100
AcDbSpline
 62
7
  6
CONTINUOUS
 70
0
 71
3
 72
12
 73
8
 74
0
 42
0.0000001
 43
0.0000001
 44
0.0000000001
 40
0.0
 40
0.0
 40
0.0
 40
0.0
 40
0.0453092534
 40
0.1212139783
 40
0.3604959318
 40
0.6759692833
 40
1.0
 40
1.0
 40
1.0
 40
1.0
 10
181.4808316695
 20
143.5587013182
 30
0.0
 10
181.4868624902
 20
143.554812655
 30
0.0
 10
181.4961852605
 20
143.5363760629
 30
0.0
 10
181.5088041546
 20
143.4814949578
 30
0.0
 10
181.5122964046
 20
143.3802810415
 30
0.0
 10
181.5044559165
 20
143.2417090387
 30
0.0
 10
181.4904391795
 20
143.1411065066
 30
0.0
 10
181.4808316626
 20
143.09069568
 30
0.0
  0
SPLINE
  5
406
100
AcDbEntity
  8
0
100
AcDbSpline
 62
7
  6
CONTINUOUS
 70
0
 71
3
 72
11
 73
7
 74
0
 42
0.0000001
 43
0.0000001
 44
0.0000000001
 40
0.0
 40
0.0
 40
0.0
 40
0.0
 40
0.085586962
 40
0.2859966295
 40
0.5970861207
 40
1.0
 40
1.0
 40
1.0
 40
1.0
 10
174.4076509236
 20
187.6211597272
 30
0.0
 10
174.414411814
 20
187.6211033596
 30
0.0
 10
174.4266357758
 20
187.6474229526
 30
0.0
 10
174.4418473594
 20
187.686528996
 30
0.0
 10
174.4614578633
 20
187.7589932287
 30
0.0
 10
174.4740733573
 20
187.8130945979
 30
0.0
 10
174.480831673
 20
187.8441978654
 30
0.0
  0
SPLINE
  5
407
100
AcDbEntity
  8
0
100
AcDbSpline
 62
7
  6
CONTINUOUS
 70
0
 71
3
 72
9
 73
5
 74
0
 42
0.0000001
 43
0.0000001
 44
0.0000000001
 40
0.0
 40
0.0
 40
0.0
 40
0.0
 40
0.2884216001
 40
1.0
 40
1.0
 40
1.0
 40
1.0
 10
181.4769081722
 20
145.6840149564
 30
0.0
 10
181.4739672154
 20
145.6971865421
 30
0.0
 10
181.4634414709
 20
145.7427737026
 30
0.0
 10
181.4518403079
 20
145.7881581753
 30
0.0
 10
181.4419362074
 20
145.8199474859
 30
0.0
  0
SPLINE
  5
408
100
AcDbEntity
  8
0
100
AcDbSpline
 62
7
  6
CONTINUOUS
 70
0
 71
3
 72
10
 73
6
 74
0
 42
0.0000001
 43
0.0000001
 44
0.0000000001
 40
0.0
 40
0.0
 40
0.0
 40
0.0
 40
0.6997963805
 40
0.8965702092
 40
1.0
 40
1.0
 40
1.0
 40
1.0
 10
181.4419362074
 20
145.8199474859
 30
0.0
 10
181.4364665747
 20
145.8375034318
 30
0.0
 10
181.4286522404
 20
145.8604521758
 30
0.0
 10
181.4169029426
 20
145.8829157056
 30
0.0
 10
181.4103671114
 20
145.8892737412
 30
0.0
 10
181.4076494614
 20
145.8892469714
 30
0.0
  0
SPLINE
  5
409
100
AcDbEntity
  8
0
100
AcDbSpline
 62
7
  6
CONTINUOUS
 70
0
 71
3
 72
11
 73
7
 74
0
 42
0.0000001
 43
0.0000001
 44
0.0000000001
 40
0.0
 40
0.0
 40
0.0
 40
0.0
 40
0.0759588976
 40
0.2714113332
 40
0.5830314131
 40
1.0
 40
1.0
 40
1.0
 40
1.0
 10
258.5978871535
 20
166.8318124149
 30
0.0
 10
258.6016462724
 20
166.8318643271
 30
0.0
 10
258.6061068398
 20
166.8495229709
 30
0.0
 10
258.6155244009
 20
166.872437465
 30
0.0
 10
258.6264234568
 20
166.919288788
 30
0.0
 10
258.6346369517
 20
166.9536344044
 30
0.0
 10
258.6390959566
 20
166.9737841937
 30
0.0
  0
SPLINE
  5
40A
100
AcDbEntity
  8
0
100
AcDbSpline
 62
7
  6
CONTINUOUS
 70
0
 71
3
 72
11
 73
7
 74
0
 42
0.0000001
 43
0.0000001
 44
0.0000000001
 40
0.0
 40
0.0
 40
0.0
 40
0.0
 40
0.0759588976
 40
0.2714113332
 40
0.5830314131
 40
1.0
 40
1.0
 40
1.0
 40
1.0
 10
258.5978871535
 20
146.3257157605
 30
0.0
 10
258.6016462724
 20
146.3257676727
 30
0.0
 10
258.6061068398
 20
146.3434263165
 30
0.0
 10
258.6155244009
 20
146.3663408106
 30
0.0
 10
258.6264234568
 20
146.4131921336
 30
0.0
 10
258.6346369517
 20
146.44753775
 30
0.0
 10
258.6390959566
 20
146.4676875393
 30
0.0
  0
SPLINE
  5
40B
100
AcDbEntity
  8
0
100
AcDbSpline
 62
7
  6
CONTINUOUS
 70
0
 71
3
 72
11
 73
7
 74
0
 42
0.0000001
 43
0.0000001
 44
0.0000000001
 40
0.0
 40
0.0
 40
0.0
 40
0.0
 40
0.0855869626
 40
0.2859966294
 40
0.5970861201
 40
1.0
 40
1.0
 40
1.0
 40
1.0
 10
181.4076509236
 20
142.3211597272
 30
0.0
 10
181.4144118135
 20
142.3211033595
 30
0.0
 10
181.426635775
 20
142.3474229504
 30
0.0
 10
181.4418473577
 20
142.3865289912
 30
0.0
 10
181.4614578608
 20
142.4589932186
 30
0.0
 10
181.4740733542
 20
142.5130945841
 30
0.0
 10
181.4808316695
 20
142.5441978495
 30
0.0
  0
SPLINE
  5
40C
100
AcDbEntity
  8
0
100
AcDbSpline
 62
7
  6
CONTINUOUS
 70
0
 71
3
 72
9
 73
5
 74
0
 42
0.0000001
 43
0.0000001
 44
0.0000000001
 40
0.0
 40
0.0
 40
0.0
 40
0.0
 40
0.2884216007
 40
1.0
 40
1.0
 40
1.0
 40
1.0
 10
174.4769081709
 20
190.9840149623
 30
0.0
 10
174.4739672141
 20
190.9971865477
 30
0.0
 10
174.4634414697
 20
191.0427737071
 30
0.0
 10
174.451840307
 20
191.0881581788
 30
0.0
 10
174.4419362066
 20
191.1199474885
 30
0.0
  0
SPLINE
  5
40D
100
AcDbEntity
  8
0
100
AcDbSpline
 62
7
  6
CONTINUOUS
 70
0
 71
3
 72
10
 73
6
 74
0
 42
0.0000001
 43
0.0000001
 44
0.0000000001
 40
0.0
 40
0.0
 40
0.0
 40
0.0
 40
0.6997963796
 40
0.8965702083
 40
1.0
 40
1.0
 40
1.0
 40
1.0
 10
174.4419362066
 20
191.1199474885
 30
0.0
 10
174.436466574
 20
191.1375034338
 30
0.0
 10
174.4286522399
 20
191.1604521769
 30
0.0
 10
174.4169029424
 20
191.1829157059
 30
0.0
 10
174.4103671113
 20
191.1892737412
 30
0.0
 10
174.4076494614
 20
191.1892469714
 30
0.0
  0
ELLIPSE
  5
40E
100
AcDbEntity
  8
0
100
AcDbEllipse
 62
7
  6
CONTINUOUS
 10
255.5006227938
 20
169.505199185
 30
0.0
 11
0.0
 21
4.0
 31
0.0
 40
1.0
 41
1.181035594
 42
1.5707963268
  0
ELLIPSE
  5
40F
100
AcDbEntity
  8
0
100
AcDbEllipse
 62
7
  6
CONTINUOUS
 10
24.6299122775
 20
187.005199185
 30
0.0
 11
125.9707105164
 21
-0.0
 31
0.0
 40
0.0436609429
 41
-0.0
 42
0.4963328891
  0
ELLIPSE
  5
410
100
AcDbEntity
  8
0
100
AcDbEllipse
 62
7
  6
CONTINUOUS
 10
130.7705477658
 20
187.005199185
 30
0.0
 11
0.0
 21
5.5
 31
0.0
 40
0.9572917423
 41
-1.0744634377
 42
-0.9656345423
  0
ELLIPSE
  5
411
100
AcDbEntity
  8
0
100
AcDbEllipse
 62
7
  6
CONTINUOUS
 10
465.695411763
 20
187.005199185
 30
0.0
 11
315.0947889692
 21
0.0
 31
0.0
 40
0.0174550649
 41
3.0034905823
 42
3.1415926536
  0
ELLIPSE
  5
412
100
AcDbEntity
  8
0
100
AcDbEllipse
 62
7
  6
CONTINUOUS
 10
24.6299122775
 20
155.805199185
 30
0.0
 11
125.9707105164
 21
0.0
 31
0.0
 40
0.0436609429
 41
-0.4963328891
 42
0.0
  0
ELLIPSE
  5
413
100
AcDbEntity
  8
0
100
AcDbEllipse
 62
7
  6
CONTINUOUS
 10
130.7705477658
 20
155.805199185
 30
0.0
 11
0.0
 21
5.5
 31
0.0
 40
0.9572917423
 41
-2.1759581113
 42
-2.0671292159
  0
ELLIPSE
  5
414
100
AcDbEntity
  8
0
100
AcDbEllipse
 62
7
  6
CONTINUOUS
 10
465.695411763
 20
155.805199185
 30
0.0
 11
315.0947889692
 21
0.0
 31
0.0
 40
0.0174550649
 41
3.1415926536
 42
3.2796947249
  0
ELLIPSE
  5
415
100
AcDbEntity
  8
0
100
AcDbEllipse
 62
7
  6
CONTINUOUS
 10
255.5006227938
 20
147.505199185
 30
0.0
 11
-0.0
 21
4.0
 31
0.0
 40
1.0
 41
1.5707963268
 42
1.9605570596
  0
ENDSEC
  0
SECTION
  2
OBJECTS
  0
DICTIONARY
  5
C
100
AcDbDictionary
280
0
281
1
  3
ACAD_GROUP
350
D
  3
ACAD_MLINESTYLE
350
17
  3
ACAD_LAYOUT
350
1A
  3
ACAD_PLOTSETTINGS
350
19
  3
ACAD_PLOTSTYLENAME
350
E
  0
DICTIONARY
  5
D
102
{ACAD_REACTORS
330
C
102
}
100
AcDbDictionary
280
0
281
1
  0
ACDBDICTIONARYWDFLT
  5
E
102
{ACAD_REACTORS
330
C
102
}
100
AcDbDictionary
281
1
  3
Normal
350
F
100
AcDbDictionaryWithDefault
340
F
  0
DICTIONARY
  5
17
102
{ACAD_REACTORS
330
C
102
}
100
AcDbDictionary
280
0
281
1
  3
Standard
350
18
  0
DICTIONARY
  5
19
102
{ACAD_REACTORS
330
C
102
}
100
AcDbDictionary
281
1
  0
DICTIONARY
  5
1A
102
{ACAD_REACTORS
330
C
102
}
100
AcDbDictionary
281
1
  3
Model
350
416
  3
Layout1
350
417
  0
ACDBPLACEHOLDER
  5
F
102
{ACAD_REACTORS
330
E
102
}
  0
MLINESTYLE
  5
18
102
{ACAD_REACTORS
330
17
102
}
100
AcDbMlineStyle
  2
STANDARD
 70
0
  3

 62
256
 51
90.0
 52
90.0
 71
2
 49
0.5
 62
256
  6
BYLAYER
 49
-0.5
 62
256
  6
BYLAYER
  0
LAYOUT
  5
416
102
{ACAD_REACTORS
330
1A
102
}
100
AcDbPlotSettings
  1

  2
none_device
  4

  6

 40
0.0
 41
0.0
 42
0.0
 43
0.0
 44
210.0
 45
297.0
 46
0.0
 47
0.0
 48
0.0
 49
0.0
140
0.0
141
0.0
142
1.0
143
1.0
 70
1024
 72
1
 73
0
 74
0
  7

 75
0
147
1.0
148
0.0
149
0.0
100
AcDbLayout
  1
Model
 70
0
 71
0
 10
0.0
 20
0.0
 11
210.0
 21
297.0
 12
0.0
 22
0.0
 32
0.0
 14
0.0
 24
0.0
 34
0.0
 15
0.0
 25
0.0
 35
0.0
146
0.0
 13
0.0
 23
0.0
 33
0.0
 16
1.0
 26
0.0
 36
0.0
 17
0.0
 27
1.0
 37
0.0
 76
0
330
210
345
0
346
0
  0
LAYOUT
  5
417
102
{ACAD_REACTORS
330
1A
102
}
100
AcDbPlotSettings
  1

  2
none_device
  4

  6

 40
0.0
 41
0.0
 42
0.0
 43
0.0
 44
210.0
 45
297.0
 46
0.0
 47
0.0
 48
0.0
 49
0.0
140
0.0
141
0.0
142
1.0
143
1.0
 70
0
 72
1
 73
0
 74
0
  7

 75
0
147
1.0
148
0.0
149
0.0
100
AcDbLayout
  1
Layout1
 70
0
 71
1
 10
0.0
 20
0.0
 11
210.0
 21
297.0
 12
0.0
 22
0.0
 32
0.0
 14
0.0
 24
0.0
 34
0.0
 15
0.0
 25
0.0
 35
0.0
146
0.0
 13
0.0
 23
0.0
 33
0.0
 16
1.0
 26
0.0
 36
0.0
 17
0.0
 27
1.0
 37
0.0
 76
0
330
211
345
0
346
0
  0
ENDSEC
  0
EOF
