999
DXF file: C:\Users\sesa63760\Dev\_Creo\CAD\MCADID0000846_3D-CAD\drw0001_6.dxf
999
Pro/ENGINEER 2019471 by Parametric Technology Corporation
  0
SECTION
  2
HEADER
  9
$ACADVER
  1
AC1024
  9
$DWGCODEPAGE
  3
ANSI_1252
  9
$EXTMAX
 10
430.1667838012
 20
608.3787370903
 30
0.0
  9
$EXTMIN
 10
0.0
 20
0.0
 30
0.0
  9
$LIMMIN
 10
0.0
 20
0.0
  9
$LIMMAX
 10
430.1667838012
 20
608.3787370903
  9
$VIEWCTR
 10
215.0833919006
 20
304.1893685451
  9
$VIEWSIZE
 40
608.3787370903
  9
$CLAYER
  8
0
  9
$LTSCALE
 40
39.65728064
  9
$CELTYPE
  6
BYLAYER
  9
$DIMSCALE
 40
1.0
  9
$DIMASZ
 40
5.1210331405
  9
$DIMEXO
 40
1.0
  9
$DIMDLI
 40
27.3995757149
  9
$DIMEXE
 40
1.0
  9
$DIMCEN
 40
6.4893731956
  9
$DIMLFAC
 40
1.0
  9
$DIMBLK
  1
_FILLED
  9
$DIMALT
 70
0
  9
$DIMALTF
 40
0.0393700787
  9
$DIMTXT
 40
7.1694463967
  9
$DIMTOL
 70
1
  9
$DIMLIM
 70
0
  9
$DIMTFAC
 40
1.0
  9
$DIMTP
 40
0.01
  9
$DIMTM
 40
0.01
  9
$DIMGAP
 40
0.625
  9
$DIMDSEP
 70
46
  9
$AUNITS
 70
0
  9
$PDMODE
 70
3
  9
$PDSIZE
 40
0.3125
  9
$HANDSEED
  5
2D1
  9
$TILEMODE
 70
1
  9
$MEASUREMENT
 70
1
  9
$INSUNITS
 70
4
  0
ENDSEC
  0
SECTION
  2
CLASSES
  0
CLASS
  1
ACDBDICTIONARYWDFLT
  2
AcDbDictionaryWithDefault
  3
AutoCAD 2000
 90
0
 91
1
280
0
281
0
  0
CLASS
  1
ACDBPLACEHOLDER
  2
AcDbPlaceHolder
  3
AutoCAD 2000
 90
0
 91
1
280
0
281
0
  0
CLASS
  1
LAYOUT
  2
AcDbLayout
  3
AutoCAD 2000
 90
0
 91
0
280
0
281
0
  0
ENDSEC
  0
SECTION
  2
TABLES
  0
TABLE
  2
VPORT
  5
8
100
AcDbSymbolTable
 70
2
  0
VPORT
  5
1F4
100
AcDbSymbolTableRecord
100
AcDbViewportTableRecord
  2
*ACTIVE
 70
0
 10
0.0
 20
0.0
 11
1.0
 21
1.0
 12
215.0833919006
 22
304.1893685451
 13
0.0
 23
0.0
 14
1.0
 24
1.0
 15
0.0
 25
0.0
 16
0.0
 26
0.0
 36
1.0
 17
0.0
 27
0.0
 37
0.0
 40
608.3787370903
 41
0.7070707071
 42
50.0
 43
0.0
 44
0.0
 50
0.0
 51
0.0
 71
0
 72
100
 73
1
 74
1
 75
0
 76
0
 77
0
 78
0
  0
ENDTAB
  0
TABLE
  2
LTYPE
  5
5
100
AcDbSymbolTable
 70
6
  0
LTYPE
  5
14
100
AcDbSymbolTableRecord
100
AcDbLinetypeTableRecord
  2
BYBLOCK
 70
0
  3

 72
65
 73
0
 40
0.0
  0
LTYPE
  5
15
100
AcDbSymbolTableRecord
100
AcDbLinetypeTableRecord
  2
BYLAYER
 70
0
  3

 72
65
 73
0
 40
0.0
  0
LTYPE
  5
16
100
AcDbSymbolTableRecord
100
AcDbLinetypeTableRecord
  2
CONTINUOUS
 70
64
  3
Solid line
 72
65
 73
0
 40
0.0
  0
LTYPE
  5
1F5
100
AcDbSymbolTableRecord
100
AcDbLinetypeTableRecord
  2
CENTER
 70
64
  3
____ _ ____ _ ____ _ ____ _ ____ _ ____ _ ____
 72
65
 73
4
 40
0.6
 49
0.375
 74
0
 49
-0.075
 74
0
 49
0.075
 74
0
 49
-0.075
 74
0
  0
LTYPE
  5
1F6
100
AcDbSymbolTableRecord
100
AcDbLinetypeTableRecord
  2
HIDDEN
 70
64
  3
- - - - - - - - - - - - - - - - - - - -
 72
65
 73
2
 40
0.2
 49
0.1
 74
0
 49
-0.1
 74
0
  0
LTYPE
  5
1F7
100
AcDbSymbolTableRecord
100
AcDbLinetypeTableRecord
  2
PHANTOM
 70
64
  3
_____ _ _ _____ _ _ _____ _ _ _____
 72
65
 73
6
 40
0.8
 49
0.45
 74
0
 49
-0.05
 74
0
 49
0.1
 74
0
 49
-0.05
 74
0
 49
0.1
 74
0
 49
-0.05
 74
0
  0
LTYPE
  5
1F8
100
AcDbSymbolTableRecord
100
AcDbLinetypeTableRecord
  2
DOT
 70
64
  3
. . . . . . . . . . . . . . . . . . . .
 72
65
 73
2
 40
0.2
 49
0.1
 74
0
 49
-0.1
 74
0
  0
LTYPE
  5
1F9
100
AcDbSymbolTableRecord
100
AcDbLinetypeTableRecord
  2
DASHED
 70
64
  3
- - - - - - - - - - - - - - - - - - - -
 72
65
 73
2
 40
0.2
 49
0.1
 74
0
 49
-0.1
 74
0
  0
ENDTAB
  0
TABLE
  2
LAYER
  5
2
100
AcDbSymbolTable
 70
36
  0
LAYER
  5
10
100
AcDbSymbolTableRecord
100
AcDbLayerTableRecord
  2
0
 70
0
 62
7
  6
CONTINUOUS
370
-3
390
F
  0
LAYER
  5
1FA
100
AcDbSymbolTableRecord
100
AcDbLayerTableRecord
  2
DEFAULT_1
 70
0
 62
7
  6
CENTER
370
-3
390
F
  0
LAYER
  5
1FB
100
AcDbSymbolTableRecord
100
AcDbLayerTableRecord
  2
DEFAULT_2
 70
0
 62
8
  6
HIDDEN
370
-3
390
F
  0
LAYER
  5
1FC
100
AcDbSymbolTableRecord
100
AcDbLayerTableRecord
  2
DEFAULT_3
 70
0
 62
7
  6
PHANTOM
370
-3
390
F
  0
LAYER
  5
1FD
100
AcDbSymbolTableRecord
100
AcDbLayerTableRecord
  2
00_COMPONENTS
 70
0
 62
7
  6
CONTINUOUS
370
-3
390
F
  0
LAYER
  5
1FE
100
AcDbSymbolTableRecord
100
AcDbLayerTableRecord
  2
01_1_DEFAULT_DATUMS
 70
0
 62
7
  6
CONTINUOUS
370
-3
390
F
  0
LAYER
  5
1FF
100
AcDbSymbolTableRecord
100
AcDbLayerTableRecord
  2
01_PLANES
 70
0
 62
7
  6
CONTINUOUS
370
-3
390
F
  0
LAYER
  5
200
100
AcDbSymbolTableRecord
100
AcDbLayerTableRecord
  2
02_COORD_SYS
 70
0
 62
7
  6
CONTINUOUS
370
-3
390
F
  0
LAYER
  5
201
100
AcDbSymbolTableRecord
100
AcDbLayerTableRecord
  2
03_AXES
 70
0
 62
7
  6
CONTINUOUS
370
-3
390
F
  0
LAYER
  5
202
100
AcDbSymbolTableRecord
100
AcDbLayerTableRecord
  2
04_POINTS
 70
0
 62
7
  6
CONTINUOUS
370
-3
390
F
  0
LAYER
  5
203
100
AcDbSymbolTableRecord
100
AcDbLayerTableRecord
  2
05_CURVES
 70
0
 62
7
  6
CONTINUOUS
370
-3
390
F
  0
LAYER
  5
204
100
AcDbSymbolTableRecord
100
AcDbLayerTableRecord
  2
06_SURFS
 70
0
 62
7
  6
CONTINUOUS
370
-3
390
F
  0
LAYER
  5
205
100
AcDbSymbolTableRecord
100
AcDbLayerTableRecord
  2
07_COSMETICS
 70
0
 62
7
  6
CONTINUOUS
370
-3
390
F
  0
LAYER
  5
206
100
AcDbSymbolTableRecord
100
AcDbLayerTableRecord
  2
10_NOTES
 70
0
 62
7
  6
CONTINUOUS
370
-3
390
F
  0
LAYER
  5
207
100
AcDbSymbolTableRecord
100
AcDbLayerTableRecord
  2
11_NOTES_PUB
 70
0
 62
7
  6
CONTINUOUS
370
-3
390
F
  0
LAYER
  5
208
100
AcDbSymbolTableRecord
100
AcDbLayerTableRecord
  2
13_REF_GTOL
 70
0
 62
7
  6
CONTINUOUS
370
-3
390
F
  0
LAYER
  5
209
100
AcDbSymbolTableRecord
100
AcDbLayerTableRecord
  2
16_MISC
 70
0
 62
7
  6
CONTINUOUS
370
-3
390
F
  0
LAYER
  5
20A
100
AcDbSymbolTableRecord
100
AcDbLayerTableRecord
  2
17_NO_PRINT
 70
0
 62
7
  6
CONTINUOUS
370
-3
390
F
  0
LAYER
  5
20B
100
AcDbSymbolTableRecord
100
AcDbLayerTableRecord
  2
18_DATUM_CAMS_JOINTS
 70
0
 62
7
  6
CONTINUOUS
370
-3
390
F
  0
LAYER
  5
20C
100
AcDbSymbolTableRecord
100
AcDbLayerTableRecord
  2
19_DATUM_FUNCTIONAL
 70
0
 62
7
  6
CONTINUOUS
370
-3
390
F
  0
LAYER
  5
20D
100
AcDbSymbolTableRecord
100
AcDbLayerTableRecord
  2
20_DATUM_KINEMATIC_SCHEME
 70
0
 62
7
  6
CONTINUOUS
370
-3
390
F
  0
ENDTAB
  0
TABLE
  2
STYLE
  5
3
100
AcDbSymbolTable
 70
1
  0
STYLE
  5
11
100
AcDbSymbolTableRecord
100
AcDbTextStyleTableRecord
  2
STANDARD
 70
0
 40
0.0
 41
0.8
 50
0.0
 71
0
 42
0.2
  3
txt
  4

  0
STYLE
  5
20E
100
AcDbSymbolTableRecord
100
AcDbTextStyleTableRecord
  2
TEXTSTYLE_1
 70
0
 40
0.0
 41
0.8
 50
0.0
 71
0
 42
0.2
  3
gdt
  4

  0
ENDTAB
  0
TABLE
  2
VIEW
  5
6
100
AcDbSymbolTable
 70
0
  0
ENDTAB
  0
TABLE
  2
UCS
  5
7
100
AcDbSymbolTable
 70
0
  0
ENDTAB
  0
TABLE
  2
APPID
  5
9
100
AcDbSymbolTable
 70
1
  0
APPID
  5
20F
100
AcDbSymbolTableRecord
100
AcDbRegAppTableRecord
  2
ACAD
 70
0
  0
ENDTAB
  0
TABLE
  2
BLOCK_RECORD
  5
1
100
AcDbSymbolTable
 70
0
  0
BLOCK_RECORD
  5
210
100
AcDbSymbolTableRecord
100
AcDbBlockTableRecord
  2
*Model_Space
  0
BLOCK_RECORD
  5
211
100
AcDbSymbolTableRecord
100
AcDbBlockTableRecord
  2
*Paper_Space
  0
BLOCK_RECORD
  5
212
100
AcDbSymbolTableRecord
100
AcDbBlockTableRecord
  2
_FILLED
  0
ENDTAB
  0
TABLE
  2
DIMSTYLE
  5
A
100
AcDbSymbolTable
 70
1
100
AcDbDimStyleTable
 71
0
  0
DIMSTYLE
105
213
100
AcDbSymbolTableRecord
100
AcDbDimStyleTableRecord
  2
STANDARD
 70
0
  3

  4

 40
1.0
 41
5.1210331405
 42
1.0
 43
0.38
 44
1.0
 45
0.0
 46
0.0
 47
0.01
 48
0.01
140
7.1694463967
141
0.09
142
0.0
143
25.4
144
1.0
145
0.0
146
1.0
147
0.625
 71
1
 72
0
 73
0
 74
0
 75
0
 76
0
 77
1
 78
8
 79
2
170
0
171
1
172
0
173
0
174
0
175
0
176
0
177
0
178
0
270
2
179
2
271
2
272
2
273
2
274
2
275
0
280
0
281
0
282
0
283
1
284
8
285
0
286
0
287
3
288
0
340
11
278
46
341
212
342
212
343
212
344
212
  0
ENDTAB
  0
ENDSEC
  0
SECTION
  2
BLOCKS
  0
BLOCK
  5
20
100
AcDbEntity
  8
0
100
AcDbBlockBegin
  2
*Model_Space
 70
0
 10
0.0
 20
0.0
 30
0.0
  3
*Model_Space
  1

  0
ENDBLK
  5
21
100
AcDbEntity
  8
0
100
AcDbBlockEnd
  0
BLOCK
  5
1C
100
AcDbEntity
  8
0
100
AcDbBlockBegin
  2
*Paper_Space
 70
0
 10
0.0
 20
0.0
 30
0.0
  3
*Paper_Space
  1

  0
ENDBLK
  5
1D
100
AcDbEntity
  8
0
100
AcDbBlockEnd
  0
BLOCK
  5
214
100
AcDbEntity
  8
0
100
AcDbBlockBegin
  2
_FILLED
 70
64
 10
0.0
 20
0.0
  3
_FILLED
  1

  0
SOLID
  5
215
100
AcDbEntity
  8
0
  6
BYBLOCK
 62
0
100
AcDbTrace
 10
0.0
 20
0.0
 11
-1.0
 21
0.25
 12
-1.0
 22
-0.25
 13
-1.0
 23
-0.25
  0
ENDBLK
  5
216
100
AcDbEntity
  8
0
  6
BYBLOCK
 62
0
100
AcDbBlockEnd
  0
ENDSEC
  0
SECTION
  2
ENTITIES
  0
LINE
  5
217
100
AcDbEntity
  8
0
100
AcDbLine
 62
7
  6
CONTINUOUS
 10
192.9562552865
 20
76.6893229699
 11
187.9562600548
 21
76.6893229699
  0
LINE
  5
218
100
AcDbEntity
  8
0
100
AcDbLine
 62
7
  6
CONTINUOUS
 10
388.9590774705
 20
76.6893685451
 11
366.959077775
 21
76.6893685451
  0
LINE
  5
219
100
AcDbEntity
  8
0
100
AcDbLine
 62
7
  6
CONTINUOUS
 10
192.9562552865
 20
78.6893254774
 11
187.9562600548
 21
78.6893254774
  0
LINE
  5
21A
100
AcDbEntity
  8
0
100
AcDbLine
 62
7
  6
CONTINUOUS
 10
193.559083713
 20
108.1893802277
 11
187.3590791684
 21
108.1893802277
  0
LINE
  5
21B
100
AcDbEntity
  8
0
100
AcDbLine
 62
7
  6
CONTINUOUS
 10
340.0790286852
 20
116.5893685451
 11
336.0819843585
 21
116.5893685451
  0
LINE
  5
21C
100
AcDbEntity
  8
0
100
AcDbLine
 62
7
  6
CONTINUOUS
 10
254.8303286852
 20
116.5893685451
 11
250.8332843585
 21
116.5893685451
  0
LINE
  5
21D
100
AcDbEntity
  8
0
100
AcDbLine
 62
7
  6
CONTINUOUS
 10
228.1490286852
 20
116.5893685451
 11
224.1519843585
 21
116.5893685451
  0
LINE
  5
21E
100
AcDbEntity
  8
0
100
AcDbLine
 62
7
  6
CONTINUOUS
 10
108.2190286852
 20
116.5893685451
 11
104.2219843585
 21
116.5893685451
  0
LINE
  5
21F
100
AcDbEntity
  8
0
100
AcDbLine
 62
7
  6
CONTINUOUS
 10
96.1190774138
 20
116.6893900028
 11
90.4090852339
 21
116.6893900028
  0
LINE
  5
220
100
AcDbEntity
  8
0
100
AcDbLine
 62
7
  6
CONTINUOUS
 10
49.1294225204
 20
258.8970199438
 11
49.1292886645
 21
258.9020421531
  0
LINE
  5
221
100
AcDbEntity
  8
0
100
AcDbLine
 62
7
  6
CONTINUOUS
 10
49.1292886645
 20
306.505937628
 11
49.1363134115
 21
305.0702621659
  0
LINE
  5
222
100
AcDbEntity
  8
0
100
AcDbLine
 62
7
  6
CONTINUOUS
 10
48.6542025008
 20
281.6925548532
 11
48.6542025008
 21
282.3461822371
  0
LINE
  5
223
100
AcDbEntity
  8
0
100
AcDbLine
 62
7
  6
CONTINUOUS
 10
48.6542025008
 20
302.6625548532
 11
48.6542025008
 21
303.3161822371
  0
LINE
  5
224
100
AcDbEntity
  8
0
100
AcDbLine
 62
7
  6
CONTINUOUS
 10
48.9542025008
 20
302.6625548532
 11
48.9542025008
 21
303.3161822371
  0
LINE
  5
225
100
AcDbEntity
  8
0
100
AcDbLine
 62
7
  6
CONTINUOUS
 10
49.1292886645
 20
258.906790174
 11
49.1292886645
 21
278.5020920699
  0
LINE
  5
226
100
AcDbEntity
  8
0
100
AcDbLine
 62
7
  6
CONTINUOUS
 10
49.1292886645
 20
285.5366450204
 11
49.1292886645
 21
299.4720920699
  0
LINE
  5
227
100
AcDbEntity
  8
0
100
AcDbLine
 62
7
  6
CONTINUOUS
 10
49.1292886645
 20
306.5066450204
 11
49.1292886645
 21
397.2125214693
  0
LINE
  5
228
100
AcDbEntity
  8
0
100
AcDbLine
 62
7
  6
CONTINUOUS
 10
49.4237375469
 20
299.4893687004
 11
49.4237375469
 21
306.4893683898
  0
LINE
  5
229
100
AcDbEntity
  8
0
100
AcDbLine
 62
7
  6
CONTINUOUS
 10
50.1190773755
 20
226.1549361099
 11
50.1190773755
 21
258.90489725
  0
LINE
  5
22A
100
AcDbEntity
  8
0
100
AcDbLine
 62
7
  6
CONTINUOUS
 10
50.6427603585
 20
359.4449868838
 11
50.6427603585
 21
397.2125214693
  0
LINE
  5
22B
100
AcDbEntity
  8
0
100
AcDbLine
 62
7
  6
CONTINUOUS
 10
49.136395714
 20
300.9305665184
 11
49.1292888917
 21
299.4721052563
  0
LINE
  5
22C
100
AcDbEntity
  8
0
100
AcDbLine
 62
7
  6
CONTINUOUS
 10
49.1292951302
 20
306.5076792034
 11
48.6542025008
 21
303.3161822371
  0
LINE
  5
22D
100
AcDbEntity
  8
0
100
AcDbLine
 62
7
  6
CONTINUOUS
 10
198.3090802128
 20
489.0893812937
 11
199.1926892693
 21
489.557595016
  0
LINE
  5
22E
100
AcDbEntity
  8
0
100
AcDbLine
 62
7
  6
CONTINUOUS
 10
342.0789798487
 20
118.5899481041
 11
334.0791749973
 21
118.5899481041
  0
LINE
  5
22F
100
AcDbEntity
  8
0
100
AcDbLine
 62
7
  6
CONTINUOUS
 10
256.8302798487
 20
118.5899481041
 11
248.8304749973
 21
118.5899481041
  0
LINE
  5
230
100
AcDbEntity
  8
0
100
AcDbLine
 62
7
  6
CONTINUOUS
 10
230.1489798487
 20
118.5899481041
 11
222.1491749973
 21
118.5899481041
  0
LINE
  5
231
100
AcDbEntity
  8
0
100
AcDbLine
 62
7
  6
CONTINUOUS
 10
110.2189798487
 20
118.5899481041
 11
102.2191749973
 21
118.5899481041
  0
LINE
  5
232
100
AcDbEntity
  8
0
100
AcDbLine
 62
7
  6
CONTINUOUS
 10
347.3959653671
 20
119.6893811813
 11
243.4590770896
 21
119.6893811813
  0
LINE
  5
233
100
AcDbEntity
  8
0
100
AcDbLine
 62
7
  6
CONTINUOUS
 10
96.1190774138
 20
119.6893811813
 11
237.917081922
 21
119.6893811813
  0
LINE
  5
234
100
AcDbEntity
  8
0
100
AcDbLine
 62
7
  6
CONTINUOUS
 10
243.4590770896
 20
121.6893852344
 11
240.7455113366
 21
121.6893813046
  0
LINE
  5
235
100
AcDbEntity
  8
0
100
AcDbLine
 62
7
  6
CONTINUOUS
 10
199.1926892693
 20
118.8211799255
 11
198.3090802128
 21
119.2893744102
  0
LINE
  5
236
100
AcDbEntity
  8
0
100
AcDbLine
 62
7
  6
CONTINUOUS
 10
49.4314170705
 20
299.4640969157
 11
48.9542025008
 21
302.6625548532
  0
LINE
  5
237
100
AcDbEntity
  8
0
100
AcDbLine
 62
7
  6
CONTINUOUS
 10
49.1292951252
 20
278.5010579035
 11
48.6542025008
 21
281.6925548532
  0
LINE
  5
238
100
AcDbEntity
  8
0
100
AcDbLine
 62
7
  6
CONTINUOUS
 10
49.1292951252
 20
299.4710579035
 11
48.6542025008
 21
302.6625548532
  0
LINE
  5
239
100
AcDbEntity
  8
0
100
AcDbLine
 62
7
  6
CONTINUOUS
 10
51.6452855241
 20
226.1251063873
 11
51.6452855241
 21
397.2423296305
  0
LINE
  5
23A
100
AcDbEntity
  8
0
100
AcDbLine
 62
7
  6
CONTINUOUS
 10
53.7841036492
 20
397.3276540758
 11
53.7841036492
 21
226.0833032089
  0
LINE
  5
23B
100
AcDbEntity
  8
0
100
AcDbLine
 62
7
  6
CONTINUOUS
 10
54.7600104981
 20
226.0642291196
 11
54.7600104981
 21
397.3665861895
  0
LINE
  5
23C
100
AcDbEntity
  8
0
100
AcDbLine
 62
7
  6
CONTINUOUS
 10
56.869077423
 20
215.2394340055
 11
56.869077423
 21
219.9993030848
  0
LINE
  5
23D
100
AcDbEntity
  8
0
100
AcDbLine
 62
7
  6
CONTINUOUS
 10
58.879077125
 20
220.6193542401
 11
58.879077125
 21
213.1935582957
  0
LINE
  5
23E
100
AcDbEntity
  8
0
100
AcDbLine
 62
7
  6
CONTINUOUS
 10
60.919077423
 20
223.1893685451
 11
60.919077423
 21
225.9438502197
  0
LINE
  5
23F
100
AcDbEntity
  8
0
100
AcDbLine
 62
7
  6
CONTINUOUS
 10
64.4790754107
 20
212.4893575207
 11
64.4790754107
 21
212.3893584376
  0
LINE
  5
240
100
AcDbEntity
  8
0
100
AcDbLine
 62
7
  6
CONTINUOUS
 10
69.2295225295
 20
212.1893524423
 11
69.2295225295
 21
210.686834808
  0
LINE
  5
241
100
AcDbEntity
  8
0
100
AcDbLine
 62
7
  6
CONTINUOUS
 10
69.3762337517
 20
225.8893685451
 11
69.3762337517
 21
210.6790933186
  0
LINE
  5
242
100
AcDbEntity
  8
0
100
AcDbLine
 62
7
  6
CONTINUOUS
 10
49.1292951302
 20
285.5376792034
 11
48.6542025008
 21
282.3461822371
  0
LINE
  5
243
100
AcDbEntity
  8
0
100
AcDbLine
 62
7
  6
CONTINUOUS
 10
49.4314170704
 20
306.5146401742
 11
48.9542025008
 21
303.3161822371
  0
LINE
  5
244
100
AcDbEntity
  8
0
100
AcDbLine
 62
7
  6
CONTINUOUS
 10
70.3049404754
 20
225.8893685451
 11
70.3049404754
 21
210.6300883877
  0
LINE
  5
245
100
AcDbEntity
  8
0
100
AcDbLine
 62
7
  6
CONTINUOUS
 10
71.203608302
 20
210.5826685149
 11
71.203608302
 21
225.8893685451
  0
LINE
  5
246
100
AcDbEntity
  8
0
100
AcDbLine
 62
7
  6
CONTINUOUS
 10
88.1190773755
 20
489.6036246653
 11
88.1190773755
 21
118.7751324867
  0
LINE
  5
247
100
AcDbEntity
  8
0
100
AcDbLine
 62
7
  6
CONTINUOUS
 10
63.6301519268
 20
223.1092121711
 11
63.3839667228
 21
221.8466758028
  0
LINE
  5
248
100
AcDbEntity
  8
0
100
AcDbLine
 62
7
  6
CONTINUOUS
 10
90.4190773755
 20
116.6893900028
 11
90.4190773755
 21
491.6893813048
  0
LINE
  5
249
100
AcDbEntity
  8
0
100
AcDbLine
 62
7
  6
CONTINUOUS
 10
96.1190774138
 20
491.6893813881
 11
96.1190774138
 21
116.6893900028
  0
LINE
  5
24A
100
AcDbEntity
  8
0
100
AcDbLine
 62
7
  6
CONTINUOUS
 10
102.2191749973
 20
489.7887889862
 11
102.2191749973
 21
488.6893813038
  0
LINE
  5
24B
100
AcDbEntity
  8
0
100
AcDbLine
 62
7
  6
CONTINUOUS
 10
102.2191749973
 20
118.5899481041
 11
102.2191749973
 21
119.6893811813
  0
LINE
  5
24C
100
AcDbEntity
  8
0
100
AcDbLine
 62
7
  6
CONTINUOUS
 10
185.8068420584
 20
497.5803647778
 11
181.5929128821
 21
489.6278270991
  0
LINE
  5
24D
100
AcDbEntity
  8
0
100
AcDbLine
 62
7
  6
CONTINUOUS
 10
187.3589715001
 20
500.1891742788
 11
185.9393878872
 21
497.5101318798
  0
LINE
  5
24E
100
AcDbEntity
  8
0
100
AcDbLine
 62
7
  6
CONTINUOUS
 10
182.6090826686
 20
489.0893812937
 11
185.5330677375
 21
494.607550319
  0
LINE
  5
24F
100
AcDbEntity
  8
0
100
AcDbLine
 62
7
  6
CONTINUOUS
 10
59.8256737379
 20
213.3098750606
 11
64.4790754107
 21
212.4893575207
  0
LINE
  5
250
100
AcDbEntity
  8
0
100
AcDbLine
 62
7
  6
CONTINUOUS
 10
181.5929128821
 20
118.7509358517
 11
185.8068420584
 21
110.7983947388
  0
LINE
  5
251
100
AcDbEntity
  8
0
100
AcDbLine
 62
7
  6
CONTINUOUS
 10
185.9393878872
 20
110.8686388126
 11
187.3590791684
 21
108.1893839085
  0
LINE
  5
252
100
AcDbEntity
  8
0
100
AcDbLine
 62
7
  6
CONTINUOUS
 10
185.5330677375
 20
113.7712122903
 11
182.6090826686
 21
119.2893744102
  0
LINE
  5
253
100
AcDbEntity
  8
0
100
AcDbLine
 62
7
  6
CONTINUOUS
 10
110.2189798487
 20
119.6893811813
 11
110.2189798487
 21
118.5899481041
  0
LINE
  5
254
100
AcDbEntity
  8
0
100
AcDbLine
 62
7
  6
CONTINUOUS
 10
110.2189798487
 20
488.6893813038
 11
110.2189798487
 21
489.7887889862
  0
LINE
  5
255
100
AcDbEntity
  8
0
100
AcDbLine
 62
7
  6
CONTINUOUS
 10
59.6290752677
 20
212.969353725
 11
59.8256737379
 21
213.3098750606
  0
LINE
  5
256
100
AcDbEntity
  8
0
100
AcDbLine
 62
7
  6
CONTINUOUS
 10
366.959077775
 20
531.6893816582
 11
364.2028379287
 21
529.8378676763
  0
LINE
  5
257
100
AcDbEntity
  8
0
100
AcDbLine
 62
7
  6
CONTINUOUS
 10
59.0798684879
 20
212.9933331969
 11
59.6290752677
 21
212.969353725
  0
LINE
  5
258
100
AcDbEntity
  8
0
100
AcDbLine
 62
7
  6
CONTINUOUS
 10
69.2295225295
 20
210.686834808
 11
88.1090910037
 21
209.6906194
  0
LINE
  5
259
100
AcDbEntity
  8
0
100
AcDbLine
 62
7
  6
CONTINUOUS
 10
364.2028379287
 20
78.5408974281
 11
366.959077775
 21
76.6893685451
  0
LINE
  5
25A
100
AcDbEntity
  8
0
100
AcDbLine
 62
7
  6
CONTINUOUS
 10
64.679081406
 20
212.1893524423
 11
69.3762337517
 21
212.1893524423
  0
LINE
  5
25B
100
AcDbEntity
  8
0
100
AcDbLine
 62
7
  6
CONTINUOUS
 10
56.869077423
 20
215.2393685451
 11
58.879077125
 21
215.2393685451
  0
LINE
  5
25C
100
AcDbEntity
  8
0
100
AcDbLine
 62
7
  6
CONTINUOUS
 10
56.869077423
 20
219.9993685451
 11
58.879077125
 21
219.9993685451
  0
LINE
  5
25D
100
AcDbEntity
  8
0
100
AcDbLine
 62
7
  6
CONTINUOUS
 10
61.7790744094
 20
221.2193518177
 11
59.479077125
 21
221.2193542401
  0
LINE
  5
25E
100
AcDbEntity
  8
0
100
AcDbLine
 62
7
  6
CONTINUOUS
 10
60.919077423
 20
223.1893685451
 11
69.3762337517
 21
223.1893685451
  0
LINE
  5
25F
100
AcDbEntity
  8
0
100
AcDbLine
 62
7
  6
CONTINUOUS
 10
71.203608302
 20
225.8893685451
 11
63.7065782219
 21
225.8893685451
  0
LINE
  5
260
100
AcDbEntity
  8
0
100
AcDbLine
 62
7
  6
CONTINUOUS
 10
63.7065782219
 20
225.8893685451
 11
50.1185325404
 21
226.1549467587
  0
LINE
  5
261
100
AcDbEntity
  8
0
100
AcDbLine
 62
7
  6
CONTINUOUS
 10
63.1577210983
 20
221.6212815795
 11
63.0164370326
 21
221.5893476501
  0
LINE
  5
262
100
AcDbEntity
  8
0
100
AcDbLine
 62
7
  6
CONTINUOUS
 10
49.1294225203
 20
258.901955074
 11
50.1191585334
 21
258.901955074
  0
LINE
  5
263
100
AcDbEntity
  8
0
100
AcDbLine
 62
7
  6
CONTINUOUS
 10
50.244946157
 20
264.86521324
 11
49.2538186702
 21
264.86521324
  0
LINE
  5
264
100
AcDbEntity
  8
0
100
AcDbLine
 62
7
  6
CONTINUOUS
 10
186.5741624529
 20
488.6893813038
 11
186.4747992078
 21
494.3821696567
  0
LINE
  5
265
100
AcDbEntity
  8
0
100
AcDbLine
 62
7
  6
CONTINUOUS
 10
194.3439855273
 20
119.6893811813
 11
194.4433554481
 21
113.9965929526
  0
LINE
  5
266
100
AcDbEntity
  8
0
100
AcDbLine
 62
7
  6
CONTINUOUS
 10
187.9562600548
 20
76.6893229699
 11
187.9562600548
 21
108.1893802277
  0
LINE
  5
267
100
AcDbEntity
  8
0
100
AcDbLine
 62
7
  6
CONTINUOUS
 10
187.9727109368
 20
500.1891756312
 11
187.9727109368
 21
531.6891776834
  0
LINE
  5
268
100
AcDbEntity
  8
0
100
AcDbLine
 62
7
  6
CONTINUOUS
 10
192.9562552865
 20
76.6893229699
 11
192.9562552865
 21
108.1893852609
  0
LINE
  5
269
100
AcDbEntity
  8
0
100
AcDbLine
 62
7
  6
CONTINUOUS
 10
192.97285518
 20
500.1893811515
 11
192.9727326177
 21
531.6891776834
  0
LINE
  5
26A
100
AcDbEntity
  8
0
100
AcDbLine
 62
7
  6
CONTINUOUS
 10
186.4748015101
 20
113.9966011635
 11
186.5741624529
 21
119.6893811813
  0
LINE
  5
26B
100
AcDbEntity
  8
0
100
AcDbLine
 62
7
  6
CONTINUOUS
 10
194.4433554481
 20
494.3821696567
 11
194.3439855273
 21
488.6893813038
  0
LINE
  5
26C
100
AcDbEntity
  8
0
100
AcDbLine
 62
7
  6
CONTINUOUS
 10
50.8060899044
 20
293.3308865251
 11
49.8146304111
 21
293.3308865251
  0
LINE
  5
26D
100
AcDbEntity
  8
0
100
AcDbLine
 62
7
  6
CONTINUOUS
 10
222.1491749973
 20
489.7887889862
 11
222.1491749973
 21
488.6893813038
  0
LINE
  5
26E
100
AcDbEntity
  8
0
100
AcDbLine
 62
7
  6
CONTINUOUS
 10
222.1491749973
 20
118.5899481041
 11
222.1491749973
 21
119.6893811813
  0
LINE
  5
26F
100
AcDbEntity
  8
0
100
AcDbLine
 62
7
  6
CONTINUOUS
 10
230.1489798487
 20
119.6893811813
 11
230.1489798487
 21
118.5899481041
  0
LINE
  5
270
100
AcDbEntity
  8
0
100
AcDbLine
 62
7
  6
CONTINUOUS
 10
230.1489798487
 20
488.6893813038
 11
230.1489798487
 21
489.7887889862
  0
LINE
  5
271
100
AcDbEntity
  8
0
100
AcDbLine
 62
7
  6
CONTINUOUS
 10
242.9590835269
 20
486.689381267
 11
242.9590835269
 21
488.6893813038
  0
LINE
  5
272
100
AcDbEntity
  8
0
100
AcDbLine
 62
7
  6
CONTINUOUS
 10
243.4590770896
 20
119.6893811813
 11
243.4590770896
 21
121.6893852344
  0
LINE
  5
273
100
AcDbEntity
  8
0
100
AcDbLine
 62
7
  6
CONTINUOUS
 10
248.8304749973
 20
489.7887889862
 11
248.8304749973
 21
488.6893813038
  0
LINE
  5
274
100
AcDbEntity
  8
0
100
AcDbLine
 62
7
  6
CONTINUOUS
 10
248.8304749973
 20
118.5899481041
 11
248.8304749973
 21
119.6893811813
  0
LINE
  5
275
100
AcDbEntity
  8
0
100
AcDbLine
 62
7
  6
CONTINUOUS
 10
256.8302798487
 20
119.6893811813
 11
256.8302798487
 21
118.5899481041
  0
LINE
  5
276
100
AcDbEntity
  8
0
100
AcDbLine
 62
7
  6
CONTINUOUS
 10
256.8302798487
 20
488.6893813038
 11
256.8302798487
 21
489.7887889862
  0
LINE
  5
277
100
AcDbEntity
  8
0
100
AcDbLine
 62
7
  6
CONTINUOUS
 10
63.0164370326
 20
221.5893476501
 11
61.7790744094
 21
221.2193518177
  0
LINE
  5
278
100
AcDbEntity
  8
0
100
AcDbLine
 62
7
  6
CONTINUOUS
 10
364.2028379287
 20
529.8378676763
 11
347.3959653671
 21
488.6893813038
  0
LINE
  5
279
100
AcDbEntity
  8
0
100
AcDbLine
 62
7
  6
CONTINUOUS
 10
347.3959653671
 20
119.6893811813
 11
364.2028379287
 21
78.5408974281
  0
LINE
  5
27A
100
AcDbEntity
  8
0
100
AcDbLine
 62
7
  6
CONTINUOUS
 10
198.3090802128
 20
119.2893744102
 11
195.3850849564
 21
113.7712061993
  0
LINE
  5
27B
100
AcDbEntity
  8
0
100
AcDbLine
 62
7
  6
CONTINUOUS
 10
193.559083713
 20
108.1893839085
 11
199.1926892693
 21
118.8211799255
  0
LINE
  5
27C
100
AcDbEntity
  8
0
100
AcDbLine
 62
7
  6
CONTINUOUS
 10
195.3850849564
 20
494.6075505233
 11
198.3090802128
 21
489.0893812937
  0
LINE
  5
27D
100
AcDbEntity
  8
0
100
AcDbLine
 62
7
  6
CONTINUOUS
 10
199.1926892693
 20
489.557595016
 11
193.559191381
 21
500.1891742788
  0
LINE
  5
27E
100
AcDbEntity
  8
0
100
AcDbLine
 62
7
  6
CONTINUOUS
 10
49.1293706455
 20
397.2125214693
 11
51.6452855241
 21
397.2125214693
  0
LINE
  5
27F
100
AcDbEntity
  8
0
100
AcDbLine
 62
7
  6
CONTINUOUS
 10
87.9190876181
 20
398.6894101492
 11
88.1090910037
 21
398.6894101492
  0
LINE
  5
280
100
AcDbEntity
  8
0
100
AcDbLine
 62
7
  6
CONTINUOUS
 10
334.0791749973
 20
489.7887889862
 11
334.0791749973
 21
488.6893685451
  0
LINE
  5
281
100
AcDbEntity
  8
0
100
AcDbLine
 62
7
  6
CONTINUOUS
 10
334.0791749973
 20
118.5899481041
 11
334.0791749973
 21
119.6893811813
  0
LINE
  5
282
100
AcDbEntity
  8
0
100
AcDbLine
 62
7
  6
CONTINUOUS
 10
51.6508944891
 20
397.2425533905
 11
87.9190876181
 21
398.6894101492
  0
LINE
  5
283
100
AcDbEntity
  8
0
100
AcDbLine
 62
7
  6
CONTINUOUS
 10
342.0789798487
 20
119.6893811813
 11
342.0789798487
 21
118.5899481041
  0
LINE
  5
284
100
AcDbEntity
  8
0
100
AcDbLine
 62
7
  6
CONTINUOUS
 10
342.0789798487
 20
488.6893685451
 11
342.0789798487
 21
489.7887889862
  0
LINE
  5
285
100
AcDbEntity
  8
0
100
AcDbLine
 62
7
  6
CONTINUOUS
 10
182.6090826686
 20
119.2893744102
 11
181.5929128821
 21
118.7509358517
  0
LINE
  5
286
100
AcDbEntity
  8
0
100
AcDbLine
 62
7
  6
CONTINUOUS
 10
181.5929128821
 20
489.6278270991
 11
182.6090826686
 21
489.0893812937
  0
LINE
  5
287
100
AcDbEntity
  8
0
100
AcDbLine
 62
7
  6
CONTINUOUS
 10
386.1590773755
 20
531.6893816582
 11
386.1590773755
 21
76.6893685451
  0
LINE
  5
288
100
AcDbEntity
  8
0
100
AcDbLine
 62
7
  6
CONTINUOUS
 10
388.9590774705
 20
76.6893685451
 11
388.9590774705
 21
531.6893816582
  0
LINE
  5
289
100
AcDbEntity
  8
0
100
AcDbLine
 62
7
  6
CONTINUOUS
 10
185.8068420584
 20
110.7983947388
 11
185.9393878872
 21
110.8686388126
  0
LINE
  5
28A
100
AcDbEntity
  8
0
100
AcDbLine
 62
7
  6
CONTINUOUS
 10
185.9393878872
 20
497.5101318798
 11
185.8068420584
 21
497.5803647778
  0
LINE
  5
28B
100
AcDbEntity
  8
0
100
AcDbLine
 62
7
  6
CONTINUOUS
 10
240.7455113368
 20
486.6893813046
 11
242.9590835269
 21
486.689381267
  0
LINE
  5
28C
100
AcDbEntity
  8
0
100
AcDbLine
 62
7
  6
CONTINUOUS
 10
237.9170819223
 20
488.6893813038
 11
96.1190774138
 21
488.6893813038
  0
LINE
  5
28D
100
AcDbEntity
  8
0
100
AcDbLine
 62
7
  6
CONTINUOUS
 10
242.9590835269
 20
488.6893813038
 11
347.3959653671
 21
488.6893813038
  0
LINE
  5
28E
100
AcDbEntity
  8
0
100
AcDbLine
 62
7
  6
CONTINUOUS
 10
102.2191749973
 20
489.7887889862
 11
110.2189798487
 21
489.7887889862
  0
LINE
  5
28F
100
AcDbEntity
  8
0
100
AcDbLine
 62
7
  6
CONTINUOUS
 10
222.1491749973
 20
489.7887889862
 11
230.1489798487
 21
489.7887889862
  0
LINE
  5
290
100
AcDbEntity
  8
0
100
AcDbLine
 62
7
  6
CONTINUOUS
 10
248.8304749973
 20
489.7887889862
 11
256.8302798487
 21
489.7887889862
  0
LINE
  5
291
100
AcDbEntity
  8
0
100
AcDbLine
 62
7
  6
CONTINUOUS
 10
334.0791749973
 20
489.7887889862
 11
342.0789798487
 21
489.7887889862
  0
LINE
  5
292
100
AcDbEntity
  8
0
100
AcDbLine
 62
7
  6
CONTINUOUS
 10
90.409077328
 20
491.6893813046
 11
96.1190774138
 21
491.6893813881
  0
LINE
  5
293
100
AcDbEntity
  8
0
100
AcDbLine
 62
7
  6
CONTINUOUS
 10
340.0790286852
 20
491.7893685451
 11
336.0791261608
 21
491.7893685451
  0
LINE
  5
294
100
AcDbEntity
  8
0
100
AcDbLine
 62
7
  6
CONTINUOUS
 10
254.8303286852
 20
491.7893685451
 11
250.8304261608
 21
491.7893685451
  0
LINE
  5
295
100
AcDbEntity
  8
0
100
AcDbLine
 62
7
  6
CONTINUOUS
 10
228.1490286852
 20
491.7893685451
 11
224.1491261608
 21
491.7893685451
  0
LINE
  5
296
100
AcDbEntity
  8
0
100
AcDbLine
 62
7
  6
CONTINUOUS
 10
104.2191261608
 20
491.7893685451
 11
108.2190286852
 21
491.7893685451
  0
LINE
  5
297
100
AcDbEntity
  8
0
100
AcDbLine
 62
7
  6
CONTINUOUS
 10
193.559191381
 20
500.1891742788
 11
187.3589715001
 21
500.1891742788
  0
LINE
  5
298
100
AcDbEntity
  8
0
100
AcDbLine
 62
7
  6
CONTINUOUS
 10
192.9727403989
 20
529.689328547
 11
187.9727109368
 21
529.689328547
  0
LINE
  5
299
100
AcDbEntity
  8
0
100
AcDbLine
 62
7
  6
CONTINUOUS
 10
192.9727326177
 20
531.6891776834
 11
187.9727109368
 21
531.6891776834
  0
LINE
  5
29A
100
AcDbEntity
  8
0
100
AcDbLine
 62
7
  6
CONTINUOUS
 10
366.959077775
 20
531.6893816582
 11
388.9590774705
 21
531.6893816582
  0
ARC
  5
29B
100
AcDbEntity
  8
0
100
AcDbCircle
 62
7
  6
CONTINUOUS
 10
-14.7844615314
 20
542.023371788
 40
193.9473846136
100
AcDbArc
 50
289.7152124331
 51
290.0301312806
  0
ARC
  5
29C
100
AcDbEntity
  8
0
100
AcDbCircle
 62
7
  6
CONTINUOUS
 10
-37.3325651333
 20
302.9885458239
 40
86.8911388578
100
AcDbArc
 50
359.7728868283
 51
0.227218441
  0
CIRCLE
  5
29D
100
AcDbEntity
  8
0
100
AcDbCircle
 62
7
  6
CONTINUOUS
 10
370.459077423
 20
501.6893685451
 40
8.0
  0
CIRCLE
  5
29E
100
AcDbEntity
  8
0
100
AcDbCircle
 62
7
  6
CONTINUOUS
 10
370.459077423
 20
106.6893685451
 40
8.0
  0
ARC
  5
29F
100
AcDbEntity
  8
0
100
AcDbCircle
 62
7
  6
CONTINUOUS
 10
237.9170839307
 20
122.6893815174
 40
3.0000003361
100
AcDbArc
 50
270.0000000001
 51
340.5287773234
  0
ARC
  5
2A0
100
AcDbEntity
  8
0
100
AcDbCircle
 62
7
  6
CONTINUOUS
 10
237.917084214
 20
485.6893813061
 40
2.9999999977
100
AcDbArc
 50
19.4712206203
 51
90.0
  0
ARC
  5
2A1
100
AcDbEntity
  8
0
100
AcDbCircle
 62
7
  6
CONTINUOUS
 10
90.409077328
 20
489.3893813046
 40
2.3
100
AcDbArc
 50
90.0
 51
174.6533625485
  0
ARC
  5
2A2
100
AcDbEntity
  8
0
100
AcDbCircle
 62
7
  6
CONTINUOUS
 10
90.4090624795
 20
118.9893751542
 40
2.2999851515
100
AcDbArc
 50
185.3466547227
 51
270.0005668427
  0
ARC
  5
2A3
100
AcDbEntity
  8
0
100
AcDbCircle
 62
7
  6
CONTINUOUS
 10
108.2190286852
 20
118.5893198073
 40
1.9999512622
100
AcDbArc
 50
270.0
 51
360.0
  0
ARC
  5
2A4
100
AcDbEntity
  8
0
100
AcDbCircle
 62
7
  6
CONTINUOUS
 10
104.2191261608
 20
118.5893198073
 40
1.9999512622
100
AcDbArc
 50
180.0
 51
270.0
  0
ARC
  5
2A5
100
AcDbEntity
  8
0
100
AcDbCircle
 62
7
  6
CONTINUOUS
 10
108.2190286852
 20
489.7894172829
 40
1.9999512622
100
AcDbArc
 50
0.0
 51
90.0
  0
ARC
  5
2A6
100
AcDbEntity
  8
0
100
AcDbCircle
 62
7
  6
CONTINUOUS
 10
104.2191261608
 20
489.7894172829
 40
1.9999512622
100
AcDbArc
 50
90.0
 51
180.0
  0
ARC
  5
2A7
100
AcDbEntity
  8
0
100
AcDbCircle
 62
7
  6
CONTINUOUS
 10
228.1490286852
 20
118.5893198073
 40
1.9999512622
100
AcDbArc
 50
270.0
 51
360.0
  0
ARC
  5
2A8
100
AcDbEntity
  8
0
100
AcDbCircle
 62
7
  6
CONTINUOUS
 10
224.1491261608
 20
118.5893198073
 40
1.9999512622
100
AcDbArc
 50
180.0
 51
270.0
  0
ARC
  5
2A9
100
AcDbEntity
  8
0
100
AcDbCircle
 62
7
  6
CONTINUOUS
 10
254.8303286852
 20
118.5893198073
 40
1.9999512622
100
AcDbArc
 50
270.0
 51
360.0
  0
ARC
  5
2AA
100
AcDbEntity
  8
0
100
AcDbCircle
 62
7
  6
CONTINUOUS
 10
250.8304261608
 20
118.5893198073
 40
1.9999512622
100
AcDbArc
 50
180.0
 51
270.0
  0
ARC
  5
2AB
100
AcDbEntity
  8
0
100
AcDbCircle
 62
7
  6
CONTINUOUS
 10
340.0790286852
 20
118.5893198073
 40
1.9999512622
100
AcDbArc
 50
270.0
 51
360.0
  0
ARC
  5
2AC
100
AcDbEntity
  8
0
100
AcDbCircle
 62
7
  6
CONTINUOUS
 10
336.0791261608
 20
118.5893198073
 40
1.9999512622
100
AcDbArc
 50
180.0
 51
270.0
  0
ARC
  5
2AD
100
AcDbEntity
  8
0
100
AcDbCircle
 62
7
  6
CONTINUOUS
 10
340.0790286852
 20
489.7894172829
 40
1.9999512622
100
AcDbArc
 50
0.0
 51
90.0
  0
ARC
  5
2AE
100
AcDbEntity
  8
0
100
AcDbCircle
 62
7
  6
CONTINUOUS
 10
336.0791261608
 20
489.7894172829
 40
1.9999512622
100
AcDbArc
 50
90.0
 51
180.0
  0
ARC
  5
2AF
100
AcDbEntity
  8
0
100
AcDbCircle
 62
7
  6
CONTINUOUS
 10
254.8303286852
 20
489.7894172829
 40
1.9999512622
100
AcDbArc
 50
0.0
 51
90.0
  0
ARC
  5
2B0
100
AcDbEntity
  8
0
100
AcDbCircle
 62
7
  6
CONTINUOUS
 10
250.8304261608
 20
489.7894172829
 40
1.9999512622
100
AcDbArc
 50
90.0
 51
180.0
  0
ARC
  5
2B1
100
AcDbEntity
  8
0
100
AcDbCircle
 62
7
  6
CONTINUOUS
 10
228.1490286852
 20
489.7894172829
 40
1.9999512622
100
AcDbArc
 50
0.0
 51
90.0
  0
ARC
  5
2B2
100
AcDbEntity
  8
0
100
AcDbCircle
 62
7
  6
CONTINUOUS
 10
224.1491261608
 20
489.7894172829
 40
1.9999512622
100
AcDbArc
 50
90.0
 51
180.0
  0
ARC
  5
2B3
100
AcDbEntity
  8
0
100
AcDbCircle
 62
7
  6
CONTINUOUS
 10
59.479077125
 20
220.6193542401
 40
0.6
100
AcDbArc
 50
89.9999999999
 51
179.9999999997
  0
ARC
  5
2B4
100
AcDbEntity
  8
0
100
AcDbCircle
 62
7
  6
CONTINUOUS
 10
185.9748761094
 20
114.0053208143
 40
0.5000014385
100
AcDbArc
 50
207.9185360298
 51
359.0007538385
  0
ARC
  5
2B5
100
AcDbEntity
  8
0
100
AcDbCircle
 62
7
  6
CONTINUOUS
 10
194.9432800307
 20
114.0053197462
 40
0.5000007452
100
AcDbArc
 50
181.0000661682
 51
332.0807704759
  0
ARC
  5
2B6
100
AcDbEntity
  8
0
100
AcDbCircle
 62
7
  6
CONTINUOUS
 10
185.9748753602
 20
494.3734434535
 40
0.5
100
AcDbArc
 50
1.0
 51
152.0815916991
  0
ARC
  5
2B7
100
AcDbEntity
  8
0
100
AcDbCircle
 62
7
  6
CONTINUOUS
 10
194.9432782191
 20
494.3734443182
 40
0.4999989084
100
AcDbArc
 50
27.9183889291
 51
179.0000969224
  0
ARC
  5
2B8
100
AcDbEntity
  8
0
100
AcDbCircle
 62
7
  6
CONTINUOUS
 10
63.0915959745
 20
221.9139037161
 40
0.3000004114
100
AcDbArc
 50
282.7335135003
 51
347.0504664191
  0
ARC
  5
2B9
100
AcDbEntity
  8
0
100
AcDbCircle
 62
7
  6
CONTINUOUS
 10
64.679081406
 20
212.3893584376
 40
0.2000059953
100
AcDbArc
 50
180.0000000185
 51
269.9999999831
  0
ARC
  5
2BA
100
AcDbEntity
  8
0
100
AcDbCircle
 62
7
  6
CONTINUOUS
 10
59.079077125
 20
213.1935582957
 40
0.2
100
AcDbArc
 50
180.0
 51
267.5000000003
  0
SPLINE
  5
2BB
100
AcDbEntity
  8
0
100
AcDbSpline
 62
7
  6
CONTINUOUS
 70
0
 71
3
 72
13
 73
9
 74
0
 42
0.0000001
 43
0.0000001
 44
0.0000000001
 40
0.0
 40
0.0
 40
0.0
 40
0.0
 40
0.0263085818
 40
0.0849436315
 40
0.1774051214
 40
0.3006683045
 40
0.6214948436
 40
1.0
 40
1.0
 40
1.0
 40
1.0
 10
52.571579326
 20
249.489369716
 30
0.0
 10
52.5955746416
 20
249.4893444365
 30
0.0
 10
52.6420303179
 20
249.575886694
 30
0.0
 10
52.6776848546
 20
249.7185526318
 30
0.0
 10
52.7228638432
 20
249.972658533
 30
0.0
 10
52.7764591438
 20
250.4550596584
 30
0.0
 10
52.8218785464
 20
251.2071293442
 30
0.0
 10
52.8335173392
 20
251.8441444739
 30
0.0
 10
52.8335173392
 20
252.1893685451
 30
0.0
  0
SPLINE
  5
2BC
100
AcDbEntity
  8
0
100
AcDbSpline
 62
7
  6
CONTINUOUS
 70
0
 71
3
 72
13
 73
9
 74
0
 42
0.0000001
 43
0.0000001
 44
0.0000000001
 40
0.0
 40
0.0
 40
0.0
 40
0.0
 40
0.0272061367
 40
0.086250483
 40
0.1786535117
 40
0.3018590983
 40
0.6221116909
 40
1.0
 40
1.0
 40
1.0
 40
1.0
 10
52.964417761
 20
384.6894601939
 30
0.0
 10
53.0012556223
 20
384.6894737833
 30
0.0
 10
53.0770714656
 20
384.8137289628
 30
0.0
 10
53.1339720973
 20
385.029315689
 30
0.0
 10
53.2073797938
 20
385.4041282914
 30
0.0
 10
53.2937033646
 20
386.1195769401
 30
0.0
 10
53.3677877863
 20
387.233384292
 30
0.0
 10
53.3866562251
 20
388.1776972927
 30
0.0
 10
53.3866562251
 20
388.6893685451
 30
0.0
  0
SPLINE
  5
2BD
100
AcDbEntity
  8
0
100
AcDbSpline
 62
7
  6
CONTINUOUS
 70
0
 71
3
 72
13
 73
9
 74
0
 42
0.0000001
 43
0.0000001
 44
0.0000000001
 40
0.0
 40
0.0
 40
0.0
 40
0.0
 40
0.3784890981
 40
0.6993464345
 40
0.8226039651
 40
0.9150710803
 40
0.9736974884
 40
1.0
 40
1.0
 40
1.0
 40
1.0
 10
52.8335173392
 20
252.1893685451
 30
0.0
 10
52.8335173392
 20
252.5345783154
 30
0.0
 10
52.8218728742
 20
253.1716122337
 30
0.0
 10
52.7764661062
 20
253.9236761332
 30
0.0
 10
52.7228537629
 20
254.4061282277
 30
0.0
 10
52.6776730267
 20
254.6601820842
 30
0.0
 10
52.6420254592
 20
254.8029283492
 30
0.0
 10
52.5955658739
 20
254.8893450001
 30
0.0
 10
52.5715760682
 20
254.8893676224
 30
0.0
  0
SPLINE
  5
2BE
100
AcDbEntity
  8
0
100
AcDbSpline
 62
7
  6
CONTINUOUS
 70
0
 71
3
 72
13
 73
9
 74
0
 42
0.0000001
 43
0.0000001
 44
0.0000000001
 40
0.0
 40
0.0
 40
0.0
 40
0.0
 40
0.3778771699
 40
0.6981509224
 40
0.8213545673
 40
0.9137590888
 40
0.9727930423
 40
1.0
 40
1.0
 40
1.0
 40
1.0
 10
53.3866562251
 20
388.6893685451
 30
0.0
 10
53.3866562251
 20
389.2010244407
 30
0.0
 10
53.3677832065
 20
390.1453464873
 30
0.0
 10
53.2937108822
 20
391.2591770423
 30
0.0
 10
53.2073675436
 20
391.9746343128
 30
0.0
 10
53.1339888728
 20
392.3494655851
 30
0.0
 10
53.0770424883
 20
392.5649789802
 30
0.0
 10
53.0012515908
 20
392.6892883865
 30
0.0
 10
52.964412637
 20
392.6892765691
 30
0.0
  0
SPLINE
  5
2BF
100
AcDbEntity
  8
0
100
AcDbSpline
 62
7
  6
CONTINUOUS
 70
0
 71
3
 72
9
 73
5
 74
0
 42
0.0000001
 43
0.0000001
 44
0.0000000001
 40
0.0
 40
0.0
 40
0.0
 40
0.0
 40
0.2448838555
 40
1.0
 40
1.0
 40
1.0
 40
1.0
 10
50.8060979246
 20
293.3308865251
 30
0.0
 10
50.8962389679
 20
298.7566127146
 30
0.0
 10
51.2630049009
 20
320.9129093353
 30
0.0
 10
51.5414704291
 20
343.0710638603
 30
0.0
 10
51.6352530356
 20
359.8037082171
 30
0.0
  0
SPLINE
  5
2C0
100
AcDbEntity
  8
0
100
AcDbSpline
 62
7
  6
CONTINUOUS
 70
0
 71
3
 72
9
 73
5
 74
0
 42
0.0000001
 43
0.0000001
 44
0.0000000001
 40
0.0
 40
0.0
 40
0.0
 40
0.0
 40
0.4711217558
 40
1.0
 40
1.0
 40
1.0
 40
1.0
 10
50.2449460476
 20
264.86521324
 30
0.0
 10
50.327564654
 20
269.3355867929
 30
0.0
 10
50.543205841
 20
278.8235599754
 30
0.0
 10
50.729323445
 20
288.3122041175
 30
0.0
 10
50.8060899044
 20
293.3308865251
 30
0.0
  0
SPLINE
  5
2C1
100
AcDbEntity
  8
0
100
AcDbSpline
 62
7
  6
CONTINUOUS
 70
0
 71
3
 72
13
 73
9
 74
0
 42
0.0000001
 43
0.0000001
 44
0.0000000001
 40
0.0
 40
0.0
 40
0.0
 40
0.0
 40
0.3786661518
 40
0.6996483909
 40
0.8229026333
 40
0.9153068846
 40
0.9738142764
 40
1.0
 40
1.0
 40
1.0
 40
1.0
 10
52.3230101181
 20
252.1893685451
 30
0.0
 10
52.3230101181
 20
251.8442234959
 30
0.0
 10
52.3334325121
 20
251.2073513265
 30
0.0
 10
52.3747874218
 20
250.4552968136
 30
0.0
 10
52.4246636828
 20
249.9727511627
 30
0.0
 10
52.4677499102
 20
249.7186230326
 30
0.0
 10
52.5017951001
 20
249.5759703393
 30
0.0
 10
52.5477116848
 20
249.489394861
 30
0.0
 10
52.571579326
 20
249.489369716
 30
0.0
  0
SPLINE
  5
2C2
100
AcDbEntity
  8
0
100
AcDbSpline
 62
7
  6
CONTINUOUS
 70
0
 71
3
 72
9
 73
5
 74
0
 42
0.0000001
 43
0.0000001
 44
0.0000000001
 40
0.0
 40
0.0
 40
0.0
 40
0.0
 40
0.080771767
 40
1.0
 40
1.0
 40
1.0
 40
1.0
 10
49.1292888929
 20
285.536631632
 30
0.0
 10
49.129306428
 20
285.4509982684
 30
0.0
 10
49.1383009976
 20
284.3908345191
 30
0.0
 10
49.1395159621
 20
283.3306384876
 30
0.0
 10
49.1401179509
 20
282.3560827103
 30
0.0
  0
LINE
  5
2C3
100
AcDbEntity
  8
0
100
AcDbLine
 62
7
  6
CONTINUOUS
 10
49.1401179509
 20
282.3560827103
 11
49.1402228904
 21
282.0193685451
  0
SPLINE
  5
2C4
100
AcDbEntity
  8
0
100
AcDbSpline
 62
7
  6
CONTINUOUS
 70
0
 71
3
 72
13
 73
9
 74
0
 42
0.0000001
 43
0.0000001
 44
0.0000000001
 40
0.0
 40
0.0
 40
0.0
 40
0.0
 40
0.378155828
 40
0.6986233281
 40
0.8218212763
 40
0.9141226803
 40
0.9729679403
 40
1.0
 40
1.0
 40
1.0
 40
1.0
 10
52.5715777661
 20
388.6893685451
 30
0.0
 10
52.5715777661
 20
388.1778640155
 30
0.0
 10
52.5877445781
 20
387.2339177442
 30
0.0
 10
52.6529360771
 20
386.1201277484
 30
0.0
 10
52.7310094764
 20
385.4044185866
 30
0.0
 10
52.7998453469
 20
385.0294624777
 30
0.0
 10
52.8531604629
 20
384.8140651871
 30
0.0
 10
52.9278534163
 20
384.6894467054
 30
0.0
 10
52.964417761
 20
384.6894601939
 30
0.0
  0
SPLINE
  5
2C5
100
AcDbEntity
  8
0
100
AcDbSpline
 62
7
  6
CONTINUOUS
 70
0
 71
3
 72
11
 73
7
 74
0
 42
0.0000001
 43
0.0000001
 44
0.0000000001
 40
0.0
 40
0.0
 40
0.0
 40
0.0
 40
0.0775196146
 40
0.2774774809
 40
0.5902257898
 40
1.0
 40
1.0
 40
1.0
 40
1.0
 10
49.1293033577
 20
258.9061848632
 30
0.0
 10
49.1292509852
 20
259.0602282957
 30
0.0
 10
49.1489278791
 20
259.6114053695
 30
0.0
 10
49.1717353709
 20
260.7839784087
 30
0.0
 10
49.2149907861
 20
262.616624334
 30
0.0
 10
49.2405442306
 20
264.0521567279
 30
0.0
 10
49.2538359578
 20
264.8663328536
 30
0.0
  0
SPLINE
  5
2C6
100
AcDbEntity
  8
0
100
AcDbSpline
 62
7
  6
CONTINUOUS
 70
0
 71
3
 72
9
 73
5
 74
0
 42
0.0000001
 43
0.0000001
 44
0.0000000001
 40
0.0
 40
0.0
 40
0.0
 40
0.0
 40
0.2448992855
 40
1.0
 40
1.0
 40
1.0
 40
1.0
 10
49.8146311561
 20
293.3308961651
 30
0.0
 10
49.9043461589
 20
298.7276840414
 30
0.0
 10
50.2693822627
 20
320.7644207723
 30
0.0
 10
50.5477787476
 20
342.8029831452
 30
0.0
 10
50.6427594935
 20
359.4449877829
 30
0.0
  0
SPLINE
  5
2C7
100
AcDbEntity
  8
0
100
AcDbSpline
 62
7
  6
CONTINUOUS
 70
0
 71
3
 72
11
 73
7
 74
0
 42
0.0000001
 43
0.0000001
 44
0.0000000001
 40
0.0
 40
0.0
 40
0.0
 40
0.0
 40
0.0751740636
 40
0.2744494801
 40
0.5880811777
 40
1.0
 40
1.0
 40
1.0
 40
1.0
 10
50.1190800595
 20
258.9049760659
 30
0.0
 10
50.1190431836
 20
259.0543615089
 30
0.0
 10
50.1393486475
 20
259.599514581
 30
0.0
 10
50.1618909585
 20
260.7678535848
 30
0.0
 10
50.2058290206
 20
262.6051836616
 30
0.0
 10
50.2315376377
 20
264.0467604576
 30
0.0
 10
50.244946157
 20
264.86521324
 30
0.0
  0
SPLINE
  5
2C8
100
AcDbEntity
  8
0
100
AcDbSpline
 62
7
  6
CONTINUOUS
 70
0
 71
3
 72
9
 73
5
 74
0
 42
0.0000001
 43
0.0000001
 44
0.0000000001
 40
0.0
 40
0.0
 40
0.0
 40
0.0
 40
0.4711224239
 40
1.0
 40
1.0
 40
1.0
 40
1.0
 10
49.2538359578
 20
264.8663328536
 30
0.0
 10
49.3361621106
 20
269.3365426772
 30
0.0
 10
49.5516101807
 20
278.8241485301
 30
0.0
 10
49.7378209592
 20
288.312417735
 30
0.0
 10
49.8146311561
 20
293.3308961651
 30
0.0
  0
SPLINE
  5
2C9
100
AcDbEntity
  8
0
100
AcDbSpline
 62
7
  6
CONTINUOUS
 70
0
 71
3
 72
16
 73
12
 74
0
 42
0.0000001
 43
0.0000001
 44
0.0000000001
 40
0.0
 40
0.0
 40
0.0
 40
0.0
 40
0.3890214935
 40
0.5612862515
 40
0.7109544718
 40
0.8330276632
 40
0.9234230214
 40
0.9558241452
 40
0.9793668052
 40
0.9939883828
 40
1.0
 40
1.0
 40
1.0
 40
1.0
 10
49.5578904633
 20
303.3331299718
 30
0.0
 10
49.5562661432
 20
303.7436989494
 30
0.0
 10
49.5500788527
 20
304.3361204483
 30
0.0
 10
49.5324191084
 20
305.086161397
 30
0.0
 10
49.5160034819
 20
305.5547245779
 30
0.0
 10
49.4984564167
 20
305.9358740526
 30
0.0
 10
49.4827329919
 20
306.1952646694
 30
0.0
 10
49.4653056296
 20
306.3469187729
 30
0.0
 10
49.4520119153
 20
306.4234497753
 30
0.0
 10
49.4403594961
 20
306.4626821483
 30
0.0
 10
49.4300821866
 20
306.489375702
 30
0.0
 10
49.4237375469
 20
306.4893683898
 30
0.0
  0
SPLINE
  5
2CA
100
AcDbEntity
  8
0
100
AcDbSpline
 62
7
  6
CONTINUOUS
 70
0
 71
3
 72
16
 73
12
 74
0
 42
0.0000001
 43
0.0000001
 44
0.0000000001
 40
0.0
 40
0.0
 40
0.0
 40
0.0
 40
0.0060098639
 40
0.0206315285
 40
0.0441758969
 40
0.0765796165
 40
0.1669834741
 40
0.2890602346
 40
0.4387321275
 40
0.6109955779
 40
1.0
 40
1.0
 40
1.0
 40
1.0
 10
49.4237375469
 20
299.4893687004
 30
0.0
 10
49.4300804691
 20
299.4893613861
 30
0.0
 10
49.4403395103
 20
299.5160686369
 30
0.0
 10
49.4519706192
 20
299.5552997331
 30
0.0
 10
49.4652570511
 20
299.6318418118
 30
0.0
 10
49.4827319331
 20
299.7835043772
 30
0.0
 10
49.4984859197
 20
300.0429173448
 30
0.0
 10
49.5160044265
 20
300.4240915572
 30
0.0
 10
49.5324166425
 20
300.8926712605
 30
0.0
 10
49.5500832177
 20
301.6427120913
 30
0.0
 10
49.5562673892
 20
302.2351267396
 30
0.0
 10
49.5578909498
 20
302.6456863033
 30
0.0
  0
LINE
  5
2CB
100
AcDbEntity
  8
0
100
AcDbLine
 62
7
  6
CONTINUOUS
 10
49.1402228904
 20
282.0193685451
 11
49.1401181591
 21
281.6828082784
  0
SPLINE
  5
2CC
100
AcDbEntity
  8
0
100
AcDbSpline
 62
7
  6
CONTINUOUS
 70
0
 71
3
 72
9
 73
5
 74
0
 42
0.0000001
 43
0.0000001
 44
0.0000000001
 40
0.0
 40
0.0
 40
0.0
 40
0.0
 40
0.3856421119
 40
1.0
 40
1.0
 40
1.0
 40
1.0
 10
49.1401181591
 20
281.6828082784
 30
0.0
 10
49.1398659256
 20
281.2739346103
 30
0.0
 10
49.1392332841
 20
280.2136901742
 30
0.0
 10
49.1294217461
 20
279.1534729312
 30
0.0
 10
49.1292888917
 20
278.5021052563
 30
0.0
  0
SPLINE
  5
2CD
100
AcDbEntity
  8
0
100
AcDbSpline
 62
7
  6
CONTINUOUS
 70
0
 71
3
 72
13
 73
9
 74
0
 42
0.0000001
 43
0.0000001
 44
0.0000000001
 40
0.0
 40
0.0
 40
0.0
 40
0.0
 40
0.0261920575
 40
0.0847078228
 40
0.1771063575
 40
0.300366324
 40
0.6213176444
 40
1.0
 40
1.0
 40
1.0
 40
1.0
 10
52.5715760682
 20
254.8893676224
 30
0.0
 10
52.5477026717
 20
254.8893901349
 30
0.0
 10
52.5017904873
 20
254.8026889235
 30
0.0
 10
52.4677390268
 20
254.6601164793
 30
0.0
 10
52.4246529267
 20
254.4059367528
 30
0.0
 10
52.374795999
 20
253.9234419899
 30
0.0
 10
52.3334264007
 20
253.171381586
 30
0.0
 10
52.3230101181
 20
252.5345280663
 30
0.0
 10
52.3230101181
 20
252.1893685451
 30
0.0
  0
SPLINE
  5
2CE
100
AcDbEntity
  8
0
100
AcDbSpline
 62
7
  6
CONTINUOUS
 70
0
 71
3
 72
13
 73
9
 74
0
 42
0.0000001
 43
0.0000001
 44
0.0000000001
 40
0.0
 40
0.0
 40
0.0
 40
0.0
 40
0.0270309181
 40
0.0858869093
 40
0.1781866423
 40
0.3013864619
 40
0.6218327823
 40
1.0
 40
1.0
 40
1.0
 40
1.0
 10
52.964412637
 20
392.6892765691
 30
0.0
 10
52.9278498165
 20
392.6892648403
 30
0.0
 10
52.8531309426
 20
392.5647012577
 30
0.0
 10
52.7998617717
 20
392.3492310647
 30
0.0
 10
52.7309950467
 20
391.9742937998
 30
0.0
 10
52.6529451306
 20
391.2585931055
 30
0.0
 10
52.5877395947
 20
390.1448263815
 30
0.0
 10
52.5715777661
 20
389.2008887521
 30
0.0
 10
52.5715777661
 20
388.6893685451
 30
0.0
  0
ENDSEC
  0
SECTION
  2
OBJECTS
  0
DICTIONARY
  5
C
100
AcDbDictionary
280
0
281
1
  3
ACAD_GROUP
350
D
  3
ACAD_MLINESTYLE
350
17
  3
ACAD_LAYOUT
350
1A
  3
ACAD_PLOTSETTINGS
350
19
  3
ACAD_PLOTSTYLENAME
350
E
  0
DICTIONARY
  5
D
102
{ACAD_REACTORS
330
C
102
}
100
AcDbDictionary
280
0
281
1
  0
ACDBDICTIONARYWDFLT
  5
E
102
{ACAD_REACTORS
330
C
102
}
100
AcDbDictionary
281
1
  3
Normal
350
F
100
AcDbDictionaryWithDefault
340
F
  0
DICTIONARY
  5
17
102
{ACAD_REACTORS
330
C
102
}
100
AcDbDictionary
280
0
281
1
  3
Standard
350
18
  0
DICTIONARY
  5
19
102
{ACAD_REACTORS
330
C
102
}
100
AcDbDictionary
281
1
  0
DICTIONARY
  5
1A
102
{ACAD_REACTORS
330
C
102
}
100
AcDbDictionary
281
1
  3
Model
350
2CF
  3
Layout1
350
2D0
  0
ACDBPLACEHOLDER
  5
F
102
{ACAD_REACTORS
330
E
102
}
  0
MLINESTYLE
  5
18
102
{ACAD_REACTORS
330
17
102
}
100
AcDbMlineStyle
  2
STANDARD
 70
0
  3

 62
256
 51
90.0
 52
90.0
 71
2
 49
0.5
 62
256
  6
BYLAYER
 49
-0.5
 62
256
  6
BYLAYER
  0
LAYOUT
  5
2CF
102
{ACAD_REACTORS
330
1A
102
}
100
AcDbPlotSettings
  1

  2
none_device
  4

  6

 40
0.0
 41
0.0
 42
0.0
 43
0.0
 44
210.0
 45
297.0
 46
0.0
 47
0.0
 48
0.0
 49
0.0
140
0.0
141
0.0
142
1.0
143
1.0
 70
1024
 72
1
 73
0
 74
0
  7

 75
0
147
1.0
148
0.0
149
0.0
100
AcDbLayout
  1
Model
 70
0
 71
0
 10
0.0
 20
0.0
 11
210.0
 21
297.0
 12
0.0
 22
0.0
 32
0.0
 14
0.0
 24
0.0
 34
0.0
 15
0.0
 25
0.0
 35
0.0
146
0.0
 13
0.0
 23
0.0
 33
0.0
 16
1.0
 26
0.0
 36
0.0
 17
0.0
 27
1.0
 37
0.0
 76
0
330
210
345
0
346
0
  0
LAYOUT
  5
2D0
102
{ACAD_REACTORS
330
1A
102
}
100
AcDbPlotSettings
  1

  2
none_device
  4

  6

 40
0.0
 41
0.0
 42
0.0
 43
0.0
 44
210.0
 45
297.0
 46
0.0
 47
0.0
 48
0.0
 49
0.0
140
0.0
141
0.0
142
1.0
143
1.0
 70
0
 72
1
 73
0
 74
0
  7

 75
0
147
1.0
148
0.0
149
0.0
100
AcDbLayout
  1
Layout1
 70
0
 71
1
 10
0.0
 20
0.0
 11
210.0
 21
297.0
 12
0.0
 22
0.0
 32
0.0
 14
0.0
 24
0.0
 34
0.0
 15
0.0
 25
0.0
 35
0.0
146
0.0
 13
0.0
 23
0.0
 33
0.0
 16
1.0
 26
0.0
 36
0.0
 17
0.0
 27
1.0
 37
0.0
 76
0
330
211
345
0
346
0
  0
ENDSEC
  0
EOF
