999
DXF file: C:\Users\sesa63760\Dev\_Creo\CAD\MCADID0005316_3D-CAD\drw0001_3.dxf
999
Pro/ENGINEER 2019471 by Parametric Technology Corporation
  0
SECTION
  2
HEADER
  9
$ACADVER
  1
AC1024
  9
$DWGCODEPAGE
  3
ANSI_1252
  9
$EXTMAX
 10
117.5578542537
 20
166.2603938731
 30
0.0
  9
$EXTMIN
 10
0.0
 20
0.0
 30
0.0
  9
$LIMMIN
 10
0.0
 20
0.0
  9
$LIMMAX
 10
117.5578542537
 20
166.2603938731
  9
$VIEWCTR
 10
58.7789271268
 20
83.1301969365
  9
$VIEWSIZE
 40
166.2603938731
  9
$CLAYER
  8
0
  9
$LTSCALE
 40
10.8377145636
  9
$CELTYPE
  6
BYLAYER
  9
$DIMSCALE
 40
1.0
  9
$DIMASZ
 40
1.3994982649
  9
$DIMEXO
 40
1.0
  9
$DIMDLI
 40
7.4878755167
  9
$DIMEXE
 40
1.0
  9
$DIMCEN
 40
1.7734442013
  9
$DIMLFAC
 40
1.0
  9
$DIMBLK
  1
_FILLED
  9
$DIMALT
 70
0
  9
$DIMALTF
 40
0.0393700787
  9
$DIMTXT
 40
1.9592975709
  9
$DIMTOL
 70
1
  9
$DIMLIM
 70
0
  9
$DIMTFAC
 40
1.0
  9
$DIMTP
 40
0.01
  9
$DIMTM
 40
0.01
  9
$DIMGAP
 40
0.625
  9
$DIMDSEP
 70
46
  9
$AUNITS
 70
0
  9
$PDMODE
 70
3
  9
$PDSIZE
 40
0.3125
  9
$HANDSEED
  5
548
  9
$TILEMODE
 70
1
  9
$MEASUREMENT
 70
1
  9
$INSUNITS
 70
4
  0
ENDSEC
  0
SECTION
  2
CLASSES
  0
CLASS
  1
ACDBDICTIONARYWDFLT
  2
AcDbDictionaryWithDefault
  3
AutoCAD 2000
 90
0
 91
1
280
0
281
0
  0
CLASS
  1
ACDBPLACEHOLDER
  2
AcDbPlaceHolder
  3
AutoCAD 2000
 90
0
 91
1
280
0
281
0
  0
CLASS
  1
LAYOUT
  2
AcDbLayout
  3
AutoCAD 2000
 90
0
 91
0
280
0
281
0
  0
ENDSEC
  0
SECTION
  2
TABLES
  0
TABLE
  2
VPORT
  5
8
100
AcDbSymbolTable
 70
2
  0
VPORT
  5
1F4
100
AcDbSymbolTableRecord
100
AcDbViewportTableRecord
  2
*ACTIVE
 70
0
 10
0.0
 20
0.0
 11
1.0
 21
1.0
 12
58.7789271268
 22
83.1301969365
 13
0.0
 23
0.0
 14
1.0
 24
1.0
 15
0.0
 25
0.0
 16
0.0
 26
0.0
 36
1.0
 17
0.0
 27
0.0
 37
0.0
 40
166.2603938731
 41
0.7070707071
 42
50.0
 43
0.0
 44
0.0
 50
0.0
 51
0.0
 71
0
 72
100
 73
1
 74
1
 75
0
 76
0
 77
0
 78
0
  0
ENDTAB
  0
TABLE
  2
LTYPE
  5
5
100
AcDbSymbolTable
 70
6
  0
LTYPE
  5
14
100
AcDbSymbolTableRecord
100
AcDbLinetypeTableRecord
  2
BYBLOCK
 70
0
  3

 72
65
 73
0
 40
0.0
  0
LTYPE
  5
15
100
AcDbSymbolTableRecord
100
AcDbLinetypeTableRecord
  2
BYLAYER
 70
0
  3

 72
65
 73
0
 40
0.0
  0
LTYPE
  5
16
100
AcDbSymbolTableRecord
100
AcDbLinetypeTableRecord
  2
CONTINUOUS
 70
64
  3
Solid line
 72
65
 73
0
 40
0.0
  0
LTYPE
  5
1F5
100
AcDbSymbolTableRecord
100
AcDbLinetypeTableRecord
  2
CENTER
 70
64
  3
____ _ ____ _ ____ _ ____ _ ____ _ ____ _ ____
 72
65
 73
4
 40
0.6
 49
0.375
 74
0
 49
-0.075
 74
0
 49
0.075
 74
0
 49
-0.075
 74
0
  0
LTYPE
  5
1F6
100
AcDbSymbolTableRecord
100
AcDbLinetypeTableRecord
  2
HIDDEN
 70
64
  3
- - - - - - - - - - - - - - - - - - - -
 72
65
 73
2
 40
0.2
 49
0.1
 74
0
 49
-0.1
 74
0
  0
LTYPE
  5
1F7
100
AcDbSymbolTableRecord
100
AcDbLinetypeTableRecord
  2
PHANTOM
 70
64
  3
_____ _ _ _____ _ _ _____ _ _ _____
 72
65
 73
6
 40
0.8
 49
0.45
 74
0
 49
-0.05
 74
0
 49
0.1
 74
0
 49
-0.05
 74
0
 49
0.1
 74
0
 49
-0.05
 74
0
  0
LTYPE
  5
1F8
100
AcDbSymbolTableRecord
100
AcDbLinetypeTableRecord
  2
DOT
 70
64
  3
. . . . . . . . . . . . . . . . . . . .
 72
65
 73
2
 40
0.2
 49
0.1
 74
0
 49
-0.1
 74
0
  0
LTYPE
  5
1F9
100
AcDbSymbolTableRecord
100
AcDbLinetypeTableRecord
  2
DASHED
 70
64
  3
- - - - - - - - - - - - - - - - - - - -
 72
65
 73
2
 40
0.2
 49
0.1
 74
0
 49
-0.1
 74
0
  0
ENDTAB
  0
TABLE
  2
LAYER
  5
2
100
AcDbSymbolTable
 70
36
  0
LAYER
  5
10
100
AcDbSymbolTableRecord
100
AcDbLayerTableRecord
  2
0
 70
0
 62
7
  6
CONTINUOUS
370
-3
390
F
  0
LAYER
  5
1FA
100
AcDbSymbolTableRecord
100
AcDbLayerTableRecord
  2
DEFAULT_1
 70
0
 62
7
  6
CENTER
370
-3
390
F
  0
LAYER
  5
1FB
100
AcDbSymbolTableRecord
100
AcDbLayerTableRecord
  2
DEFAULT_2
 70
0
 62
7
  6
HIDDEN
370
-3
390
F
  0
LAYER
  5
1FC
100
AcDbSymbolTableRecord
100
AcDbLayerTableRecord
  2
DEFAULT_3
 70
0
 62
7
  6
PHANTOM
370
-3
390
F
  0
LAYER
  5
1FD
100
AcDbSymbolTableRecord
100
AcDbLayerTableRecord
  2
00_COMPONENTS
 70
0
 62
7
  6
CONTINUOUS
370
-3
390
F
  0
LAYER
  5
1FE
100
AcDbSymbolTableRecord
100
AcDbLayerTableRecord
  2
01_1_DEFAULT_DATUMS
 70
0
 62
7
  6
CONTINUOUS
370
-3
390
F
  0
LAYER
  5
1FF
100
AcDbSymbolTableRecord
100
AcDbLayerTableRecord
  2
01_PLANES
 70
0
 62
7
  6
CONTINUOUS
370
-3
390
F
  0
LAYER
  5
200
100
AcDbSymbolTableRecord
100
AcDbLayerTableRecord
  2
02_COORD_SYS
 70
0
 62
7
  6
CONTINUOUS
370
-3
390
F
  0
LAYER
  5
201
100
AcDbSymbolTableRecord
100
AcDbLayerTableRecord
  2
03_AXES
 70
0
 62
7
  6
CONTINUOUS
370
-3
390
F
  0
LAYER
  5
202
100
AcDbSymbolTableRecord
100
AcDbLayerTableRecord
  2
04_POINTS
 70
0
 62
7
  6
CONTINUOUS
370
-3
390
F
  0
LAYER
  5
203
100
AcDbSymbolTableRecord
100
AcDbLayerTableRecord
  2
05_CURVES
 70
0
 62
7
  6
CONTINUOUS
370
-3
390
F
  0
LAYER
  5
204
100
AcDbSymbolTableRecord
100
AcDbLayerTableRecord
  2
06_SURFS
 70
0
 62
7
  6
CONTINUOUS
370
-3
390
F
  0
LAYER
  5
205
100
AcDbSymbolTableRecord
100
AcDbLayerTableRecord
  2
07_COSMETICS
 70
0
 62
7
  6
CONTINUOUS
370
-3
390
F
  0
LAYER
  5
206
100
AcDbSymbolTableRecord
100
AcDbLayerTableRecord
  2
10_NOTES
 70
0
 62
7
  6
CONTINUOUS
370
-3
390
F
  0
LAYER
  5
207
100
AcDbSymbolTableRecord
100
AcDbLayerTableRecord
  2
11_NOTES_PUB
 70
0
 62
7
  6
CONTINUOUS
370
-3
390
F
  0
LAYER
  5
208
100
AcDbSymbolTableRecord
100
AcDbLayerTableRecord
  2
13_REF_GTOL
 70
0
 62
7
  6
CONTINUOUS
370
-3
390
F
  0
LAYER
  5
209
100
AcDbSymbolTableRecord
100
AcDbLayerTableRecord
  2
16_MISC
 70
0
 62
7
  6
CONTINUOUS
370
-3
390
F
  0
LAYER
  5
20A
100
AcDbSymbolTableRecord
100
AcDbLayerTableRecord
  2
17_NO_PRINT
 70
0
 62
7
  6
CONTINUOUS
370
-3
390
F
  0
LAYER
  5
20B
100
AcDbSymbolTableRecord
100
AcDbLayerTableRecord
  2
18_DATUM_CAMS_JOINTS
 70
0
 62
7
  6
CONTINUOUS
370
-3
390
F
  0
LAYER
  5
20C
100
AcDbSymbolTableRecord
100
AcDbLayerTableRecord
  2
19_DATUM_FUNCTIONAL
 70
0
 62
7
  6
CONTINUOUS
370
-3
390
F
  0
LAYER
  5
20D
100
AcDbSymbolTableRecord
100
AcDbLayerTableRecord
  2
20_DATUM_KINEMATIC_SCHEME
 70
0
 62
7
  6
CONTINUOUS
370
-3
390
F
  0
ENDTAB
  0
TABLE
  2
STYLE
  5
3
100
AcDbSymbolTable
 70
1
  0
STYLE
  5
11
100
AcDbSymbolTableRecord
100
AcDbTextStyleTableRecord
  2
STANDARD
 70
0
 40
0.0
 41
1.0
 50
0.0
 71
0
 42
0.2
  3
ARIAL.TTF
  4

  0
STYLE
  5
20E
100
AcDbSymbolTableRecord
100
AcDbTextStyleTableRecord
  2
TEXTSTYLE_1
 70
0
 40
0.0
 41
0.8
 50
0.0
 71
0
 42
0.2
  3
gdt
  4

  0
ENDTAB
  0
TABLE
  2
VIEW
  5
6
100
AcDbSymbolTable
 70
0
  0
ENDTAB
  0
TABLE
  2
UCS
  5
7
100
AcDbSymbolTable
 70
0
  0
ENDTAB
  0
TABLE
  2
APPID
  5
9
100
AcDbSymbolTable
 70
1
  0
APPID
  5
20F
100
AcDbSymbolTableRecord
100
AcDbRegAppTableRecord
  2
ACAD
 70
0
  0
ENDTAB
  0
TABLE
  2
BLOCK_RECORD
  5
1
100
AcDbSymbolTable
 70
0
  0
BLOCK_RECORD
  5
210
100
AcDbSymbolTableRecord
100
AcDbBlockTableRecord
  2
*Model_Space
  0
BLOCK_RECORD
  5
211
100
AcDbSymbolTableRecord
100
AcDbBlockTableRecord
  2
*Paper_Space
  0
BLOCK_RECORD
  5
212
100
AcDbSymbolTableRecord
100
AcDbBlockTableRecord
  2
_FILLED
  0
ENDTAB
  0
TABLE
  2
DIMSTYLE
  5
A
100
AcDbSymbolTable
 70
1
100
AcDbDimStyleTable
 71
0
  0
DIMSTYLE
105
213
100
AcDbSymbolTableRecord
100
AcDbDimStyleTableRecord
  2
STANDARD
 70
0
  3

  4

 40
1.0
 41
1.3994982649
 42
1.0
 43
0.38
 44
1.0
 45
0.0
 46
0.0
 47
0.01
 48
0.01
140
1.9592975709
141
0.09
142
0.0
143
25.4
144
1.0
145
0.0
146
1.0
147
0.625
 71
1
 72
0
 73
0
 74
0
 75
0
 76
0
 77
1
 78
8
 79
2
170
0
171
1
172
0
173
0
174
0
175
0
176
0
177
0
178
0
270
2
179
2
271
2
272
2
273
2
274
2
275
0
280
0
281
0
282
0
283
1
284
8
285
0
286
0
287
3
288
0
340
11
278
46
341
212
342
212
343
212
344
212
  0
ENDTAB
  0
ENDSEC
  0
SECTION
  2
BLOCKS
  0
BLOCK
  5
20
100
AcDbEntity
  8
0
100
AcDbBlockBegin
  2
*Model_Space
 70
0
 10
0.0
 20
0.0
 30
0.0
  3
*Model_Space
  1

  0
ENDBLK
  5
21
100
AcDbEntity
  8
0
100
AcDbBlockEnd
  0
BLOCK
  5
1C
100
AcDbEntity
  8
0
100
AcDbBlockBegin
  2
*Paper_Space
 70
0
 10
0.0
 20
0.0
 30
0.0
  3
*Paper_Space
  1

  0
ENDBLK
  5
1D
100
AcDbEntity
  8
0
100
AcDbBlockEnd
  0
BLOCK
  5
214
100
AcDbEntity
  8
0
100
AcDbBlockBegin
  2
_FILLED
 70
64
 10
0.0
 20
0.0
  3
_FILLED
  1

  0
SOLID
  5
215
100
AcDbEntity
  8
0
  6
BYBLOCK
 62
0
100
AcDbTrace
 10
0.0
 20
0.0
 11
-1.0
 21
0.25
 12
-1.0
 22
-0.25
 13
-1.0
 23
-0.25
  0
ENDBLK
  5
216
100
AcDbEntity
  8
0
  6
BYBLOCK
 62
0
100
AcDbBlockEnd
  0
ENDSEC
  0
SECTION
  2
ENTITIES
  0
LINE
  5
217
100
AcDbEntity
  8
0
100
AcDbLine
 62
7
  6
BYLAYER
 10
13.9069358796
 20
60.1371991247
 11
13.9069358796
 21
107.9371991247
  0
LINE
  5
218
100
AcDbEntity
  8
0
100
AcDbLine
 62
7
  6
BYLAYER
 10
14.9069358796
 20
60.1371991247
 11
14.9069358796
 21
107.9371991247
  0
LINE
  5
219
100
AcDbEntity
  8
0
100
AcDbLine
 62
7
  6
BYLAYER
 10
15.0069358796
 20
62.6338620794
 11
15.0069358796
 21
68.6371991247
  0
LINE
  5
21A
100
AcDbEntity
  8
0
100
AcDbLine
 62
7
  6
BYLAYER
 10
15.0069358796
 20
74.6371991247
 11
15.0069358796
 21
81.1371991247
  0
LINE
  5
21B
100
AcDbEntity
  8
0
100
AcDbLine
 62
7
  6
BYLAYER
 10
15.0069358796
 20
87.1371991247
 11
15.0069358796
 21
93.6371991247
  0
LINE
  5
21C
100
AcDbEntity
  8
0
100
AcDbLine
 62
7
  6
BYLAYER
 10
15.0069358796
 20
99.6371991247
 11
15.0069358796
 21
108.3371991247
  0
LINE
  5
21D
100
AcDbEntity
  8
0
100
AcDbLine
 62
7
  6
BYLAYER
 10
15.2069358796
 20
60.2371991247
 11
15.2069358796
 21
60.4251991247
  0
LINE
  5
21E
100
AcDbEntity
  8
0
100
AcDbLine
 62
7
  6
BYLAYER
 10
15.8069358796
 20
99.6371991247
 11
15.8069358796
 21
109.1371991247
  0
LINE
  5
21F
100
AcDbEntity
  8
0
100
AcDbLine
 62
7
  6
BYLAYER
 10
16.0069358796
 20
109.1371991247
 11
16.0069358796
 21
85.9371991247
  0
LINE
  5
220
100
AcDbEntity
  8
0
100
AcDbLine
 62
7
  6
BYLAYER
 10
16.1069358796
 20
68.6376000039
 11
16.1069358796
 21
74.6367982455
  0
LINE
  5
221
100
AcDbEntity
  8
0
100
AcDbLine
 62
7
  6
BYLAYER
 10
16.1069358796
 20
81.1376000039
 11
16.1069358796
 21
85.6296912215
  0
LINE
  5
222
100
AcDbEntity
  8
0
100
AcDbLine
 62
7
  6
BYLAYER
 10
16.2069358796
 20
60.4251991247
 11
16.2069358796
 21
60.2371991247
  0
LINE
  5
223
100
AcDbEntity
  8
0
100
AcDbLine
 62
7
  6
BYLAYER
 10
16.2069358796
 20
68.8847518626
 11
16.2069358796
 21
74.3896463868
  0
LINE
  5
224
100
AcDbEntity
  8
0
100
AcDbLine
 62
7
  6
BYLAYER
 10
16.4069358796
 20
60.1371991247
 11
16.4069358796
 21
60.2371991247
  0
LINE
  5
225
100
AcDbEntity
  8
0
100
AcDbLine
 62
7
  6
BYLAYER
 10
16.4069358796
 20
60.4251991247
 11
16.4069358796
 21
60.7259836766
  0
LINE
  5
226
100
AcDbEntity
  8
0
100
AcDbLine
 62
7
  6
BYLAYER
 10
16.9069358796
 20
67.1371991247
 11
16.9069358796
 21
68.7371991247
  0
LINE
  5
227
100
AcDbEntity
  8
0
100
AcDbLine
 62
7
  6
BYLAYER
 10
17.1569358796
 20
89.6371991247
 11
17.1569358796
 21
106.6371991247
  0
LINE
  5
228
100
AcDbEntity
  8
0
100
AcDbLine
 62
7
  6
BYLAYER
 10
18.4069371196
 20
60.1371991247
 11
18.4069371196
 21
60.2371991247
  0
LINE
  5
229
100
AcDbEntity
  8
0
100
AcDbLine
 62
7
  6
BYLAYER
 10
18.4069371196
 20
60.4251991247
 11
18.4069371196
 21
67.1371991247
  0
LINE
  5
22A
100
AcDbEntity
  8
0
100
AcDbLine
 62
7
  6
BYLAYER
 10
15.0069358796
 20
101.1154885117
 11
14.9109918056
 21
101.0126010889
  0
LINE
  5
22B
100
AcDbEntity
  8
0
100
AcDbLine
 62
7
  6
BYLAYER
 10
23.235642318
 20
59.1239269206
 11
24.4169358796
 21
58.0223528533
  0
LINE
  5
22C
100
AcDbEntity
  8
0
100
AcDbLine
 62
7
  6
BYLAYER
 10
18.5969358796
 20
57.9371991247
 11
18.5969358796
 21
58.0223528533
  0
LINE
  5
22D
100
AcDbEntity
  8
0
100
AcDbLine
 62
7
  6
BYLAYER
 10
18.9069358796
 20
67.1371991247
 11
18.9069358796
 21
68.7371991247
  0
LINE
  5
22E
100
AcDbEntity
  8
0
100
AcDbLine
 62
7
  6
BYLAYER
 10
19.1221863888
 20
73.8171991247
 11
19.1221863888
 21
72.8171991247
  0
LINE
  5
22F
100
AcDbEntity
  8
0
100
AcDbLine
 62
7
  6
BYLAYER
 10
19.2221863888
 20
75.7671991247
 11
19.2221863888
 21
73.8171991247
  0
LINE
  5
230
100
AcDbEntity
  8
0
100
AcDbLine
 62
7
  6
BYLAYER
 10
20.5225255471
 20
72.8171991247
 11
20.5233020118
 21
70.3171991247
  0
LINE
  5
231
100
AcDbEntity
  8
0
100
AcDbLine
 62
7
  6
BYLAYER
 10
20.5233020118
 20
70.3171991247
 11
20.5233020118
 21
68.7371991247
  0
LINE
  5
232
100
AcDbEntity
  8
0
100
AcDbLine
 62
7
  6
BYLAYER
 10
20.9225255216
 20
72.8171991247
 11
20.9233019864
 21
70.3171991247
  0
LINE
  5
233
100
AcDbEntity
  8
0
100
AcDbLine
 62
7
  6
BYLAYER
 10
20.9233019864
 20
70.3171991247
 11
20.9233019864
 21
68.7371991247
  0
LINE
  5
234
100
AcDbEntity
  8
0
100
AcDbLine
 62
7
  6
BYLAYER
 10
19.830865373
 20
59.0781282191
 11
19.8308678164
 21
59.1162674685
  0
LINE
  5
235
100
AcDbEntity
  8
0
100
AcDbLine
 62
7
  6
BYLAYER
 10
20.521392087
 20
70.3171991247
 11
20.5212314391
 21
68.7371991247
  0
LINE
  5
236
100
AcDbEntity
  8
0
100
AcDbLine
 62
7
  6
BYLAYER
 10
22.2221863888
 20
75.7671991247
 11
22.2221863888
 21
73.8171991247
  0
LINE
  5
237
100
AcDbEntity
  8
0
100
AcDbLine
 62
7
  6
BYLAYER
 10
22.3221863888
 20
73.8171991247
 11
22.3221863888
 21
72.8171991247
  0
LINE
  5
238
100
AcDbEntity
  8
0
100
AcDbLine
 62
7
  6
BYLAYER
 10
24.3461579682
 20
73.4371991247
 11
24.3461579682
 21
68.7371991247
  0
LINE
  5
239
100
AcDbEntity
  8
0
100
AcDbLine
 62
7
  6
BYLAYER
 10
24.4069371196
 20
60.1371991247
 11
24.4069371196
 21
60.2371991247
  0
LINE
  5
23A
100
AcDbEntity
  8
0
100
AcDbLine
 62
7
  6
BYLAYER
 10
24.4069371196
 20
60.4251991247
 11
24.4069371196
 21
67.1371991247
  0
LINE
  5
23B
100
AcDbEntity
  8
0
100
AcDbLine
 62
7
  6
BYLAYER
 10
24.4169358796
 20
57.9371991247
 11
24.4169358796
 21
58.0223528533
  0
LINE
  5
23C
100
AcDbEntity
  8
0
100
AcDbLine
 62
7
  6
BYLAYER
 10
24.6461579682
 20
73.4371991247
 11
24.6461579682
 21
70.9371991247
  0
LINE
  5
23D
100
AcDbEntity
  8
0
100
AcDbLine
 62
7
  6
BYLAYER
 10
24.8461579682
 20
70.9371991247
 11
24.8461579682
 21
73.4371991247
  0
LINE
  5
23E
100
AcDbEntity
  8
0
100
AcDbLine
 62
7
  6
BYLAYER
 10
24.9074364996
 20
60.1371991247
 11
24.9074364996
 21
60.2371991247
  0
LINE
  5
23F
100
AcDbEntity
  8
0
100
AcDbLine
 62
7
  6
BYLAYER
 10
24.9074364996
 20
60.4251991247
 11
24.9074364996
 21
67.1371991247
  0
LINE
  5
240
100
AcDbEntity
  8
0
100
AcDbLine
 62
7
  6
BYLAYER
 10
25.1282821832
 20
72.3371991247
 11
25.1282821832
 21
70.9371991247
  0
LINE
  5
241
100
AcDbEntity
  8
0
100
AcDbLine
 62
7
  6
BYLAYER
 10
25.6461579682
 20
68.7371991247
 11
25.6461579682
 21
69.2371991247
  0
LINE
  5
242
100
AcDbEntity
  8
0
100
AcDbLine
 62
7
  6
BYLAYER
 10
22.4926297654
 20
75.2595948909
 11
22.4951314027
 21
75.2572242526
  0
LINE
  5
243
100
AcDbEntity
  8
0
100
AcDbLine
 62
7
  6
BYLAYER
 10
22.5491635919
 20
75.206021474
 11
22.556012797
 21
75.1995309295
  0
LINE
  5
244
100
AcDbEntity
  8
0
100
AcDbLine
 62
7
  6
BYLAYER
 10
29.6461579682
 20
68.7371991247
 11
29.6461579682
 21
69.2371991247
  0
LINE
  5
245
100
AcDbEntity
  8
0
100
AcDbLine
 62
7
  6
BYLAYER
 10
30.1640337532
 20
72.3371991247
 11
30.1640337532
 21
70.9371991247
  0
LINE
  5
246
100
AcDbEntity
  8
0
100
AcDbLine
 62
7
  6
BYLAYER
 10
30.4461579682
 20
70.9371991247
 11
30.4461579682
 21
73.4371991247
  0
LINE
  5
247
100
AcDbEntity
  8
0
100
AcDbLine
 62
7
  6
BYLAYER
 10
30.6461579682
 20
73.4371991247
 11
30.6461579682
 21
70.9371991247
  0
LINE
  5
248
100
AcDbEntity
  8
0
100
AcDbLine
 62
7
  6
BYLAYER
 10
30.9461579682
 20
73.4371991247
 11
30.9461579682
 21
68.7371991247
  0
LINE
  5
249
100
AcDbEntity
  8
0
100
AcDbLine
 62
7
  6
BYLAYER
 10
22.4995828046
 20
75.2684588354
 11
22.5023016701
 21
75.2663222287
  0
LINE
  5
24A
100
AcDbEntity
  8
0
100
AcDbLine
 62
7
  6
BYLAYER
 10
22.5600286074
 20
75.2184877144
 11
22.5658068009
 21
75.2134278441
  0
LINE
  5
24B
100
AcDbEntity
  8
0
100
AcDbLine
 62
7
  6
BYLAYER
 10
22.5658068009
 20
75.2134278441
 11
22.5671973293
 21
75.2122024441
  0
LINE
  5
24C
100
AcDbEntity
  8
0
100
AcDbLine
 62
7
  6
BYLAYER
 10
32.6069358796
 20
81.2371991247
 11
32.6069358796
 21
80.7371991247
  0
LINE
  5
24D
100
AcDbEntity
  8
0
100
AcDbLine
 62
7
  6
BYLAYER
 10
33.2069358796
 20
68.7371991247
 11
33.2069358796
 21
83.7371991247
  0
LINE
  5
24E
100
AcDbEntity
  8
0
100
AcDbLine
 62
7
  6
BYLAYER
 10
34.6069358796
 20
68.7371991247
 11
34.6069358796
 21
69.7371991247
  0
LINE
  5
24F
100
AcDbEntity
  8
0
100
AcDbLine
 62
7
  6
BYLAYER
 10
34.6069358796
 20
75.4871991247
 11
34.6069358796
 21
83.7371991247
  0
LINE
  5
250
100
AcDbEntity
  8
0
100
AcDbLine
 62
7
  6
BYLAYER
 10
34.6569358796
 20
75.4871991247
 11
34.6569358796
 21
75.8871991247
  0
LINE
  5
251
100
AcDbEntity
  8
0
100
AcDbLine
 62
7
  6
BYLAYER
 10
34.8569358796
 20
75.9592368251
 11
34.8569358796
 21
77.3871991247
  0
LINE
  5
252
100
AcDbEntity
  8
0
100
AcDbLine
 62
7
  6
BYLAYER
 10
35.0569358796
 20
77.1234140676
 11
35.0569358796
 21
75.9592368251
  0
LINE
  5
253
100
AcDbEntity
  8
0
100
AcDbLine
 62
7
  6
BYLAYER
 10
35.2069358796
 20
77.3871991247
 11
35.2069358796
 21
78.8871991247
  0
LINE
  5
254
100
AcDbEntity
  8
0
100
AcDbLine
 62
7
  6
BYLAYER
 10
32.6069358796
 20
81.2371991247
 11
33.2069358796
 21
83.7371991247
  0
LINE
  5
255
100
AcDbEntity
  8
0
100
AcDbLine
 62
7
  6
BYLAYER
 10
99.6021211099
 20
60.7381792968
 11
99.4011463237
 21
60.7236100111
  0
LINE
  5
256
100
AcDbEntity
  8
0
100
AcDbLine
 62
7
  6
BYLAYER
 10
18.5969374857
 20
57.9371991247
 11
24.4169342734
 21
57.9371991247
  0
LINE
  5
257
100
AcDbEntity
  8
0
100
AcDbLine
 62
7
  6
BYLAYER
 10
96.5969374857
 20
57.9371991247
 11
102.4169342734
 21
57.9371991247
  0
LINE
  5
258
100
AcDbEntity
  8
0
100
AcDbLine
 62
7
  6
BYLAYER
 10
102.4169358796
 20
58.0223528533
 11
96.5969358796
 21
58.0223528533
  0
LINE
  5
259
100
AcDbEntity
  8
0
100
AcDbLine
 62
7
  6
BYLAYER
 10
24.4169358796
 20
58.0223528533
 11
18.5969358796
 21
58.0223528533
  0
LINE
  5
25A
100
AcDbEntity
  8
0
100
AcDbLine
 62
7
  6
BYLAYER
 10
14.9069358796
 20
59.1371991247
 11
105.9069358796
 21
59.1371991247
  0
LINE
  5
25B
100
AcDbEntity
  8
0
100
AcDbLine
 62
7
  6
BYLAYER
 10
36.2569358796
 20
75.8871991247
 11
36.2569358796
 21
75.5577272668
  0
LINE
  5
25C
100
AcDbEntity
  8
0
100
AcDbLine
 62
7
  6
BYLAYER
 10
37.9569358796
 20
65.5871991247
 11
37.9569358796
 21
67.1371991247
  0
LINE
  5
25D
100
AcDbEntity
  8
0
100
AcDbLine
 62
7
  6
BYLAYER
 10
37.9569358796
 20
68.7371991247
 11
37.9569358796
 21
69.35947475
  0
LINE
  5
25E
100
AcDbEntity
  8
0
100
AcDbLine
 62
7
  6
BYLAYER
 10
38.1069358796
 20
75.9314945073
 11
38.1069358796
 21
76.2296164649
  0
LINE
  5
25F
100
AcDbEntity
  8
0
100
AcDbLine
 62
7
  6
BYLAYER
 10
39.1069358796
 20
76.2290881317
 11
39.1069358796
 21
75.9314945073
  0
LINE
  5
260
100
AcDbEntity
  8
0
100
AcDbLine
 62
7
  6
BYLAYER
 10
39.2569358796
 20
69.35947475
 11
39.2569358796
 21
68.7371991247
  0
LINE
  5
261
100
AcDbEntity
  8
0
100
AcDbLine
 62
7
  6
BYLAYER
 10
39.2569358796
 20
67.1371991247
 11
39.2569358796
 21
65.5871991247
  0
LINE
  5
262
100
AcDbEntity
  8
0
100
AcDbLine
 62
7
  6
BYLAYER
 10
97.6666224373
 20
69.7371991247
 11
96.2569358796
 21
69.35947475
  0
LINE
  5
263
100
AcDbEntity
  8
0
100
AcDbLine
 62
7
  6
BYLAYER
 10
14.9069358796
 20
60.1371991247
 11
105.9069358796
 21
60.1371991247
  0
LINE
  5
264
100
AcDbEntity
  8
0
100
AcDbLine
 62
7
  6
BYLAYER
 10
15.2069358796
 20
60.2371991247
 11
105.6069358796
 21
60.2371991247
  0
LINE
  5
265
100
AcDbEntity
  8
0
100
AcDbLine
 62
7
  6
BYLAYER
 10
15.2069358796
 20
60.4251991247
 11
105.6069358796
 21
60.4251991247
  0
LINE
  5
266
100
AcDbEntity
  8
0
100
AcDbLine
 62
7
  6
BYLAYER
 10
102.2594029844
 20
60.6371991247
 11
96.7544687747
 21
60.6371991247
  0
LINE
  5
267
100
AcDbEntity
  8
0
100
AcDbLine
 62
7
  6
BYLAYER
 10
98.0069358796
 20
60.9371991247
 11
98.1730483761
 21
60.9371991247
  0
LINE
  5
268
100
AcDbEntity
  8
0
100
AcDbLine
 62
7
  6
BYLAYER
 10
102.2594029844
 20
61.4371991247
 11
100.754502579
 21
61.4371991247
  0
LINE
  5
269
100
AcDbEntity
  8
0
100
AcDbLine
 62
7
  6
BYLAYER
 10
98.0131378005
 20
61.4371991247
 11
96.7544687747
 21
61.4371991247
  0
LINE
  5
26A
100
AcDbEntity
  8
0
100
AcDbLine
 62
7
  6
BYLAYER
 10
40.9569358796
 20
75.5577649691
 11
40.9569358796
 21
75.8871991247
  0
LINE
  5
26B
100
AcDbEntity
  8
0
100
AcDbLine
 62
7
  6
BYLAYER
 10
42.0069358796
 20
77.3871991247
 11
42.0069358796
 21
78.8871991247
  0
LINE
  5
26C
100
AcDbEntity
  8
0
100
AcDbLine
 62
7
  6
BYLAYER
 10
42.1569358795
 20
75.9592368251
 11
42.1569358796
 21
77.1234140676
  0
LINE
  5
26D
100
AcDbEntity
  8
0
100
AcDbLine
 62
7
  6
BYLAYER
 10
42.3569358796
 20
75.959236825
 11
42.3569358796
 21
77.3871991247
  0
LINE
  5
26E
100
AcDbEntity
  8
0
100
AcDbLine
 62
7
  6
BYLAYER
 10
42.5569358796
 20
75.4871991247
 11
42.5569358796
 21
75.8871991247
  0
LINE
  5
26F
100
AcDbEntity
  8
0
100
AcDbLine
 62
7
  6
BYLAYER
 10
42.6069358796
 20
83.7371991247
 11
42.6069358796
 21
75.4871991247
  0
LINE
  5
270
100
AcDbEntity
  8
0
100
AcDbLine
 62
7
  6
BYLAYER
 10
42.6069358796
 20
68.7371991247
 11
42.6069358796
 21
69.7371991247
  0
LINE
  5
271
100
AcDbEntity
  8
0
100
AcDbLine
 62
7
  6
BYLAYER
 10
88.1666224373
 20
69.7371991247
 11
86.7569358796
 21
69.35947475
  0
LINE
  5
272
100
AcDbEntity
  8
0
100
AcDbLine
 62
7
  6
BYLAYER
 10
78.6666224373
 20
69.7371991247
 11
77.2569358796
 21
69.35947475
  0
LINE
  5
273
100
AcDbEntity
  8
0
100
AcDbLine
 62
7
  6
BYLAYER
 10
98.0071525517
 20
64.3371991247
 11
100.6068684103
 21
64.3371991247
  0
LINE
  5
274
100
AcDbEntity
  8
0
100
AcDbLine
 62
7
  6
BYLAYER
 10
98.0071525517
 20
65.9371991247
 11
100.6068684103
 21
65.9371991247
  0
LINE
  5
275
100
AcDbEntity
  8
0
100
AcDbLine
 62
7
  6
BYLAYER
 10
37.9569358796
 20
69.35947475
 11
36.5472493219
 21
69.7371991247
  0
LINE
  5
276
100
AcDbEntity
  8
0
100
AcDbLine
 62
7
  6
BYLAYER
 10
15.0069358796
 20
104.7589097377
 11
14.9109918057
 21
104.8617971605
  0
LINE
  5
277
100
AcDbEntity
  8
0
100
AcDbLine
 62
7
  6
BYLAYER
 10
44.1069358796
 20
68.7371991247
 11
44.1069358796
 21
69.7371991247
  0
LINE
  5
278
100
AcDbEntity
  8
0
100
AcDbLine
 62
7
  6
BYLAYER
 10
44.1069358796
 20
75.4871991247
 11
44.1069358796
 21
83.7371991247
  0
LINE
  5
279
100
AcDbEntity
  8
0
100
AcDbLine
 62
7
  6
BYLAYER
 10
44.1569358796
 20
75.4871991247
 11
44.1569358796
 21
75.8871991247
  0
LINE
  5
27A
100
AcDbEntity
  8
0
100
AcDbLine
 62
7
  6
BYLAYER
 10
44.3569358796
 20
75.9592368251
 11
44.3569358796
 21
77.3871991247
  0
LINE
  5
27B
100
AcDbEntity
  8
0
100
AcDbLine
 62
7
  6
BYLAYER
 10
44.5569358796
 20
77.1234140676
 11
44.5569358796
 21
75.9592368251
  0
LINE
  5
27C
100
AcDbEntity
  8
0
100
AcDbLine
 62
7
  6
BYLAYER
 10
44.7069358796
 20
77.3871991247
 11
44.7069358796
 21
78.8871991247
  0
LINE
  5
27D
100
AcDbEntity
  8
0
100
AcDbLine
 62
7
  6
BYLAYER
 10
45.7569358796
 20
75.8871991247
 11
45.7569358796
 21
75.5577272668
  0
LINE
  5
27E
100
AcDbEntity
  8
0
100
AcDbLine
 62
7
  6
BYLAYER
 10
69.1666224373
 20
69.7371991247
 11
67.7569358796
 21
69.35947475
  0
LINE
  5
27F
100
AcDbEntity
  8
0
100
AcDbLine
 62
7
  6
BYLAYER
 10
16.9069358796
 20
67.1371991247
 11
103.3069358796
 21
67.1371991247
  0
LINE
  5
280
100
AcDbEntity
  8
0
100
AcDbLine
 62
7
  6
BYLAYER
 10
105.9069358796
 20
68.6371991247
 11
104.7069358796
 21
68.6371991247
  0
LINE
  5
281
100
AcDbEntity
  8
0
100
AcDbLine
 62
7
  6
BYLAYER
 10
16.1069358796
 20
68.6371991247
 11
14.9069358796
 21
68.6371991247
  0
LINE
  5
282
100
AcDbEntity
  8
0
100
AcDbLine
 62
7
  6
BYLAYER
 10
16.9069358796
 20
68.7371991247
 11
103.3069358796
 21
68.7371991247
  0
LINE
  5
283
100
AcDbEntity
  8
0
100
AcDbLine
 62
7
  6
BYLAYER
 10
16.1069358796
 20
68.8846991247
 11
16.2069358796
 21
68.8846991247
  0
LINE
  5
284
100
AcDbEntity
  8
0
100
AcDbLine
 62
7
  6
BYLAYER
 10
101.5573942462
 20
69.2371991247
 11
101.0069358796
 21
69.2371991247
  0
LINE
  5
285
100
AcDbEntity
  8
0
100
AcDbLine
 62
7
  6
BYLAYER
 10
99.6069358796
 20
69.2371991247
 11
96.2569358796
 21
69.2371991247
  0
LINE
  5
286
100
AcDbEntity
  8
0
100
AcDbLine
 62
7
  6
BYLAYER
 10
25.6461579682
 20
69.2371991247
 11
29.6461579682
 21
69.2371991247
  0
LINE
  5
287
100
AcDbEntity
  8
0
100
AcDbLine
 62
7
  6
BYLAYER
 10
34.6069358796
 20
69.7371991247
 11
42.6069358796
 21
69.7371991247
  0
LINE
  5
288
100
AcDbEntity
  8
0
100
AcDbLine
 62
7
  6
BYLAYER
 10
44.1069358796
 20
69.7371991247
 11
52.1069358796
 21
69.7371991247
  0
LINE
  5
289
100
AcDbEntity
  8
0
100
AcDbLine
 62
7
  6
BYLAYER
 10
53.6069358796
 20
69.7371991247
 11
61.6069358796
 21
69.7371991247
  0
LINE
  5
28A
100
AcDbEntity
  8
0
100
AcDbLine
 62
7
  6
BYLAYER
 10
63.1069358796
 20
69.7371991247
 11
71.1069358796
 21
69.7371991247
  0
LINE
  5
28B
100
AcDbEntity
  8
0
100
AcDbLine
 62
7
  6
BYLAYER
 10
72.6069358796
 20
69.7371991247
 11
80.6069358796
 21
69.7371991247
  0
LINE
  5
28C
100
AcDbEntity
  8
0
100
AcDbLine
 62
7
  6
BYLAYER
 10
82.1069358796
 20
69.7371991247
 11
90.1069358796
 21
69.7371991247
  0
LINE
  5
28D
100
AcDbEntity
  8
0
100
AcDbLine
 62
7
  6
BYLAYER
 10
91.6069358796
 20
69.7371991247
 11
99.6069358796
 21
69.7371991247
  0
LINE
  5
28E
100
AcDbEntity
  8
0
100
AcDbLine
 62
7
  6
BYLAYER
 10
47.4569358796
 20
69.35947475
 11
46.0472493219
 21
69.7371991247
  0
LINE
  5
28F
100
AcDbEntity
  8
0
100
AcDbLine
 62
7
  6
BYLAYER
 10
56.9569358796
 20
69.35947475
 11
55.5472493219
 21
69.7371991247
  0
LINE
  5
290
100
AcDbEntity
  8
0
100
AcDbLine
 62
7
  6
BYLAYER
 10
47.4569358796
 20
65.5871991247
 11
47.4569358796
 21
67.1371991247
  0
LINE
  5
291
100
AcDbEntity
  8
0
100
AcDbLine
 62
7
  6
BYLAYER
 10
47.4569358796
 20
68.7371991247
 11
47.4569358796
 21
69.35947475
  0
LINE
  5
292
100
AcDbEntity
  8
0
100
AcDbLine
 62
7
  6
BYLAYER
 10
47.6069358796
 20
75.9314945073
 11
47.6069358796
 21
76.2296164649
  0
LINE
  5
293
100
AcDbEntity
  8
0
100
AcDbLine
 62
7
  6
BYLAYER
 10
48.6069358796
 20
76.2290881317
 11
48.6069358796
 21
75.9314945073
  0
LINE
  5
294
100
AcDbEntity
  8
0
100
AcDbLine
 62
7
  6
BYLAYER
 10
48.7569358796
 20
69.35947475
 11
48.7569358796
 21
68.7371991247
  0
LINE
  5
295
100
AcDbEntity
  8
0
100
AcDbLine
 62
7
  6
BYLAYER
 10
48.7569358796
 20
67.1371991247
 11
48.7569358796
 21
65.5871991247
  0
LINE
  5
296
100
AcDbEntity
  8
0
100
AcDbLine
 62
7
  6
BYLAYER
 10
59.6666224373
 20
69.7371991247
 11
58.2569358796
 21
69.35947475
  0
LINE
  5
297
100
AcDbEntity
  8
0
100
AcDbLine
 62
7
  6
BYLAYER
 10
50.1666224373
 20
69.7371991247
 11
48.7569358796
 21
69.35947475
  0
LINE
  5
298
100
AcDbEntity
  8
0
100
AcDbLine
 62
7
  6
BYLAYER
 10
92.0569358796
 20
77.1234140676
 11
93.5137105482
 21
77.3871991247
  0
LINE
  5
299
100
AcDbEntity
  8
0
100
AcDbLine
 62
7
  6
BYLAYER
 10
82.5569358796
 20
77.1234140676
 11
84.0137105482
 21
77.3871991247
  0
LINE
  5
29A
100
AcDbEntity
  8
0
100
AcDbLine
 62
7
  6
BYLAYER
 10
21.6335009468
 20
72.6429055765
 11
21.6296624212
 21
72.6428929253
  0
LINE
  5
29B
100
AcDbEntity
  8
0
100
AcDbLine
 62
7
  6
BYLAYER
 10
20.523141364
 20
69.8671991247
 11
20.5212314391
 21
69.8671991247
  0
LINE
  5
29C
100
AcDbEntity
  8
0
100
AcDbLine
 62
7
  6
BYLAYER
 10
101.0574360996
 20
70.2371991247
 11
101.0069358796
 21
70.2371991247
  0
LINE
  5
29D
100
AcDbEntity
  8
0
100
AcDbLine
 62
7
  6
BYLAYER
 10
20.9233019864
 20
70.3171991247
 11
20.5233020118
 21
70.3171991247
  0
LINE
  5
29E
100
AcDbEntity
  8
0
100
AcDbLine
 62
7
  6
BYLAYER
 10
20.523141364
 20
70.7671991247
 11
20.9231413385
 21
70.7671991247
  0
LINE
  5
29F
100
AcDbEntity
  8
0
100
AcDbLine
 62
7
  6
BYLAYER
 10
30.9461579682
 20
70.9371991247
 11
30.1640337532
 21
70.9371991247
  0
LINE
  5
2A0
100
AcDbEntity
  8
0
100
AcDbLine
 62
7
  6
BYLAYER
 10
24.3461579682
 20
70.9371991247
 11
25.1282821832
 21
70.9371991247
  0
LINE
  5
2A1
100
AcDbEntity
  8
0
100
AcDbLine
 62
7
  6
BYLAYER
 10
20.522757594
 20
71.2171991247
 11
20.9227575685
 21
71.2171991247
  0
LINE
  5
2A2
100
AcDbEntity
  8
0
100
AcDbLine
 62
7
  6
BYLAYER
 10
20.9227575685
 20
71.8671991247
 11
20.522757594
 21
71.8671991247
  0
LINE
  5
2A3
100
AcDbEntity
  8
0
100
AcDbLine
 62
7
  6
BYLAYER
 10
24.8461579682
 20
72.3371991247
 11
30.4461579682
 21
72.3371991247
  0
LINE
  5
2A4
100
AcDbEntity
  8
0
100
AcDbLine
 62
7
  6
BYLAYER
 10
19.1222121108
 20
72.8171991247
 11
22.3221606668
 21
72.8171991247
  0
LINE
  5
2A5
100
AcDbEntity
  8
0
100
AcDbLine
 62
7
  6
BYLAYER
 10
66.4569358796
 20
69.35947475
 11
65.0472493219
 21
69.7371991247
  0
LINE
  5
2A6
100
AcDbEntity
  8
0
100
AcDbLine
 62
7
  6
BYLAYER
 10
50.4569358796
 20
75.5577649691
 11
50.4569358796
 21
75.8871991247
  0
LINE
  5
2A7
100
AcDbEntity
  8
0
100
AcDbLine
 62
7
  6
BYLAYER
 10
51.5069358796
 20
77.3871991247
 11
51.5069358796
 21
78.8871991247
  0
LINE
  5
2A8
100
AcDbEntity
  8
0
100
AcDbLine
 62
7
  6
BYLAYER
 10
51.6569358796
 20
75.9592368251
 11
51.6569358796
 21
77.1234140676
  0
LINE
  5
2A9
100
AcDbEntity
  8
0
100
AcDbLine
 62
7
  6
BYLAYER
 10
51.8569358796
 20
75.959236825
 11
51.8569358796
 21
77.3871991247
  0
LINE
  5
2AA
100
AcDbEntity
  8
0
100
AcDbLine
 62
7
  6
BYLAYER
 10
52.0569358796
 20
75.4871991247
 11
52.0569358796
 21
75.8871991247
  0
LINE
  5
2AB
100
AcDbEntity
  8
0
100
AcDbLine
 62
7
  6
BYLAYER
 10
52.1069358796
 20
83.7371991247
 11
52.1069358796
 21
75.4871991247
  0
LINE
  5
2AC
100
AcDbEntity
  8
0
100
AcDbLine
 62
7
  6
BYLAYER
 10
52.1069358796
 20
68.7371991247
 11
52.1069358796
 21
69.7371991247
  0
LINE
  5
2AD
100
AcDbEntity
  8
0
100
AcDbLine
 62
7
  6
BYLAYER
 10
53.6069358796
 20
68.7371991247
 11
53.6069358796
 21
69.7371991247
  0
LINE
  5
2AE
100
AcDbEntity
  8
0
100
AcDbLine
 62
7
  6
BYLAYER
 10
53.6069358796
 20
75.4871991247
 11
53.6069358796
 21
83.7371991247
  0
LINE
  5
2AF
100
AcDbEntity
  8
0
100
AcDbLine
 62
7
  6
BYLAYER
 10
53.6569358796
 20
75.4871991247
 11
53.6569358796
 21
75.8871991247
  0
LINE
  5
2B0
100
AcDbEntity
  8
0
100
AcDbLine
 62
7
  6
BYLAYER
 10
19.6006926004
 20
58.9442091585
 11
19.7789674642
 21
59.1118100985
  0
LINE
  5
2B1
100
AcDbEntity
  8
0
100
AcDbLine
 62
7
  6
BYLAYER
 10
19.772477176
 20
59.1185628466
 11
18.5969358796
 21
58.0223528533
  0
LINE
  5
2B2
100
AcDbEntity
  8
0
100
AcDbLine
 62
7
  6
BYLAYER
 10
40.6666224373
 20
69.7371991247
 11
39.2569358796
 21
69.35947475
  0
LINE
  5
2B3
100
AcDbEntity
  8
0
100
AcDbLine
 62
7
  6
BYLAYER
 10
73.0569358796
 20
77.1234140676
 11
74.5137105482
 21
77.3871991247
  0
LINE
  5
2B4
100
AcDbEntity
  8
0
100
AcDbLine
 62
7
  6
BYLAYER
 10
63.5569358796
 20
77.1234140676
 11
65.0137105482
 21
77.3871991247
  0
LINE
  5
2B5
100
AcDbEntity
  8
0
100
AcDbLine
 62
7
  6
BYLAYER
 10
21.6335202932
 20
72.6426777613
 11
21.6297065165
 21
72.6423574386
  0
LINE
  5
2B6
100
AcDbEntity
  8
0
100
AcDbLine
 62
7
  6
BYLAYER
 10
24.3461579682
 20
73.4371991247
 11
30.9461579682
 21
73.4371991247
  0
LINE
  5
2B7
100
AcDbEntity
  8
0
100
AcDbLine
 62
7
  6
BYLAYER
 10
22.3221605896
 20
73.8171991247
 11
19.122212188
 21
73.8171991247
  0
LINE
  5
2B8
100
AcDbEntity
  8
0
100
AcDbLine
 62
7
  6
BYLAYER
 10
16.1069358796
 20
74.3896991247
 11
16.2069358796
 21
74.3896991247
  0
LINE
  5
2B9
100
AcDbEntity
  8
0
100
AcDbLine
 62
7
  6
BYLAYER
 10
105.9069358796
 20
74.6371991247
 11
104.7069358796
 21
74.6371991247
  0
LINE
  5
2BA
100
AcDbEntity
  8
0
100
AcDbLine
 62
7
  6
BYLAYER
 10
16.1069358796
 20
74.6371991247
 11
14.9069358796
 21
74.6371991247
  0
LINE
  5
2BB
100
AcDbEntity
  8
0
100
AcDbLine
 62
7
  6
BYLAYER
 10
34.6069358796
 20
75.4871991247
 11
42.6069358796
 21
75.4871991247
  0
LINE
  5
2BC
100
AcDbEntity
  8
0
100
AcDbLine
 62
7
  6
BYLAYER
 10
44.1069358796
 20
75.4871991247
 11
52.1069358796
 21
75.4871991247
  0
LINE
  5
2BD
100
AcDbEntity
  8
0
100
AcDbLine
 62
7
  6
BYLAYER
 10
53.6069358796
 20
75.4871991247
 11
61.6069358796
 21
75.4871991247
  0
LINE
  5
2BE
100
AcDbEntity
  8
0
100
AcDbLine
 62
7
  6
BYLAYER
 10
63.1069358796
 20
75.4871991247
 11
71.1069358796
 21
75.4871991247
  0
LINE
  5
2BF
100
AcDbEntity
  8
0
100
AcDbLine
 62
7
  6
BYLAYER
 10
72.6069358796
 20
75.4871991247
 11
80.6069358796
 21
75.4871991247
  0
LINE
  5
2C0
100
AcDbEntity
  8
0
100
AcDbLine
 62
7
  6
BYLAYER
 10
82.1069358796
 20
75.4871991247
 11
90.1069358796
 21
75.4871991247
  0
LINE
  5
2C1
100
AcDbEntity
  8
0
100
AcDbLine
 62
7
  6
BYLAYER
 10
91.6069358796
 20
75.4871991247
 11
99.6069358796
 21
75.4871991247
  0
LINE
  5
2C2
100
AcDbEntity
  8
0
100
AcDbLine
 62
7
  6
BYLAYER
 10
22.2221863888
 20
75.7671991247
 11
19.2221863888
 21
75.7671991247
  0
LINE
  5
2C3
100
AcDbEntity
  8
0
100
AcDbLine
 62
7
  6
BYLAYER
 10
34.6569358796
 20
75.8871991247
 11
42.5569358796
 21
75.8871991247
  0
LINE
  5
2C4
100
AcDbEntity
  8
0
100
AcDbLine
 62
7
  6
BYLAYER
 10
44.1569358796
 20
75.8871991247
 11
52.0569358796
 21
75.8871991247
  0
LINE
  5
2C5
100
AcDbEntity
  8
0
100
AcDbLine
 62
7
  6
BYLAYER
 10
53.6569358796
 20
75.8871991247
 11
61.5569358796
 21
75.8871991247
  0
LINE
  5
2C6
100
AcDbEntity
  8
0
100
AcDbLine
 62
7
  6
BYLAYER
 10
63.1569358796
 20
75.8871991247
 11
71.0569358796
 21
75.8871991247
  0
LINE
  5
2C7
100
AcDbEntity
  8
0
100
AcDbLine
 62
7
  6
BYLAYER
 10
72.6569358796
 20
75.8871991247
 11
80.5569358796
 21
75.8871991247
  0
LINE
  5
2C8
100
AcDbEntity
  8
0
100
AcDbLine
 62
7
  6
BYLAYER
 10
82.1569358796
 20
75.8871991247
 11
90.0569358796
 21
75.8871991247
  0
LINE
  5
2C9
100
AcDbEntity
  8
0
100
AcDbLine
 62
7
  6
BYLAYER
 10
91.6569358796
 20
75.8871991247
 11
99.5569358796
 21
75.8871991247
  0
LINE
  5
2CA
100
AcDbEntity
  8
0
100
AcDbLine
 62
7
  6
BYLAYER
 10
96.1069358796
 20
75.9314945073
 11
95.1069358796
 21
75.9314945073
  0
LINE
  5
2CB
100
AcDbEntity
  8
0
100
AcDbLine
 62
7
  6
BYLAYER
 10
86.6069358796
 20
75.9314945073
 11
85.6069358796
 21
75.9314945073
  0
LINE
  5
2CC
100
AcDbEntity
  8
0
100
AcDbLine
 62
7
  6
BYLAYER
 10
77.1069358796
 20
75.9314945073
 11
76.1069358796
 21
75.9314945073
  0
LINE
  5
2CD
100
AcDbEntity
  8
0
100
AcDbLine
 62
7
  6
BYLAYER
 10
67.6069358796
 20
75.9314945073
 11
66.6069358796
 21
75.9314945073
  0
LINE
  5
2CE
100
AcDbEntity
  8
0
100
AcDbLine
 62
7
  6
BYLAYER
 10
58.1069358796
 20
75.9314945073
 11
57.1069358796
 21
75.9314945073
  0
LINE
  5
2CF
100
AcDbEntity
  8
0
100
AcDbLine
 62
7
  6
BYLAYER
 10
48.6069358796
 20
75.9314945073
 11
47.6069358796
 21
75.9314945073
  0
LINE
  5
2D0
100
AcDbEntity
  8
0
100
AcDbLine
 62
7
  6
BYLAYER
 10
39.1069358796
 20
75.9314945073
 11
38.1069358796
 21
75.9314945073
  0
LINE
  5
2D1
100
AcDbEntity
  8
0
100
AcDbLine
 62
7
  6
BYLAYER
 10
40.7001612109
 20
77.3871991247
 11
42.1569358796
 21
77.1234140676
  0
LINE
  5
2D2
100
AcDbEntity
  8
0
100
AcDbLine
 62
7
  6
BYLAYER
 10
50.2001612109
 20
77.3871991247
 11
51.6569358796
 21
77.1234140676
  0
LINE
  5
2D3
100
AcDbEntity
  8
0
100
AcDbLine
 62
7
  6
BYLAYER
 10
75.9569358796
 20
69.35947475
 11
74.5472493219
 21
69.7371991247
  0
LINE
  5
2D4
100
AcDbEntity
  8
0
100
AcDbLine
 62
7
  6
BYLAYER
 10
85.4569358796
 20
69.35947475
 11
84.0472493219
 21
69.7371991247
  0
LINE
  5
2D5
100
AcDbEntity
  8
0
100
AcDbLine
 62
7
  6
BYLAYER
 10
53.8569358796
 20
75.9592368251
 11
53.8569358796
 21
77.3871991247
  0
LINE
  5
2D6
100
AcDbEntity
  8
0
100
AcDbLine
 62
7
  6
BYLAYER
 10
54.0569358796
 20
77.1234140676
 11
54.0569358796
 21
75.9592368251
  0
LINE
  5
2D7
100
AcDbEntity
  8
0
100
AcDbLine
 62
7
  6
BYLAYER
 10
54.2069358796
 20
77.3871991247
 11
54.2069358796
 21
78.8871991247
  0
LINE
  5
2D8
100
AcDbEntity
  8
0
100
AcDbLine
 62
7
  6
BYLAYER
 10
55.2569358796
 20
75.8871991247
 11
55.2569358796
 21
75.5577272668
  0
LINE
  5
2D9
100
AcDbEntity
  8
0
100
AcDbLine
 62
7
  6
BYLAYER
 10
56.9569358796
 20
65.5871991247
 11
56.9569358796
 21
67.1371991247
  0
LINE
  5
2DA
100
AcDbEntity
  8
0
100
AcDbLine
 62
7
  6
BYLAYER
 10
56.9569358796
 20
68.7371991247
 11
56.9569358796
 21
69.35947475
  0
LINE
  5
2DB
100
AcDbEntity
  8
0
100
AcDbLine
 62
7
  6
BYLAYER
 10
57.1069358796
 20
75.9314945073
 11
57.1069358796
 21
76.2296164649
  0
LINE
  5
2DC
100
AcDbEntity
  8
0
100
AcDbLine
 62
7
  6
BYLAYER
 10
54.0569358796
 20
77.1234140676
 11
55.5137105482
 21
77.3871991247
  0
LINE
  5
2DD
100
AcDbEntity
  8
0
100
AcDbLine
 62
7
  6
BYLAYER
 10
44.5569358796
 20
77.1234140676
 11
46.0137105482
 21
77.3871991247
  0
LINE
  5
2DE
100
AcDbEntity
  8
0
100
AcDbLine
 62
7
  6
BYLAYER
 10
34.8569358796
 20
77.3871991247
 11
42.3569358796
 21
77.3871991247
  0
LINE
  5
2DF
100
AcDbEntity
  8
0
100
AcDbLine
 62
7
  6
BYLAYER
 10
44.3569358796
 20
77.3871991247
 11
51.8569358796
 21
77.3871991247
  0
LINE
  5
2E0
100
AcDbEntity
  8
0
100
AcDbLine
 62
7
  6
BYLAYER
 10
53.8569358796
 20
77.3871991247
 11
61.3569358796
 21
77.3871991247
  0
LINE
  5
2E1
100
AcDbEntity
  8
0
100
AcDbLine
 62
7
  6
BYLAYER
 10
63.3569358796
 20
77.3871991247
 11
70.8569358796
 21
77.3871991247
  0
LINE
  5
2E2
100
AcDbEntity
  8
0
100
AcDbLine
 62
7
  6
BYLAYER
 10
72.8569358796
 20
77.3871991247
 11
80.3569358796
 21
77.3871991247
  0
LINE
  5
2E3
100
AcDbEntity
  8
0
100
AcDbLine
 62
7
  6
BYLAYER
 10
82.3569358796
 20
77.3871991247
 11
89.8569358796
 21
77.3871991247
  0
LINE
  5
2E4
100
AcDbEntity
  8
0
100
AcDbLine
 62
7
  6
BYLAYER
 10
91.8569358796
 20
77.3871991247
 11
99.3569358796
 21
77.3871991247
  0
LINE
  5
2E5
100
AcDbEntity
  8
0
100
AcDbLine
 62
7
  6
BYLAYER
 10
99.006928018
 20
78.8871991247
 11
92.2069358796
 21
78.8871991247
  0
LINE
  5
2E6
100
AcDbEntity
  8
0
100
AcDbLine
 62
7
  6
BYLAYER
 10
89.5069280181
 20
78.8871991247
 11
82.7069358796
 21
78.8871991247
  0
LINE
  5
2E7
100
AcDbEntity
  8
0
100
AcDbLine
 62
7
  6
BYLAYER
 10
80.006928018
 20
78.8871991247
 11
73.2069358796
 21
78.8871991247
  0
LINE
  5
2E8
100
AcDbEntity
  8
0
100
AcDbLine
 62
7
  6
BYLAYER
 10
70.5069280181
 20
78.8871991247
 11
63.7069358796
 21
78.8871991247
  0
LINE
  5
2E9
100
AcDbEntity
  8
0
100
AcDbLine
 62
7
  6
BYLAYER
 10
61.0069280181
 20
78.8871991247
 11
54.2069358796
 21
78.8871991247
  0
LINE
  5
2EA
100
AcDbEntity
  8
0
100
AcDbLine
 62
7
  6
BYLAYER
 10
51.5069280186
 20
78.8871991247
 11
44.7069358796
 21
78.8871991247
  0
LINE
  5
2EB
100
AcDbEntity
  8
0
100
AcDbLine
 62
7
  6
BYLAYER
 10
42.0069280181
 20
78.8871991247
 11
35.2069358796
 21
78.8871991247
  0
LINE
  5
2EC
100
AcDbEntity
  8
0
100
AcDbLine
 62
7
  6
BYLAYER
 10
97.9542747984
 20
79.8871991247
 11
93.2595969662
 21
79.8871991247
  0
LINE
  5
2ED
100
AcDbEntity
  8
0
100
AcDbLine
 62
7
  6
BYLAYER
 10
88.4542747984
 20
79.8871991247
 11
83.7595969662
 21
79.8871991247
  0
LINE
  5
2EE
100
AcDbEntity
  8
0
100
AcDbLine
 62
7
  6
BYLAYER
 10
78.9542747984
 20
79.8871991247
 11
74.2595969662
 21
79.8871991247
  0
LINE
  5
2EF
100
AcDbEntity
  8
0
100
AcDbLine
 62
7
  6
BYLAYER
 10
69.4542747984
 20
79.8871991247
 11
64.7595969662
 21
79.8871991247
  0
LINE
  5
2F0
100
AcDbEntity
  8
0
100
AcDbLine
 62
7
  6
BYLAYER
 10
59.9542747984
 20
79.8871991247
 11
55.2595969662
 21
79.8871991247
  0
LINE
  5
2F1
100
AcDbEntity
  8
0
100
AcDbLine
 62
7
  6
BYLAYER
 10
50.4542747984
 20
79.8871991247
 11
45.7595969662
 21
79.8871991247
  0
LINE
  5
2F2
100
AcDbEntity
  8
0
100
AcDbLine
 62
7
  6
BYLAYER
 10
40.9542747984
 20
79.8871991247
 11
36.2595969662
 21
79.8871991247
  0
LINE
  5
2F3
100
AcDbEntity
  8
0
100
AcDbLine
 62
7
  6
BYLAYER
 10
59.7001612109
 20
77.3871991247
 11
61.1569358796
 21
77.1234140676
  0
LINE
  5
2F4
100
AcDbEntity
  8
0
100
AcDbLine
 62
7
  6
BYLAYER
 10
69.2001612109
 20
77.3871991247
 11
70.6569358796
 21
77.1234140676
  0
LINE
  5
2F5
100
AcDbEntity
  8
0
100
AcDbLine
 62
7
  6
BYLAYER
 10
94.9569358796
 20
69.35947475
 11
93.5472493219
 21
69.7371991247
  0
LINE
  5
2F6
100
AcDbEntity
  8
0
100
AcDbLine
 62
7
  6
BYLAYER
 10
58.1069358796
 20
76.2290881317
 11
58.1069358796
 21
75.9314945073
  0
LINE
  5
2F7
100
AcDbEntity
  8
0
100
AcDbLine
 62
7
  6
BYLAYER
 10
58.2569358796
 20
69.35947475
 11
58.2569358796
 21
68.7371991247
  0
LINE
  5
2F8
100
AcDbEntity
  8
0
100
AcDbLine
 62
7
  6
BYLAYER
 10
58.2569358796
 20
67.1371991247
 11
58.2569358796
 21
65.5871991247
  0
LINE
  5
2F9
100
AcDbEntity
  8
0
100
AcDbLine
 62
7
  6
BYLAYER
 10
59.9569358796
 20
75.5577649691
 11
59.9569358796
 21
75.8871991247
  0
LINE
  5
2FA
100
AcDbEntity
  8
0
100
AcDbLine
 62
7
  6
BYLAYER
 10
35.0569358796
 20
77.1234140676
 11
36.5137105482
 21
77.3871991247
  0
LINE
  5
2FB
100
AcDbEntity
  8
0
100
AcDbLine
 62
7
  6
BYLAYER
 10
32.6069358796
 20
80.7371991247
 11
33.2069358796
 21
80.7371991247
  0
LINE
  5
2FC
100
AcDbEntity
  8
0
100
AcDbLine
 62
7
  6
BYLAYER
 10
101.0069358796
 20
80.7371991247
 11
101.6069358796
 21
80.7371991247
  0
LINE
  5
2FD
100
AcDbEntity
  8
0
100
AcDbLine
 62
7
  6
BYLAYER
 10
105.9069358796
 20
81.1371991247
 11
104.7069358796
 21
81.1371991247
  0
LINE
  5
2FE
100
AcDbEntity
  8
0
100
AcDbLine
 62
7
  6
BYLAYER
 10
16.1069358796
 20
81.1371991247
 11
14.9069358796
 21
81.1371991247
  0
LINE
  5
2FF
100
AcDbEntity
  8
0
100
AcDbLine
 62
7
  6
BYLAYER
 10
101.0069358796
 20
81.7371991247
 11
99.6069358796
 21
81.7371991247
  0
LINE
  5
300
100
AcDbEntity
  8
0
100
AcDbLine
 62
7
  6
BYLAYER
 10
91.6069358796
 20
81.7371991247
 11
90.1069358796
 21
81.7371991247
  0
LINE
  5
301
100
AcDbEntity
  8
0
100
AcDbLine
 62
7
  6
BYLAYER
 10
82.1069358796
 20
81.7371991247
 11
80.6069358796
 21
81.7371991247
  0
LINE
  5
302
100
AcDbEntity
  8
0
100
AcDbLine
 62
7
  6
BYLAYER
 10
72.6069358796
 20
81.7371991247
 11
71.1069358796
 21
81.7371991247
  0
LINE
  5
303
100
AcDbEntity
  8
0
100
AcDbLine
 62
7
  6
BYLAYER
 10
63.1069358796
 20
81.7371991247
 11
61.6069358796
 21
81.7371991247
  0
LINE
  5
304
100
AcDbEntity
  8
0
100
AcDbLine
 62
7
  6
BYLAYER
 10
53.6069358796
 20
81.7371991247
 11
52.1069358796
 21
81.7371991247
  0
LINE
  5
305
100
AcDbEntity
  8
0
100
AcDbLine
 62
7
  6
BYLAYER
 10
44.1069358796
 20
81.7371991247
 11
42.6069358796
 21
81.7371991247
  0
LINE
  5
306
100
AcDbEntity
  8
0
100
AcDbLine
 62
7
  6
BYLAYER
 10
34.6069358796
 20
81.7371991247
 11
33.2069358796
 21
81.7371991247
  0
LINE
  5
307
100
AcDbEntity
  8
0
100
AcDbLine
 62
7
  6
BYLAYER
 10
33.2069358796
 20
83.7371991247
 11
101.0069358796
 21
83.7371991247
  0
LINE
  5
308
100
AcDbEntity
  8
0
100
AcDbLine
 62
7
  6
BYLAYER
 10
78.7001612109
 20
77.3871991247
 11
80.1569358796
 21
77.1234140676
  0
LINE
  5
309
100
AcDbEntity
  8
0
100
AcDbLine
 62
7
  6
BYLAYER
 10
88.2001612109
 20
77.3871991247
 11
89.6569358795
 21
77.1234140676
  0
LINE
  5
30A
100
AcDbEntity
  8
0
100
AcDbLine
 62
7
  6
BYLAYER
 10
98.0134950957
 20
61.9296401041
 11
98.086871519
 21
61.8870713645
  0
LINE
  5
30B
100
AcDbEntity
  8
0
100
AcDbLine
 62
7
  6
BYLAYER
 10
98.0134327494
 20
61.829797485
 11
98.4069906696
 21
61.6012979745
  0
LINE
  5
30C
100
AcDbEntity
  8
0
100
AcDbLine
 62
7
  6
BYLAYER
 10
97.8017319575
 20
60.733211604
 11
97.8308678164
 21
60.7162674685
  0
LINE
  5
30D
100
AcDbEntity
  8
0
100
AcDbLine
 62
7
  6
BYLAYER
 10
98.0132610256
 20
61.3301597508
 11
98.4070996752
 21
61.1014336173
  0
LINE
  5
30E
100
AcDbEntity
  8
0
100
AcDbLine
 62
7
  6
BYLAYER
 10
98.013908535
 20
60.8298031227
 11
98.3455427939
 21
60.6371991247
  0
LINE
  5
30F
100
AcDbEntity
  8
0
100
AcDbLine
 62
7
  6
BYLAYER
 10
98.0175529021
 20
61.3539133817
 11
98.0236535245
 21
61.3503630693
  0
LINE
  5
310
100
AcDbEntity
  8
0
100
AcDbLine
 62
7
  6
BYLAYER
 10
98.0281592404
 20
61.8506996015
 11
98.422687508
 21
61.6196071481
  0
LINE
  5
311
100
AcDbEntity
  8
0
100
AcDbLine
 62
7
  6
BYLAYER
 10
60.9569383796
 20
60.1371991247
 11
60.9569383796
 21
60.2371991247
  0
LINE
  5
312
100
AcDbEntity
  8
0
100
AcDbLine
 62
7
  6
BYLAYER
 10
60.9569383796
 20
60.4251991247
 11
60.9569383796
 21
67.1371991247
  0
LINE
  5
313
100
AcDbEntity
  8
0
100
AcDbLine
 62
7
  6
BYLAYER
 10
61.0069358796
 20
77.3871991247
 11
61.0069358796
 21
78.8871991247
  0
LINE
  5
314
100
AcDbEntity
  8
0
100
AcDbLine
 62
7
  6
BYLAYER
 10
61.1569358796
 20
75.9592368251
 11
61.1569358796
 21
77.1234140676
  0
LINE
  5
315
100
AcDbEntity
  8
0
100
AcDbLine
 62
7
  6
BYLAYER
 10
61.3569358796
 20
75.959236825
 11
61.3569358796
 21
77.3871991247
  0
LINE
  5
316
100
AcDbEntity
  8
0
100
AcDbLine
 62
7
  6
BYLAYER
 10
61.5569358796
 20
75.4871991247
 11
61.5569358796
 21
75.8871991247
  0
LINE
  5
317
100
AcDbEntity
  8
0
100
AcDbLine
 62
7
  6
BYLAYER
 10
61.6069358796
 20
83.7371991247
 11
61.6069358796
 21
75.4871991247
  0
LINE
  5
318
100
AcDbEntity
  8
0
100
AcDbLine
 62
7
  6
BYLAYER
 10
61.6069358796
 20
68.7371991247
 11
61.6069358796
 21
69.7371991247
  0
LINE
  5
319
100
AcDbEntity
  8
0
100
AcDbLine
 62
7
  6
BYLAYER
 10
63.1069358796
 20
68.7371991247
 11
63.1069358796
 21
69.7371991247
  0
LINE
  5
31A
100
AcDbEntity
  8
0
100
AcDbLine
 62
7
  6
BYLAYER
 10
63.1069358796
 20
75.4871991247
 11
63.1069358796
 21
83.7371991247
  0
LINE
  5
31B
100
AcDbEntity
  8
0
100
AcDbLine
 62
7
  6
BYLAYER
 10
63.1569358796
 20
75.4871991247
 11
63.1569358796
 21
75.8871991247
  0
LINE
  5
31C
100
AcDbEntity
  8
0
100
AcDbLine
 62
7
  6
BYLAYER
 10
63.3569358796
 20
75.9592368251
 11
63.3569358796
 21
77.3871991247
  0
LINE
  5
31D
100
AcDbEntity
  8
0
100
AcDbLine
 62
7
  6
BYLAYER
 10
63.5569358796
 20
77.1234140676
 11
63.5569358796
 21
75.9592368251
  0
LINE
  5
31E
100
AcDbEntity
  8
0
100
AcDbLine
 62
7
  6
BYLAYER
 10
63.7069358796
 20
77.3871991247
 11
63.7069358796
 21
78.8871991247
  0
LINE
  5
31F
100
AcDbEntity
  8
0
100
AcDbLine
 62
7
  6
BYLAYER
 10
19.830865373
 20
59.0781282191
 11
19.6006926004
 21
58.9442091585
  0
LINE
  5
320
100
AcDbEntity
  8
0
100
AcDbLine
 62
7
  6
BYLAYER
 10
17.5069358796
 20
84.4371991247
 11
103.3069358796
 21
84.4371991247
  0
LINE
  5
321
100
AcDbEntity
  8
0
100
AcDbLine
 62
7
  6
BYLAYER
 10
105.9069358796
 20
85.8371991247
 11
104.7069358796
 21
85.8371991247
  0
LINE
  5
322
100
AcDbEntity
  8
0
100
AcDbLine
 62
7
  6
BYLAYER
 10
16.0069358796
 20
87.1371991247
 11
14.9069358796
 21
87.1371991247
  0
LINE
  5
323
100
AcDbEntity
  8
0
100
AcDbLine
 62
7
  6
BYLAYER
 10
97.7001612109
 20
77.3871991247
 11
99.1569358796
 21
77.1234140676
  0
LINE
  5
324
100
AcDbEntity
  8
0
100
AcDbLine
 62
7
  6
BYLAYER
 10
101.229901676
 20
60.7280159026
 11
100.9028032657
 21
60.9170584976
  0
LINE
  5
325
100
AcDbEntity
  8
0
100
AcDbLine
 62
7
  6
BYLAYER
 10
100.9028032657
 20
60.9170584976
 11
100.9010763796
 21
60.9180566755
  0
LINE
  5
326
100
AcDbEntity
  8
0
100
AcDbLine
 62
7
  6
BYLAYER
 10
98.0123964851
 20
63.3440437129
 11
98.4110686617
 21
63.1129840811
  0
LINE
  5
327
100
AcDbEntity
  8
0
100
AcDbLine
 62
7
  6
BYLAYER
 10
98.0123964851
 20
64.9440437129
 11
98.4110686617
 21
64.7129840811
  0
LINE
  5
328
100
AcDbEntity
  8
0
100
AcDbLine
 62
7
  6
BYLAYER
 10
98.0132610256
 20
62.9301597508
 11
98.0873164488
 21
62.8871971781
  0
LINE
  5
329
100
AcDbEntity
  8
0
100
AcDbLine
 62
7
  6
BYLAYER
 10
98.0134327494
 20
63.429797485
 11
98.0868851835
 21
63.3871952194
  0
LINE
  5
32A
100
AcDbEntity
  8
0
100
AcDbLine
 62
7
  6
BYLAYER
 10
98.0131061215
 20
64.4301152892
 11
98.1732797687
 21
64.3371991247
  0
LINE
  5
32B
100
AcDbEntity
  8
0
100
AcDbLine
 62
7
  6
BYLAYER
 10
98.013908535
 20
62.4298031227
 11
98.0871261037
 21
62.3873148655
  0
LINE
  5
32C
100
AcDbEntity
  8
0
100
AcDbLine
 62
7
  6
BYLAYER
 10
101.0021746451
 20
61.2110260208
 11
100.6833495571
 21
61.3958600916
  0
LINE
  5
32D
100
AcDbEntity
  8
0
100
AcDbLine
 62
7
  6
BYLAYER
 10
98.0136526385
 20
63.930003637
 11
98.0872812152
 21
63.8872792951
  0
LINE
  5
32E
100
AcDbEntity
  8
0
100
AcDbLine
 62
7
  6
BYLAYER
 10
101.0007708387
 20
63.594390345
 11
100.6068047997
 21
63.8231238676
  0
LINE
  5
32F
100
AcDbEntity
  8
0
100
AcDbLine
 62
7
  6
BYLAYER
 10
101.0006933081
 20
61.0944158073
 11
100.6069255694
 21
61.3230349039
  0
LINE
  5
330
100
AcDbEntity
  8
0
100
AcDbLine
 62
7
  6
BYLAYER
 10
98.0131061215
 20
62.8301152892
 11
98.4069537336
 21
62.6014318416
  0
LINE
  5
331
100
AcDbEntity
  8
0
100
AcDbLine
 62
7
  6
BYLAYER
 10
98.0137111558
 20
63.3296658702
 11
98.4071531401
 21
63.1011825768
  0
LINE
  5
332
100
AcDbEntity
  8
0
100
AcDbLine
 62
7
  6
BYLAYER
 10
98.0131491465
 20
63.8299981054
 11
98.4071189392
 21
63.6012495486
  0
LINE
  5
333
100
AcDbEntity
  8
0
100
AcDbLine
 62
7
  6
BYLAYER
 10
101.00024743
 20
62.0947037753
 11
100.6067538229
 21
62.3232017955
  0
LINE
  5
334
100
AcDbEntity
  8
0
100
AcDbLine
 62
7
  6
BYLAYER
 10
101.000743494
 20
62.5942527399
 11
100.6068854537
 21
62.8229550838
  0
LINE
  5
335
100
AcDbEntity
  8
0
100
AcDbLine
 62
7
  6
BYLAYER
 10
98.0135499277
 20
64.3298596075
 11
98.4070055907
 21
64.1013502392
  0
LINE
  5
336
100
AcDbEntity
  8
0
100
AcDbLine
 62
7
  6
BYLAYER
 10
101.0006933081
 20
62.6944158073
 11
100.6685958328
 21
62.8871811538
  0
LINE
  5
337
100
AcDbEntity
  8
0
100
AcDbLine
 62
7
  6
BYLAYER
 10
98.0137111558
 20
64.9296658702
 11
98.4071531401
 21
64.7011825768
  0
LINE
  5
338
100
AcDbEntity
  8
0
100
AcDbLine
 62
7
  6
BYLAYER
 10
98.0131491465
 20
65.4299981054
 11
98.4071189392
 21
65.2012495486
  0
LINE
  5
339
100
AcDbEntity
  8
0
100
AcDbLine
 62
7
  6
BYLAYER
 10
101.00024743
 20
63.6947037753
 11
100.6686666064
 21
63.8872018623
  0
LINE
  5
33A
100
AcDbEntity
  8
0
100
AcDbLine
 62
7
  6
BYLAYER
 10
101.0004212941
 20
64.0943182325
 11
100.6069155205
 21
64.322865825
  0
LINE
  5
33B
100
AcDbEntity
  8
0
100
AcDbLine
 62
7
  6
BYLAYER
 10
101.000743494
 20
64.1942527399
 11
100.6068854537
 21
64.4229550838
  0
LINE
  5
33C
100
AcDbEntity
  8
0
100
AcDbLine
 62
7
  6
BYLAYER
 10
98.0135499277
 20
65.9298596075
 11
98.4070055907
 21
65.7013502392
  0
LINE
  5
33D
100
AcDbEntity
  8
0
100
AcDbLine
 62
7
  6
BYLAYER
 10
100.9268036868
 20
60.6371991247
 11
100.6065847101
 21
60.8232387555
  0
LINE
  5
33E
100
AcDbEntity
  8
0
100
AcDbLine
 62
7
  6
BYLAYER
 10
98.0136526385
 20
62.330003637
 11
98.4073003496
 21
62.101337205
  0
LINE
  5
33F
100
AcDbEntity
  8
0
100
AcDbLine
 62
7
  6
BYLAYER
 10
101.0001616738
 20
61.5944780695
 11
100.6065018073
 21
61.8231632426
  0
LINE
  5
340
100
AcDbEntity
  8
0
100
AcDbLine
 62
7
  6
BYLAYER
 10
101.0006508265
 20
61.6941442332
 11
100.6682832933
 21
61.8871629273
  0
LINE
  5
341
100
AcDbEntity
  8
0
100
AcDbLine
 62
7
  6
BYLAYER
 10
100.9999579631
 20
62.1947528817
 11
100.6684041856
 21
62.3872829915
  0
LINE
  5
342
100
AcDbEntity
  8
0
100
AcDbLine
 62
7
  6
BYLAYER
 10
101.0000580278
 20
63.0946657824
 11
100.6067235021
 21
63.3231377581
  0
LINE
  5
343
100
AcDbEntity
  8
0
100
AcDbLine
 62
7
  6
BYLAYER
 10
101.0001616738
 20
63.1944780695
 11
100.6683993054
 21
63.3871560708
  0
LINE
  5
344
100
AcDbEntity
  8
0
100
AcDbLine
 62
7
  6
BYLAYER
 10
98.0281592404
 20
63.4506996015
 11
98.1118506199
 21
63.4016779019
  0
LINE
  5
345
100
AcDbEntity
  8
0
100
AcDbLine
 62
7
  6
BYLAYER
 10
98.0541619643
 20
61.957210642
 11
98.1299196122
 21
61.9120495818
  0
LINE
  5
346
100
AcDbEntity
  8
0
100
AcDbLine
 62
7
  6
BYLAYER
 10
64.7569358796
 20
75.8871991247
 11
64.7569358796
 21
75.5577272668
  0
LINE
  5
347
100
AcDbEntity
  8
0
100
AcDbLine
 62
7
  6
BYLAYER
 10
66.4569358796
 20
65.5871991247
 11
66.4569358796
 21
67.1371991247
  0
LINE
  5
348
100
AcDbEntity
  8
0
100
AcDbLine
 62
7
  6
BYLAYER
 10
66.4569358796
 20
68.7371991247
 11
66.4569358796
 21
69.35947475
  0
LINE
  5
349
100
AcDbEntity
  8
0
100
AcDbLine
 62
7
  6
BYLAYER
 10
66.6069358796
 20
75.9314945073
 11
66.6069358796
 21
76.2296164649
  0
LINE
  5
34A
100
AcDbEntity
  8
0
100
AcDbLine
 62
7
  6
BYLAYER
 10
66.9569383796
 20
60.1371991247
 11
66.9569383796
 21
60.2371991247
  0
LINE
  5
34B
100
AcDbEntity
  8
0
100
AcDbLine
 62
7
  6
BYLAYER
 10
66.9569383796
 20
60.4251991247
 11
66.9569383796
 21
64.9859823803
  0
LINE
  5
34C
100
AcDbEntity
  8
0
100
AcDbLine
 62
7
  6
BYLAYER
 10
67.6069358796
 20
76.2290881317
 11
67.6069358796
 21
75.9314945073
  0
LINE
  5
34D
100
AcDbEntity
  8
0
100
AcDbLine
 62
7
  6
BYLAYER
 10
67.7569358796
 20
69.35947475
 11
67.7569358796
 21
68.7371991247
  0
LINE
  5
34E
100
AcDbEntity
  8
0
100
AcDbLine
 62
7
  6
BYLAYER
 10
67.7569358796
 20
67.1371991247
 11
67.7569358796
 21
65.5871991247
  0
LINE
  5
34F
100
AcDbEntity
  8
0
100
AcDbLine
 62
7
  6
BYLAYER
 10
102.1569358796
 20
88.1371991247
 11
18.6569358796
 21
88.1371991247
  0
LINE
  5
350
100
AcDbEntity
  8
0
100
AcDbLine
 62
7
  6
BYLAYER
 10
101.0007708387
 20
65.194390345
 11
100.6068047997
 21
65.4231238676
  0
LINE
  5
351
100
AcDbEntity
  8
0
100
AcDbLine
 62
7
  6
BYLAYER
 10
101.0004212941
 20
65.6943182325
 11
100.6069155205
 21
65.922865825
  0
LINE
  5
352
100
AcDbEntity
  8
0
100
AcDbLine
 62
7
  6
BYLAYER
 10
101.0000580278
 20
64.6946657824
 11
100.6067235021
 21
64.9231377581
  0
LINE
  5
353
100
AcDbEntity
  8
0
100
AcDbLine
 62
7
  6
BYLAYER
 10
101.2298329723
 20
60.7280803256
 11
101.235535518
 21
60.7240265132
  0
LINE
  5
354
100
AcDbEntity
  8
0
100
AcDbLine
 62
7
  6
BYLAYER
 10
69.4569358796
 20
75.5577649691
 11
69.4569358796
 21
75.8871991247
  0
LINE
  5
355
100
AcDbEntity
  8
0
100
AcDbLine
 62
7
  6
BYLAYER
 10
70.5069358796
 20
77.3871991247
 11
70.5069358796
 21
78.8871991247
  0
LINE
  5
356
100
AcDbEntity
  8
0
100
AcDbLine
 62
7
  6
BYLAYER
 10
70.6569358796
 20
75.9592368251
 11
70.6569358796
 21
77.1234140676
  0
LINE
  5
357
100
AcDbEntity
  8
0
100
AcDbLine
 62
7
  6
BYLAYER
 10
70.8569358796
 20
75.959236825
 11
70.8569358796
 21
77.3871991247
  0
LINE
  5
358
100
AcDbEntity
  8
0
100
AcDbLine
 62
7
  6
BYLAYER
 10
71.0569358796
 20
75.4871991247
 11
71.0569358796
 21
75.8871991247
  0
LINE
  5
359
100
AcDbEntity
  8
0
100
AcDbLine
 62
7
  6
BYLAYER
 10
71.1069358796
 20
83.7371991247
 11
71.1069358796
 21
75.4871991247
  0
LINE
  5
35A
100
AcDbEntity
  8
0
100
AcDbLine
 62
7
  6
BYLAYER
 10
71.1069358796
 20
68.7371991247
 11
71.1069358796
 21
69.7371991247
  0
LINE
  5
35B
100
AcDbEntity
  8
0
100
AcDbLine
 62
7
  6
BYLAYER
 10
105.9069358796
 20
91.8371991247
 11
104.7069358796
 21
91.8371991247
  0
LINE
  5
35C
100
AcDbEntity
  8
0
100
AcDbLine
 62
7
  6
BYLAYER
 10
105.9069358796
 20
93.6371991247
 11
104.8069358796
 21
93.6371991247
  0
LINE
  5
35D
100
AcDbEntity
  8
0
100
AcDbLine
 62
7
  6
BYLAYER
 10
16.0069358796
 20
93.6371991247
 11
14.9069358796
 21
93.6371991247
  0
LINE
  5
35E
100
AcDbEntity
  8
0
100
AcDbLine
 62
7
  6
BYLAYER
 10
101.235642318
 20
59.1239269206
 11
102.4169358796
 21
58.0223528533
  0
LINE
  5
35F
100
AcDbEntity
  8
0
100
AcDbLine
 62
7
  6
BYLAYER
 10
72.6069358796
 20
68.7371991247
 11
72.6069358796
 21
69.7371991247
  0
LINE
  5
360
100
AcDbEntity
  8
0
100
AcDbLine
 62
7
  6
BYLAYER
 10
72.6069358796
 20
75.4871991247
 11
72.6069358796
 21
83.7371991247
  0
LINE
  5
361
100
AcDbEntity
  8
0
100
AcDbLine
 62
7
  6
BYLAYER
 10
72.6569358796
 20
75.4871991247
 11
72.6569358796
 21
75.8871991247
  0
LINE
  5
362
100
AcDbEntity
  8
0
100
AcDbLine
 62
7
  6
BYLAYER
 10
72.8569358796
 20
75.9592368251
 11
72.8569358796
 21
77.3871991247
  0
LINE
  5
363
100
AcDbEntity
  8
0
100
AcDbLine
 62
7
  6
BYLAYER
 10
73.0569358796
 20
77.1234140676
 11
73.0569358796
 21
75.9592368251
  0
LINE
  5
364
100
AcDbEntity
  8
0
100
AcDbLine
 62
7
  6
BYLAYER
 10
73.2069358796
 20
77.3871991247
 11
73.2069358796
 21
78.8871991247
  0
LINE
  5
365
100
AcDbEntity
  8
0
100
AcDbLine
 62
7
  6
BYLAYER
 10
73.5740988196
 20
60.1371991247
 11
73.5740988196
 21
60.2371991247
  0
LINE
  5
366
100
AcDbEntity
  8
0
100
AcDbLine
 62
7
  6
BYLAYER
 10
73.5740988196
 20
60.4251991247
 11
73.5740988196
 21
67.1371991247
  0
LINE
  5
367
100
AcDbEntity
  8
0
100
AcDbLine
 62
7
  6
BYLAYER
 10
74.2569358796
 20
75.8871991247
 11
74.2569358796
 21
75.5577272668
  0
LINE
  5
368
100
AcDbEntity
  8
0
100
AcDbLine
 62
7
  6
BYLAYER
 10
101.235642318
 20
60.7239269206
 11
101.2912727857
 21
60.6720506703
  0
LINE
  5
369
100
AcDbEntity
  8
0
100
AcDbLine
 62
7
  6
BYLAYER
 10
98.0175529523
 20
61.3539195157
 11
98.0069358796
 21
61.3661707114
  0
LINE
  5
36A
100
AcDbEntity
  8
0
100
AcDbLine
 62
7
  6
BYLAYER
 10
75.9569358796
 20
65.5871991247
 11
75.9569358796
 21
67.1371991247
  0
LINE
  5
36B
100
AcDbEntity
  8
0
100
AcDbLine
 62
7
  6
BYLAYER
 10
75.9569358796
 20
68.7371991247
 11
75.9569358796
 21
69.35947475
  0
LINE
  5
36C
100
AcDbEntity
  8
0
100
AcDbLine
 62
7
  6
BYLAYER
 10
76.1069358796
 20
75.9314945073
 11
76.1069358796
 21
76.2296164649
  0
LINE
  5
36D
100
AcDbEntity
  8
0
100
AcDbLine
 62
7
  6
BYLAYER
 10
77.1069358796
 20
76.2290881317
 11
77.1069358796
 21
75.9314945073
  0
LINE
  5
36E
100
AcDbEntity
  8
0
100
AcDbLine
 62
7
  6
BYLAYER
 10
77.2569358796
 20
69.35947475
 11
77.2569358796
 21
68.7371991247
  0
LINE
  5
36F
100
AcDbEntity
  8
0
100
AcDbLine
 62
7
  6
BYLAYER
 10
77.2569358796
 20
67.1371991247
 11
77.2569358796
 21
65.5871991247
  0
LINE
  5
370
100
AcDbEntity
  8
0
100
AcDbLine
 62
7
  6
BYLAYER
 10
105.9069358796
 20
99.6371991247
 11
104.8069358796
 21
99.6371991247
  0
LINE
  5
371
100
AcDbEntity
  8
0
100
AcDbLine
 62
7
  6
BYLAYER
 10
16.0069358796
 20
99.6371991247
 11
14.9069358796
 21
99.6371991247
  0
LINE
  5
372
100
AcDbEntity
  8
0
100
AcDbLine
 62
7
  6
BYLAYER
 10
105.0069358796
 20
100.1371991247
 11
104.8069358796
 21
100.1371991247
  0
LINE
  5
373
100
AcDbEntity
  8
0
100
AcDbLine
 62
7
  6
BYLAYER
 10
15.8069358796
 20
100.1371991247
 11
16.0069358796
 21
100.1371991247
  0
LINE
  5
374
100
AcDbEntity
  8
0
100
AcDbLine
 62
7
  6
BYLAYER
 10
15.0069358796
 20
100.6371991247
 11
15.8069358796
 21
100.6371991247
  0
LINE
  5
375
100
AcDbEntity
  8
0
100
AcDbLine
 62
7
  6
BYLAYER
 10
105.0069358796
 20
100.6371991247
 11
105.8069358796
 21
100.6371991247
  0
LINE
  5
376
100
AcDbEntity
  8
0
100
AcDbLine
 62
7
  6
BYLAYER
 10
98.0072007362
 20
64.3370749651
 11
98.0135313589
 21
64.3298489002
  0
LINE
  5
377
100
AcDbEntity
  8
0
100
AcDbLine
 62
7
  6
BYLAYER
 10
98.0072007362
 20
65.9370749651
 11
98.0135313589
 21
65.9298489002
  0
LINE
  5
378
100
AcDbEntity
  8
0
100
AcDbLine
 62
7
  6
BYLAYER
 10
101.0069358796
 20
61.2055574231
 11
101.0021746666
 21
61.2110318929
  0
LINE
  5
379
100
AcDbEntity
  8
0
100
AcDbLine
 62
7
  6
BYLAYER
 10
101.0069358795
 20
61.6871983633
 11
101.0006524842
 21
61.694485924
  0
LINE
  5
37A
100
AcDbEntity
  8
0
100
AcDbLine
 62
7
  6
BYLAYER
 10
78.9569358796
 20
75.5577649691
 11
78.9569358796
 21
75.8871991247
  0
LINE
  5
37B
100
AcDbEntity
  8
0
100
AcDbLine
 62
7
  6
BYLAYER
 10
79.5740988196
 20
60.1371991247
 11
79.5740988196
 21
60.2371991247
  0
LINE
  5
37C
100
AcDbEntity
  8
0
100
AcDbLine
 62
7
  6
BYLAYER
 10
79.5740988196
 20
60.4251991247
 11
79.5740988196
 21
67.1371991247
  0
LINE
  5
37D
100
AcDbEntity
  8
0
100
AcDbLine
 62
7
  6
BYLAYER
 10
80.0069358796
 20
77.3871991247
 11
80.0069358796
 21
78.8871991247
  0
LINE
  5
37E
100
AcDbEntity
  8
0
100
AcDbLine
 62
7
  6
BYLAYER
 10
80.1569358796
 20
75.9592368251
 11
80.1569358796
 21
77.1234140676
  0
LINE
  5
37F
100
AcDbEntity
  8
0
100
AcDbLine
 62
7
  6
BYLAYER
 10
80.3569358796
 20
75.959236825
 11
80.3569358796
 21
77.3871991247
  0
LINE
  5
380
100
AcDbEntity
  8
0
100
AcDbLine
 62
7
  6
BYLAYER
 10
80.5569358796
 20
75.4871991247
 11
80.5569358796
 21
75.8871991247
  0
LINE
  5
381
100
AcDbEntity
  8
0
100
AcDbLine
 62
7
  6
BYLAYER
 10
80.6069358796
 20
83.7371991247
 11
80.6069358796
 21
75.4871991247
  0
LINE
  5
382
100
AcDbEntity
  8
0
100
AcDbLine
 62
7
  6
BYLAYER
 10
80.6069358796
 20
68.7371991247
 11
80.6069358796
 21
69.7371991247
  0
LINE
  5
383
100
AcDbEntity
  8
0
100
AcDbLine
 62
7
  6
BYLAYER
 10
82.1069358796
 20
68.7371991247
 11
82.1069358796
 21
69.7371991247
  0
LINE
  5
384
100
AcDbEntity
  8
0
100
AcDbLine
 62
7
  6
BYLAYER
 10
82.1069358796
 20
75.4871991247
 11
82.1069358796
 21
83.7371991247
  0
LINE
  5
385
100
AcDbEntity
  8
0
100
AcDbLine
 62
7
  6
BYLAYER
 10
105.8069358796
 20
104.7589097377
 11
105.9028799535
 21
104.8617971605
  0
LINE
  5
386
100
AcDbEntity
  8
0
100
AcDbLine
 62
7
  6
BYLAYER
 10
106.9069358796
 20
102.9371991247
 11
105.9069358796
 21
102.9371991247
  0
LINE
  5
387
100
AcDbEntity
  8
0
100
AcDbLine
 62
7
  6
BYLAYER
 10
14.9069358796
 20
102.9371991247
 11
13.9069358796
 21
102.9371991247
  0
LINE
  5
388
100
AcDbEntity
  8
0
100
AcDbLine
 62
7
  6
BYLAYER
 10
105.8069358796
 20
103.4371991247
 11
105.0069358796
 21
103.4371991247
  0
LINE
  5
389
100
AcDbEntity
  8
0
100
AcDbLine
 62
7
  6
BYLAYER
 10
15.8069358796
 20
103.4371991247
 11
15.0069358796
 21
103.4371991247
  0
LINE
  5
38A
100
AcDbEntity
  8
0
100
AcDbLine
 62
7
  6
BYLAYER
 10
105.9069358796
 20
104.8371991247
 11
105.8069358796
 21
104.8371991247
  0
LINE
  5
38B
100
AcDbEntity
  8
0
100
AcDbLine
 62
7
  6
BYLAYER
 10
15.0069358796
 20
104.8371991247
 11
14.9069358796
 21
104.8371991247
  0
LINE
  5
38C
100
AcDbEntity
  8
0
100
AcDbLine
 62
7
  6
BYLAYER
 10
105.8069358796
 20
104.9371991247
 11
105.0069358796
 21
104.9371991247
  0
LINE
  5
38D
100
AcDbEntity
  8
0
100
AcDbLine
 62
7
  6
BYLAYER
 10
15.8069358796
 20
104.9371991247
 11
15.0069358796
 21
104.9371991247
  0
LINE
  5
38E
100
AcDbEntity
  8
0
100
AcDbLine
 62
7
  6
BYLAYER
 10
82.1569358796
 20
75.4871991247
 11
82.1569358796
 21
75.8871991247
  0
LINE
  5
38F
100
AcDbEntity
  8
0
100
AcDbLine
 62
7
  6
BYLAYER
 10
82.3569358796
 20
75.9592368251
 11
82.3569358796
 21
77.3871991247
  0
LINE
  5
390
100
AcDbEntity
  8
0
100
AcDbLine
 62
7
  6
BYLAYER
 10
82.5569358796
 20
77.1234140676
 11
82.5569358796
 21
75.9592368251
  0
LINE
  5
391
100
AcDbEntity
  8
0
100
AcDbLine
 62
7
  6
BYLAYER
 10
82.7069358796
 20
77.3871991247
 11
82.7069358796
 21
78.8871991247
  0
LINE
  5
392
100
AcDbEntity
  8
0
100
AcDbLine
 62
7
  6
BYLAYER
 10
83.7569358796
 20
75.8871991247
 11
83.7569358796
 21
75.5577272668
  0
LINE
  5
393
100
AcDbEntity
  8
0
100
AcDbLine
 62
7
  6
BYLAYER
 10
85.4569358796
 20
65.5871991247
 11
85.4569358796
 21
67.1371991247
  0
LINE
  5
394
100
AcDbEntity
  8
0
100
AcDbLine
 62
7
  6
BYLAYER
 10
85.4569358796
 20
68.7371991247
 11
85.4569358796
 21
69.35947475
  0
LINE
  5
395
100
AcDbEntity
  8
0
100
AcDbLine
 62
7
  6
BYLAYER
 10
85.6069358796
 20
75.9314945073
 11
85.6069358796
 21
76.2296164649
  0
LINE
  5
396
100
AcDbEntity
  8
0
100
AcDbLine
 62
7
  6
BYLAYER
 10
105.0069358796
 20
105.7371991247
 11
104.8069358796
 21
105.7371991247
  0
LINE
  5
397
100
AcDbEntity
  8
0
100
AcDbLine
 62
7
  6
BYLAYER
 10
15.8069358796
 20
105.7371991247
 11
16.0069358796
 21
105.7371991247
  0
LINE
  5
398
100
AcDbEntity
  8
0
100
AcDbLine
 62
7
  6
BYLAYER
 10
15.0069358796
 20
105.9371991247
 11
15.8069358796
 21
105.9371991247
  0
LINE
  5
399
100
AcDbEntity
  8
0
100
AcDbLine
 62
7
  6
BYLAYER
 10
105.0069358796
 20
105.9371991247
 11
105.8069358796
 21
105.9371991247
  0
LINE
  5
39A
100
AcDbEntity
  8
0
100
AcDbLine
 62
7
  6
BYLAYER
 10
16.0069358796
 20
107.6993755977
 11
15.8069358796
 21
107.6993755977
  0
LINE
  5
39B
100
AcDbEntity
  8
0
100
AcDbLine
 62
7
  6
BYLAYER
 10
104.8069358796
 20
107.6993755977
 11
105.0069358796
 21
107.6993755977
  0
LINE
  5
39C
100
AcDbEntity
  8
0
100
AcDbLine
 62
7
  6
BYLAYER
 10
105.0069358796
 20
107.7342750944
 11
104.8069358796
 21
107.7342750944
  0
LINE
  5
39D
100
AcDbEntity
  8
0
100
AcDbLine
 62
7
  6
BYLAYER
 10
16.0069358796
 20
107.7342750944
 11
15.8069358796
 21
107.7342750944
  0
LINE
  5
39E
100
AcDbEntity
  8
0
100
AcDbLine
 62
7
  6
BYLAYER
 10
13.9069358796
 20
107.9371991247
 11
14.9069358796
 21
107.9371991247
  0
LINE
  5
39F
100
AcDbEntity
  8
0
100
AcDbLine
 62
7
  6
BYLAYER
 10
105.9069358796
 20
107.9371991247
 11
106.9069358796
 21
107.9371991247
  0
LINE
  5
3A0
100
AcDbEntity
  8
0
100
AcDbLine
 62
7
  6
BYLAYER
 10
18.6569358796
 20
108.1371991247
 11
102.1569358796
 21
108.1371991247
  0
LINE
  5
3A1
100
AcDbEntity
  8
0
100
AcDbLine
 62
7
  6
BYLAYER
 10
15.8069358796
 20
108.3371991247
 11
105.0069358796
 21
108.3371991247
  0
LINE
  5
3A2
100
AcDbEntity
  8
0
100
AcDbLine
 62
7
  6
BYLAYER
 10
86.6069358796
 20
76.2290881317
 11
86.6069358796
 21
75.9314945073
  0
LINE
  5
3A3
100
AcDbEntity
  8
0
100
AcDbLine
 62
7
  6
BYLAYER
 10
86.7569358796
 20
69.35947475
 11
86.7569358796
 21
68.7371991247
  0
LINE
  5
3A4
100
AcDbEntity
  8
0
100
AcDbLine
 62
7
  6
BYLAYER
 10
86.7569358796
 20
67.1371991247
 11
86.7569358796
 21
65.5871991247
  0
LINE
  5
3A5
100
AcDbEntity
  8
0
100
AcDbLine
 62
7
  6
BYLAYER
 10
88.4569358796
 20
75.5577649691
 11
88.4569358796
 21
75.8871991247
  0
LINE
  5
3A6
100
AcDbEntity
  8
0
100
AcDbLine
 62
7
  6
BYLAYER
 10
15.8069358796
 20
109.1371991247
 11
105.0069358796
 21
109.1371991247
  0
LINE
  5
3A7
100
AcDbEntity
  8
0
100
AcDbLine
 62
7
  6
BYLAYER
 10
89.5069358796
 20
77.3871991247
 11
89.5069358796
 21
78.8871991247
  0
LINE
  5
3A8
100
AcDbEntity
  8
0
100
AcDbLine
 62
7
  6
BYLAYER
 10
89.6569358795
 20
75.9592368251
 11
89.6569358795
 21
77.1234140676
  0
LINE
  5
3A9
100
AcDbEntity
  8
0
100
AcDbLine
 62
7
  6
BYLAYER
 10
89.8569358796
 20
75.959236825
 11
89.8569358796
 21
77.3871991247
  0
LINE
  5
3AA
100
AcDbEntity
  8
0
100
AcDbLine
 62
7
  6
BYLAYER
 10
90.0569358796
 20
75.4871991247
 11
90.0569358796
 21
75.8871991247
  0
LINE
  5
3AB
100
AcDbEntity
  8
0
100
AcDbLine
 62
7
  6
BYLAYER
 10
90.1069358796
 20
83.7371991247
 11
90.1069358796
 21
75.4871991247
  0
LINE
  5
3AC
100
AcDbEntity
  8
0
100
AcDbLine
 62
7
  6
BYLAYER
 10
90.1069358796
 20
68.7371991247
 11
90.1069358796
 21
69.7371991247
  0
LINE
  5
3AD
100
AcDbEntity
  8
0
100
AcDbLine
 62
7
  6
BYLAYER
 10
91.6069358796
 20
68.7371991247
 11
91.6069358796
 21
69.7371991247
  0
LINE
  5
3AE
100
AcDbEntity
  8
0
100
AcDbLine
 62
7
  6
BYLAYER
 10
91.6069358796
 20
75.4871991247
 11
91.6069358796
 21
83.7371991247
  0
LINE
  5
3AF
100
AcDbEntity
  8
0
100
AcDbLine
 62
7
  6
BYLAYER
 10
91.6569358796
 20
75.4871991247
 11
91.6569358796
 21
75.8871991247
  0
LINE
  5
3B0
100
AcDbEntity
  8
0
100
AcDbLine
 62
7
  6
BYLAYER
 10
91.8569358796
 20
75.9592368251
 11
91.8569358796
 21
77.3871991247
  0
LINE
  5
3B1
100
AcDbEntity
  8
0
100
AcDbLine
 62
7
  6
BYLAYER
 10
92.0569358796
 20
77.1234140676
 11
92.0569358796
 21
75.9592368251
  0
LINE
  5
3B2
100
AcDbEntity
  8
0
100
AcDbLine
 62
7
  6
BYLAYER
 10
92.2069358796
 20
77.3871991247
 11
92.2069358796
 21
78.8871991247
  0
LINE
  5
3B3
100
AcDbEntity
  8
0
100
AcDbLine
 62
7
  6
BYLAYER
 10
98.0540623559
 20
61.4570455129
 11
98.0131286443
 21
61.4444698368
  0
LINE
  5
3B4
100
AcDbEntity
  8
0
100
AcDbLine
 62
7
  6
BYLAYER
 10
98.0136970802
 20
63.3296740324
 11
98.0123964851
 21
63.3440437129
  0
LINE
  5
3B5
100
AcDbEntity
  8
0
100
AcDbLine
 62
7
  6
BYLAYER
 10
98.0136970802
 20
64.9296740324
 11
98.0123964851
 21
64.9440437129
  0
LINE
  5
3B6
100
AcDbEntity
  8
0
100
AcDbLine
 62
7
  6
BYLAYER
 10
93.2569358796
 20
75.8871991247
 11
93.2569358796
 21
75.5577272668
  0
LINE
  5
3B7
100
AcDbEntity
  8
0
100
AcDbLine
 62
7
  6
BYLAYER
 10
94.9569358796
 20
65.5871991247
 11
94.9569358796
 21
67.1371991247
  0
LINE
  5
3B8
100
AcDbEntity
  8
0
100
AcDbLine
 62
7
  6
BYLAYER
 10
94.9569358796
 20
68.7371991247
 11
94.9569358796
 21
69.35947475
  0
LINE
  5
3B9
100
AcDbEntity
  8
0
100
AcDbLine
 62
7
  6
BYLAYER
 10
95.1069358796
 20
75.9314945073
 11
95.1069358796
 21
76.2296164649
  0
LINE
  5
3BA
100
AcDbEntity
  8
0
100
AcDbLine
 62
7
  6
BYLAYER
 10
95.3074360996
 20
60.1371991247
 11
95.3074360996
 21
60.2371991247
  0
LINE
  5
3BB
100
AcDbEntity
  8
0
100
AcDbLine
 62
7
  6
BYLAYER
 10
95.3074360996
 20
60.4251991247
 11
95.3074360996
 21
65.0346045768
  0
LINE
  5
3BC
100
AcDbEntity
  8
0
100
AcDbLine
 62
7
  6
BYLAYER
 10
96.1069358796
 20
76.2290881317
 11
96.1069358796
 21
75.9314945073
  0
LINE
  5
3BD
100
AcDbEntity
  8
0
100
AcDbLine
 62
7
  6
BYLAYER
 10
96.2569358796
 20
69.35947475
 11
96.2569358796
 21
68.7371991247
  0
LINE
  5
3BE
100
AcDbEntity
  8
0
100
AcDbLine
 62
7
  6
BYLAYER
 10
96.2569358796
 20
67.1371991247
 11
96.2569358796
 21
65.5871991247
  0
LINE
  5
3BF
100
AcDbEntity
  8
0
100
AcDbLine
 62
7
  6
BYLAYER
 10
98.0135282929
 20
64.944640199
 11
98.0123728108
 21
64.9439341772
  0
LINE
  5
3C0
100
AcDbEntity
  8
0
100
AcDbLine
 62
7
  6
BYLAYER
 10
98.4155601337
 20
65.178109264
 11
98.0135139651
 21
64.944631891
  0
LINE
  5
3C1
100
AcDbEntity
  8
0
100
AcDbLine
 62
7
  6
BYLAYER
 10
98.41582912
 20
64.6780848592
 11
98.0136771525
 21
64.4444650286
  0
LINE
  5
3C2
100
AcDbEntity
  8
0
100
AcDbLine
 62
7
  6
BYLAYER
 10
100.5981176535
 20
65.4461788749
 11
101.0004790298
 21
65.6798375644
  0
LINE
  5
3C3
100
AcDbEntity
  8
0
100
AcDbLine
 62
7
  6
BYLAYER
 10
98.4152312553
 20
65.6777588497
 11
98.0131536775
 21
65.4442817791
  0
LINE
  5
3C4
100
AcDbEntity
  8
0
100
AcDbLine
 62
7
  6
BYLAYER
 10
98.3453271376
 20
64.1372207162
 11
98.0132000705
 21
63.944438597
  0
LINE
  5
3C5
100
AcDbEntity
  8
0
100
AcDbLine
 62
7
  6
BYLAYER
 10
98.0281716766
 20
63.4506332316
 11
98.0136314772
 21
63.4445746202
  0
LINE
  5
3C6
100
AcDbEntity
  8
0
100
AcDbLine
 62
7
  6
BYLAYER
 10
98.0281716766
 20
61.8506332316
 11
98.0136314772
 21
61.8445746202
  0
LINE
  5
3C7
100
AcDbEntity
  8
0
100
AcDbLine
 62
7
  6
BYLAYER
 10
98.0130395185
 20
62.9443199351
 11
98.0281717913
 21
62.950431976
  0
LINE
  5
3C8
100
AcDbEntity
  8
0
100
AcDbLine
 62
7
  6
BYLAYER
 10
98.0130395185
 20
61.3443199351
 11
98.0281717913
 21
61.350431976
  0
LINE
  5
3C9
100
AcDbEntity
  8
0
100
AcDbLine
 62
7
  6
BYLAYER
 10
98.0131028202
 20
62.8301172032
 11
98.0124287595
 21
62.8437653173
  0
LINE
  5
3CA
100
AcDbEntity
  8
0
100
AcDbLine
 62
7
  6
BYLAYER
 10
98.0131028202
 20
64.4301172032
 11
98.0124287595
 21
64.4437653173
  0
LINE
  5
3CB
100
AcDbEntity
  8
0
100
AcDbLine
 62
7
  6
BYLAYER
 10
98.0131743168
 20
62.3444236666
 11
98.0135345928
 21
62.3299355648
  0
LINE
  5
3CC
100
AcDbEntity
  8
0
100
AcDbLine
 62
7
  6
BYLAYER
 10
98.0131743168
 20
63.9444236666
 11
98.0135345928
 21
63.9299355648
  0
LINE
  5
3CD
100
AcDbEntity
  8
0
100
AcDbLine
 62
7
  6
BYLAYER
 10
98.0132577534
 20
61.3301616483
 11
98.0130395185
 21
61.3443199351
  0
LINE
  5
3CE
100
AcDbEntity
  8
0
100
AcDbLine
 62
7
  6
BYLAYER
 10
98.0132577534
 20
62.9301616483
 11
98.0130395185
 21
62.9443199351
  0
LINE
  5
3CF
100
AcDbEntity
  8
0
100
AcDbLine
 62
7
  6
BYLAYER
 10
98.0135167273
 20
60.8446479064
 11
98.0137271452
 21
60.8296985077
  0
LINE
  5
3D0
100
AcDbEntity
  8
0
100
AcDbLine
 62
7
  6
BYLAYER
 10
98.0135167273
 20
62.4446479064
 11
98.0137271452
 21
62.4296985077
  0
LINE
  5
3D1
100
AcDbEntity
  8
0
100
AcDbLine
 62
7
  6
BYLAYER
 10
98.0130951405
 20
63.8442478398
 11
98.0131473402
 21
63.829997064
  0
LINE
  5
3D2
100
AcDbEntity
  8
0
100
AcDbLine
 62
7
  6
BYLAYER
 10
98.0130951405
 20
65.4442478398
 11
98.0131473402
 21
65.429997064
  0
LINE
  5
3D3
100
AcDbEntity
  8
0
100
AcDbLine
 62
7
  6
BYLAYER
 10
96.5969358796
 20
57.9371991247
 11
96.5969358796
 21
58.0223528533
  0
LINE
  5
3D4
100
AcDbEntity
  8
0
100
AcDbLine
 62
7
  6
BYLAYER
 10
96.7544358796
 20
60.1371991247
 11
96.7544358796
 21
60.2371991247
  0
LINE
  5
3D5
100
AcDbEntity
  8
0
100
AcDbLine
 62
7
  6
BYLAYER
 10
96.7544358796
 20
60.4251991247
 11
96.7544358796
 21
61.4371991247
  0
LINE
  5
3D6
100
AcDbEntity
  8
0
100
AcDbLine
 62
7
  6
BYLAYER
 10
97.9569358796
 20
75.5577649691
 11
97.9569358796
 21
75.8871991247
  0
LINE
  5
3D7
100
AcDbEntity
  8
0
100
AcDbLine
 62
7
  6
BYLAYER
 10
98.0069358796
 20
60.9371991247
 11
98.0069358796
 21
61.0082075376
  0
LINE
  5
3D8
100
AcDbEntity
  8
0
100
AcDbLine
 62
7
  6
BYLAYER
 10
98.0069358796
 20
61.3661916342
 11
98.0069358796
 21
61.4372689965
  0
LINE
  5
3D9
100
AcDbEntity
  8
0
100
AcDbLine
 62
7
  6
BYLAYER
 10
98.2832706979
 20
61.1734351374
 11
98.2832706979
 21
61.1700459766
  0
LINE
  5
3DA
100
AcDbEntity
  8
0
100
AcDbLine
 62
7
  6
BYLAYER
 10
98.4069537336
 20
62.6063300442
 11
98.4069537336
 21
62.5730488963
  0
LINE
  5
3DB
100
AcDbEntity
  8
0
100
AcDbLine
 62
7
  6
BYLAYER
 10
98.4069906696
 20
61.6061513108
 11
98.4069906696
 21
61.5729654108
  0
LINE
  5
3DC
100
AcDbEntity
  8
0
100
AcDbLine
 62
7
  6
BYLAYER
 10
98.4070055907
 20
65.7064124577
 11
98.4070055907
 21
65.6729759858
  0
LINE
  5
3DD
100
AcDbEntity
  8
0
100
AcDbLine
 62
7
  6
BYLAYER
 10
98.4070055907
 20
64.1064124577
 11
98.4070055907
 21
64.0729759858
  0
LINE
  5
3DE
100
AcDbEntity
  8
0
100
AcDbLine
 62
7
  6
BYLAYER
 10
98.4070996752
 20
61.1064104686
 11
98.4070996752
 21
61.0731913059
  0
LINE
  5
3DF
100
AcDbEntity
  8
0
100
AcDbLine
 62
7
  6
BYLAYER
 10
98.4071189392
 20
65.206217757
 11
98.4071189392
 21
65.173200873
  0
LINE
  5
3E0
100
AcDbEntity
  8
0
100
AcDbLine
 62
7
  6
BYLAYER
 10
98.4071189392
 20
63.606217757
 11
98.4071189392
 21
63.573200873
  0
LINE
  5
3E1
100
AcDbEntity
  8
0
100
AcDbLine
 62
7
  6
BYLAYER
 10
98.4071531401
 20
64.7061188791
 11
98.4071531401
 21
64.6730379585
  0
LINE
  5
3E2
100
AcDbEntity
  8
0
100
AcDbLine
 62
7
  6
BYLAYER
 10
98.4071531401
 20
63.1061188791
 11
98.4071531401
 21
63.0730379585
  0
LINE
  5
3E3
100
AcDbEntity
  8
0
100
AcDbLine
 62
7
  6
BYLAYER
 10
98.4073003496
 20
62.106365327
 11
98.4073003496
 21
62.0732365233
  0
LINE
  5
3E4
100
AcDbEntity
  8
0
100
AcDbLine
 62
7
  6
BYLAYER
 10
98.4111556872
 20
64.7129508839
 11
98.4111556872
 21
64.6747578177
  0
LINE
  5
3E5
100
AcDbEntity
  8
0
100
AcDbLine
 62
7
  6
BYLAYER
 10
98.4111556872
 20
63.1129508839
 11
98.4111556872
 21
63.0747578177
  0
LINE
  5
3E6
100
AcDbEntity
  8
0
100
AcDbLine
 62
7
  6
BYLAYER
 10
98.4226988703
 20
61.6196110625
 11
98.4226988703
 21
61.5814154407
  0
LINE
  5
3E7
100
AcDbEntity
  8
0
100
AcDbLine
 62
7
  6
BYLAYER
 10
99.0069358796
 20
77.3871991247
 11
99.0069358796
 21
78.8871991247
  0
LINE
  5
3E8
100
AcDbEntity
  8
0
100
AcDbLine
 62
7
  6
BYLAYER
 10
99.1569358796
 20
75.9592368251
 11
99.1569358796
 21
77.1234140676
  0
LINE
  5
3E9
100
AcDbEntity
  8
0
100
AcDbLine
 62
7
  6
BYLAYER
 10
99.3569358796
 20
75.959236825
 11
99.3569358796
 21
77.3871991247
  0
LINE
  5
3EA
100
AcDbEntity
  8
0
100
AcDbLine
 62
7
  6
BYLAYER
 10
99.5569358796
 20
75.4871991247
 11
99.5569358796
 21
75.8871991247
  0
LINE
  5
3EB
100
AcDbEntity
  8
0
100
AcDbLine
 62
7
  6
BYLAYER
 10
99.6069358796
 20
83.7371991247
 11
99.6069358796
 21
75.4871991247
  0
LINE
  5
3EC
100
AcDbEntity
  8
0
100
AcDbLine
 62
7
  6
BYLAYER
 10
99.6069358796
 20
68.7371991247
 11
99.6069358796
 21
69.7371991247
  0
LINE
  5
3ED
100
AcDbEntity
  8
0
100
AcDbLine
 62
7
  6
BYLAYER
 10
97.830865373
 20
60.6781282191
 11
97.8308678164
 21
60.7162674685
  0
LINE
  5
3EE
100
AcDbEntity
  8
0
100
AcDbLine
 62
7
  6
BYLAYER
 10
97.830865373
 20
59.0781282191
 11
97.8308678164
 21
59.1162674685
  0
LINE
  5
3EF
100
AcDbEntity
  8
0
100
AcDbLine
 62
7
  6
BYLAYER
 10
98.0136314772
 20
63.4445746202
 11
98.01334548
 21
63.4297471501
  0
LINE
  5
3F0
100
AcDbEntity
  8
0
100
AcDbLine
 62
7
  6
BYLAYER
 10
98.0136314772
 20
61.8445746202
 11
98.01334548
 21
61.8297471501
  0
LINE
  5
3F1
100
AcDbEntity
  8
0
100
AcDbLine
 62
7
  6
BYLAYER
 10
98.0124287595
 20
64.4437653173
 11
98.0136112291
 21
64.4445030275
  0
LINE
  5
3F2
100
AcDbEntity
  8
0
100
AcDbLine
 62
7
  6
BYLAYER
 10
98.0124287595
 20
62.8437653173
 11
98.0136112291
 21
62.8445030275
  0
LINE
  5
3F3
100
AcDbEntity
  8
0
100
AcDbLine
 62
7
  6
BYLAYER
 10
98.0135282929
 20
63.344640199
 11
98.0123728108
 21
63.3439341772
  0
LINE
  5
3F4
100
AcDbEntity
  8
0
100
AcDbLine
 62
7
  6
BYLAYER
 10
98.3507500294
 20
61.6339947282
 11
98.0540450955
 21
61.4571209792
  0
LINE
  5
3F5
100
AcDbEntity
  8
0
100
AcDbLine
 62
7
  6
BYLAYER
 10
98.3461610499
 20
63.136649632
 11
98.0281527372
 21
62.9503781805
  0
LINE
  5
3F6
100
AcDbEntity
  8
0
100
AcDbLine
 62
7
  6
BYLAYER
 10
98.4226493434
 20
61.5814521886
 11
98.0281527372
 21
61.3503781805
  0
LINE
  5
3F7
100
AcDbEntity
  8
0
100
AcDbLine
 62
7
  6
BYLAYER
 10
97.830865373
 20
60.6781282191
 11
97.7605186793
 21
60.6371991247
  0
LINE
  5
3F8
100
AcDbEntity
  8
0
100
AcDbLine
 62
7
  6
BYLAYER
 10
100.9435886669
 20
61.6273075869
 11
100.9986706355
 21
61.6592995598
  0
LINE
  5
3F9
100
AcDbEntity
  8
0
100
AcDbLine
 62
7
  6
BYLAYER
 10
100.5982391873
 20
64.9463552865
 11
101.0004160129
 21
65.1799222812
  0
LINE
  5
3FA
100
AcDbEntity
  8
0
100
AcDbLine
 62
7
  6
BYLAYER
 10
98.3453147661
 20
63.6371833295
 11
98.0138022569
 21
63.4446736699
  0
LINE
  5
3FB
100
AcDbEntity
  8
0
100
AcDbLine
 62
7
  6
BYLAYER
 10
98.4155601337
 20
63.578109264
 11
98.0135139651
 21
63.344631891
  0
LINE
  5
3FC
100
AcDbEntity
  8
0
100
AcDbLine
 62
7
  6
BYLAYER
 10
98.41582912
 20
63.0780848592
 11
98.0136771525
 21
62.8444650286
  0
LINE
  5
3FD
100
AcDbEntity
  8
0
100
AcDbLine
 62
7
  6
BYLAYER
 10
100.9265266564
 20
64.1371904535
 11
101.0005849263
 21
64.1801556027
  0
LINE
  5
3FE
100
AcDbEntity
  8
0
100
AcDbLine
 62
7
  6
BYLAYER
 10
100.5981176535
 20
63.8461788749
 11
101.0004790298
 21
64.0798375644
  0
LINE
  5
3FF
100
AcDbEntity
  8
0
100
AcDbLine
 62
7
  6
BYLAYER
 10
100.9267624684
 20
63.6373144369
 11
100.9999485411
 21
63.6797842997
  0
LINE
  5
400
100
AcDbEntity
  8
0
100
AcDbLine
 62
7
  6
BYLAYER
 10
98.3455897548
 20
62.1372338271
 11
98.0136346795
 21
61.944444445
  0
LINE
  5
401
100
AcDbEntity
  8
0
100
AcDbLine
 62
7
  6
BYLAYER
 10
100.5982391873
 20
63.3463552865
 11
101.0004160129
 21
63.5799222812
  0
LINE
  5
402
100
AcDbEntity
  8
0
100
AcDbLine
 62
7
  6
BYLAYER
 10
98.4158373603
 20
62.0782019763
 11
98.0138022569
 21
61.8446736699
  0
LINE
  5
403
100
AcDbEntity
  8
0
100
AcDbLine
 62
7
  6
BYLAYER
 10
100.9265787924
 20
62.6372725986
 11
101.0002523027
 21
62.6800224429
  0
LINE
  5
404
100
AcDbEntity
  8
0
100
AcDbLine
 62
7
  6
BYLAYER
 10
100.5981323695
 20
62.3464147496
 11
101.0005849263
 21
62.5801556027
  0
LINE
  5
405
100
AcDbEntity
  8
0
100
AcDbLine
 62
7
  6
BYLAYER
 10
100.9268880062
 20
62.1372591769
 11
100.9999461774
 21
62.1796501329
  0
LINE
  5
406
100
AcDbEntity
  8
0
100
AcDbLine
 62
7
  6
BYLAYER
 10
100.5978718339
 20
61.8462035131
 11
100.9999485411
 21
62.0797842997
  0
LINE
  5
407
100
AcDbEntity
  8
0
100
AcDbLine
 62
7
  6
BYLAYER
 10
98.4152312553
 20
64.0777588497
 11
98.0131536775
 21
63.8442817791
  0
LINE
  5
408
100
AcDbEntity
  8
0
100
AcDbLine
 62
7
  6
BYLAYER
 10
100.598534557
 20
64.4464495232
 11
101.0004518905
 21
64.6798081541
  0
LINE
  5
409
100
AcDbEntity
  8
0
100
AcDbLine
 62
7
  6
BYLAYER
 10
98.3453487078
 20
63.137122011
 11
98.0131378005
 21
62.9442632696
  0
LINE
  5
40A
100
AcDbEntity
  8
0
100
AcDbLine
 62
7
  6
BYLAYER
 10
98.345317952
 20
62.6372687042
 11
98.0135826463
 21
62.4446861283
  0
LINE
  5
40B
100
AcDbEntity
  8
0
100
AcDbLine
 62
7
  6
BYLAYER
 10
98.4153414347
 20
62.5779252985
 11
98.0132000705
 21
62.344438597
  0
LINE
  5
40C
100
AcDbEntity
  8
0
100
AcDbLine
 62
7
  6
BYLAYER
 10
100.9267775765
 20
63.1371867491
 11
101.000564433
 21
63.1799844169
  0
LINE
  5
40D
100
AcDbEntity
  8
0
100
AcDbLine
 62
7
  6
BYLAYER
 10
98.3451985837
 20
61.6372221852
 11
98.0131286332
 21
61.4444721692
  0
LINE
  5
40E
100
AcDbEntity
  8
0
100
AcDbLine
 62
7
  6
BYLAYER
 10
100.598534557
 20
62.8464495232
 11
101.0004518905
 21
63.0798081541
  0
LINE
  5
40F
100
AcDbEntity
  8
0
100
AcDbLine
 62
7
  6
BYLAYER
 10
98.4155465315
 20
61.57794045
 11
98.0131378005
 21
61.3442632696
  0
LINE
  5
410
100
AcDbEntity
  8
0
100
AcDbLine
 62
7
  6
BYLAYER
 10
98.4154548961
 20
61.0780493975
 11
98.0135826463
 21
60.8446861283
  0
LINE
  5
411
100
AcDbEntity
  8
0
100
AcDbLine
 62
7
  6
BYLAYER
 10
100.5984325339
 20
61.3464877396
 11
101.000564433
 21
61.5799844169
  0
LINE
  5
412
100
AcDbEntity
  8
0
100
AcDbLine
 62
7
  6
BYLAYER
 10
98.286192671
 20
61.1717381297
 11
98.0101935372
 21
61.0119569271
  0
LINE
  5
413
100
AcDbEntity
  8
0
100
AcDbLine
 62
7
  6
BYLAYER
 10
98.4226988703
 20
61.5814154407
 11
98.4155467398
 21
61.5779172417
  0
LINE
  5
414
100
AcDbEntity
  8
0
100
AcDbLine
 62
7
  6
BYLAYER
 10
101.0005592728
 20
61.5799814252
 11
101.000154976
 21
61.5944742075
  0
LINE
  5
415
100
AcDbEntity
  8
0
100
AcDbLine
 62
7
  6
BYLAYER
 10
101.0005592728
 20
63.1799814252
 11
101.000154976
 21
63.1944742075
  0
LINE
  5
416
100
AcDbEntity
  8
0
100
AcDbLine
 62
7
  6
BYLAYER
 10
101.0004625095
 20
63.0798143104
 11
101.0000523205
 21
63.0946624908
  0
LINE
  5
417
100
AcDbEntity
  8
0
100
AcDbLine
 62
7
  6
BYLAYER
 10
101.0004625095
 20
64.6798143104
 11
101.0000523205
 21
64.6946624908
  0
LINE
  5
418
100
AcDbEntity
  8
0
100
AcDbLine
 62
7
  6
BYLAYER
 10
101.0000752817
 20
62.1946848398
 11
101.0000980746
 21
62.1795625242
  0
LINE
  5
419
100
AcDbEntity
  8
0
100
AcDbLine
 62
7
  6
BYLAYER
 10
100.6065018073
 20
61.8181325106
 11
100.6065018073
 21
61.8512236996
  0
LINE
  5
41A
100
AcDbEntity
  8
0
100
AcDbLine
 62
7
  6
BYLAYER
 10
100.6065847101
 20
60.8182535322
 11
100.6065847101
 21
60.8513474944
  0
LINE
  5
41B
100
AcDbEntity
  8
0
100
AcDbLine
 62
7
  6
BYLAYER
 10
100.6067235021
 20
63.3180627352
 11
100.6067235021
 21
63.3512892391
  0
LINE
  5
41C
100
AcDbEntity
  8
0
100
AcDbLine
 62
7
  6
BYLAYER
 10
100.6067235021
 20
64.9180627352
 11
100.6067235021
 21
64.9512892391
  0
LINE
  5
41D
100
AcDbEntity
  8
0
100
AcDbLine
 62
7
  6
BYLAYER
 10
100.6067538229
 20
62.3182920006
 11
100.6067538229
 21
62.3514287603
  0
LINE
  5
41E
100
AcDbEntity
  8
0
100
AcDbLine
 62
7
  6
BYLAYER
 10
100.6068047997
 20
63.8182859434
 11
100.6068047997
 21
63.8512302991
  0
LINE
  5
41F
100
AcDbEntity
  8
0
100
AcDbLine
 62
7
  6
BYLAYER
 10
100.6068047997
 20
65.4182859434
 11
100.6068047997
 21
65.4512302991
  0
LINE
  5
420
100
AcDbEntity
  8
0
100
AcDbLine
 62
7
  6
BYLAYER
 10
100.6068854537
 20
62.8180302636
 11
100.6068854537
 21
62.8513044967
  0
LINE
  5
421
100
AcDbEntity
  8
0
100
AcDbLine
 62
7
  6
BYLAYER
 10
100.6068854537
 20
64.4180302636
 11
100.6068854537
 21
64.4513044967
  0
LINE
  5
422
100
AcDbEntity
  8
0
100
AcDbLine
 62
7
  6
BYLAYER
 10
100.6069155205
 20
64.3180901073
 11
100.6069155205
 21
64.3371991247
  0
LINE
  5
423
100
AcDbEntity
  8
0
100
AcDbLine
 62
7
  6
BYLAYER
 10
100.6069155205
 20
65.9180901073
 11
100.6069155205
 21
65.9371991247
  0
LINE
  5
424
100
AcDbEntity
  8
0
100
AcDbLine
 62
7
  6
BYLAYER
 10
100.6069255694
 20
61.3181947544
 11
100.6069255694
 21
61.3514257499
  0
LINE
  5
425
100
AcDbEntity
  8
0
100
AcDbLine
 62
7
  6
BYLAYER
 10
100.9010763796
 20
60.9140709184
 11
100.9010763796
 21
60.9482714132
  0
LINE
  5
426
100
AcDbEntity
  8
0
100
AcDbLine
 62
7
  6
BYLAYER
 10
101.0069358796
 20
61.0184204622
 11
101.0069358796
 21
61.2055391066
  0
LINE
  5
427
100
AcDbEntity
  8
0
100
AcDbLine
 62
7
  6
BYLAYER
 10
101.0069358796
 20
61.6688595317
 11
101.0069358796
 21
61.6869176672
  0
LINE
  5
428
100
AcDbEntity
  8
0
100
AcDbLine
 62
7
  6
BYLAYER
 10
101.0069358796
 20
68.7371991247
 11
101.0069358796
 21
83.7371991247
  0
LINE
  5
429
100
AcDbEntity
  8
0
100
AcDbLine
 62
7
  6
BYLAYER
 10
101.0574360996
 20
70.2371991247
 11
101.0574360996
 21
69.2371991247
  0
LINE
  5
42A
100
AcDbEntity
  8
0
100
AcDbLine
 62
7
  6
BYLAYER
 10
101.3069358796
 20
67.1371991247
 11
101.3069358796
 21
68.7371991247
  0
LINE
  5
42B
100
AcDbEntity
  8
0
100
AcDbLine
 62
7
  6
BYLAYER
 10
101.3074360996
 20
61.4371991247
 11
101.3074360996
 21
67.1371991247
  0
LINE
  5
42C
100
AcDbEntity
  8
0
100
AcDbLine
 62
7
  6
BYLAYER
 10
101.5574360996
 20
69.2371991247
 11
101.5574360996
 21
68.7371991247
  0
LINE
  5
42D
100
AcDbEntity
  8
0
100
AcDbLine
 62
7
  6
BYLAYER
 10
101.6069358796
 20
81.2371991247
 11
101.6069358796
 21
80.7371991247
  0
LINE
  5
42E
100
AcDbEntity
  8
0
100
AcDbLine
 62
7
  6
BYLAYER
 10
102.2594358796
 20
60.1371991247
 11
102.2594358796
 21
60.2371991247
  0
LINE
  5
42F
100
AcDbEntity
  8
0
100
AcDbLine
 62
7
  6
BYLAYER
 10
102.2594358796
 20
60.4251991247
 11
102.2594358796
 21
61.4371991247
  0
LINE
  5
430
100
AcDbEntity
  8
0
100
AcDbLine
 62
7
  6
BYLAYER
 10
102.4169358796
 20
57.9371991247
 11
102.4169358796
 21
58.0223528533
  0
LINE
  5
431
100
AcDbEntity
  8
0
100
AcDbLine
 62
7
  6
BYLAYER
 10
103.3069358796
 20
67.1371991247
 11
103.3069358796
 21
68.7371991247
  0
LINE
  5
432
100
AcDbEntity
  8
0
100
AcDbLine
 62
7
  6
BYLAYER
 10
101.0005685749
 20
65.6942328212
 11
101.0004750493
 21
65.6798398592
  0
LINE
  5
433
100
AcDbEntity
  8
0
100
AcDbLine
 62
7
  6
BYLAYER
 10
101.0005685749
 20
64.0942328212
 11
101.0004750493
 21
64.0798398592
  0
LINE
  5
434
100
AcDbEntity
  8
0
100
AcDbLine
 62
7
  6
BYLAYER
 10
101.0007933824
 20
64.1942238145
 11
101.0006722109
 21
64.1801052791
  0
LINE
  5
435
100
AcDbEntity
  8
0
100
AcDbLine
 62
7
  6
BYLAYER
 10
101.0007933824
 20
62.5942238145
 11
101.0006722109
 21
62.5801052791
  0
LINE
  5
436
100
AcDbEntity
  8
0
100
AcDbLine
 62
7
  6
BYLAYER
 10
101.0003121351
 20
63.6946662563
 11
101.0001080692
 21
63.6796922946
  0
LINE
  5
437
100
AcDbEntity
  8
0
100
AcDbLine
 62
7
  6
BYLAYER
 10
101.0003121351
 20
62.0946662563
 11
101.0001080692
 21
62.0796922946
  0
LINE
  5
438
100
AcDbEntity
  8
0
100
AcDbLine
 62
7
  6
BYLAYER
 10
101.0007563668
 20
65.1943987349
 11
101.0004323216
 21
65.1799128758
  0
LINE
  5
439
100
AcDbEntity
  8
0
100
AcDbLine
 62
7
  6
BYLAYER
 10
101.0007563668
 20
63.5943987349
 11
101.0004323216
 21
63.5799128758
  0
LINE
  5
43A
100
AcDbEntity
  8
0
100
AcDbLine
 62
7
  6
BYLAYER
 10
101.0007291084
 20
62.6943950525
 11
101.0003633325
 21
62.6799584169
  0
LINE
  5
43B
100
AcDbEntity
  8
0
100
AcDbLine
 62
7
  6
BYLAYER
 10
101.0007291084
 20
61.0943950525
 11
101.0003633325
 21
61.0799584169
  0
LINE
  5
43C
100
AcDbEntity
  8
0
100
AcDbLine
 62
7
  6
BYLAYER
 10
98.4110686617
 20
64.7129840811
 11
98.4070801943
 21
64.7061607914
  0
LINE
  5
43D
100
AcDbEntity
  8
0
100
AcDbLine
 62
7
  6
BYLAYER
 10
98.0131286443
 20
61.4444698368
 11
98.0069358796
 21
61.437271414
  0
LINE
  5
43E
100
AcDbEntity
  8
0
100
AcDbLine
 62
7
  6
BYLAYER
 10
97.729062611
 20
60.664893219
 11
97.8017319575
 21
60.733211604
  0
LINE
  5
43F
100
AcDbEntity
  8
0
100
AcDbLine
 62
7
  6
BYLAYER
 10
98.0069358796
 20
60.9371991247
 11
97.7225989735
 21
60.6720506703
  0
LINE
  5
440
100
AcDbEntity
  8
0
100
AcDbLine
 62
7
  6
BYLAYER
 10
98.422687508
 20
61.6196071481
 11
98.4069655957
 21
61.6061657153
  0
LINE
  5
441
100
AcDbEntity
  8
0
100
AcDbLine
 62
7
  6
BYLAYER
 10
100.8943932514
 20
60.944372124
 11
100.9923009747
 21
61.0014966495
  0
LINE
  5
442
100
AcDbEntity
  8
0
100
AcDbLine
 62
7
  6
BYLAYER
 10
97.830865373
 20
59.0781282191
 11
97.6006926004
 21
58.9442091585
  0
LINE
  5
443
100
AcDbEntity
  8
0
100
AcDbLine
 62
7
  6
BYLAYER
 10
100.5979213518
 20
60.8463081451
 11
101.0002523027
 21
61.0800224429
  0
LINE
  5
444
100
AcDbEntity
  8
0
100
AcDbLine
 62
7
  6
BYLAYER
 10
101.0069358796
 20
83.7371991247
 11
101.6069358796
 21
81.2371991247
  0
LINE
  5
445
100
AcDbEntity
  8
0
100
AcDbLine
 62
7
  6
BYLAYER
 10
105.8518077184
 20
102.9388770162
 11
105.8519299755
 21
102.9354799521
  0
LINE
  5
446
100
AcDbEntity
  8
0
100
AcDbLine
 62
7
  6
BYLAYER
 10
105.8518704505
 20
102.9371991247
 11
105.8519247771
 21
102.935470378
  0
LINE
  5
447
100
AcDbEntity
  8
0
100
AcDbLine
 62
7
  6
BYLAYER
 10
103.6569358796
 20
106.6371991247
 11
103.6569358796
 21
89.6371991247
  0
LINE
  5
448
100
AcDbEntity
  8
0
100
AcDbLine
 62
7
  6
BYLAYER
 10
104.4069358796
 20
60.1371991247
 11
104.4069358796
 21
60.2371991247
  0
LINE
  5
449
100
AcDbEntity
  8
0
100
AcDbLine
 62
7
  6
BYLAYER
 10
104.4069358796
 20
60.4251991247
 11
104.4069358796
 21
60.7259836766
  0
LINE
  5
44A
100
AcDbEntity
  8
0
100
AcDbLine
 62
7
  6
BYLAYER
 10
104.6069358796
 20
60.2371991247
 11
104.6069358796
 21
60.4251991247
  0
LINE
  5
44B
100
AcDbEntity
  8
0
100
AcDbLine
 62
7
  6
BYLAYER
 10
104.7069358796
 20
91.8367982455
 11
104.7069358796
 21
85.8376000039
  0
LINE
  5
44C
100
AcDbEntity
  8
0
100
AcDbLine
 62
7
  6
BYLAYER
 10
104.7069358796
 20
85.6297216955
 11
104.7069358796
 21
81.1376000039
  0
LINE
  5
44D
100
AcDbEntity
  8
0
100
AcDbLine
 62
7
  6
BYLAYER
 10
104.7069358796
 20
74.6367982455
 11
104.7069358796
 21
68.6376000039
  0
LINE
  5
44E
100
AcDbEntity
  8
0
100
AcDbLine
 62
7
  6
BYLAYER
 10
104.8069358796
 20
91.8367982455
 11
104.8069358796
 21
109.1371991247
  0
LINE
  5
44F
100
AcDbEntity
  8
0
100
AcDbLine
 62
7
  6
BYLAYER
 10
105.0069358796
 20
109.1371991247
 11
105.0069358796
 21
99.6371991247
  0
LINE
  5
450
100
AcDbEntity
  8
0
100
AcDbLine
 62
7
  6
BYLAYER
 10
105.6069358796
 20
60.4251991247
 11
105.6069358796
 21
60.2371991247
  0
LINE
  5
451
100
AcDbEntity
  8
0
100
AcDbLine
 62
7
  6
BYLAYER
 10
105.8069358796
 20
93.6371991247
 11
105.8069358796
 21
91.8371991247
  0
LINE
  5
452
100
AcDbEntity
  8
0
100
AcDbLine
 62
7
  6
BYLAYER
 10
105.8069358796
 20
81.1371991247
 11
105.8069358796
 21
74.6371991247
  0
LINE
  5
453
100
AcDbEntity
  8
0
100
AcDbLine
 62
7
  6
BYLAYER
 10
105.8069358796
 20
68.6371991247
 11
105.8069358796
 21
62.6338620794
  0
LINE
  5
454
100
AcDbEntity
  8
0
100
AcDbLine
 62
7
  6
BYLAYER
 10
105.8069358796
 20
99.6371991247
 11
105.8069358796
 21
108.3371991247
  0
LINE
  5
455
100
AcDbEntity
  8
0
100
AcDbLine
 62
7
  6
BYLAYER
 10
105.9069358796
 20
107.9371991247
 11
105.9069358796
 21
60.1371991247
  0
LINE
  5
456
100
AcDbEntity
  8
0
100
AcDbLine
 62
7
  6
BYLAYER
 10
98.4110686617
 20
63.1129840811
 11
98.4070801943
 21
63.1061607914
  0
LINE
  5
457
100
AcDbEntity
  8
0
100
AcDbLine
 62
7
  6
BYLAYER
 10
100.992301026
 20
61.0014921069
 11
101.0069358796
 21
61.0184124599
  0
LINE
  5
458
100
AcDbEntity
  8
0
100
AcDbLine
 62
7
  6
BYLAYER
 10
100.9986706048
 20
61.6593043967
 11
101.0069358796
 21
61.6688390097
  0
LINE
  5
459
100
AcDbEntity
  8
0
100
AcDbLine
 62
7
  6
BYLAYER
 10
98.0069358796
 20
61.0082194123
 11
98.0101935386
 21
61.0119563818
  0
LINE
  5
45A
100
AcDbEntity
  8
0
100
AcDbLine
 62
7
  6
BYLAYER
 10
97.6006926004
 20
58.9442091585
 11
97.7789674642
 21
59.1118100985
  0
LINE
  5
45B
100
AcDbEntity
  8
0
100
AcDbLine
 62
7
  6
BYLAYER
 10
97.772477176
 20
59.1185628466
 11
96.5969358796
 21
58.0223528533
  0
LINE
  5
45C
100
AcDbEntity
  8
0
100
AcDbLine
 62
7
  6
BYLAYER
 10
105.8999258458
 20
101.0309558456
 11
105.8069358796
 21
101.1298680209
  0
LINE
  5
45D
100
AcDbEntity
  8
0
100
AcDbLine
 62
7
  6
BYLAYER
 10
105.8069358796
 20
101.1154885117
 11
105.9028799535
 21
101.0126010889
  0
LINE
  5
45E
100
AcDbEntity
  8
0
100
AcDbLine
 62
7
  6
BYLAYER
 10
106.9069358796
 20
60.1371991247
 11
106.9069358796
 21
107.9371991247
  0
LINE
  5
45F
100
AcDbEntity
  8
0
100
AcDbLine
 62
7
  6
BYLAYER
 10
105.8069358796
 20
101.1907819245
 11
105.8999258458
 21
101.0309558456
  0
ARC
  5
460
100
AcDbEntity
  8
0
100
AcDbCircle
 62
7
  6
BYLAYER
 10
16.5069358796
 20
62.6338620794
 40
1.5
100
AcDbArc
 50
180.0
 51
252.5423968726
  0
ARC
  5
461
100
AcDbEntity
  8
0
100
AcDbCircle
 62
7
  6
BYLAYER
 10
14.9069358796
 20
60.1371991247
 40
1.0
100
AcDbArc
 50
180.0
 51
270.0
  0
ARC
  5
462
100
AcDbEntity
  8
0
100
AcDbCircle
 62
7
  6
BYLAYER
 10
15.9069358796
 20
60.7259836766
 40
0.5
100
AcDbArc
 50
0.0000000001
 51
72.5423968873
  0
ARC
  5
463
100
AcDbEntity
  8
0
100
AcDbCircle
 62
7
  6
BYLAYER
 10
21.5069358796
 20
74.1371991247
 40
2.7525
100
AcDbArc
 50
257.850347226
 51
83.0327454154
  0
ARC
  5
464
100
AcDbEntity
  8
0
100
AcDbCircle
 62
7
  6
BYLAYER
 10
21.5069358796
 20
74.1371991247
 40
2.7525
100
AcDbArc
 50
144.6102679284
 51
248.0129532299
  0
ARC
  5
465
100
AcDbEntity
  8
0
100
AcDbCircle
 62
7
  6
BYLAYER
 10
21.5069358796
 20
74.1371991247
 40
1.7525
100
AcDbArc
 50
233.0801256223
 51
237.7008124337
  0
ARC
  5
466
100
AcDbEntity
  8
0
100
AcDbCircle
 62
7
  6
BYLAYER
 10
21.5069358796
 20
74.1371991247
 40
1.7525
100
AcDbArc
 50
251.2433130149
 51
67.1358396554
  0
ARC
  5
467
100
AcDbEntity
  8
0
100
AcDbCircle
 62
7
  6
BYLAYER
 10
21.4043433796
 20
74.1136518428
 40
1.711457857
100
AcDbArc
 50
280.7084553833
 51
302.2602832047
  0
ARC
  5
468
100
AcDbEntity
  8
0
100
AcDbCircle
 62
7
  6
BYLAYER
 10
21.4907268101
 20
74.1537383319
 40
1.5229205712
100
AcDbArc
 50
312.9152863534
 51
313.2174922371
  0
ARC
  5
469
100
AcDbEntity
  8
0
100
AcDbCircle
 62
7
  6
BYLAYER
 10
21.5647177761
 20
74.076091334
 40
1.5151610941
100
AcDbArc
 50
48.9360488277
 51
51.7713366919
  0
ARC
  5
46A
100
AcDbEntity
  8
0
100
AcDbCircle
 62
7
  6
BYLAYER
 10
21.5677175032
 20
74.0798484971
 40
1.5103534276
100
AcDbArc
 50
51.9037092773
 51
52.0665128329
  0
ARC
  5
46B
100
AcDbEntity
  8
0
100
AcDbCircle
 62
7
  6
BYLAYER
 10
21.5127338539
 20
74.1450027629
 40
1.5092065725
100
AcDbArc
 50
243.1181944822
 51
246.7532651457
  0
ARC
  5
46C
100
AcDbEntity
  8
0
100
AcDbCircle
 62
7
  6
BYLAYER
 10
21.5049190048
 20
74.1449406601
 40
1.5077685155
100
AcDbArc
 50
282.0551624588
 51
293.7266570782
  0
ARC
  5
46D
100
AcDbEntity
  8
0
100
AcDbCircle
 62
7
  6
BYLAYER
 10
21.5000054746
 20
74.1375497628
 40
1.5066999641
100
AcDbArc
 50
359.9869697578
 51
5.5940113726
  0
ARC
  5
46E
100
AcDbEntity
  8
0
100
AcDbCircle
 62
7
  6
BYLAYER
 10
21.369777573
 20
74.1377155759
 40
1.5065567167
100
AcDbArc
 50
275.2236759017
 51
275.9851046205
  0
ARC
  5
46F
100
AcDbEntity
  8
0
100
AcDbCircle
 62
7
  6
BYLAYER
 10
21.5064318369
 20
74.1437419387
 40
1.5062780448
100
AcDbArc
 50
268.9436220147
 51
270.0195210678
  0
ARC
  5
470
100
AcDbEntity
  8
0
100
AcDbCircle
 62
7
  6
BYLAYER
 10
21.5054074368
 20
74.142269878
 40
1.5050546237
100
AcDbArc
 50
274.8830249699
 51
282.0582133416
  0
ARC
  5
471
100
AcDbEntity
  8
0
100
AcDbCircle
 62
7
  6
BYLAYER
 10
21.5027961351
 20
74.1403061766
 40
1.5048652125
100
AcDbArc
 50
303.5131536724
 51
312.9269775389
  0
ARC
  5
472
100
AcDbEntity
  8
0
100
AcDbCircle
 62
7
  6
BYLAYER
 10
21.5722050281
 20
74.0857172072
 40
1.5029659421
100
AcDbArc
 50
52.0639073956
 51
55.3640814306
  0
ARC
  5
473
100
AcDbEntity
  8
0
100
AcDbCircle
 62
7
  6
BYLAYER
 10
21.504119409
 20
74.1370974044
 40
1.5025859948
100
AcDbArc
 50
345.8434782055
 51
0.0041831609
  0
ARC
  5
474
100
AcDbEntity
  8
0
100
AcDbCircle
 62
7
  6
BYLAYER
 10
21.5059279813
 20
74.1377807682
 40
1.5010465676
100
AcDbArc
 50
326.8856099573
 51
336.4274061598
  0
ARC
  5
475
100
AcDbEntity
  8
0
100
AcDbCircle
 62
7
  6
BYLAYER
 10
21.5073104741
 20
74.1375233719
 40
1.4997480955
100
AcDbArc
 50
313.1799765918
 51
326.864992144
  0
ARC
  5
476
100
AcDbEntity
  8
0
100
AcDbCircle
 62
7
  6
BYLAYER
 10
21.5084414381
 20
74.1367052139
 40
1.4988118343
100
AcDbArc
 50
293.7300603152
 51
297.3985623125
  0
ARC
  5
477
100
AcDbEntity
  8
0
100
AcDbCircle
 62
7
  6
BYLAYER
 10
21.5058129256
 20
74.135427023
 40
1.4979532042
100
AcDbArc
 50
256.9035818772
 51
268.9614274978
  0
ARC
  5
478
100
AcDbEntity
  8
0
100
AcDbCircle
 62
7
  6
BYLAYER
 10
21.5063438457
 20
74.1341843367
 40
1.4969187829
100
AcDbArc
 50
270.7753652731
 51
274.7271673557
  0
ARC
  5
479
100
AcDbEntity
  8
0
100
AcDbCircle
 62
7
  6
BYLAYER
 10
21.506377991
 20
74.1327268301
 40
1.4954609477
100
AcDbArc
 50
270.0209296118
 51
270.7748128452
  0
ARC
  5
47A
100
AcDbEntity
  8
0
100
AcDbCircle
 62
7
  6
BYLAYER
 10
21.5072255557
 20
74.1323933726
 40
1.4954468157
100
AcDbArc
 50
246.7564942345
 51
248.2634011765
  0
ARC
  5
47B
100
AcDbEntity
  8
0
100
AcDbCircle
 62
7
  6
BYLAYER
 10
21.5111685439
 20
74.1356872089
 40
1.4954060822
100
AcDbArc
 50
336.4206284561
 51
345.8298133642
  0
ARC
  5
47C
100
AcDbEntity
  8
0
100
AcDbCircle
 62
7
  6
BYLAYER
 10
21.5034222379
 20
74.1231121665
 40
1.4854170203
100
AcDbArc
 50
248.267091914
 51
256.8857645276
  0
ARC
  5
47D
100
AcDbEntity
  8
0
100
AcDbCircle
 62
7
  6
BYLAYER
 10
20.7221863888
 20
75.7671991247
 40
1.5
100
AcDbArc
 50
0.0
 51
180.0
  0
ARC
  5
47E
100
AcDbEntity
  8
0
100
AcDbCircle
 62
7
  6
BYLAYER
 10
35.3569358796
 20
76.2371991247
 40
1.0
100
AcDbArc
 50
339.340473602
 51
357.712476621
  0
ARC
  5
47F
100
AcDbEntity
  8
0
100
AcDbCircle
 62
7
  6
BYLAYER
 10
57.6069358796
 20
65.5871991247
 40
0.65
100
AcDbArc
 50
180.0
 51
360.0
  0
ARC
  5
480
100
AcDbEntity
  8
0
100
AcDbCircle
 62
7
  6
BYLAYER
 10
48.1069358796
 20
65.5871991247
 40
0.65
100
AcDbArc
 50
180.0
 51
360.0
  0
ARC
  5
481
100
AcDbEntity
  8
0
100
AcDbCircle
 62
7
  6
BYLAYER
 10
38.6069358796
 20
65.5871991247
 40
0.65
100
AcDbArc
 50
180.0
 51
360.0
  0
ARC
  5
482
100
AcDbEntity
  8
0
100
AcDbCircle
 62
7
  6
BYLAYER
 10
40.9589652537
 20
78.8658424958
 40
1.0207838272
100
AcDbArc
 50
62.7022261933
 51
70.0071177373
  0
ARC
  5
483
100
AcDbEntity
  8
0
100
AcDbCircle
 62
7
  6
BYLAYER
 10
59.9589652537
 20
78.8658424961
 40
1.0207838269
100
AcDbArc
 50
62.7022248338
 51
70.0071177293
  0
ARC
  5
484
100
AcDbEntity
  8
0
100
AcDbCircle
 62
7
  6
BYLAYER
 10
50.4589652538
 20
78.8658424962
 40
1.0207838267
100
AcDbArc
 50
62.7022379678
 51
70.0071174299
  0
ARC
  5
485
100
AcDbEntity
  8
0
100
AcDbCircle
 62
7
  6
BYLAYER
 10
41.8569358796
 20
76.2371991247
 40
1.0
100
AcDbArc
 50
182.3098387206
 51
200.659526398
  0
ARC
  5
486
100
AcDbEntity
  8
0
100
AcDbCircle
 62
7
  6
BYLAYER
 10
51.3569358796
 20
76.2371991247
 40
1.0
100
AcDbArc
 50
182.3098387206
 51
200.659526398
  0
ARC
  5
487
100
AcDbEntity
  8
0
100
AcDbCircle
 62
7
  6
BYLAYER
 10
44.8569358796
 20
76.2371991247
 40
1.0
100
AcDbArc
 50
339.340473602
 51
357.712476621
  0
ARC
  5
488
100
AcDbEntity
  8
0
100
AcDbCircle
 62
7
  6
BYLAYER
 10
54.3569358796
 20
76.2371991247
 40
1.0
100
AcDbArc
 50
339.340473602
 51
357.712476621
  0
ARC
  5
489
100
AcDbEntity
  8
0
100
AcDbCircle
 62
7
  6
BYLAYER
 10
30.109598869
 20
100.3933687717
 40
75.7849754983
100
AcDbArc
 50
1.924852651
 51
2.304869957
  0
ARC
  5
48A
100
AcDbEntity
  8
0
100
AcDbCircle
 62
7
  6
BYLAYER
 10
18.6569358796
 20
106.6371991247
 40
1.5
100
AcDbArc
 50
90.0
 51
180.0
  0
ARC
  5
48B
100
AcDbEntity
  8
0
100
AcDbCircle
 62
7
  6
BYLAYER
 10
18.6569358796
 20
89.6371991247
 40
1.5
100
AcDbArc
 50
180.0
 51
270.0
  0
ARC
  5
48C
100
AcDbEntity
  8
0
100
AcDbCircle
 62
7
  6
BYLAYER
 10
17.5069358796
 20
85.9371991247
 40
1.5
100
AcDbArc
 50
180.0000000004
 51
269.9999999993
  0
ARC
  5
48D
100
AcDbEntity
  8
0
100
AcDbCircle
 62
7
  6
BYLAYER
 10
15.8069358796
 20
108.3371991247
 40
0.8
100
AcDbArc
 50
90.0
 51
180.0
  0
ARC
  5
48E
100
AcDbEntity
  8
0
100
AcDbCircle
 62
7
  6
BYLAYER
 10
76.6069358796
 20
65.5871991247
 40
0.65
100
AcDbArc
 50
180.0
 51
360.0
  0
ARC
  5
48F
100
AcDbEntity
  8
0
100
AcDbCircle
 62
7
  6
BYLAYER
 10
67.1069358796
 20
65.5871991247
 40
0.65
100
AcDbArc
 50
180.0
 51
360.0
  0
ARC
  5
490
100
AcDbEntity
  8
0
100
AcDbCircle
 62
7
  6
BYLAYER
 10
69.4589652537
 20
78.8658424959
 40
1.020783827
100
AcDbArc
 50
62.7022263514
 51
70.0071177387
  0
ARC
  5
491
100
AcDbEntity
  8
0
100
AcDbCircle
 62
7
  6
BYLAYER
 10
78.9589652538
 20
78.8658424962
 40
1.0207838267
100
AcDbArc
 50
62.7022228614
 51
70.0071177057
  0
ARC
  5
492
100
AcDbEntity
  8
0
100
AcDbCircle
 62
7
  6
BYLAYER
 10
60.8569358796
 20
76.2371991247
 40
1.0
100
AcDbArc
 50
182.3098387206
 51
200.659526398
  0
ARC
  5
493
100
AcDbEntity
  8
0
100
AcDbCircle
 62
7
  6
BYLAYER
 10
82.8569358796
 20
76.2371991247
 40
1.0
100
AcDbArc
 50
339.340473602
 51
357.712476621
  0
ARC
  5
494
100
AcDbEntity
  8
0
100
AcDbCircle
 62
7
  6
BYLAYER
 10
70.3569358796
 20
76.2371991247
 40
1.0
100
AcDbArc
 50
182.3098387206
 51
200.659526398
  0
ARC
  5
495
100
AcDbEntity
  8
0
100
AcDbCircle
 62
7
  6
BYLAYER
 10
63.8569358796
 20
76.2371991247
 40
1.0
100
AcDbArc
 50
339.340473602
 51
357.7124766209
  0
ARC
  5
496
100
AcDbEntity
  8
0
100
AcDbCircle
 62
7
  6
BYLAYER
 10
79.8569358796
 20
76.2371991247
 40
1.0
100
AcDbArc
 50
182.3098387206
 51
200.659526398
  0
ARC
  5
497
100
AcDbEntity
  8
0
100
AcDbCircle
 62
7
  6
BYLAYER
 10
73.3569358796
 20
76.2371991247
 40
1.0
100
AcDbArc
 50
339.340473602
 51
357.712476621
  0
ARC
  5
498
100
AcDbEntity
  8
0
100
AcDbCircle
 62
7
  6
BYLAYER
 10
100.064879475
 20
66.8635908683
 40
6.026044089
100
AcDbArc
 50
275.2938051421
 51
275.5605436231
  0
ARC
  5
499
100
AcDbEntity
  8
0
100
AcDbCircle
 62
7
  6
BYLAYER
 10
104.3069358796
 20
62.6338620794
 40
1.5
100
AcDbArc
 50
287.4576031247
 51
360.0
  0
ARC
  5
49A
100
AcDbEntity
  8
0
100
AcDbCircle
 62
7
  6
BYLAYER
 10
105.9069358796
 20
60.1371991247
 40
1.0
100
AcDbArc
 50
270.0
 51
360.0
  0
ARC
  5
49B
100
AcDbEntity
  8
0
100
AcDbCircle
 62
7
  6
BYLAYER
 10
95.6069358796
 20
65.5871991247
 40
0.65
100
AcDbArc
 50
180.0
 51
360.0
  0
ARC
  5
49C
100
AcDbEntity
  8
0
100
AcDbCircle
 62
7
  6
BYLAYER
 10
86.1069358796
 20
65.5871991247
 40
0.65
100
AcDbArc
 50
180.0
 51
360.0
  0
ARC
  5
49D
100
AcDbEntity
  8
0
100
AcDbCircle
 62
7
  6
BYLAYER
 10
104.9069358796
 20
60.7259836766
 40
0.5
100
AcDbArc
 50
107.4576031208
 51
180.0
  0
ARC
  5
49E
100
AcDbEntity
  8
0
100
AcDbCircle
 62
7
  6
BYLAYER
 10
100.5736365872
 20
64.4893633019
 40
0.0496139791
100
AcDbArc
 50
298.1146601021
 51
300.1521403525
  0
ARC
  5
49F
100
AcDbEntity
  8
0
100
AcDbCircle
 62
7
  6
BYLAYER
 10
100.5736365872
 20
62.8893633019
 40
0.0496139792
100
AcDbArc
 50
298.114660103
 51
300.1521403523
  0
ARC
  5
4A0
100
AcDbEntity
  8
0
100
AcDbCircle
 62
7
  6
BYLAYER
 10
98.4396709553
 20
62.0372343196
 40
0.0473960872
100
AcDbArc
 50
119.1917914262
 51
120.1938753825
  0
ARC
  5
4A1
100
AcDbEntity
  8
0
100
AcDbCircle
 62
7
  6
BYLAYER
 10
99.5069358796
 20
70.1371991247
 40
2.7525
100
AcDbArc
 50
327.6510761877
 51
56.5486789538
  0
ARC
  5
4A2
100
AcDbEntity
  8
0
100
AcDbCircle
 62
7
  6
BYLAYER
 10
99.5069358796
 20
70.1371991247
 40
1.7525
100
AcDbArc
 50
331.2801732453
 51
31.493994326
  0
ARC
  5
4A3
100
AcDbEntity
  8
0
100
AcDbCircle
 62
7
  6
BYLAYER
 10
99.4899363661
 20
70.0475359175
 40
1.5980439292
100
AcDbArc
 50
353.8177964208
 51
3.2164116565
  0
ARC
  5
4A4
100
AcDbEntity
  8
0
100
AcDbCircle
 62
7
  6
BYLAYER
 10
99.5063267463
 20
70.0480533822
 40
1.5816503858
100
AcDbArc
 50
3.2310095039
 51
6.9740890488
  0
ARC
  5
4A5
100
AcDbEntity
  8
0
100
AcDbCircle
 62
7
  6
BYLAYER
 10
99.5123935694
 20
70.0488016092
 40
1.5755376001
100
AcDbArc
 50
6.9738688727
 51
9.7090824802
  0
ARC
  5
4A6
100
AcDbEntity
  8
0
100
AcDbCircle
 62
7
  6
BYLAYER
 10
99.5218799582
 20
70.0504081099
 40
1.5659161579
100
AcDbArc
 50
9.7096806284
 51
11.586663564
  0
ARC
  5
4A7
100
AcDbEntity
  8
0
100
AcDbCircle
 62
7
  6
BYLAYER
 10
99.5249467892
 20
70.0509302474
 40
1.562806955
100
AcDbArc
 50
11.5904938468
 51
17.3328867559
  0
ARC
  5
4A8
100
AcDbEntity
  8
0
100
AcDbCircle
 62
7
  6
BYLAYER
 10
97.9589652509
 20
78.8658424912
 40
1.0207838325
100
AcDbArc
 50
62.7022313401
 51
70.0071175162
  0
ARC
  5
4A9
100
AcDbEntity
  8
0
100
AcDbCircle
 62
7
  6
BYLAYER
 10
88.4589652536
 20
78.8658424957
 40
1.0207838273
100
AcDbArc
 50
62.7022261302
 51
70.0071177379
  0
ARC
  5
4AA
100
AcDbEntity
  8
0
100
AcDbCircle
 62
7
  6
BYLAYER
 10
92.3569358796
 20
76.2371991247
 40
1.0
100
AcDbArc
 50
339.340473602
 51
357.712476621
  0
ARC
  5
4AB
100
AcDbEntity
  8
0
100
AcDbCircle
 62
7
  6
BYLAYER
 10
98.8569358796
 20
76.2371991247
 40
1.0
100
AcDbArc
 50
182.3098387206
 51
200.659526398
  0
ARC
  5
4AC
100
AcDbEntity
  8
0
100
AcDbCircle
 62
7
  6
BYLAYER
 10
89.3569358796
 20
76.2371991247
 40
1.0
100
AcDbArc
 50
182.3098387205
 51
200.659526398
  0
ARC
  5
4AD
100
AcDbEntity
  8
0
100
AcDbCircle
 62
7
  6
BYLAYER
 10
100.5574360996
 20
70.2371991247
 40
0.5
100
AcDbArc
 50
0.0
 51
25.0778644426
  0
ARC
  5
4AE
100
AcDbEntity
  8
0
100
AcDbCircle
 62
7
  6
BYLAYER
 10
102.1569358796
 20
89.6371991247
 40
1.5
100
AcDbArc
 50
270.0
 51
360.0
  0
ARC
  5
4AF
100
AcDbEntity
  8
0
100
AcDbCircle
 62
7
  6
BYLAYER
 10
102.1569358796
 20
106.6371991247
 40
1.5
100
AcDbArc
 50
0.0
 51
90.0
  0
ARC
  5
4B0
100
AcDbEntity
  8
0
100
AcDbCircle
 62
7
  6
BYLAYER
 10
103.3069358796
 20
85.9371991247
 40
1.5
100
AcDbArc
 50
270.0
 51
355.8141740383
  0
ARC
  5
4B1
100
AcDbEntity
  8
0
100
AcDbCircle
 62
7
  6
BYLAYER
 10
105.0069358796
 20
108.3371991247
 40
0.8
100
AcDbArc
 50
0.0
 51
90.0
  0
SPLINE
  5
4B2
100
AcDbEntity
  8
0
100
AcDbSpline
 62
7
  6
BYLAYER
 70
0
 71
3
 72
9
 73
5
 74
0
 42
0.0000001
 43
0.0000001
 44
0.0000000001
 40
0.0
 40
0.0
 40
0.0
 40
0.0
 40
0.5000317106
 40
1.0
 40
1.0
 40
1.0
 40
1.0
 10
21.526866107
 20
72.639371045
 30
0.0
 10
21.6210381899
 20
72.649244364
 30
0.0
 10
21.8079747667
 20
72.6869133773
 30
0.0
 10
21.98397161
 20
72.7604762337
 30
0.0
 10
22.0673510079
 20
72.8053255975
 30
0.0
  0
SPLINE
  5
4B3
100
AcDbEntity
  8
0
100
AcDbSpline
 62
7
  6
BYLAYER
 70
0
 71
3
 72
21
 73
17
 74
0
 42
0.0000001
 43
0.0000001
 44
0.0000000001
 40
0.0
 40
0.0
 40
0.0
 40
0.0
 40
0.0625372702
 40
0.1250795328
 40
0.187609652
 40
0.2501295777
 40
0.3126430065
 40
0.3751668176
 40
0.4377063719
 40
0.5002259119
 40
0.6250578049
 40
0.7499065271
 40
0.8124300714
 40
0.8749457084
 40
0.9374687565
 40
1.0
 40
1.0
 40
1.0
 40
1.0
 10
22.328462551
 20
72.9856440804
 30
0.0
 10
22.3660596747
 20
73.0183854442
 30
0.0
 10
22.4377946654
 20
73.0879738537
 30
0.0
 10
22.5334971029
 20
73.2032689461
 30
0.0
 10
22.6162334941
 20
73.3282032608
 30
0.0
 10
22.6849026776
 20
73.4613635464
 30
0.0
 10
22.738410278
 20
73.6013321003
 30
0.0
 10
22.7754311601
 20
73.7465467449
 30
0.0
 10
22.7960526852
 20
73.8949818266
 30
0.0
 10
22.8012376663
 20
74.0944994105
 30
0.0
 10
22.7632955919
 20
74.3430060499
 30
0.0
 10
22.6676328861
 20
74.5755655316
 30
0.0
 10
22.5594495002
 20
74.7433491135
 30
0.0
 10
22.4631807507
 20
74.8583105497
 30
0.0
 10
22.3530640265
 20
74.9600402051
 30
0.0
 10
22.2715868875
 20
75.0180452733
 30
0.0
 10
22.2292018025
 20
75.0442858172
 30
0.0
  0
SPLINE
  5
4B4
100
AcDbEntity
  8
0
100
AcDbSpline
 62
7
  6
BYLAYER
 70
0
 71
3
 72
13
 73
9
 74
0
 42
0.0000001
 43
0.0000001
 44
0.0000000001
 40
0.0
 40
0.0
 40
0.0
 40
0.0
 40
0.1251158995
 40
0.2502329314
 40
0.4999858488
 40
0.7497501462
 40
0.8748574208
 40
1.0
 40
1.0
 40
1.0
 40
1.0
 10
22.2301808131
 20
75.4510597063
 30
0.0
 10
22.2832259439
 20
75.4218866546
 30
0.0
 10
22.3859165592
 20
75.3570627647
 30
0.0
 10
22.5737557215
 20
75.2038468479
 30
0.0
 10
22.7713090425
 20
74.9709319704
 30
0.0
 10
22.9074224697
 20
74.6975728367
 30
0.0
 10
22.9744716201
 20
74.4646175275
 30
0.0
 10
22.9936261564
 20
74.344683622
 30
0.0
 10
22.9995299218
 20
74.2844211829
 30
0.0
  0
SPLINE
  5
4B5
100
AcDbEntity
  8
0
100
AcDbSpline
 62
7
  6
BYLAYER
 70
0
 71
3
 72
15
 73
11
 74
0
 42
0.0000001
 43
0.0000001
 44
0.0000000001
 40
0.0
 40
0.0
 40
0.0
 40
0.0
 40
0.1249959942
 40
0.250016474
 40
0.37501888
 40
0.5000294858
 40
0.6250185493
 40
0.750017167
 40
0.8750140193
 40
1.0
 40
1.0
 40
1.0
 40
1.0
 10
23.0854629507
 20
74.1371981569
 30
0.0
 10
23.0895456268
 20
74.0648736983
 30
0.0
 10
23.0877898383
 20
73.9194598461
 30
0.0
 10
23.0556569407
 20
73.703867048
 30
0.0
 10
22.9946358019
 20
73.4945665192
 30
0.0
 10
22.9062703595
 20
73.2953187503
 30
0.0
 10
22.7923803934
 20
73.1094775734
 30
0.0
 10
22.6548926261
 20
72.9403604812
 30
0.0
 10
22.4966560519
 20
72.7905623509
 30
0.0
 10
22.3790747319
 20
72.7051134848
 30
0.0
 10
22.317861899
 20
72.6663882486
 30
0.0
  0
SPLINE
  5
4B6
100
AcDbEntity
  8
0
100
AcDbSpline
 62
7
  6
BYLAYER
 70
0
 71
3
 72
11
 73
7
 74
0
 42
0.0000001
 43
0.0000001
 44
0.0000000001
 40
0.0
 40
0.0
 40
0.0
 40
0.0
 40
0.2500078606
 40
0.500008583
 40
0.7499912775
 40
1.0
 40
1.0
 40
1.0
 40
1.0
 10
22.5671973293
 20
75.2122024441
 30
0.0
 10
22.6436305256
 20
75.1447629235
 30
0.0
 10
22.7832639936
 20
74.9940027969
 30
0.0
 10
22.9431566654
 20
74.7310709625
 30
0.0
 10
23.048429962
 20
74.4419458315
 30
0.0
 10
23.079718074
 20
74.2389684398
 30
0.0
 10
23.0854629507
 20
74.1371981569
 30
0.0
  0
SPLINE
  5
4B7
100
AcDbEntity
  8
0
100
AcDbSpline
 62
7
  6
BYLAYER
 70
0
 71
3
 72
10
 73
6
 74
0
 42
0.0000001
 43
0.0000001
 44
0.0000000001
 40
0.0
 40
0.0
 40
0.0
 40
0.0
 40
0.2501160942
 40
0.5002527358
 40
1.0
 40
1.0
 40
1.0
 40
1.0
 10
20.948115467
 20
72.804519324
 30
0.0
 10
20.9911845291
 20
72.7813444819
 30
0.0
 10
21.079782294
 20
72.7393587465
 30
0.0
 10
21.2643553331
 20
72.674142155
 30
0.0
 10
21.4096186877
 20
72.6462453434
 30
0.0
 10
21.5069406647
 20
72.6374157969
 30
0.0
  0
SPLINE
  5
4B8
100
AcDbEntity
  8
0
100
AcDbSpline
 62
7
  6
BYLAYER
 70
0
 71
3
 72
15
 73
11
 74
0
 42
0.0000001
 43
0.0000001
 44
0.0000000001
 40
0.0
 40
0.0
 40
0.0
 40
0.0
 40
0.1661995212
 40
0.3010327132
 40
0.4099681924
 40
0.503090479
 40
0.5957355315
 40
0.7033871181
 40
0.8363095119
 40
1.0
 40
1.0
 40
1.0
 40
1.0
 10
98.0136295272
 20
61.9444422265
 30
0.0
 10
98.0126536358
 20
61.9438763706
 30
0.0
 10
98.010929974
 20
61.9427677094
 30
0.0
 10
98.0088345556
 20
61.9409147018
 30
0.0
 10
98.0075005534
 20
61.9390165863
 30
0.0
 10
98.0070083569
 20
61.9370131148
 30
0.0
 10
98.0074691989
 20
61.9350102394
 30
0.0
 10
98.0087760391
 20
61.933121838
 30
0.0
 10
98.0108384554
 20
61.9312895961
 30
0.0
 10
98.0125373605
 20
61.9301976747
 30
0.0
 10
98.0134990759
 20
61.929641322
 30
0.0
  0
SPLINE
  5
4B9
100
AcDbEntity
  8
0
100
AcDbSpline
 62
7
  6
BYLAYER
 70
0
 71
3
 72
14
 73
10
 74
0
 42
0.0000001
 43
0.0000001
 44
0.0000000001
 40
0.0
 40
0.0
 40
0.0
 40
0.0
 40
0.3745392543
 40
0.5317685078
 40
0.6683001507
 40
0.783628945
 40
0.8773189572
 40
0.9492922013
 40
1.0
 40
1.0
 40
1.0
 40
1.0
 10
98.2320310678
 20
63.9813990461
 30
0.0
 10
98.204383448
 20
63.9785827942
 30
0.0
 10
98.1651602961
 20
63.9742381238
 30
0.0
 10
98.116012145
 20
63.9676396827
 30
0.0
 10
98.0860062651
 20
63.9630294864
 30
0.0
 10
98.0607725152
 20
63.958483406
 30
0.0
 10
98.0403852881
 20
63.954040355
 30
0.0
 10
98.0249409028
 20
63.9496854029
 30
0.0
 10
98.0164142754
 20
63.946311589
 30
0.0
 10
98.0131620609
 20
63.9444196278
 30
0.0
  0
SPLINE
  5
4BA
100
AcDbEntity
  8
0
100
AcDbSpline
 62
7
  6
BYLAYER
 70
0
 71
3
 72
17
 73
13
 74
0
 42
0.0000001
 43
0.0000001
 44
0.0000000001
 40
0.0
 40
0.0
 40
0.0
 40
0.0
 40
0.2246685501
 40
0.4211468707
 40
0.5889624358
 40
0.6619901798
 40
0.7277081093
 40
0.8371945976
 40
0.9176403522
 40
0.9472710751
 40
0.970242891
 40
1.0
 40
1.0
 40
1.0
 40
1.0
 10
100.8656278174
 20
61.1758537099
 30
0.0
 10
100.876540276
 20
61.1770013923
 30
0.0
 10
100.8969836669
 20
61.1792745294
 30
0.0
 10
100.9255167481
 20
61.1829272691
 30
0.0
 10
100.9466410221
 20
61.1860997556
 30
0.0
 10
100.9613894116
 20
61.1886855631
 30
0.0
 10
100.9732877546
 20
61.1910092871
 30
0.0
 10
100.9854619552
 20
61.1938316928
 30
0.0
 10
100.9957158238
 20
61.1969771555
 30
0.0
 10
101.0016601898
 20
61.1997387512
 30
0.0
 10
101.0050101986
 20
61.2017950428
 30
0.0
 10
101.0069329331
 20
61.2040999337
 30
0.0
 10
101.0069329048
 20
61.2055532487
 30
0.0
  0
SPLINE
  5
4BB
100
AcDbEntity
  8
0
100
AcDbSpline
 62
7
  6
BYLAYER
 70
0
 71
3
 72
21
 73
17
 74
0
 42
0.0000001
 43
0.0000001
 44
0.0000000001
 40
0.0
 40
0.0
 40
0.0
 40
0.0
 40
0.0048607918
 40
0.0105753666
 40
0.0177022002
 40
0.0265181334
 40
0.0496558275
 40
0.0804215862
 40
0.1188503866
 40
0.1648608776
 40
0.218323175
 40
0.2790838016
 40
0.4218244147
 40
0.5915475978
 40
0.7854371002
 40
1.0
 40
1.0
 40
1.0
 40
1.0
 10
100.6068886993
 20
64.4180283998
 30
0.0
 10
100.6068887008
 20
64.4171667458
 30
0.0
 10
100.6064267188
 20
64.4152801347
 30
0.0
 10
100.6045590189
 20
64.4127005433
 30
0.0
 10
100.6016241464
 20
64.4101931927
 30
0.0
 10
100.5957197246
 20
64.4065372154
 30
0.0
 10
100.5854280523
 20
64.4022061851
 30
0.0
 10
100.5698099564
 20
64.397296937
 30
0.0
 10
100.5499832496
 20
64.3923541479
 30
0.0
 10
100.5260465459
 20
64.3873795141
 30
0.0
 10
100.4980814385
 20
64.3823873135
 30
0.0
 10
100.4530781849
 20
64.3753301964
 30
0.0
 10
100.3874722029
 20
64.3667164526
 30
0.0
 10
100.2982574935
 20
64.356817751
 30
0.0
 10
100.1962468679
 20
64.3468827381
 30
0.0
 10
100.1241214766
 20
64.3405200919
 30
0.0
 10
100.0862237973
 20
64.3372939818
 30
0.0
  0
SPLINE
  5
4BC
100
AcDbEntity
  8
0
100
AcDbSpline
 62
7
  6
BYLAYER
 70
0
 71
3
 72
17
 73
13
 74
0
 42
0.0000001
 43
0.0000001
 44
0.0000000001
 40
0.0
 40
0.0
 40
0.0
 40
0.0
 40
0.016003937
 40
0.0382169674
 40
0.0667872901
 40
0.1017644301
 40
0.1908791063
 40
0.3052020077
 40
0.4441667965
 40
0.6069402697
 40
0.7925914569
 40
1.0
 40
1.0
 40
1.0
 40
1.0
 10
98.0101945738
 20
61.0119574503
 30
0.0
 10
98.0117662721
 20
61.0128644718
 30
0.0
 10
98.0157979721
 20
61.0145237232
 30
0.0
 10
98.0230560681
 20
61.0166819573
 30
0.0
 10
98.0325394356
 20
61.0188641888
 30
0.0
 10
98.0495548638
 20
61.0220526357
 30
0.0
 10
98.0763299683
 20
61.0258560726
 30
0.0
 10
98.1149067807
 20
61.0302371637
 30
0.0
 10
98.1618730446
 20
61.0347079282
 30
0.0
 10
98.2169519687
 20
61.0392343909
 30
0.0
 10
98.2798142135
 20
61.0437639933
 30
0.0
 10
98.3242893815
 20
61.0466426473
 30
0.0
 10
98.3477614905
 20
61.048102635
 30
0.0
  0
SPLINE
  5
4BD
100
AcDbEntity
  8
0
100
AcDbSpline
 62
7
  6
BYLAYER
 70
0
 71
3
 72
12
 73
8
 74
0
 42
0.0000001
 43
0.0000001
 44
0.0000000001
 40
0.0
 40
0.0
 40
0.0
 40
0.0
 40
0.3423759956
 40
0.6245991179
 40
0.8442615708
 40
0.9301640135
 40
1.0
 40
1.0
 40
1.0
 40
1.0
 10
98.0917907456
 20
60.7753376258
 30
0.0
 10
98.058457195
 20
60.7721448597
 30
0.0
 10
97.9976817657
 20
60.7659107288
 30
0.0
 10
97.9157367476
 20
60.7557254094
 30
0.0
 10
97.8589242156
 20
60.7467351398
 30
0.0
 10
97.8230010858
 20
60.7391135725
 30
0.0
 10
97.8082589024
 20
60.7352313495
 30
0.0
 10
97.8017351182
 20
60.7332081294
 30
0.0
  0
SPLINE
  5
4BE
100
AcDbEntity
  8
0
100
AcDbSpline
 62
7
  6
BYLAYER
 70
0
 71
3
 72
38
 73
34
 74
0
 42
0.0000001
 43
0.0000001
 44
0.0000000001
 40
0.0
 40
0.0
 40
0.0
 40
0.0
 40
0.0038576536
 40
0.008703537
 40
0.0214503724
 40
0.0383000346
 40
0.0591887189
 40
0.0839394557
 40
0.1122640531
 40
0.1439133097
 40
0.1786869066
 40
0.2563993937
 40
0.3425254068
 40
0.4340911132
 40
0.5278706046
 40
0.5745566315
 40
0.6205706059
 40
0.6654933791
 40
0.7089040618
 40
0.750436895
 40
0.7897494381
 40
0.8603538542
 40
0.9181605056
 40
0.941632175
 40
0.9612405569
 40
0.9695496825
 40
0.9768413054
 40
0.9831055503
 40
0.9883435578
 40
0.992568844
 40
0.9958198542
 40
0.9982020793
 40
1.0
 40
1.0
 40
1.0
 40
1.0
 10
100.5981222681
 20
65.4461917185
 30
0.0
 10
100.5956617756
 20
65.4447653015
 30
0.0
 10
100.5898324306
 20
65.4420335213
 30
0.0
 10
100.5749444569
 20
65.4366738881
 30
0.0
 10
100.5503036496
 20
65.4303623286
 30
0.0
 10
100.513790695
 20
65.4231386665
 30
0.0
 10
100.468311652
 20
65.4157255228
 30
0.0
 10
100.4143060866
 20
65.4081618397
 30
0.0
 10
100.352281153
 20
65.4007410605
 30
0.0
 10
100.2828050234
 20
65.3934851685
 30
0.0
 10
100.1770311391
 20
65.383285133
 30
0.0
 10
100.0311653122
 20
65.3704402831
 30
0.0
 10
99.8434352235
 20
65.3558129546
 30
0.0
 10
99.6438231504
 20
65.3412495238
 30
0.0
 10
99.4732148358
 20
65.32875205
 30
0.0
 10
99.3360957542
 20
65.318764337
 30
0.0
 10
99.2348998637
 20
65.3114122638
 30
0.0
 10
99.1361236748
 20
65.3040783
 30
0.0
 10
99.0406772597
 20
65.2965281221
 30
0.0
 10
98.949386529
 20
65.2889087616
 30
0.0
 10
98.8381423768
 20
65.279317126
 30
0.0
 10
98.7150179192
 20
65.2678648498
 30
0.0
 10
98.6037500726
 20
65.2550934282
 30
0.0
 10
98.5301468484
 20
65.2443522146
 30
0.0
 10
98.4927891725
 20
65.2379962328
 30
0.0
 10
98.4673508359
 20
65.2328151837
 30
0.0
 10
98.4516508423
 20
65.2291473036
 30
0.0
 10
98.4382873054
 20
65.2254664196
 30
0.0
 10
98.427288076
 20
65.2217769086
 30
0.0
 10
98.4186468036
 20
65.2180976736
 30
0.0
 10
98.4123642125
 20
65.2143976338
 30
0.0
 10
98.4082637861
 20
65.2106422554
 30
0.0
 10
98.4070951327
 20
65.2075765443
 30
0.0
 10
98.4070958103
 20
65.2062510241
 30
0.0
  0
SPLINE
  5
4BF
100
AcDbEntity
  8
0
100
AcDbSpline
 62
7
  6
BYLAYER
 70
0
 71
3
 72
21
 73
17
 74
0
 42
0.0000001
 43
0.0000001
 44
0.0000000001
 40
0.0
 40
0.0
 40
0.0
 40
0.0
 40
0.0058533877
 40
0.0136927389
 40
0.0235586527
 40
0.0354607429
 40
0.0652938642
 40
0.1029477233
 40
0.1481245696
 40
0.2005008945
 40
0.2596788415
 40
0.3251946984
 40
0.472820164
 40
0.6382632697
 40
0.815994287
 40
1.0
 40
1.0
 40
1.0
 40
1.0
 10
101.0004650675
 20
65.6798412783
 30
0.0
 10
100.9979286515
 20
65.678381353
 30
0.0
 10
100.9916150023
 20
65.6756501377
 30
0.0
 10
100.9803965578
 20
65.6720518922
 30
0.0
 10
100.9660386858
 20
65.6684111458
 30
0.0
 10
100.9407845658
 20
65.6631175963
 30
0.0
 10
100.901585662
 20
65.6567658755
 30
0.0
 10
100.8457155304
 20
65.6495613432
 30
0.0
 10
100.7784916412
 20
65.6423905636
 30
0.0
 10
100.7004543811
 20
65.6352457538
 30
0.0
 10
100.6122153487
 20
65.628047236
 30
0.0
 10
100.4764454128
 20
65.6178243048
 30
0.0
 10
100.2875790457
 20
65.6052029268
 30
0.0
 10
100.0426020989
 20
65.5909599814
 30
0.0
 10
99.7794047411
 20
65.5767911304
 30
0.0
 10
99.5988099869
 20
65.5669912617
 30
0.0
 10
99.506943863
 20
65.5620515577
 30
0.0
  0
SPLINE
  5
4C0
100
AcDbEntity
  8
0
100
AcDbSpline
 62
7
  6
BYLAYER
 70
0
 71
3
 72
34
 73
30
 74
0
 42
0.0000001
 43
0.0000001
 44
0.0000000001
 40
0.0
 40
0.0
 40
0.0
 40
0.0
 40
0.003727731
 40
0.0084050907
 40
0.020699626
 40
0.0369226213
 40
0.0569353564
 40
0.0805679214
 40
0.1076404759
 40
0.1379570594
 40
0.1713021266
 40
0.2459349907
 40
0.3289137293
 40
0.4175731069
 40
0.5089461875
 40
0.599979061
 40
0.6876222959
 40
0.7689645529
 40
0.8413730282
 40
0.8733965422
 40
0.9022903356
 40
0.9278458831
 40
0.9498834238
 40
0.9682309709
 40
0.9827177873
 40
0.9884753829
 40
0.9932514299
 40
0.9970745389
 40
1.0
 40
1.0
 40
1.0
 40
1.0
 10
100.5982438081
 20
64.9463568892
 30
0.0
 10
100.5958773068
 20
64.9449786031
 30
0.0
 10
100.590282819
 20
64.9423207091
 30
0.0
 10
100.5760056107
 20
64.9370594028
 30
0.0
 10
100.5523922559
 20
64.9308008527
 30
0.0
 10
100.5174587289
 20
64.9236601243
 30
0.0
 10
100.4740507049
 20
64.9165074369
 30
0.0
 10
100.4225874083
 20
64.9093701099
 30
0.0
 10
100.3634956985
 20
64.9021953866
 30
0.0
 10
100.2972298086
 20
64.8949589915
 30
0.0
 10
100.196130249
 20
64.884881399
 30
0.0
 10
100.056378161
 20
64.8725814722
 30
0.0
 10
99.8760081627
 20
64.8584079855
 30
0.0
 10
99.6833264188
 20
64.8439425274
 30
0.0
 10
99.4847001105
 20
64.8296369221
 30
0.0
 10
99.2868196011
 20
64.8153682883
 30
0.0
 10
99.0963402715
 20
64.8009315998
 30
0.0
 10
98.9195702446
 20
64.7866875351
 30
0.0
 10
98.7836353293
 20
64.7744374322
 30
0.0
 10
98.6862058996
 20
64.7643472767
 30
0.0
 10
98.623089956
 20
64.7571066695
 30
0.0
 10
98.5673594374
 20
64.7499062655
 30
0.0
 10
98.5194405115
 20
64.7427520617
 30
0.0
 10
98.4797573417
 20
64.7356390809
 30
0.0
 10
98.4520727724
 20
64.7294108685
 30
0.0
 10
98.4344411241
 20
64.7241924647
 30
0.0
 10
98.4245148054
 20
64.7205918559
 30
0.0
 10
98.4168321532
 20
64.7170157803
 30
0.0
 10
98.4126346882
 20
64.714301635
 30
0.0
 10
98.4110147346
 20
64.7128892303
 30
0.0
  0
SPLINE
  5
4C1
100
AcDbEntity
  8
0
100
AcDbSpline
 62
7
  6
BYLAYER
 70
0
 71
3
 72
21
 73
17
 74
0
 42
0.0000001
 43
0.0000001
 44
0.0000000001
 40
0.0
 40
0.0
 40
0.0
 40
0.0
 40
0.0058630982
 40
0.0136802716
 40
0.0234939536
 40
0.0353162297
 40
0.0649582637
 40
0.1024866754
 40
0.1476519187
 40
0.2000953096
 40
0.2593451847
 40
0.3248647958
 40
0.4724704391
 40
0.6379941753
 40
0.8158655753
 40
1.0
 40
1.0
 40
1.0
 40
1.0
 10
101.0004368784
 20
65.1799113639
 30
0.0
 10
100.9979035567
 20
65.1784364174
 30
0.0
 10
100.9916097173
 20
65.1756747742
 30
0.0
 10
100.9804336414
 20
65.1720484572
 30
0.0
 10
100.9661566169
 20
65.1684016239
 30
0.0
 10
100.9410607683
 20
65.1631385891
 30
0.0
 10
100.9020464132
 20
65.1568824755
 30
0.0
 10
100.8463263458
 20
65.1498026817
 30
0.0
 10
100.7791329615
 20
65.1426849966
 30
0.0
 10
100.7010476498
 20
65.1353772188
 30
0.0
 10
100.6127550056
 20
65.1279601443
 30
0.0
 10
100.4769610548
 20
65.1176781668
 30
0.0
 10
100.2880338119
 20
65.1054878529
 30
0.0
 10
100.0429590298
 20
65.0912377305
 30
0.0
 10
99.7796217644
 20
65.0764321951
 30
0.0
 10
99.5988772148
 20
65.0669184212
 30
0.0
 10
99.5069408784
 20
65.0620915598
 30
0.0
  0
SPLINE
  5
4C2
100
AcDbEntity
  8
0
100
AcDbSpline
 62
7
  6
BYLAYER
 70
0
 71
3
 72
12
 73
8
 74
0
 42
0.0000001
 43
0.0000001
 44
0.0000000001
 40
0.0
 40
0.0
 40
0.0
 40
0.0
 40
0.0637999322
 40
0.1445653275
 40
0.3586908977
 40
0.6440676922
 40
1.0
 40
1.0
 40
1.0
 40
1.0
 10
101.0001012363
 20
62.1795605184
 30
0.0
 10
100.9981984992
 20
62.1784605981
 30
0.0
 10
100.9936655025
 20
62.1763575817
 30
0.0
 10
100.9820104105
 20
62.172233387
 30
0.0
 10
100.9625751986
 20
62.1674075313
 30
0.0
 10
100.9336100396
 20
62.1619826951
 30
0.0
 10
100.91175864
 20
62.158694382
 30
0.0
 10
100.8996171471
 20
62.1569855926
 30
0.0
  0
SPLINE
  5
4C3
100
AcDbEntity
  8
0
100
AcDbSpline
 62
7
  6
BYLAYER
 70
0
 71
3
 72
22
 73
18
 74
0
 42
0.0000001
 43
0.0000001
 44
0.0000000001
 40
0.0
 40
0.0
 40
0.0
 40
0.0
 40
0.1839994939
 40
0.3617184031
 40
0.5271307612
 40
0.6035184493
 40
0.6748173902
 40
0.7403499095
 40
0.7994942817
 40
0.8518550541
 40
0.8970777084
 40
0.9347915889
 40
0.9646479471
 40
0.9765350854
 40
0.9863684771
 40
0.9941705914
 40
1.0
 40
1.0
 40
1.0
 40
1.0
 10
99.5069408784
 20
65.0620915598
 30
0.0
 10
99.4150851227
 20
65.0572689291
 30
0.0
 10
99.2345061342
 20
65.0478384921
 30
0.0
 10
98.9714006206
 20
65.0331409605
 30
0.0
 10
98.7620432077
 20
65.020806889
 30
0.0
 10
98.6058388969
 20
65.0108693021
 30
0.0
 10
98.4994946835
 20
65.0036381976
 30
0.0
 10
98.4017925289
 20
64.9963970354
 30
0.0
 10
98.3135905285
 20
64.9890976713
 30
0.0
 10
98.2355832704
 20
64.9817693619
 30
0.0
 10
98.1683398391
 20
64.974454964
 30
0.0
 10
98.1124159425
 20
64.9672364406
 30
0.0
 10
98.0731707717
 20
64.9610074417
 30
0.0
 10
98.0479030497
 20
64.9558610216
 30
0.0
 10
98.0335636914
 20
64.952329415
 30
0.0
 10
98.0223693806
 20
64.9488167047
 30
0.0
 10
98.0160748712
 20
64.946113853
 30
0.0
 10
98.0135528607
 20
64.9446538062
 30
0.0
  0
SPLINE
  5
4C4
100
AcDbEntity
  8
0
100
AcDbSpline
 62
7
  6
BYLAYER
 70
0
 71
3
 72
12
 73
8
 74
0
 42
0.0000001
 43
0.0000001
 44
0.0000000001
 40
0.0
 40
0.0
 40
0.0
 40
0.0
 40
0.063825898
 40
0.1447093454
 40
0.3590456596
 40
0.6442857618
 40
1.0
 40
1.0
 40
1.0
 40
1.0
 10
101.0003703828
 20
62.6799560667
 30
0.0
 10
100.9984738022
 20
62.6788441414
 30
0.0
 10
100.9939525653
 20
62.6767062763
 30
0.0
 10
100.9823220751
 20
62.672480333
 30
0.0
 10
100.962922929
 20
62.6674891749
 30
0.0
 10
100.933998891
 20
62.6618801223
 30
0.0
 10
100.9121700846
 20
62.6585295564
 30
0.0
 10
100.9000387879
 20
62.6568092678
 30
0.0
  0
SPLINE
  5
4C5
100
AcDbEntity
  8
0
100
AcDbSpline
 62
7
  6
BYLAYER
 70
0
 71
3
 72
16
 73
12
 74
0
 42
0.0000001
 43
0.0000001
 44
0.0000000001
 40
0.0
 40
0.0
 40
0.0
 40
0.0
 40
0.0455241809
 40
0.0735561155
 40
0.1066113695
 40
0.1901241442
 40
0.2989425963
 40
0.4341013764
 40
0.5960133249
 40
0.7847139766
 40
1.0
 40
1.0
 40
1.0
 40
1.0
 10
98.0069390392
 20
61.3661751276
 30
0.0
 10
98.0069390459
 20
61.3678050221
 30
0.0
 10
98.0079660327
 20
61.3704372373
 30
0.0
 10
98.0104663855
 20
61.3733185648
 30
0.0
 10
98.0144467896
 20
61.3766659545
 30
0.0
 10
98.0215116843
 20
61.3806602055
 30
0.0
 10
98.0323427348
 20
61.3851756873
 30
0.0
 10
98.0461633859
 20
61.3897061753
 30
0.0
 10
98.0629540027
 20
61.3942568343
 30
0.0
 10
98.082698869
 20
61.3988168118
 30
0.0
 10
98.0968801537
 20
61.4016702197
 30
0.0
 10
98.1044520506
 20
61.4031115083
 30
0.0
  0
SPLINE
  5
4C6
100
AcDbEntity
  8
0
100
AcDbSpline
 62
7
  6
BYLAYER
 70
0
 71
3
 72
12
 73
8
 74
0
 42
0.0000001
 43
0.0000001
 44
0.0000000001
 40
0.0
 40
0.0
 40
0.0
 40
0.0
 40
0.0690908826
 40
0.1545156059
 40
0.373863942
 40
0.656465619
 40
1.0
 40
1.0
 40
1.0
 40
1.0
 10
98.0281717913
 20
62.950431976
 30
0.0
 10
98.0328400127
 20
62.9519357173
 30
0.0
 10
98.0434279564
 20
62.9548358644
 30
0.0
 10
98.0693442658
 20
62.9605737774
 30
0.0
 10
98.1105048906
 20
62.9673798095
 30
0.0
 10
98.1700357584
 20
62.975029037
 30
0.0
 10
98.214248883
 20
62.9796208595
 30
0.0
 10
98.2385201854
 20
62.9819822607
 30
0.0
  0
SPLINE
  5
4C7
100
AcDbEntity
  8
0
100
AcDbSpline
 62
7
  6
BYLAYER
 70
0
 71
3
 72
12
 73
8
 74
0
 42
0.0000001
 43
0.0000001
 44
0.0000000001
 40
0.0
 40
0.0
 40
0.0
 40
0.0
 40
0.3578090696
 40
0.6439825185
 40
0.8575987311
 40
0.9375014731
 40
1.0
 40
1.0
 40
1.0
 40
1.0
 10
100.8987940398
 20
63.1569370926
 30
0.0
 10
100.9111515798
 20
63.1587267931
 30
0.0
 10
100.933363977
 20
63.1621804585
 30
0.0
 10
100.9627550859
 20
63.1678176982
 30
0.0
 10
100.9824256581
 20
63.1726861268
 30
0.0
 10
100.9941554899
 20
63.1767997824
 30
0.0
 10
100.9986844462
 20
63.1788891469
 30
0.0
 10
101.0005699028
 20
63.1799854428
 30
0.0
  0
SPLINE
  5
4C8
100
AcDbEntity
  8
0
100
AcDbSpline
 62
7
  6
BYLAYER
 70
0
 71
3
 72
38
 73
34
 74
0
 42
0.0000001
 43
0.0000001
 44
0.0000000001
 40
0.0
 40
0.0
 40
0.0
 40
0.0
 40
0.0038306427
 40
0.0086679978
 40
0.021411164
 40
0.0382093849
 40
0.0589668485
 40
0.0835814172
 40
0.1118914531
 40
0.1436021224
 40
0.1784004931
 40
0.2560397339
 40
0.342229492
 40
0.4338957483
 40
0.527779217
 40
0.6205675194
 40
0.6655248847
 40
0.7089984615
 40
0.7899578141
 40
0.8605668696
 40
0.8912164821
 40
0.9184008748
 40
0.9418698576
 40
0.9614339408
 40
0.9697167343
 40
0.9769845511
 40
0.9832307312
 40
0.9884541354
 40
0.992663399
 40
0.9958908438
 40
0.9971665121
 40
0.9982470667
 40
1.0
 40
1.0
 40
1.0
 40
1.0
 10
98.4152874173
 20
65.6777991676
 30
0.0
 10
98.4177297108
 20
65.6792187776
 30
0.0
 10
98.4235332208
 20
65.6819468338
 30
0.0
 10
98.4383778303
 20
65.6873507347
 30
0.0
 10
98.4629381522
 20
65.6938074519
 30
0.0
 10
98.4992937636
 20
65.7011811792
 30
0.0
 10
98.5445533796
 20
65.7085668424
 30
0.0
 10
98.5983879327
 20
65.715957184
 30
0.0
 10
98.6603691045
 20
65.7233204272
 30
0.0
 10
98.7299026908
 20
65.7307118281
 30
0.0
 10
98.8357064476
 20
65.741003585
 30
0.0
 10
98.9816345515
 20
65.7537164081
 30
0.0
 10
99.1694691511
 20
65.7685087419
 30
0.0
 10
99.3693356763
 20
65.7830470839
 30
0.0
 10
99.5740622487
 20
65.7978374029
 30
0.0
 10
99.7444111137
 20
65.8104467811
 30
0.0
 10
99.877674907
 20
65.8204680446
 30
0.0
 10
100.0022273159
 20
65.8300023961
 30
0.0
 10
100.1455696262
 20
65.8419155361
 30
0.0
 10
100.2793270811
 20
65.8548652779
 30
0.0
 10
100.3734785087
 20
65.8652397657
 30
0.0
 10
100.432999011
 20
65.8724810719
 30
0.0
 10
100.4842701333
 20
65.8797660159
 30
0.0
 10
100.5215664781
 20
65.8862384865
 30
0.0
 10
100.5469083566
 20
65.8915765058
 30
0.0
 10
100.562535857
 20
65.8953528618
 30
0.0
 10
100.5758360062
 20
65.8991129507
 30
0.0
 10
100.5867921274
 20
65.9028380819
 30
0.0
 10
100.595379352
 20
65.9065201692
 30
0.0
 10
100.6009803461
 20
65.9097400164
 30
0.0
 10
100.6041326912
 20
65.9124181836
 30
0.0
 10
100.6061083198
 20
65.9147133044
 30
0.0
 10
100.6069110844
 20
65.916809424
 30
0.0
 10
100.6068979683
 20
65.9181020572
 30
0.0
  0
SPLINE
  5
4C9
100
AcDbEntity
  8
0
100
AcDbSpline
 62
7
  6
BYLAYER
 70
0
 71
3
 72
22
 73
18
 74
0
 42
0.0000001
 43
0.0000001
 44
0.0000000001
 40
0.0
 40
0.0
 40
0.0
 40
0.0
 40
0.0082773582
 40
0.0151653047
 40
0.0213064851
 40
0.0275688782
 40
0.0347643488
 40
0.0434365807
 40
0.0662700632
 40
0.0972737269
 40
0.136822065
 40
0.1850680916
 40
0.242076656
 40
0.3822135818
 40
0.5562328454
 40
0.7627012191
 40
1.0
 40
1.0
 40
1.0
 40
1.0
 10
101.2355383016
 20
60.7240232383
 30
0.0
 10
101.236257935
 20
60.7233524139
 30
0.0
 10
101.2374903112
 20
60.7220184464
 30
0.0
 10
101.2387134689
 20
60.7197567444
 30
0.0
 10
101.2390268266
 20
60.7174240541
 30
0.0
 10
101.2383749205
 20
60.7151296248
 30
0.0
 10
101.2368615039
 20
60.7129396465
 30
0.0
 10
101.2334585426
 20
60.7098095642
 30
0.0
 10
101.2269276445
 20
60.7061262304
 30
0.0
 10
101.2166210109
 20
60.7019982306
 30
0.0
 10
101.2031028212
 20
60.6978637794
 30
0.0
 10
101.1863877049
 20
60.693747713
 30
0.0
 10
101.1578012453
 20
60.68792753
 30
0.0
 10
101.1141927828
 20
60.6811457814
 30
0.0
 10
101.0527742392
 20
60.6735808213
 30
0.0
 10
100.9797203673
 20
60.6661417676
 30
0.0
 10
100.9271746308
 20
60.6615572246
 30
0.0
 10
100.8990647515
 20
60.6592523942
 30
0.0
  0
SPLINE
  5
4CA
100
AcDbEntity
  8
0
100
AcDbSpline
 62
7
  6
BYLAYER
 70
0
 71
3
 72
35
 73
31
 74
0
 42
0.0000001
 43
0.0000001
 44
0.0000000001
 40
0.0
 40
0.0
 40
0.0
 40
0.0
 40
0.0038559382
 40
0.0087321141
 40
0.0215795401
 40
0.0385056953
 40
0.0593821511
 40
0.084053364
 40
0.1123500792
 40
0.1440836051
 40
0.1789536024
 40
0.2567039799
 40
0.3428874291
 40
0.434542235
 40
0.5283878849
 40
0.6211274556
 40
0.7094776847
 40
0.7903517528
 40
0.8608649536
 40
0.918631557
 40
0.9420847429
 40
0.9616269248
 40
0.9698783111
 40
0.9771065942
 40
0.9833135182
 40
0.9885062434
 40
0.992701855
 40
0.9944374378
 40
0.9959420618
 40
1.0
 40
1.0
 40
1.0
 40
1.0
 10
98.4155169498
 20
65.1780796903
 30
0.0
 10
98.4179732578
 20
65.1795111842
 30
0.0
 10
98.4238236379
 20
65.1822511097
 30
0.0
 10
98.4388076946
 20
65.187627099
 30
0.0
 10
98.4635979694
 20
65.1939760624
 30
0.0
 10
98.500228286
 20
65.2012485605
 30
0.0
 10
98.5457094028
 20
65.2086046616
 30
0.0
 10
98.599646659
 20
65.2160427792
 30
0.0
 10
98.6616518337
 20
65.2235121562
 30
0.0
 10
98.7312255252
 20
65.2309638134
 30
0.0
 10
98.8371622153
 20
65.2412412981
 30
0.0
 10
98.9832157789
 20
65.2536775568
 30
0.0
 10
99.1710752187
 20
65.2685381165
 30
0.0
 10
99.3708348127
 20
65.2834364624
 30
0.0
 10
99.5754773972
 20
65.2978178571
 30
0.0
 10
99.7776424613
 20
65.3126941592
 30
0.0
 10
99.9702040119
 20
65.3277133813
 30
0.0
 10
100.1463940489
 20
65.3419230896
 30
0.0
 10
100.2999093257
 20
65.3566094376
 30
0.0
 10
100.4110440173
 20
65.369580542
 30
0.0
 10
100.4846019268
 20
65.3800179637
 30
0.0
 10
100.5218700822
 20
65.3863054354
 30
0.0
 10
100.5471587648
 20
65.3915393444
 30
0.0
 10
100.5627129925
 20
65.3952612743
 30
0.0
 10
100.5759353762
 20
65.3989879545
 30
0.0
 10
100.5868242043
 20
65.4027236629
 30
0.0
 10
100.5943506225
 20
65.4059791479
 30
0.0
 10
100.5991587634
 20
65.4086901023
 30
0.0
 10
100.6035222755
 20
65.4116385753
 30
0.0
 10
100.6068749739
 20
65.4152592496
 30
0.0
 10
100.6068616206
 20
65.4182511506
 30
0.0
  0
SPLINE
  5
4CB
100
AcDbEntity
  8
0
100
AcDbSpline
 62
7
  6
BYLAYER
 70
0
 71
3
 72
33
 73
29
 74
0
 42
0.0000001
 43
0.0000001
 44
0.0000000001
 40
0.0
 40
0.0
 40
0.0
 40
0.0
 40
0.0131893277
 40
0.0301932215
 40
0.0509490657
 40
0.075287411
 40
0.1338424404
 40
0.2039364115
 40
0.2834640198
 40
0.3697374594
 40
0.4599639428
 40
0.5512137124
 40
0.6405234876
 40
0.7249644671
 40
0.8017527403
 40
0.8684864008
 40
0.8973868944
 40
0.9229685484
 40
0.9450304014
 40
0.9634228117
 40
0.9712200851
 40
0.9780748277
 40
0.9839787185
 40
0.9889261883
 40
0.9929229738
 40
0.9960013576
 40
0.998268467
 40
1.0
 40
1.0
 40
1.0
 40
1.0
 10
100.5753531933
 20
65.937187883
 30
0.0
 10
100.5661585357
 20
65.9343734633
 30
0.0
 10
100.5447637952
 20
65.929084942
 30
0.0
 10
100.5082869599
 20
65.9220488107
 30
0.0
 10
100.4635577722
 20
65.9150031222
 30
0.0
 10
100.3886660117
 20
65.9049095891
 30
0.0
 10
100.2777980113
 20
65.8925956232
 30
0.0
 10
100.1266679662
 20
65.878613622
 30
0.0
 10
99.9552638978
 20
65.86452241
 30
0.0
 10
99.7691549758
 20
65.8502036754
 30
0.0
 10
99.5744542881
 20
65.8361852556
 30
0.0
 10
99.3775507064
 20
65.8219419048
 30
0.0
 10
99.1848809959
 20
65.807637026
 30
0.0
 10
99.0027589137
 20
65.7936552602
 30
0.0
 10
98.8371647281
 20
65.7794769949
 30
0.0
 10
98.7120536426
 20
65.7672031215
 30
0.0
 10
98.6242403846
 20
65.757257078
 30
0.0
 10
98.5688790641
 20
65.7502128293
 30
0.0
 10
98.5212553704
 20
65.7431242195
 30
0.0
 10
98.4866300099
 20
65.7368577362
 30
0.0
 10
98.4630841074
 20
65.731749621
 30
0.0
 10
98.4485290811
 20
65.728170735
 30
0.0
 10
98.4361094159
 20
65.7246347436
 30
0.0
 10
98.4258630536
 20
65.7211257835
 30
0.0
 10
98.4177998462
 20
65.7176454131
 30
0.0
 10
98.4119337031
 20
65.714140947
 30
0.0
 10
98.4081068466
 20
65.7105620865
 30
0.0
 10
98.4070304041
 20
65.7076578316
 30
0.0
 10
98.4070285912
 20
65.7063954493
 30
0.0
  0
SPLINE
  5
4CC
100
AcDbEntity
  8
0
100
AcDbSpline
 62
7
  6
BYLAYER
 70
0
 71
3
 72
14
 73
10
 74
0
 42
0.0000001
 43
0.0000001
 44
0.0000000001
 40
0.0
 40
0.0
 40
0.0
 40
0.0
 40
0.0566259311
 40
0.1330681945
 40
0.2292126872
 40
0.3447544633
 40
0.4796693904
 40
0.6339542234
 40
1.0
 40
1.0
 40
1.0
 40
1.0
 10
100.8945325394
 20
60.9444575879
 30
0.0
 10
100.8916926605
 20
60.9428044603
 30
0.0
 10
100.8845641509
 20
60.9397321793
 30
0.0
 10
100.8718848054
 20
60.9357058902
 30
0.0
 10
100.8556448472
 20
60.931678785
 30
0.0
 10
100.8359263483
 20
60.9276995896
 30
0.0
 10
100.812771188
 20
60.9237474517
 30
0.0
 10
100.7751597395
 20
60.9181523971
 30
0.0
 10
100.7451938507
 20
60.9144064657
 30
0.0
 10
100.7240942553
 20
60.9119546867
 30
0.0
  0
SPLINE
  5
4CD
100
AcDbEntity
  8
0
100
AcDbSpline
 62
7
  6
BYLAYER
 70
0
 71
3
 72
12
 73
8
 74
0
 42
0.0000001
 43
0.0000001
 44
0.0000000001
 40
0.0
 40
0.0
 40
0.0
 40
0.0
 40
0.3386908476
 40
0.6196258124
 40
0.8405502757
 40
0.9280319068
 40
1.0
 40
1.0
 40
1.0
 40
1.0
 10
98.1377222881
 20
60.7518898677
 30
0.0
 10
98.1029398206
 20
60.749094725
 30
0.0
 10
98.0393267548
 20
60.7436971731
 30
0.0
 10
97.9531679617
 20
60.7349412405
 30
0.0
 10
97.8929109162
 20
60.727344487
 30
0.0
 10
97.8542250593
 20
60.7210628107
 30
0.0
 10
97.8380987039
 20
60.7178985267
 30
0.0
 10
97.8308661657
 20
60.7162649867
 30
0.0
  0
SPLINE
  5
4CE
100
AcDbEntity
  8
0
100
AcDbSpline
 62
7
  6
BYLAYER
 70
0
 71
3
 72
14
 73
10
 74
0
 42
0.0000001
 43
0.0000001
 44
0.0000000001
 40
0.0
 40
0.0
 40
0.0
 40
0.0
 40
0.3740722123
 40
0.5311859479
 40
0.6675838953
 40
0.782827073
 40
0.8765567757
 40
0.9487702531
 40
1.0
 40
1.0
 40
1.0
 40
1.0
 10
98.2317720539
 20
62.4812649467
 30
0.0
 10
98.2042451684
 20
62.4784396268
 30
0.0
 10
98.1651852854
 20
62.4741123603
 30
0.0
 10
98.1162280126
 20
62.467627633
 30
0.0
 10
98.0863256579
 20
62.4631181782
 30
0.0
 10
98.0611676169
 20
62.4586660699
 30
0.0
 10
98.0408195118
 20
62.4542756657
 30
0.0
 10
98.025359808
 20
62.4499287397
 30
0.0
 10
98.0168097937
 20
62.4465420445
 30
0.0
 10
98.0135272442
 20
62.4446482814
 30
0.0
  0
SPLINE
  5
4CF
100
AcDbEntity
  8
0
100
AcDbSpline
 62
7
  6
BYLAYER
 70
0
 71
3
 72
22
 73
18
 74
0
 42
0.0000001
 43
0.0000001
 44
0.0000000001
 40
0.0
 40
0.0
 40
0.0
 40
0.0
 40
0.1841805764
 40
0.3620961718
 40
0.5276892034
 40
0.6040826414
 40
0.6753303159
 40
0.740832448
 40
0.8000317283
 40
0.8524486338
 40
0.8976384923
 40
0.9351945898
 40
0.9648272499
 40
0.9766324214
 40
0.9864191425
 40
0.9941946466
 40
1.0
 40
1.0
 40
1.0
 40
1.0
 10
99.5069255317
 20
64.5623940223
 30
0.0
 10
99.5988811283
 20
64.5672427938
 30
0.0
 10
99.7796777654
 20
64.5765188704
 30
0.0
 10
100.0431097156
 20
64.5909303066
 30
0.0
 10
100.2526616723
 20
64.6036280817
 30
0.0
 10
100.4089469843
 20
64.6136352018
 30
0.0
 10
100.5152701053
 20
64.6207945382
 30
0.0
 10
100.6129781959
 20
64.6279262995
 30
0.0
 10
100.701234096
 20
64.6351888948
 30
0.0
 10
100.7792864877
 20
64.6425555775
 30
0.0
 10
100.8464586566
 20
64.6499776062
 30
0.0
 10
100.9021716209
 20
64.6572585196
 30
0.0
 10
100.9411884882
 20
64.6634756154
 30
0.0
 10
100.9662814842
 20
64.6686124069
 30
0.0
 10
100.9805425191
 20
64.6721447542
 30
0.0
 10
100.9916867897
 20
64.6756581408
 30
0.0
 10
100.9979563549
 20
64.6783567598
 30
0.0
 10
101.0004663407
 20
64.6798142345
 30
0.0
  0
SPLINE
  5
4D0
100
AcDbEntity
  8
0
100
AcDbSpline
 62
7
  6
BYLAYER
 70
0
 71
3
 72
39
 73
35
 74
0
 42
0.0000001
 43
0.0000001
 44
0.0000000001
 40
0.0
 40
0.0
 40
0.0
 40
0.0
 40
0.0038518245
 40
0.0087015275
 40
0.0215134202
 40
0.0384772871
 40
0.0594285333
 40
0.0841728439
 40
0.1125059159
 40
0.1442069677
 40
0.1790381504
 40
0.2568147347
 40
0.3429872577
 40
0.4345875565
 40
0.4814210816
 40
0.5283909056
 40
0.621078411
 40
0.7093871689
 40
0.7509279093
 40
0.7902357858
 40
0.8269540112
 40
0.860738213
 40
0.8913136037
 40
0.9184511444
 40
0.941925666
 40
0.9615201046
 40
0.9698074796
 40
0.9770655601
 40
0.9832822697
 40
0.9884628028
 40
0.9926332786
 40
0.9958444073
 40
0.9982081475
 40
1.0
 40
1.0
 40
1.0
 40
1.0
 10
98.4159230918
 20
64.6781404962
 30
0.0
 10
98.4183766528
 20
64.6795697263
 30
0.0
 10
98.4241943117
 20
64.6823201611
 30
0.0
 10
98.4391050317
 20
64.6877500289
 30
0.0
 10
98.4638613259
 20
64.6941514507
 30
0.0
 10
98.5005450911
 20
64.7014182858
 30
0.0
 10
98.5461683698
 20
64.7087065655
 30
0.0
 10
98.6002492315
 20
64.7160276255
 30
0.0
 10
98.6623084635
 20
64.7234294788
 30
0.0
 10
98.7318400961
 20
64.7309175569
 30
0.0
 10
98.8377095865
 20
64.7413537453
 30
0.0
 10
98.9837067052
 20
64.7539727635
 30
0.0
 10
99.1715431642
 20
64.7683520419
 30
0.0
 10
99.3366543494
 20
64.7807356634
 30
0.0
 10
99.4729608322
 20
64.7907747039
 30
0.0
 10
99.6100855508
 20
64.8006109406
 30
0.0
 10
99.7777148346
 20
64.8125235932
 30
0.0
 10
99.9412736618
 20
64.8252236315
 30
0.0
 10
100.0655452203
 20
64.8355437483
 30
0.0
 10
100.1518954123
 20
64.8429576409
 30
0.0
 10
100.232516755
 20
64.8502487047
 30
0.0
 10
100.3066658895
 20
64.8576113818
 30
0.0
 10
100.3737042356
 20
64.8650656831
 30
0.0
 10
100.4330858219
 20
64.8725620207
 30
0.0
 10
100.4843010725
 20
64.8800349929
 30
0.0
 10
100.5216235345
 20
64.8864331613
 30
0.0
 10
100.5470022383
 20
64.8916381185
 30
0.0
 10
100.5626221695
 20
64.8953080532
 30
0.0
 10
100.5758821999
 20
64.8989749401
 30
0.0
 10
100.5867623499
 20
64.9026457539
 30
0.0
 10
100.5952904318
 20
64.9063019803
 30
0.0
 10
100.6014884701
 20
64.909979922
 30
0.0
 10
100.6055458136
 20
64.913706217
 30
0.0
 10
100.6067174291
 20
64.9167471923
 30
0.0
 10
100.6067238755
 20
64.9180680918
 30
0.0
  0
SPLINE
  5
4D1
100
AcDbEntity
  8
0
100
AcDbSpline
 62
7
  6
BYLAYER
 70
0
 71
3
 72
21
 73
17
 74
0
 42
0.0000001
 43
0.0000001
 44
0.0000000001
 40
0.0
 40
0.0
 40
0.0
 40
0.0
 40
0.005900343
 40
0.0137711596
 40
0.0236510576
 40
0.0355484992
 40
0.0653439573
 40
0.1029872445
 40
0.1482004519
 40
0.2006272337
 40
0.2598302322
 40
0.325319879
 40
0.4728980001
 40
0.638336282
 40
0.8160431777
 40
1.0
 40
1.0
 40
1.0
 40
1.0
 10
98.0136261395
 20
64.4444944895
 30
0.0
 10
98.0161780591
 20
64.4459737203
 30
0.0
 10
98.0225157726
 20
64.4487455964
 30
0.0
 10
98.0337666108
 20
64.4523908582
 30
0.0
 10
98.0481367814
 20
64.4560591756
 30
0.0
 10
98.073374248
 20
64.46134867
 30
0.0
 10
98.1125545606
 20
64.4676235726
 30
0.0
 10
98.1684308298
 20
64.4746720922
 30
0.0
 10
98.2356961061
 20
64.4817198709
 30
0.0
 10
98.3137704194
 20
64.4889498746
 30
0.0
 10
98.4020077073
 20
64.4963255583
 30
0.0
 10
98.5377234167
 20
64.50670737
 30
0.0
 10
98.7265423036
 20
64.5190911496
 30
0.0
 10
98.9714634602
 20
64.5330459514
 30
0.0
 10
99.2345588502
 20
64.5477159142
 30
0.0
 10
99.4150910529
 20
64.5575516372
 30
0.0
 10
99.5069255317
 20
64.5623940223
 30
0.0
  0
SPLINE
  5
4D2
100
AcDbEntity
  8
0
100
AcDbSpline
 62
7
  6
BYLAYER
 70
0
 71
3
 72
11
 73
7
 74
0
 42
0.0000001
 43
0.0000001
 44
0.0000000001
 40
0.0
 40
0.0
 40
0.0
 40
0.0
 40
0.3181165309
 40
0.592058208
 40
0.8199029893
 40
1.0
 40
1.0
 40
1.0
 40
1.0
 10
98.2522607202
 20
61.9831906178
 30
0.0
 10
98.231171519
 20
61.9811418056
 30
0.0
 10
98.1919394066
 20
61.9771424283
 30
0.0
 10
98.1376946984
 20
61.9707969652
 30
0.0
 10
98.0927143613
 20
61.9644920359
 30
0.0
 10
98.0659407646
 20
61.9597729182
 30
0.0
 10
98.0542123127
 20
61.9572556408
 30
0.0
  0
SPLINE
  5
4D3
100
AcDbEntity
  8
0
100
AcDbSpline
 62
7
  6
BYLAYER
 70
0
 71
3
 72
10
 73
6
 74
0
 42
0.0000001
 43
0.0000001
 44
0.0000000001
 40
0.0
 40
0.0
 40
0.0
 40
0.0
 40
0.6024600789
 40
0.8265502873
 40
1.0
 40
1.0
 40
1.0
 40
1.0
 10
98.0542123127
 20
61.9572556408
 30
0.0
 10
98.0458348589
 20
61.9554486529
 30
0.0
 10
98.0343735347
 20
61.9527002696
 30
0.0
 10
98.0209269315
 20
61.9480395872
 30
0.0
 10
98.0157640216
 20
61.945679881
 30
0.0
 10
98.0136295272
 20
61.9444422265
 30
0.0
  0
SPLINE
  5
4D4
100
AcDbEntity
  8
0
100
AcDbSpline
 62
7
  6
BYLAYER
 70
0
 71
3
 72
23
 73
19
 74
0
 42
0.0000001
 43
0.0000001
 44
0.0000000001
 40
0.0
 40
0.0
 40
0.0
 40
0.0
 40
0.1843057731
 40
0.3623220653
 40
0.4470641616
 40
0.5279958385
 40
0.6044110386
 40
0.6756390235
 40
0.7411430192
 40
0.8004018285
 40
0.8528201168
 40
0.8979092443
 40
0.9353649979
 40
0.9649462356
 40
0.9767279374
 40
0.9864865584
 40
0.9942303716
 40
1.0
 40
1.0
 40
1.0
 40
1.0
 10
99.506943863
 20
65.5620515577
 30
0.0
 10
99.414907702
 20
65.5571027107
 30
0.0
 10
99.2339729065
 20
65.5474370776
 30
0.0
 10
99.0107179242
 20
65.5355347068
 30
0.0
 10
98.8391316799
 20
65.5255638961
 30
0.0
 10
98.7182963024
 20
65.5180930889
 30
0.0
 10
98.6042333309
 20
65.5106166147
 30
0.0
 10
98.4978891473
 20
65.5033439358
 30
0.0
 10
98.4001388866
 20
65.4961682066
 30
0.0
 10
98.3118240374
 20
65.488971647
 30
0.0
 10
98.2337611131
 20
65.4817217634
 30
0.0
 10
98.1666593075
 20
65.4744160596
 30
0.0
 10
98.111059485
 20
65.4671226628
 30
0.0
 10
98.0721432971
 20
65.460761368
 30
0.0
 10
98.0471185836
 20
65.4555171328
 30
0.0
 10
98.0329100283
 20
65.4519321848
 30
0.0
 10
98.0218212846
 20
65.448392336
 30
0.0
 10
98.0155872308
 20
65.4456955017
 30
0.0
 10
98.0130921225
 20
65.44424653
 30
0.0
  0
SPLINE
  5
4D5
100
AcDbEntity
  8
0
100
AcDbSpline
 62
7
  6
BYLAYER
 70
0
 71
3
 72
19
 73
15
 74
0
 42
0.0000001
 43
0.0000001
 44
0.0000000001
 40
0.0
 40
0.0
 40
0.0
 40
0.0
 40
0.007949133
 40
0.0176882819
 40
0.0425811441
 40
0.0746406361
 40
0.1137158484
 40
0.159621119
 40
0.2121578749
 40
0.3358558966
 40
0.4808981785
 40
0.6429389642
 40
0.817634777
 40
1.0
 40
1.0
 40
1.0
 40
1.0
 10
100.5970165583
 20
64.4456034587
 30
0.0
 10
100.5946434622
 20
64.4443337994
 30
0.0
 10
100.5891675384
 20
64.4418765396
 30
0.0
 10
100.575583504
 20
64.4370263605
 30
0.0
 10
100.5537263674
 20
64.4312342792
 30
0.0
 10
100.5218890312
 20
64.4246237656
 30
0.0
 10
100.4828160952
 20
64.4179724664
 30
0.0
 10
100.4367369789
 20
64.4112794265
 30
0.0
 10
100.3621204485
 20
64.4018103918
 30
0.0
 10
100.2539391009
 20
64.3903546165
 30
0.0
 10
100.1086867069
 20
64.3771137234
 30
0.0
 10
99.9461095344
 20
64.3638019603
 30
0.0
 10
99.7708605497
 20
64.3504539065
 30
0.0
 10
99.6502881222
 20
64.3416567021
 30
0.0
 10
99.5887051119
 20
64.3371903808
 30
0.0
  0
SPLINE
  5
4D6
100
AcDbEntity
  8
0
100
AcDbSpline
 62
7
  6
BYLAYER
 70
0
 71
3
 72
11
 73
7
 74
0
 42
0.0000001
 43
0.0000001
 44
0.0000000001
 40
0.0
 40
0.0
 40
0.0
 40
0.0
 40
0.3327049452
 40
0.6099624577
 40
0.8320041128
 40
1.0
 40
1.0
 40
1.0
 40
1.0
 10
100.9372671888
 20
61.6409823818
 30
0.0
 10
100.9442536353
 20
61.6423946239
 30
0.0
 10
100.9570278925
 20
61.6451576215
 30
0.0
 10
100.9742872625
 20
61.6496533743
 30
0.0
 10
100.9878738151
 20
61.6541147239
 30
0.0
 10
100.995554901
 20
61.6575003199
 30
0.0
 10
100.9986701467
 20
61.6593027219
 30
0.0
  0
SPLINE
  5
4D7
100
AcDbEntity
  8
0
100
AcDbSpline
 62
7
  6
BYLAYER
 70
0
 71
3
 72
12
 73
8
 74
0
 42
0.0000001
 43
0.0000001
 44
0.0000000001
 40
0.0
 40
0.0
 40
0.0
 40
0.0
 40
0.0632656095
 40
0.1438933942
 40
0.3583033758
 40
0.6438691796
 40
1.0
 40
1.0
 40
1.0
 40
1.0
 10
101.0006738597
 20
64.1801063716
 30
0.0
 10
100.9987764789
 20
64.1789957216
 30
0.0
 10
100.9942349219
 20
64.1768626191
 30
0.0
 10
100.9825167783
 20
64.172633494
 30
0.0
 10
100.9629389986
 20
64.1676084251
 30
0.0
 10
100.933741069
 20
64.1618924958
 30
0.0
 10
100.911699491
 20
64.1584647037
 30
0.0
 10
100.8994488694
 20
64.1567081773
 30
0.0
  0
SPLINE
  5
4D8
100
AcDbEntity
  8
0
100
AcDbSpline
 62
7
  6
BYLAYER
 70
0
 71
3
 72
13
 73
9
 74
0
 42
0.0000001
 43
0.0000001
 44
0.0000000001
 40
0.0
 40
0.0
 40
0.0
 40
0.0
 40
0.3481528163
 40
0.6316919752
 40
0.7486668491
 40
0.848959704
 40
0.9326407617
 40
1.0
 40
1.0
 40
1.0
 40
1.0
 10
100.799207101
 20
60.953174523
 30
0.0
 10
100.8220770732
 20
60.9569306965
 30
0.0
 10
100.8634979547
 20
60.964207107
 30
0.0
 10
100.9122745387
 20
60.9745555884
 30
0.0
 10
100.9445178347
 20
60.983055938
 30
0.0
 10
100.9636637804
 20
60.9889879204
 30
0.0
 10
100.9793322591
 20
60.9948805352
 30
0.0
 10
100.9884253998
 20
60.9992374877
 30
0.0
 10
100.9923010707
 20
61.0014927256
 30
0.0
  0
SPLINE
  5
4D9
100
AcDbEntity
  8
0
100
AcDbSpline
 62
7
  6
BYLAYER
 70
0
 71
3
 72
12
 73
8
 74
0
 42
0.0000001
 43
0.0000001
 44
0.0000000001
 40
0.0
 40
0.0
 40
0.0
 40
0.0
 40
0.3494304737
 40
0.632825747
 40
0.8494261826
 40
0.9328437574
 40
1.0
 40
1.0
 40
1.0
 40
1.0
 10
100.8996632487
 20
61.6569214643
 30
0.0
 10
100.9114138151
 20
61.6586001638
 30
0.0
 10
100.9326663258
 20
61.6618630675
 30
0.0
 10
100.9610193999
 20
61.6672295979
 30
0.0
 10
100.9802970097
 20
61.6719411276
 30
0.0
 10
100.9921302743
 20
61.6759011486
 30
0.0
 10
100.996848199
 20
61.6779066636
 30
0.0
 10
100.9988784231
 20
61.6789469817
 30
0.0
  0
LINE
  5
4DA
100
AcDbEntity
  8
0
100
AcDbLine
 62
7
  6
BYLAYER
 10
100.9988784231
 20
61.6789469817
 11
101.0015553019
 21
61.6804564695
  0
SPLINE
  5
4DB
100
AcDbEntity
  8
0
100
AcDbSpline
 62
7
  6
BYLAYER
 70
0
 71
3
 72
9
 73
5
 74
0
 42
0.0000001
 43
0.0000001
 44
0.0000000001
 40
0.0
 40
0.0
 40
0.0
 40
0.0
 40
0.3293616628
 40
1.0
 40
1.0
 40
1.0
 40
1.0
 10
101.0015553019
 20
61.6804564695
 30
0.0
 10
101.0023725571
 20
61.6809688521
 30
0.0
 10
101.0047276706
 20
61.6825768269
 30
0.0
 10
101.0069322296
 20
61.6852342702
 30
0.0
 10
101.0069326513
 20
61.6871983538
 30
0.0
  0
SPLINE
  5
4DC
100
AcDbEntity
  8
0
100
AcDbSpline
 62
7
  6
BYLAYER
 70
0
 71
3
 72
12
 73
8
 74
0
 42
0.0000001
 43
0.0000001
 44
0.0000000001
 40
0.0
 40
0.0
 40
0.0
 40
0.0
 40
0.0640362938
 40
0.1449370076
 40
0.3590695932
 40
0.6442554985
 40
1.0
 40
1.0
 40
1.0
 40
1.0
 10
101.0001126659
 20
63.6796890586
 30
0.0
 10
100.9982160195
 20
63.6785806023
 30
0.0
 10
100.9937031043
 20
63.6764539212
 30
0.0
 10
100.9821083033
 20
63.6722732646
 30
0.0
 10
100.9627759536
 20
63.6673783233
 30
0.0
 10
100.9339513436
 20
63.6619282025
 30
0.0
 10
100.9122023748
 20
63.6586582681
 30
0.0
 10
100.9001163174
 20
63.6569655017
 30
0.0
  0
SPLINE
  5
4DD
100
AcDbEntity
  8
0
100
AcDbSpline
 62
7
  6
BYLAYER
 70
0
 71
3
 72
11
 73
7
 74
0
 42
0.0000001
 43
0.0000001
 44
0.0000000001
 40
0.0
 40
0.0
 40
0.0
 40
0.0
 40
0.1805117288
 40
0.4083397036
 40
0.6820804593
 40
1.0
 40
1.0
 40
1.0
 40
1.0
 10
98.0540623559
 20
61.4570455129
 30
0.0
 10
98.065862684
 20
61.4595926288
 30
0.0
 10
98.09275338
 20
61.4644296393
 30
0.0
 10
98.1379098193
 20
61.4709107375
 30
0.0
 10
98.192338506
 20
61.4773607677
 30
0.0
 10
98.231703978
 20
61.4813747379
 30
0.0
 10
98.2528671431
 20
61.4834175664
 30
0.0
  0
SPLINE
  5
4DE
100
AcDbEntity
  8
0
100
AcDbSpline
 62
7
  6
BYLAYER
 70
0
 71
3
 72
12
 73
8
 74
0
 42
0.0000001
 43
0.0000001
 44
0.0000000001
 40
0.0
 40
0.0
 40
0.0
 40
0.0
 40
0.0686654216
 40
0.153779718
 40
0.3730037958
 40
0.6560004096
 40
1.0
 40
1.0
 40
1.0
 40
1.0
 10
98.0281522473
 20
63.4506870783
 30
0.0
 10
98.0327771059
 20
63.4521711229
 30
0.0
 10
98.0432941671
 20
63.4549922038
 30
0.0
 10
98.0691005594
 20
63.4605085918
 30
0.0
 10
98.1101474012
 20
63.4670675601
 30
0.0
 10
98.1695210265
 20
63.4746749044
 30
0.0
 10
98.2136225902
 20
63.4794112224
 30
0.0
 10
98.2378328997
 20
63.4818538224
 30
0.0
  0
SPLINE
  5
4DF
100
AcDbEntity
  8
0
100
AcDbSpline
 62
7
  6
BYLAYER
 70
0
 71
3
 72
17
 73
13
 74
0
 42
0.0000001
 43
0.0000001
 44
0.0000000001
 40
0.0
 40
0.0
 40
0.0
 40
0.0
 40
0.027728769
 40
0.050067362
 40
0.0792615224
 40
0.1156799943
 40
0.1595074775
 40
0.2107817025
 40
0.2694845518
 40
0.4090002052
 40
0.5776223602
 40
1.0
 40
1.0
 40
1.0
 40
1.0
 10
100.9010301047
 20
60.9140974512
 30
0.0
 10
100.9010300606
 20
60.9116935717
 30
0.0
 10
100.897489892
 20
60.907957403
 30
0.0
 10
100.8916637339
 20
60.9047161695
 30
0.0
 10
100.8845649095
 20
60.9017054775
 30
0.0
 10
100.8755643315
 20
60.8987688399
 30
0.0
 10
100.8645454612
 20
60.8957894529
 30
0.0
 10
100.8515492399
 20
60.8928111892
 30
0.0
 10
100.8303346771
 20
60.8885791708
 30
0.0
 10
100.7989465386
 20
60.8834189349
 30
0.0
 10
100.7361944289
 20
60.8748504535
 30
0.0
 10
100.6852327967
 20
60.8694524672
 30
0.0
 10
100.6487882002
 20
60.8659031502
 30
0.0
  0
LINE
  5
4E0
100
AcDbEntity
  8
0
100
AcDbLine
 62
7
  6
BYLAYER
 10
100.6208599498
 20
60.8632497885
 11
100.6101867513
 21
60.862268306
  0
SPLINE
  5
4E1
100
AcDbEntity
  8
0
100
AcDbSpline
 62
7
  6
BYLAYER
 70
0
 71
3
 72
12
 73
8
 74
0
 42
0.0000001
 43
0.0000001
 44
0.0000000001
 40
0.0
 40
0.0
 40
0.0
 40
0.0
 40
0.3385270386
 40
0.6214235199
 40
0.8431789725
 40
0.9299205931
 40
1.0
 40
1.0
 40
1.0
 40
1.0
 10
98.20377408
 20
60.7189364882
 30
0.0
 10
98.1615443787
 20
60.7157780437
 30
0.0
 10
98.0840476289
 20
60.7096389264
 30
0.0
 10
97.9790360953
 20
60.6997305366
 30
0.0
 10
97.9055457281
 20
60.6910642175
 30
0.0
 10
97.858745883
 20
60.6837913639
 30
0.0
 10
97.8394699175
 20
60.6800983411
 30
0.0
 10
97.8309188233
 20
60.6781669276
 30
0.0
  0
SPLINE
  5
4E2
100
AcDbEntity
  8
0
100
AcDbSpline
 62
7
  6
BYLAYER
 70
0
 71
3
 72
16
 73
12
 74
0
 42
0.0000001
 43
0.0000001
 44
0.0000000001
 40
0.0
 40
0.0
 40
0.0
 40
0.0
 40
0.1249995334
 40
0.1875684249
 40
0.2501253103
 40
0.3751067321
 40
0.5000935351
 40
0.6250669471
 40
0.7500506401
 40
0.8750230278
 40
1.0
 40
1.0
 40
1.0
 40
1.0
 10
74.259596434
 20
79.8871990779
 30
0.0
 10
74.1937029015
 20
79.8871990779
 30
0.0
 10
74.0944872124
 20
79.8777681853
 30
0.0
 10
73.9662166858
 20
79.8466083919
 30
0.0
 10
73.8415065464
 20
79.8032617933
 30
0.0
 10
73.6943895946
 20
79.726641964
 30
0.0
 10
73.5391470446
 20
79.6023043661
 30
0.0
 10
73.411262597
 20
79.4498952584
 30
0.0
 10
73.3159900976
 20
79.2752230698
 30
0.0
 10
73.2571504266
 20
79.0852225099
 30
0.0
 10
73.243901596
 20
78.953080764
 30
0.0
 10
73.243901596
 20
78.8871991247
 30
0.0
  0
SPLINE
  5
4E3
100
AcDbEntity
  8
0
100
AcDbSpline
 62
7
  6
BYLAYER
 70
0
 71
3
 72
9
 73
5
 74
0
 42
0.0000001
 43
0.0000001
 44
0.0000000001
 40
0.0
 40
0.0
 40
0.0
 40
0.0
 40
0.5000000002
 40
1.0
 40
1.0
 40
1.0
 40
1.0
 10
80.1569358796
 20
75.9592368251
 30
0.0
 10
80.2081073838
 20
75.9424929156
 30
0.0
 10
80.3140798541
 20
75.9204981976
 30
0.0
 10
80.3569358796
 20
75.9424887489
 30
0.0
 10
80.3569358796
 20
75.959236825
 30
0.0
  0
SPLINE
  5
4E4
100
AcDbEntity
  8
0
100
AcDbSpline
 62
7
  6
BYLAYER
 70
0
 71
3
 72
9
 73
5
 74
0
 42
0.0000001
 43
0.0000001
 44
0.0000000001
 40
0.0
 40
0.0
 40
0.0
 40
0.0
 40
0.5
 40
1.0
 40
1.0
 40
1.0
 40
1.0
 10
72.8569358796
 20
75.9592368251
 30
0.0
 10
72.8569358796
 20
75.9424929157
 30
0.0
 10
72.8995723457
 20
75.9204981977
 30
0.0
 10
73.0057516414
 20
75.9424887489
 30
0.0
 10
73.0569358796
 20
75.9592368251
 30
0.0
  0
SPLINE
  5
4E5
100
AcDbEntity
  8
0
100
AcDbSpline
 62
7
  6
BYLAYER
 70
0
 71
3
 72
16
 73
12
 74
0
 42
0.0000001
 43
0.0000001
 44
0.0000000001
 40
0.0
 40
0.0
 40
0.0
 40
0.0
 40
0.1249758915
 40
0.2499486789
 40
0.3749320843
 40
0.4999036431
 40
0.6248907487
 40
0.7498738035
 40
0.8124307458
 40
0.8750001604
 40
1.0
 40
1.0
 40
1.0
 40
1.0
 10
79.9699701983
 20
78.8871991247
 30
0.0
 10
79.9699701983
 20
78.9530801879
 30
0.0
 10
79.9567210966
 20
79.0852218243
 30
0.0
 10
79.8978777133
 20
79.2752201365
 30
0.0
 10
79.802614797
 20
79.4498959819
 30
0.0
 10
79.6747290041
 20
79.6023048691
 30
0.0
 10
79.5194774798
 20
79.7266292441
 30
0.0
 10
79.3723685078
 20
79.8032650489
 30
0.0
 10
79.2476567457
 20
79.8466125743
 30
0.0
 10
79.1193836144
 20
79.8777626406
 30
0.0
 10
79.0201684862
 20
79.8871991247
 30
0.0
 10
78.9542747988
 20
79.8871991247
 30
0.0
  0
SPLINE
  5
4E6
100
AcDbEntity
  8
0
100
AcDbSpline
 62
7
  6
BYLAYER
 70
0
 71
3
 72
9
 73
5
 74
0
 42
0.0000001
 43
0.0000001
 44
0.0000000001
 40
0.0
 40
0.0
 40
0.0
 40
0.0
 40
0.654513995
 40
1.0
 40
1.0
 40
1.0
 40
1.0
 10
76.1069358796
 20
76.2296164649
 30
0.0
 10
75.4365375906
 20
76.2289006869
 30
0.0
 10
74.4118363992
 20
76.2644490706
 30
0.0
 10
73.3926020709
 20
76.0690706944
 30
0.0
 10
73.0569358796
 20
75.9592368251
 30
0.0
  0
SPLINE
  5
4E7
100
AcDbEntity
  8
0
100
AcDbSpline
 62
7
  6
BYLAYER
 70
0
 71
3
 72
9
 73
5
 74
0
 42
0.0000001
 43
0.0000001
 44
0.0000000001
 40
0.0
 40
0.0
 40
0.0
 40
0.0
 40
0.3455820017
 40
1.0
 40
1.0
 40
1.0
 40
1.0
 10
80.1569358796
 20
75.9592368251
 30
0.0
 10
79.8129429745
 20
76.0717952916
 30
0.0
 10
78.8053414659
 20
76.2622475643
 30
0.0
 10
77.777597026
 20
76.2293830909
 30
0.0
 10
77.1069358796
 20
76.2290881317
 30
0.0
  0
SPLINE
  5
4E8
100
AcDbEntity
  8
0
100
AcDbSpline
 62
7
  6
BYLAYER
 70
0
 71
3
 72
9
 73
5
 74
0
 42
0.0000001
 43
0.0000001
 44
0.0000000001
 40
0.0
 40
0.0
 40
0.0
 40
0.0
 40
0.5000000002
 40
1.0
 40
1.0
 40
1.0
 40
1.0
 10
99.1569358796
 20
75.9592368251
 30
0.0
 10
99.2081073838
 20
75.9424929156
 30
0.0
 10
99.3140798541
 20
75.9204981976
 30
0.0
 10
99.3569358796
 20
75.9424887489
 30
0.0
 10
99.3569358796
 20
75.959236825
 30
0.0
  0
SPLINE
  5
4E9
100
AcDbEntity
  8
0
100
AcDbSpline
 62
7
  6
BYLAYER
 70
0
 71
3
 72
9
 73
5
 74
0
 42
0.0000001
 43
0.0000001
 44
0.0000000001
 40
0.0
 40
0.0
 40
0.0
 40
0.0
 40
0.5
 40
1.0
 40
1.0
 40
1.0
 40
1.0
 10
91.8569358796
 20
75.9592368251
 30
0.0
 10
91.8569358796
 20
75.9424929157
 30
0.0
 10
91.8995723457
 20
75.9204981977
 30
0.0
 10
92.0057516414
 20
75.9424887489
 30
0.0
 10
92.0569358796
 20
75.9592368251
 30
0.0
  0
SPLINE
  5
4EA
100
AcDbEntity
  8
0
100
AcDbSpline
 62
7
  6
BYLAYER
 70
0
 71
3
 72
16
 73
12
 74
0
 42
0.0000001
 43
0.0000001
 44
0.0000000001
 40
0.0
 40
0.0
 40
0.0
 40
0.0
 40
0.1249995334
 40
0.1875684249
 40
0.2501253103
 40
0.3751067321
 40
0.5000935351
 40
0.6250669471
 40
0.7500506401
 40
0.8750230278
 40
1.0
 40
1.0
 40
1.0
 40
1.0
 10
93.259596434
 20
79.8871990779
 30
0.0
 10
93.1937029015
 20
79.8871990779
 30
0.0
 10
93.0944872124
 20
79.8777681853
 30
0.0
 10
92.9662166858
 20
79.8466083919
 30
0.0
 10
92.8415065464
 20
79.8032617933
 30
0.0
 10
92.6943895946
 20
79.726641964
 30
0.0
 10
92.5391470446
 20
79.6023043661
 30
0.0
 10
92.411262597
 20
79.4498952584
 30
0.0
 10
92.3159900976
 20
79.2752230698
 30
0.0
 10
92.2571504266
 20
79.0852225099
 30
0.0
 10
92.243901596
 20
78.953080764
 30
0.0
 10
92.243901596
 20
78.8871991247
 30
0.0
  0
SPLINE
  5
4EB
100
AcDbEntity
  8
0
100
AcDbSpline
 62
7
  6
BYLAYER
 70
0
 71
3
 72
16
 73
12
 74
0
 42
0.0000001
 43
0.0000001
 44
0.0000000001
 40
0.0
 40
0.0
 40
0.0
 40
0.0
 40
0.1249758915
 40
0.2499486789
 40
0.3749320843
 40
0.4999036431
 40
0.6248907487
 40
0.7498738035
 40
0.8124307458
 40
0.8750001604
 40
1.0
 40
1.0
 40
1.0
 40
1.0
 10
98.9699701983
 20
78.8871991247
 30
0.0
 10
98.9699701983
 20
78.9530801879
 30
0.0
 10
98.9567210966
 20
79.0852218243
 30
0.0
 10
98.8978777133
 20
79.2752201365
 30
0.0
 10
98.802614797
 20
79.4498959819
 30
0.0
 10
98.6747290041
 20
79.6023048691
 30
0.0
 10
98.5194774798
 20
79.7266292441
 30
0.0
 10
98.3723685078
 20
79.8032650489
 30
0.0
 10
98.2476567457
 20
79.8466125743
 30
0.0
 10
98.1193836144
 20
79.8777626406
 30
0.0
 10
98.0201684862
 20
79.8871991247
 30
0.0
 10
97.9542747988
 20
79.8871991247
 30
0.0
  0
SPLINE
  5
4EC
100
AcDbEntity
  8
0
100
AcDbSpline
 62
7
  6
BYLAYER
 70
0
 71
3
 72
9
 73
5
 74
0
 42
0.0000001
 43
0.0000001
 44
0.0000000001
 40
0.0
 40
0.0
 40
0.0
 40
0.0
 40
0.654513995
 40
1.0
 40
1.0
 40
1.0
 40
1.0
 10
95.1069358796
 20
76.2296164649
 30
0.0
 10
94.4365375906
 20
76.2289006869
 30
0.0
 10
93.4118363992
 20
76.2644490706
 30
0.0
 10
92.3926020709
 20
76.0690706944
 30
0.0
 10
92.0569358796
 20
75.9592368251
 30
0.0
  0
SPLINE
  5
4ED
100
AcDbEntity
  8
0
100
AcDbSpline
 62
7
  6
BYLAYER
 70
0
 71
3
 72
9
 73
5
 74
0
 42
0.0000001
 43
0.0000001
 44
0.0000000001
 40
0.0
 40
0.0
 40
0.0
 40
0.0
 40
0.3455820017
 40
1.0
 40
1.0
 40
1.0
 40
1.0
 10
99.1569358796
 20
75.9592368251
 30
0.0
 10
98.8129429745
 20
76.0717952916
 30
0.0
 10
97.8053414659
 20
76.2622475643
 30
0.0
 10
96.777597026
 20
76.2293830909
 30
0.0
 10
96.1069358796
 20
76.2290881317
 30
0.0
  0
SPLINE
  5
4EE
100
AcDbEntity
  8
0
100
AcDbSpline
 62
7
  6
BYLAYER
 70
0
 71
3
 72
16
 73
12
 74
0
 42
0.0000001
 43
0.0000001
 44
0.0000000001
 40
0.0
 40
0.0
 40
0.0
 40
0.0
 40
0.1249995334
 40
0.1875684249
 40
0.2501253103
 40
0.3751067321
 40
0.5000935351
 40
0.6250669471
 40
0.7500506401
 40
0.8750230278
 40
1.0
 40
1.0
 40
1.0
 40
1.0
 10
55.259596434
 20
79.8871990779
 30
0.0
 10
55.1937029015
 20
79.8871990779
 30
0.0
 10
55.0944872124
 20
79.8777681853
 30
0.0
 10
54.9662166858
 20
79.8466083919
 30
0.0
 10
54.8415065464
 20
79.8032617933
 30
0.0
 10
54.6943895946
 20
79.726641964
 30
0.0
 10
54.5391470446
 20
79.6023043661
 30
0.0
 10
54.411262597
 20
79.4498952584
 30
0.0
 10
54.3159900976
 20
79.2752230698
 30
0.0
 10
54.2571504266
 20
79.0852225099
 30
0.0
 10
54.243901596
 20
78.953080764
 30
0.0
 10
54.243901596
 20
78.8871991247
 30
0.0
  0
SPLINE
  5
4EF
100
AcDbEntity
  8
0
100
AcDbSpline
 62
7
  6
BYLAYER
 70
0
 71
3
 72
16
 73
12
 74
0
 42
0.0000001
 43
0.0000001
 44
0.0000000001
 40
0.0
 40
0.0
 40
0.0
 40
0.0
 40
0.1249758915
 40
0.2499486789
 40
0.3749320843
 40
0.4999036431
 40
0.6248907487
 40
0.7498738035
 40
0.8124307458
 40
0.8750001604
 40
1.0
 40
1.0
 40
1.0
 40
1.0
 10
60.9699701983
 20
78.8871991247
 30
0.0
 10
60.9699701983
 20
78.9530801879
 30
0.0
 10
60.9567210966
 20
79.0852218243
 30
0.0
 10
60.8978777133
 20
79.2752201365
 30
0.0
 10
60.802614797
 20
79.4498959818
 30
0.0
 10
60.6747290042
 20
79.6023048691
 30
0.0
 10
60.5194774799
 20
79.726629244
 30
0.0
 10
60.3723685079
 20
79.8032650489
 30
0.0
 10
60.2476567458
 20
79.8466125742
 30
0.0
 10
60.1193836146
 20
79.8777626405
 30
0.0
 10
60.0201684864
 20
79.8871991247
 30
0.0
 10
59.9542747989
 20
79.8871991247
 30
0.0
  0
SPLINE
  5
4F0
100
AcDbEntity
  8
0
100
AcDbSpline
 62
7
  6
BYLAYER
 70
0
 71
3
 72
9
 73
5
 74
0
 42
0.0000001
 43
0.0000001
 44
0.0000000001
 40
0.0
 40
0.0
 40
0.0
 40
0.0
 40
0.5000000002
 40
1.0
 40
1.0
 40
1.0
 40
1.0
 10
61.1569358796
 20
75.9592368251
 30
0.0
 10
61.2081073838
 20
75.9424929156
 30
0.0
 10
61.3140798541
 20
75.9204981976
 30
0.0
 10
61.3569358796
 20
75.9424887489
 30
0.0
 10
61.3569358796
 20
75.959236825
 30
0.0
  0
SPLINE
  5
4F1
100
AcDbEntity
  8
0
100
AcDbSpline
 62
7
  6
BYLAYER
 70
0
 71
3
 72
9
 73
5
 74
0
 42
0.0000001
 43
0.0000001
 44
0.0000000001
 40
0.0
 40
0.0
 40
0.0
 40
0.0
 40
0.5
 40
1.0
 40
1.0
 40
1.0
 40
1.0
 10
53.8569358796
 20
75.9592368251
 30
0.0
 10
53.8569358796
 20
75.9424929157
 30
0.0
 10
53.8995723457
 20
75.9204981977
 30
0.0
 10
54.0057516414
 20
75.9424887489
 30
0.0
 10
54.0569358796
 20
75.9592368251
 30
0.0
  0
SPLINE
  5
4F2
100
AcDbEntity
  8
0
100
AcDbSpline
 62
7
  6
BYLAYER
 70
0
 71
3
 72
9
 73
5
 74
0
 42
0.0000001
 43
0.0000001
 44
0.0000000001
 40
0.0
 40
0.0
 40
0.0
 40
0.0
 40
0.654513995
 40
1.0
 40
1.0
 40
1.0
 40
1.0
 10
57.1069358796
 20
76.2296164649
 30
0.0
 10
56.4365375906
 20
76.2289006869
 30
0.0
 10
55.4118363992
 20
76.2644490706
 30
0.0
 10
54.3926020709
 20
76.0690706944
 30
0.0
 10
54.0569358796
 20
75.9592368251
 30
0.0
  0
SPLINE
  5
4F3
100
AcDbEntity
  8
0
100
AcDbSpline
 62
7
  6
BYLAYER
 70
0
 71
3
 72
9
 73
5
 74
0
 42
0.0000001
 43
0.0000001
 44
0.0000000001
 40
0.0
 40
0.0
 40
0.0
 40
0.0
 40
0.3455820017
 40
1.0
 40
1.0
 40
1.0
 40
1.0
 10
61.1569358796
 20
75.9592368251
 30
0.0
 10
60.8129429745
 20
76.0717952916
 30
0.0
 10
59.8053414659
 20
76.2622475643
 30
0.0
 10
58.777597026
 20
76.2293830909
 30
0.0
 10
58.1069358796
 20
76.2290881317
 30
0.0
  0
SPLINE
  5
4F4
100
AcDbEntity
  8
0
100
AcDbSpline
 62
7
  6
BYLAYER
 70
0
 71
3
 72
16
 73
12
 74
0
 42
0.0000001
 43
0.0000001
 44
0.0000000001
 40
0.0
 40
0.0
 40
0.0
 40
0.0
 40
0.1249995334
 40
0.1875684249
 40
0.2501253103
 40
0.3751067321
 40
0.5000935351
 40
0.6250669471
 40
0.7500506401
 40
0.8750230278
 40
1.0
 40
1.0
 40
1.0
 40
1.0
 10
83.759596434
 20
79.8871990779
 30
0.0
 10
83.6937029015
 20
79.8871990779
 30
0.0
 10
83.5944872124
 20
79.8777681853
 30
0.0
 10
83.4662166858
 20
79.8466083919
 30
0.0
 10
83.3415065464
 20
79.8032617933
 30
0.0
 10
83.1943895946
 20
79.726641964
 30
0.0
 10
83.0391470446
 20
79.6023043661
 30
0.0
 10
82.911262597
 20
79.4498952584
 30
0.0
 10
82.8159900976
 20
79.2752230698
 30
0.0
 10
82.7571504266
 20
79.0852225099
 30
0.0
 10
82.743901596
 20
78.953080764
 30
0.0
 10
82.743901596
 20
78.8871991247
 30
0.0
  0
SPLINE
  5
4F5
100
AcDbEntity
  8
0
100
AcDbSpline
 62
7
  6
BYLAYER
 70
0
 71
3
 72
16
 73
12
 74
0
 42
0.0000001
 43
0.0000001
 44
0.0000000001
 40
0.0
 40
0.0
 40
0.0
 40
0.0
 40
0.1249758915
 40
0.2499486789
 40
0.3749320843
 40
0.4999036431
 40
0.6248907487
 40
0.7498738035
 40
0.8124307458
 40
0.8750001604
 40
1.0
 40
1.0
 40
1.0
 40
1.0
 10
89.4699701983
 20
78.8871991247
 30
0.0
 10
89.4699701983
 20
78.9530801879
 30
0.0
 10
89.4567210966
 20
79.0852218243
 30
0.0
 10
89.3978777133
 20
79.2752201365
 30
0.0
 10
89.302614797
 20
79.4498959819
 30
0.0
 10
89.1747290041
 20
79.6023048691
 30
0.0
 10
89.0194774798
 20
79.7266292441
 30
0.0
 10
88.8723685078
 20
79.8032650489
 30
0.0
 10
88.7476567457
 20
79.8466125743
 30
0.0
 10
88.6193836144
 20
79.8777626406
 30
0.0
 10
88.5201684862
 20
79.8871991247
 30
0.0
 10
88.4542747988
 20
79.8871991247
 30
0.0
  0
SPLINE
  5
4F6
100
AcDbEntity
  8
0
100
AcDbSpline
 62
7
  6
BYLAYER
 70
0
 71
3
 72
9
 73
5
 74
0
 42
0.0000001
 43
0.0000001
 44
0.0000000001
 40
0.0
 40
0.0
 40
0.0
 40
0.0
 40
0.5000000001
 40
1.0
 40
1.0
 40
1.0
 40
1.0
 10
89.6569358795
 20
75.9592368251
 30
0.0
 10
89.7081073838
 20
75.9424929156
 30
0.0
 10
89.8140798541
 20
75.9204981976
 30
0.0
 10
89.8569358796
 20
75.9424887489
 30
0.0
 10
89.8569358796
 20
75.959236825
 30
0.0
  0
SPLINE
  5
4F7
100
AcDbEntity
  8
0
100
AcDbSpline
 62
7
  6
BYLAYER
 70
0
 71
3
 72
9
 73
5
 74
0
 42
0.0000001
 43
0.0000001
 44
0.0000000001
 40
0.0
 40
0.0
 40
0.0
 40
0.0
 40
0.5
 40
1.0
 40
1.0
 40
1.0
 40
1.0
 10
82.3569358796
 20
75.9592368251
 30
0.0
 10
82.3569358796
 20
75.9424929157
 30
0.0
 10
82.3995723457
 20
75.9204981977
 30
0.0
 10
82.5057516414
 20
75.9424887489
 30
0.0
 10
82.5569358796
 20
75.9592368251
 30
0.0
  0
SPLINE
  5
4F8
100
AcDbEntity
  8
0
100
AcDbSpline
 62
7
  6
BYLAYER
 70
0
 71
3
 72
9
 73
5
 74
0
 42
0.0000001
 43
0.0000001
 44
0.0000000001
 40
0.0
 40
0.0
 40
0.0
 40
0.0
 40
0.654513995
 40
1.0
 40
1.0
 40
1.0
 40
1.0
 10
85.6069358796
 20
76.2296164649
 30
0.0
 10
84.9365375906
 20
76.2289006869
 30
0.0
 10
83.9118363992
 20
76.2644490706
 30
0.0
 10
82.8926020709
 20
76.0690706944
 30
0.0
 10
82.5569358796
 20
75.9592368251
 30
0.0
  0
SPLINE
  5
4F9
100
AcDbEntity
  8
0
100
AcDbSpline
 62
7
  6
BYLAYER
 70
0
 71
3
 72
9
 73
5
 74
0
 42
0.0000001
 43
0.0000001
 44
0.0000000001
 40
0.0
 40
0.0
 40
0.0
 40
0.0
 40
0.3455820017
 40
1.0
 40
1.0
 40
1.0
 40
1.0
 10
89.6569358795
 20
75.9592368251
 30
0.0
 10
89.3129429745
 20
76.0717952916
 30
0.0
 10
88.3053414659
 20
76.2622475643
 30
0.0
 10
87.277597026
 20
76.2293830909
 30
0.0
 10
86.6069358796
 20
76.2290881317
 30
0.0
  0
SPLINE
  5
4FA
100
AcDbEntity
  8
0
100
AcDbSpline
 62
7
  6
BYLAYER
 70
0
 71
3
 72
16
 73
12
 74
0
 42
0.0000001
 43
0.0000001
 44
0.0000000001
 40
0.0
 40
0.0
 40
0.0
 40
0.0
 40
0.1249995334
 40
0.1875684249
 40
0.2501253103
 40
0.3751067321
 40
0.5000935351
 40
0.6250669471
 40
0.7500506401
 40
0.8750230278
 40
1.0
 40
1.0
 40
1.0
 40
1.0
 10
64.759596434
 20
79.8871990779
 30
0.0
 10
64.6937029015
 20
79.8871990779
 30
0.0
 10
64.5944872124
 20
79.8777681853
 30
0.0
 10
64.4662166858
 20
79.8466083919
 30
0.0
 10
64.3415065464
 20
79.8032617933
 30
0.0
 10
64.1943895946
 20
79.726641964
 30
0.0
 10
64.0391470446
 20
79.6023043661
 30
0.0
 10
63.911262597
 20
79.4498952584
 30
0.0
 10
63.8159900976
 20
79.2752230698
 30
0.0
 10
63.7571504266
 20
79.0852225099
 30
0.0
 10
63.743901596
 20
78.953080764
 30
0.0
 10
63.743901596
 20
78.8871991247
 30
0.0
  0
SPLINE
  5
4FB
100
AcDbEntity
  8
0
100
AcDbSpline
 62
7
  6
BYLAYER
 70
0
 71
3
 72
16
 73
12
 74
0
 42
0.0000001
 43
0.0000001
 44
0.0000000001
 40
0.0
 40
0.0
 40
0.0
 40
0.0
 40
0.1249758915
 40
0.2499486789
 40
0.3749320843
 40
0.4999036431
 40
0.6248907487
 40
0.7498738035
 40
0.8124307458
 40
0.8750001604
 40
1.0
 40
1.0
 40
1.0
 40
1.0
 10
70.4699701983
 20
78.8871991247
 30
0.0
 10
70.4699701983
 20
78.9530801879
 30
0.0
 10
70.4567210966
 20
79.0852218243
 30
0.0
 10
70.3978777133
 20
79.2752201365
 30
0.0
 10
70.302614797
 20
79.4498959819
 30
0.0
 10
70.1747290041
 20
79.6023048691
 30
0.0
 10
70.0194774798
 20
79.7266292441
 30
0.0
 10
69.8723685078
 20
79.8032650489
 30
0.0
 10
69.7476567457
 20
79.8466125743
 30
0.0
 10
69.6193836144
 20
79.8777626406
 30
0.0
 10
69.5201684862
 20
79.8871991247
 30
0.0
 10
69.4542747988
 20
79.8871991247
 30
0.0
  0
SPLINE
  5
4FC
100
AcDbEntity
  8
0
100
AcDbSpline
 62
7
  6
BYLAYER
 70
0
 71
3
 72
9
 73
5
 74
0
 42
0.0000001
 43
0.0000001
 44
0.0000000001
 40
0.0
 40
0.0
 40
0.0
 40
0.0
 40
0.5000000002
 40
1.0
 40
1.0
 40
1.0
 40
1.0
 10
70.6569358796
 20
75.9592368251
 30
0.0
 10
70.7081073838
 20
75.9424929156
 30
0.0
 10
70.8140798541
 20
75.9204981976
 30
0.0
 10
70.8569358796
 20
75.9424887489
 30
0.0
 10
70.8569358796
 20
75.959236825
 30
0.0
  0
SPLINE
  5
4FD
100
AcDbEntity
  8
0
100
AcDbSpline
 62
7
  6
BYLAYER
 70
0
 71
3
 72
9
 73
5
 74
0
 42
0.0000001
 43
0.0000001
 44
0.0000000001
 40
0.0
 40
0.0
 40
0.0
 40
0.0
 40
0.5
 40
1.0
 40
1.0
 40
1.0
 40
1.0
 10
63.3569358796
 20
75.9592368251
 30
0.0
 10
63.3569358796
 20
75.9424929156
 30
0.0
 10
63.3995723457
 20
75.9204981977
 30
0.0
 10
63.5057516414
 20
75.942488749
 30
0.0
 10
63.5569358796
 20
75.9592368251
 30
0.0
  0
SPLINE
  5
4FE
100
AcDbEntity
  8
0
100
AcDbSpline
 62
7
  6
BYLAYER
 70
0
 71
3
 72
9
 73
5
 74
0
 42
0.0000001
 43
0.0000001
 44
0.0000000001
 40
0.0
 40
0.0
 40
0.0
 40
0.0
 40
0.654513995
 40
1.0
 40
1.0
 40
1.0
 40
1.0
 10
66.6069358796
 20
76.2296164649
 30
0.0
 10
65.9365375906
 20
76.2289006869
 30
0.0
 10
64.9118363992
 20
76.2644490706
 30
0.0
 10
63.8926020709
 20
76.0690706944
 30
0.0
 10
63.5569358796
 20
75.9592368251
 30
0.0
  0
SPLINE
  5
4FF
100
AcDbEntity
  8
0
100
AcDbSpline
 62
7
  6
BYLAYER
 70
0
 71
3
 72
9
 73
5
 74
0
 42
0.0000001
 43
0.0000001
 44
0.0000000001
 40
0.0
 40
0.0
 40
0.0
 40
0.0
 40
0.3455820017
 40
1.0
 40
1.0
 40
1.0
 40
1.0
 10
70.6569358796
 20
75.9592368251
 30
0.0
 10
70.3129429745
 20
76.0717952916
 30
0.0
 10
69.3053414659
 20
76.2622475643
 30
0.0
 10
68.277597026
 20
76.2293830909
 30
0.0
 10
67.6069358796
 20
76.2290881317
 30
0.0
  0
SPLINE
  5
500
100
AcDbEntity
  8
0
100
AcDbSpline
 62
7
  6
BYLAYER
 70
0
 71
3
 72
9
 73
5
 74
0
 42
0.0000001
 43
0.0000001
 44
0.0000000001
 40
0.0
 40
0.0
 40
0.0
 40
0.0
 40
0.5
 40
1.0
 40
1.0
 40
1.0
 40
1.0
 10
44.3569358796
 20
75.9592368251
 30
0.0
 10
44.3569358796
 20
75.9424929156
 30
0.0
 10
44.3995723457
 20
75.9204981977
 30
0.0
 10
44.5057516414
 20
75.9424887489
 30
0.0
 10
44.5569358796
 20
75.9592368251
 30
0.0
  0
SPLINE
  5
501
100
AcDbEntity
  8
0
100
AcDbSpline
 62
7
  6
BYLAYER
 70
0
 71
3
 72
9
 73
5
 74
0
 42
0.0000001
 43
0.0000001
 44
0.0000000001
 40
0.0
 40
0.0
 40
0.0
 40
0.0
 40
0.3455820017
 40
1.0
 40
1.0
 40
1.0
 40
1.0
 10
51.6569358796
 20
75.9592368251
 30
0.0
 10
51.3129429745
 20
76.0717952916
 30
0.0
 10
50.3053414659
 20
76.2622475643
 30
0.0
 10
49.277597026
 20
76.2293830909
 30
0.0
 10
48.6069358796
 20
76.2290881317
 30
0.0
  0
SPLINE
  5
502
100
AcDbEntity
  8
0
100
AcDbSpline
 62
7
  6
BYLAYER
 70
0
 71
3
 72
9
 73
5
 74
0
 42
0.0000001
 43
0.0000001
 44
0.0000000001
 40
0.0
 40
0.0
 40
0.0
 40
0.0
 40
0.654513995
 40
1.0
 40
1.0
 40
1.0
 40
1.0
 10
47.6069358796
 20
76.2296164649
 30
0.0
 10
46.9365375906
 20
76.2289006869
 30
0.0
 10
45.9118363992
 20
76.2644490706
 30
0.0
 10
44.8926020709
 20
76.0690706944
 30
0.0
 10
44.5569358796
 20
75.9592368251
 30
0.0
  0
SPLINE
  5
503
100
AcDbEntity
  8
0
100
AcDbSpline
 62
7
  6
BYLAYER
 70
0
 71
3
 72
9
 73
5
 74
0
 42
0.0000001
 43
0.0000001
 44
0.0000000001
 40
0.0
 40
0.0
 40
0.0
 40
0.0
 40
0.5000000002
 40
1.0
 40
1.0
 40
1.0
 40
1.0
 10
51.6569358796
 20
75.9592368251
 30
0.0
 10
51.7081073838
 20
75.9424929156
 30
0.0
 10
51.8140798541
 20
75.9204981976
 30
0.0
 10
51.8569358796
 20
75.9424887489
 30
0.0
 10
51.8569358796
 20
75.959236825
 30
0.0
  0
SPLINE
  5
504
100
AcDbEntity
  8
0
100
AcDbSpline
 62
7
  6
BYLAYER
 70
0
 71
3
 72
16
 73
12
 74
0
 42
0.0000001
 43
0.0000001
 44
0.0000000001
 40
0.0
 40
0.0
 40
0.0
 40
0.0
 40
0.1249758916
 40
0.2499486788
 40
0.3749320843
 40
0.499903643
 40
0.6248907487
 40
0.7498738035
 40
0.8124307458
 40
0.8750001604
 40
1.0
 40
1.0
 40
1.0
 40
1.0
 10
51.469970205
 20
78.8871991247
 30
0.0
 10
51.469970205
 20
78.953080188
 30
0.0
 10
51.4567210925
 20
79.0852218232
 30
0.0
 10
51.3978777149
 20
79.2752201364
 30
0.0
 10
51.3026147968
 20
79.4498959813
 30
0.0
 10
51.1747290045
 20
79.602304869
 30
0.0
 10
51.01947748
 20
79.7266292439
 30
0.0
 10
50.872368508
 20
79.8032650488
 30
0.0
 10
50.7476567458
 20
79.8466125742
 30
0.0
 10
50.6193836145
 20
79.8777626405
 30
0.0
 10
50.5201684863
 20
79.8871991247
 30
0.0
 10
50.4542747988
 20
79.8871991247
 30
0.0
  0
SPLINE
  5
505
100
AcDbEntity
  8
0
100
AcDbSpline
 62
7
  6
BYLAYER
 70
0
 71
3
 72
16
 73
12
 74
0
 42
0.0000001
 43
0.0000001
 44
0.0000000001
 40
0.0
 40
0.0
 40
0.0
 40
0.0
 40
0.1249995334
 40
0.1875684248
 40
0.2501253102
 40
0.375106732
 40
0.500093535
 40
0.6250669471
 40
0.7500506399
 40
0.8750230279
 40
1.0
 40
1.0
 40
1.0
 40
1.0
 10
45.759596434
 20
79.8871990779
 30
0.0
 10
45.6937029015
 20
79.8871990779
 30
0.0
 10
45.5944872125
 20
79.8777681852
 30
0.0
 10
45.466216686
 20
79.846608392
 30
0.0
 10
45.3415065468
 20
79.8032617934
 30
0.0
 10
45.1943895949
 20
79.7266419643
 30
0.0
 10
45.0391470453
 20
79.6023043665
 30
0.0
 10
44.9112625968
 20
79.4498952593
 30
0.0
 10
44.8159901006
 20
79.2752230701
 30
0.0
 10
44.7571504187
 20
79.0852225121
 30
0.0
 10
44.7439016092
 20
78.953080764
 30
0.0
 10
44.7439016092
 20
78.8871991247
 30
0.0
  0
SPLINE
  5
506
100
AcDbEntity
  8
0
100
AcDbSpline
 62
7
  6
BYLAYER
 70
0
 71
3
 72
16
 73
12
 74
0
 42
0.0000001
 43
0.0000001
 44
0.0000000001
 40
0.0
 40
0.0
 40
0.0
 40
0.0
 40
0.1249995334
 40
0.1875684249
 40
0.2501253103
 40
0.3751067321
 40
0.5000935351
 40
0.6250669471
 40
0.7500506401
 40
0.8750230278
 40
1.0
 40
1.0
 40
1.0
 40
1.0
 10
36.259596434
 20
79.8871990779
 30
0.0
 10
36.1937029015
 20
79.8871990779
 30
0.0
 10
36.0944872124
 20
79.8777681853
 30
0.0
 10
35.9662166858
 20
79.8466083919
 30
0.0
 10
35.8415065464
 20
79.8032617933
 30
0.0
 10
35.6943895946
 20
79.726641964
 30
0.0
 10
35.5391470446
 20
79.6023043661
 30
0.0
 10
35.411262597
 20
79.4498952584
 30
0.0
 10
35.3159900976
 20
79.2752230698
 30
0.0
 10
35.2571504266
 20
79.0852225099
 30
0.0
 10
35.243901596
 20
78.953080764
 30
0.0
 10
35.243901596
 20
78.8871991247
 30
0.0
  0
SPLINE
  5
507
100
AcDbEntity
  8
0
100
AcDbSpline
 62
7
  6
BYLAYER
 70
0
 71
3
 72
16
 73
12
 74
0
 42
0.0000001
 43
0.0000001
 44
0.0000000001
 40
0.0
 40
0.0
 40
0.0
 40
0.0
 40
0.1249758915
 40
0.2499486789
 40
0.3749320843
 40
0.4999036431
 40
0.6248907487
 40
0.7498738035
 40
0.8124307458
 40
0.8750001604
 40
1.0
 40
1.0
 40
1.0
 40
1.0
 10
41.9699701983
 20
78.8871991247
 30
0.0
 10
41.9699701983
 20
78.9530801879
 30
0.0
 10
41.9567210966
 20
79.0852218243
 30
0.0
 10
41.8978777133
 20
79.2752201365
 30
0.0
 10
41.802614797
 20
79.4498959819
 30
0.0
 10
41.6747290041
 20
79.6023048691
 30
0.0
 10
41.5194774798
 20
79.7266292441
 30
0.0
 10
41.3723685078
 20
79.8032650489
 30
0.0
 10
41.2476567457
 20
79.8466125743
 30
0.0
 10
41.1193836144
 20
79.8777626406
 30
0.0
 10
41.0201684862
 20
79.8871991247
 30
0.0
 10
40.9542747988
 20
79.8871991247
 30
0.0
  0
SPLINE
  5
508
100
AcDbEntity
  8
0
100
AcDbSpline
 62
7
  6
BYLAYER
 70
0
 71
3
 72
9
 73
5
 74
0
 42
0.0000001
 43
0.0000001
 44
0.0000000001
 40
0.0
 40
0.0
 40
0.0
 40
0.0
 40
0.5000000002
 40
1.0
 40
1.0
 40
1.0
 40
1.0
 10
42.1569358795
 20
75.9592368251
 30
0.0
 10
42.2081073838
 20
75.9424929156
 30
0.0
 10
42.3140798541
 20
75.9204981976
 30
0.0
 10
42.3569358796
 20
75.9424887489
 30
0.0
 10
42.3569358796
 20
75.959236825
 30
0.0
  0
SPLINE
  5
509
100
AcDbEntity
  8
0
100
AcDbSpline
 62
7
  6
BYLAYER
 70
0
 71
3
 72
9
 73
5
 74
0
 42
0.0000001
 43
0.0000001
 44
0.0000000001
 40
0.0
 40
0.0
 40
0.0
 40
0.0
 40
0.5
 40
1.0
 40
1.0
 40
1.0
 40
1.0
 10
34.8569358796
 20
75.9592368251
 30
0.0
 10
34.8569358796
 20
75.9424929156
 30
0.0
 10
34.8995723457
 20
75.9204981977
 30
0.0
 10
35.0057516414
 20
75.9424887489
 30
0.0
 10
35.0569358796
 20
75.9592368251
 30
0.0
  0
SPLINE
  5
50A
100
AcDbEntity
  8
0
100
AcDbSpline
 62
7
  6
BYLAYER
 70
0
 71
3
 72
9
 73
5
 74
0
 42
0.0000001
 43
0.0000001
 44
0.0000000001
 40
0.0
 40
0.0
 40
0.0
 40
0.0
 40
0.654513995
 40
1.0
 40
1.0
 40
1.0
 40
1.0
 10
38.1069358796
 20
76.2296164649
 30
0.0
 10
37.4365375906
 20
76.2289006869
 30
0.0
 10
36.4118363992
 20
76.2644490706
 30
0.0
 10
35.3926020709
 20
76.0690706944
 30
0.0
 10
35.0569358796
 20
75.9592368251
 30
0.0
  0
SPLINE
  5
50B
100
AcDbEntity
  8
0
100
AcDbSpline
 62
7
  6
BYLAYER
 70
0
 71
3
 72
9
 73
5
 74
0
 42
0.0000001
 43
0.0000001
 44
0.0000000001
 40
0.0
 40
0.0
 40
0.0
 40
0.0
 40
0.3455820017
 40
1.0
 40
1.0
 40
1.0
 40
1.0
 10
42.1569358795
 20
75.9592368251
 30
0.0
 10
41.8129429745
 20
76.0717952916
 30
0.0
 10
40.8053414659
 20
76.2622475643
 30
0.0
 10
39.777597026
 20
76.2293830909
 30
0.0
 10
39.1069358796
 20
76.2290881317
 30
0.0
  0
LINE
  5
50C
100
AcDbEntity
  8
0
100
AcDbLine
 62
7
  6
BYLAYER
 10
105.8306146448
 20
103.5056432313
 11
105.8332628391
 21
103.4411919643
  0
SPLINE
  5
50D
100
AcDbEntity
  8
0
100
AcDbSpline
 62
7
  6
BYLAYER
 70
0
 71
3
 72
18
 73
14
 74
0
 42
0.0000001
 43
0.0000001
 44
0.0000000001
 40
0.0
 40
0.0
 40
0.0
 40
0.0
 40
0.1799803903
 40
0.3548949839
 40
0.5187530183
 40
0.6659469679
 40
0.791484569
 40
0.8447676271
 40
0.8911049982
 40
0.9301028512
 40
0.9614252142
 40
0.9848117924
 40
1.0
 40
1.0
 40
1.0
 40
1.0
 10
105.8519299755
 20
102.9354799521
 30
0.0
 10
105.8558834147
 20
102.8212494708
 30
0.0
 10
105.8630257153
 20
102.5959812966
 30
0.0
 10
105.8727448419
 20
102.266683824
 30
0.0
 10
105.8811581283
 20
101.9581788442
 30
0.0
 10
105.8881279503
 20
101.68100447
 30
0.0
 10
105.8929247823
 20
101.4740199921
 30
0.0
 10
105.8959267059
 20
101.3310619979
 30
0.0
 10
105.8976339627
 20
101.2430470336
 30
0.0
 10
105.898907108
 20
101.1689733862
 30
0.0
 10
105.8997480679
 20
101.1094684084
 30
0.0
 10
105.9001397891
 20
101.0650832713
 30
0.0
 10
105.9001602621
 20
101.040581256
 30
0.0
 10
105.8999078407
 20
101.0309390918
 30
0.0
  0
SPLINE
  5
50E
100
AcDbEntity
  8
0
100
AcDbSpline
 62
7
  6
BYLAYER
 70
0
 71
3
 72
31
 73
27
 74
0
 42
0.0000001
 43
0.0000001
 44
0.0000000001
 40
0.0
 40
0.0
 40
0.0
 40
0.0
 40
0.0034789902
 40
0.0049304806
 40
0.0065391026
 40
0.0085200127
 40
0.0109897519
 40
0.0140061053
 40
0.0175984147
 40
0.0265657853
 40
0.0379601278
 40
0.0518040475
 40
0.0680883339
 40
0.0867687632
 40
0.1077927141
 40
0.13110074
 40
0.1566274661
 40
0.2140657678
 40
0.279533265
 40
0.3523870168
 40
0.4318493828
 40
0.517111539
 40
0.6073477642
 40
0.7016712443
 40
0.7991783539
 40
1.0
 40
1.0
 40
1.0
 40
1.0
 10
23.2355383016
 20
59.1240232383
 30
0.0
 10
23.2370230469
 20
59.1226391956
 30
0.0
 10
23.2390315395
 20
59.1201471778
 30
0.0
 10
23.2388599634
 20
59.1161875548
 30
0.0
 10
23.2374181539
 20
59.1135428837
 30
0.0
 10
23.2348875349
 20
59.111036445
 30
0.0
 10
23.231278723
 20
59.1085685995
 30
0.0
 10
23.2265786305
 20
59.1061096943
 30
0.0
 10
23.2182049128
 20
59.1025607861
 30
0.0
 10
23.2048697136
 20
59.0983011449
 30
0.0
 10
23.1854920973
 20
59.0935015738
 30
0.0
 10
23.1617235826
 20
59.0887776865
 30
0.0
 10
23.1336221247
 20
59.0841491652
 30
0.0
 10
23.1012725829
 20
59.0795958167
 30
0.0
 10
23.0647824482
 20
59.0751051711
 30
0.0
 10
23.0242654249
 20
59.0706661293
 30
0.0
 10
22.9625605093
 20
59.0645728049
 30
0.0
 10
22.8762702855
 20
59.0571919422
 30
0.0
 10
22.7623570331
 20
59.0488751436
 30
0.0
 10
22.6355418049
 20
59.0409006803
 30
0.0
 10
22.4971444062
 20
59.0331571036
 30
0.0
 10
22.3485792908
 20
59.0256351846
 30
0.0
 10
22.1913200633
 20
59.0183941109
 30
0.0
 10
22.0268973128
 20
59.0114359622
 30
0.0
 10
21.7979836731
 20
59.0024453401
 30
0.0
 10
21.6240334262
 20
58.9963207019
 30
0.0
 10
21.5069358796
 20
58.9922645445
 30
0.0
  0
SPLINE
  5
50F
100
AcDbEntity
  8
0
100
AcDbSpline
 62
7
  6
BYLAYER
 70
0
 71
3
 72
14
 73
10
 74
0
 42
0.0000001
 43
0.0000001
 44
0.0000000001
 40
0.0
 40
0.0
 40
0.0
 40
0.0
 40
0.3459606249
 40
0.4983770437
 40
0.6351298414
 40
0.7547629521
 40
0.8560204679
 40
0.9380262954
 40
1.0
 40
1.0
 40
1.0
 40
1.0
 10
20.4751517919
 20
59.1371993472
 30
0.0
 10
20.4006496215
 20
59.1326050361
 30
0.0
 10
20.2933442235
 20
59.1256399392
 30
0.0
 10
20.1566878979
 20
59.1154576987
 30
0.0
 10
20.0687855875
 20
59.1081691188
 30
0.0
 10
19.9919623555
 20
59.1009064073
 30
0.0
 10
19.9270034978
 20
59.0936841262
 30
0.0
 10
19.8745775959
 20
59.0865214247
 30
0.0
 10
19.8439615751
 20
59.0811128601
 30
0.0
 10
19.8309188233
 20
59.0781669276
 30
0.0
  0
SPLINE
  5
510
100
AcDbEntity
  8
0
100
AcDbSpline
 62
7
  6
BYLAYER
 70
0
 71
3
 72
18
 73
14
 74
0
 42
0.0000001
 43
0.0000001
 44
0.0000000001
 40
0.0
 40
0.0
 40
0.0
 40
0.0
 40
0.1799385032
 40
0.3548373705
 40
0.5186978404
 40
0.6659050746
 40
0.7914601524
 40
0.8447516019
 40
0.8910962889
 40
0.9300998184
 40
0.9614257299
 40
0.9848133985
 40
1.0
 40
1.0
 40
1.0
 40
1.0
 10
21.5069358796
 20
58.9922645538
 30
0.0
 10
21.3926289862
 20
58.9883050623
 30
0.0
 10
21.1671941271
 20
58.9811538684
 30
0.0
 10
20.8376344554
 20
58.9714248032
 30
0.0
 10
20.5288510087
 20
58.9630010076
 30
0.0
 10
20.2514053104
 20
58.9560230821
 30
0.0
 10
20.0442090924
 20
58.9512201955
 30
0.0
 10
19.9011009484
 20
58.9482143813
 30
0.0
 10
19.8129929342
 20
58.9465048542
 30
0.0
 10
19.7388419014
 20
58.9452299383
 30
0.0
 10
19.6792766445
 20
58.944387715
 30
0.0
 10
19.6348495097
 20
58.9439953655
 30
0.0
 10
19.6103256962
 20
58.943974541
 30
0.0
 10
19.6006758467
 20
58.9442271636
 30
0.0
  0
SPLINE
  5
511
100
AcDbEntity
  8
0
100
AcDbSpline
 62
7
  6
BYLAYER
 70
0
 71
3
 72
35
 73
31
 74
0
 42
0.0000001
 43
0.0000001
 44
0.0000000001
 40
0.0
 40
0.0
 40
0.0
 40
0.0
 40
0.0017597668
 40
0.0040720261
 40
0.0072101169
 40
0.0112846254
 40
0.0163452764
 40
0.0224177514
 40
0.0295160969
 40
0.0376343187
 40
0.0568385595
 40
0.079831254
 40
0.1063968825
 40
0.1363134668
 40
0.2052953857
 40
0.2846874919
 40
0.3716002755
 40
0.4629947645
 40
0.5558196403
 40
0.6469588228
 40
0.7332704818
 40
0.8116438087
 40
0.8794989287
 40
0.9088251661
 40
0.93473976
 40
0.9569893649
 40
0.9753339699
 40
0.9896596117
 40
0.9953228261
 40
1.0
 40
1.0
 40
1.0
 40
1.0
 10
100.6065050518
 20
61.8181306464
 30
0.0
 10
100.606505054
 20
61.8168379213
 30
0.0
 10
100.6053915482
 20
61.8138596587
 30
0.0
 10
100.6014658308
 20
61.8101880364
 30
0.0
 10
100.595454952
 20
61.8065629267
 30
0.0
 10
100.5871757712
 20
61.8029480232
 30
0.0
 10
100.5766068133
 20
61.7993090316
 30
0.0
 10
100.5637156627
 20
61.7956581147
 30
0.0
 10
100.5485079124
 20
61.7919990325
 30
0.0
 10
100.5237559823
 20
61.7868181629
 30
0.0
 10
100.4873284758
 20
61.7805034443
 30
0.0
 10
100.4373389091
 20
61.7732292847
 30
0.0
 10
100.3794124276
 20
61.765925246
 30
0.0
 10
100.2878176482
 20
61.7556623995
 30
0.0
 10
100.1574363307
 20
61.7431603737
 30
0.0
 10
99.9851968191
 20
61.7287266344
 30
0.0
 10
99.7964461436
 20
61.7142238622
 30
0.0
 10
99.5978038175
 20
61.6996832327
 30
0.0
 10
99.3960489756
 20
61.6851380782
 30
0.0
 10
99.19803684
 20
61.6706058975
 30
0.0
 10
99.0106661515
 20
61.6561220062
 30
0.0
 10
98.8404532543
 20
61.6416643415
 30
0.0
 10
98.7120914782
 20
61.6291575562
 30
0.0
 10
98.6222468992
 20
61.618894069
 30
0.0
 10
98.5657898279
 20
61.6115978683
 30
0.0
 10
98.5174664275
 20
61.6043489451
 30
0.0
 10
98.4777685583
 20
61.5971323813
 30
0.0
 10
98.450304173
 20
61.5907923376
 30
0.0
 10
98.4329657246
 20
61.5855082635
 30
0.0
 10
98.4258439933
 20
61.5828373862
 30
0.0
 10
98.4226952651
 20
61.5814623965
 30
0.0
  0
SPLINE
  5
512
100
AcDbEntity
  8
0
100
AcDbSpline
 62
7
  6
BYLAYER
 70
0
 71
3
 72
22
 73
18
 74
0
 42
0.0000001
 43
0.0000001
 44
0.0000000001
 40
0.0
 40
0.0
 40
0.0
 40
0.0
 40
0.1842482052
 40
0.3621695253
 40
0.5277773675
 40
0.6042263141
 40
0.6755089999
 40
0.7410112358
 40
0.8001747777
 40
0.8525182398
 40
0.8976281204
 40
0.9351933314
 40
0.9649119086
 40
0.9767382805
 40
0.9865132901
 40
0.9942507136
 40
1.0
 40
1.0
 40
1.0
 40
1.0
 10
99.5069427198
 20
62.4620654856
 30
0.0
 10
99.4149418711
 20
62.4571263614
 30
0.0
 10
99.2340929756
 20
62.4475412878
 30
0.0
 10
98.9705509562
 20
62.4334967864
 30
0.0
 10
98.7609208799
 20
62.4208348908
 30
0.0
 10
98.6045668081
 20
62.4106484439
 30
0.0
 10
98.49818469
 20
62.4034137275
 30
0.0
 10
98.4004598049
 20
62.3962826661
 30
0.0
 10
98.3122368917
 20
62.3890974809
 30
0.0
 10
98.2342567865
 20
62.3818254657
 30
0.0
 10
98.1671389376
 20
62.3744583738
 30
0.0
 10
98.1114142104
 20
62.3671240482
 30
0.0
 10
98.0723516951
 20
62.3607793534
 30
0.0
 10
98.0472189855
 20
62.3555785532
 30
0.0
 10
98.0329722798
 20
62.3520378286
 30
0.0
 10
98.0218765424
 20
62.3485416688
 30
0.0
 10
98.0156470814
 20
62.3458652773
 30
0.0
 10
98.0131620609
 20
62.3444196278
 30
0.0
  0
SPLINE
  5
513
100
AcDbEntity
  8
0
100
AcDbSpline
 62
7
  6
BYLAYER
 70
0
 71
3
 72
36
 73
32
 74
0
 42
0.0000001
 43
0.0000001
 44
0.0000000001
 40
0.0
 40
0.0
 40
0.0
 40
0.0
 40
0.0017809319
 40
0.0041409886
 40
0.0073515986
 40
0.01151394
 40
0.0166676306
 40
0.0228283381
 40
0.030000992
 40
0.038185093
 40
0.0575709687
 40
0.0809196804
 40
0.1080075532
 40
0.1385459541
 40
0.2088013713
 40
0.2893247577
 40
0.3774909968
 40
0.4700778722
 40
0.5637742702
 40
0.6553052433
 40
0.7415747928
 40
0.8195441427
 40
0.8544708339
 40
0.8862612533
 40
0.9147038871
 40
0.9395960839
 40
0.9607399324
 40
0.9779471663
 40
0.9910524883
 40
0.9960373202
 40
1.0
 40
1.0
 40
1.0
 40
1.0
 10
100.6067570682
 20
62.318290136
 30
0.0
 10
100.6067570703
 20
62.3169776849
 30
0.0
 10
100.6055833078
 20
62.3139458993
 30
0.0
 10
100.6015218913
 20
62.3102455389
 30
0.0
 10
100.595332317
 20
62.3065778919
 30
0.0
 10
100.586837
 20
62.3029204826
 30
0.0
 10
100.5760366265
 20
62.2992359883
 30
0.0
 10
100.5629184223
 20
62.2955393283
 30
0.0
 10
100.5474983319
 20
62.2918302075
 30
0.0
 10
100.5224373537
 20
62.2865739685
 30
0.0
 10
100.48545533
 20
62.2801597544
 30
0.0
 10
100.4345250074
 20
62.2728035118
 30
0.0
 10
100.3753067909
 20
62.2654169082
 30
0.0
 10
100.2816355911
 20
62.2550429748
 30
0.0
 10
100.148607364
 20
62.2423999667
 30
0.0
 10
99.9731274262
 20
62.2277414217
 30
0.0
 10
99.7811391605
 20
62.2130728633
 30
0.0
 10
99.5794202504
 20
62.1983625751
 30
0.0
 10
99.3752159092
 20
62.1836433013
 30
0.0
 10
99.1756789257
 20
62.1689258884
 30
0.0
 10
98.9877621694
 20
62.154245866
 30
0.0
 10
98.8415235497
 20
62.1416766169
 30
0.0
 10
98.7353933891
 20
62.1313911059
 30
0.0
 10
98.6656591396
 20
62.1239624862
 30
0.0
 10
98.6033629239
 20
62.1165535072
 30
0.0
 10
98.5489732428
 20
62.1091683695
 30
0.0
 10
98.5029370249
 20
62.1018351832
 30
0.0
 10
98.4657208148
 20
62.0945530347
 30
0.0
 10
98.4404590682
 20
62.0881778849
 30
0.0
 10
98.4251217063
 20
62.0827767569
 30
0.0
 10
98.419103437
 20
62.0800353851
 30
0.0
 10
98.4165542439
 20
62.0786107227
 30
0.0
  0
SPLINE
  5
514
100
AcDbEntity
  8
0
100
AcDbSpline
 62
7
  6
BYLAYER
 70
0
 71
3
 72
36
 73
32
 74
0
 42
0.0000001
 43
0.0000001
 44
0.0000000001
 40
0.0
 40
0.0
 40
0.0
 40
0.0
 40
0.0017869745
 40
0.0028905842
 40
0.0041936557
 40
0.0074833325
 40
0.0117573364
 40
0.0170452782
 40
0.0233528204
 40
0.0306750448
 40
0.0390017296
 40
0.0586133907
 40
0.0820664103
 40
0.1399210432
 40
0.2106787658
 40
0.291613164
 40
0.3799405039
 40
0.4726950021
 40
0.5665453187
 40
0.6581146352
 40
0.7441311181
 40
0.8217487527
 40
0.856554542
 40
0.888238113
 40
0.9164663595
 40
0.9410085897
 40
0.9617334365
 40
0.9785231735
 40
0.9912834043
 40
0.9961422566
 40
1.0
 40
1.0
 40
1.0
 40
1.0
 10
100.6068886993
 20
62.8180283998
 30
0.0
 10
100.6068887017
 20
62.8167106836
 30
0.0
 10
100.6060562082
 20
62.8145800461
 30
0.0
 10
100.6040257137
 20
62.8122497373
 30
0.0
 10
100.6007922702
 20
62.8095387804
 30
0.0
 10
100.5950705428
 20
62.8062997258
 30
0.0
 10
100.5863247621
 20
62.8026305387
 30
0.0
 10
100.5752077787
 20
62.798945529
 30
0.0
 10
100.5617548222
 20
62.7952423543
 30
0.0
 10
100.5459928577
 20
62.7915278867
 30
0.0
 10
100.5205256193
 20
62.7862738981
 30
0.0
 10
100.4831677568
 20
62.7798560998
 30
0.0
 10
100.4095054564
 20
62.7692440679
 30
0.0
 10
100.2980721504
 20
62.7565625746
 30
0.0
 10
100.1442369871
 20
62.742014459
 30
0.0
 10
99.9678519249
 20
62.7273477085
 30
0.0
 10
99.7752027084
 20
62.7126203131
 30
0.0
 10
99.5730031579
 20
62.6978900902
 30
0.0
 10
99.3684077789
 20
62.6831497723
 30
0.0
 10
99.1687924599
 20
62.6684262424
 30
0.0
 10
98.9811810957
 20
62.6537063014
 30
0.0
 10
98.8353923971
 20
62.6410946759
 30
0.0
 10
98.729626876
 20
62.6307955227
 30
0.0
 10
98.6601765412
 20
62.6233712301
 30
0.0
 10
98.5983399813
 20
62.6159587065
 30
0.0
 10
98.5446499182
 20
62.6085572148
 30
0.0
 10
98.4994730468
 20
62.6012059573
 30
0.0
 10
98.4631245366
 20
62.5939044162
 30
0.0
 10
98.438527661
 20
62.5875032931
 30
0.0
 10
98.4236326159
 20
62.5820980184
 30
0.0
 10
98.4177970844
 20
62.5793539498
 30
0.0
 10
98.4153382312
 20
62.5779234347
 30
0.0
  0
SPLINE
  5
515
100
AcDbEntity
  8
0
100
AcDbSpline
 62
7
  6
BYLAYER
 70
0
 71
3
 72
23
 73
19
 74
0
 42
0.0000001
 43
0.0000001
 44
0.0000000001
 40
0.0
 40
0.0
 40
0.0
 40
0.0
 40
0.0040583181
 40
0.0091748504
 40
0.0159193107
 40
0.0245384189
 40
0.0351441596
 40
0.0477922909
 40
0.0625122698
 40
0.0793196374
 40
0.1192147177
 40
0.1673687386
 40
0.2233558869
 40
0.286705421
 40
0.433645102
 40
0.6045160218
 40
0.7951540204
 40
1.0
 40
1.0
 40
1.0
 40
1.0
 10
100.6065847101
 20
60.8182473857
 30
0.0
 10
100.6065847163
 20
60.8171051221
 30
0.0
 10
100.6057411812
 20
60.8145198154
 30
0.0
 10
100.6026264876
 20
60.8112036293
 30
0.0
 10
100.597834868
 20
60.807958453
 30
0.0
 10
100.5912627612
 20
60.8047237566
 30
0.0
 10
100.5828935353
 20
60.8014749292
 30
0.0
 10
100.5727092513
 20
60.7982157901
 30
0.0
 10
100.5607100029
 20
60.7949469024
 30
0.0
 10
100.5411466892
 20
60.7903089847
 30
0.0
 10
100.5121689991
 20
60.7846597111
 30
0.0
 10
100.4721474299
 20
60.7781711498
 30
0.0
 10
100.4254535093
 20
60.7716620902
 30
0.0
 10
100.3510676086
 20
60.7624934102
 30
0.0
 10
100.2443617775
 20
60.75131568
 30
0.0
 10
100.1018374855
 20
60.7383693311
 30
0.0
 10
99.942955519
 20
60.7254148913
 30
0.0
 10
99.8319615848
 20
60.7169787445
 30
0.0
 10
99.7744647701
 20
60.7126916346
 30
0.0
  0
LINE
  5
516
100
AcDbEntity
  8
0
100
AcDbLine
 62
7
  6
BYLAYER
 10
99.7744647701
 20
60.7126916346
 11
99.2436596423
 21
60.6738891719
  0
SPLINE
  5
517
100
AcDbEntity
  8
0
100
AcDbSpline
 62
7
  6
BYLAYER
 70
0
 71
3
 72
9
 73
5
 74
0
 42
0.0000001
 43
0.0000001
 44
0.0000000001
 40
0.0
 40
0.0
 40
0.0
 40
0.0
 40
0.5292304762
 40
1.0
 40
1.0
 40
1.0
 40
1.0
 10
99.2436596423
 20
60.6738891719
 30
0.0
 10
99.1646275119
 20
60.667997979
 30
0.0
 10
99.0153148312
 20
60.656583304
 30
0.0
 10
98.8661015291
 20
60.643866585
 30
0.0
 10
98.7959206105
 20
60.6371987031
 30
0.0
  0
SPLINE
  5
518
100
AcDbEntity
  8
0
100
AcDbSpline
 62
7
  6
BYLAYER
 70
0
 71
3
 72
38
 73
34
 74
0
 42
0.0000001
 43
0.0000001
 44
0.0000000001
 40
0.0
 40
0.0
 40
0.0
 40
0.0
 40
0.0038576536
 40
0.008703537
 40
0.0214503724
 40
0.0383000346
 40
0.0591887189
 40
0.0839394557
 40
0.1122640531
 40
0.1439133097
 40
0.1786869066
 40
0.2563993937
 40
0.3425254068
 40
0.4340911132
 40
0.5278706046
 40
0.5745566315
 40
0.6205706059
 40
0.6654933791
 40
0.7089040618
 40
0.750436895
 40
0.7897494381
 40
0.8603538542
 40
0.9181605056
 40
0.941632175
 40
0.9612405569
 40
0.9695496825
 40
0.9768413054
 40
0.9831055503
 40
0.9883435578
 40
0.992568844
 40
0.9958198542
 40
0.9982020793
 40
1.0
 40
1.0
 40
1.0
 40
1.0
 10
100.5981222681
 20
63.8461917185
 30
0.0
 10
100.5956617756
 20
63.8447653015
 30
0.0
 10
100.5898324306
 20
63.8420335213
 30
0.0
 10
100.5749444569
 20
63.8366738881
 30
0.0
 10
100.5503036496
 20
63.8303623286
 30
0.0
 10
100.513790695
 20
63.8231386665
 30
0.0
 10
100.468311652
 20
63.8157255228
 30
0.0
 10
100.4143060866
 20
63.8081618397
 30
0.0
 10
100.352281153
 20
63.8007410605
 30
0.0
 10
100.2828050234
 20
63.7934851685
 30
0.0
 10
100.1770311391
 20
63.783285133
 30
0.0
 10
100.0311653122
 20
63.7704402831
 30
0.0
 10
99.8434352235
 20
63.7558129546
 30
0.0
 10
99.6438231504
 20
63.7412495238
 30
0.0
 10
99.4732148358
 20
63.72875205
 30
0.0
 10
99.3360957542
 20
63.718764337
 30
0.0
 10
99.2348998637
 20
63.7114122638
 30
0.0
 10
99.1361236748
 20
63.7040783
 30
0.0
 10
99.0406772597
 20
63.6965281221
 30
0.0
 10
98.949386529
 20
63.6889087616
 30
0.0
 10
98.8381423768
 20
63.679317126
 30
0.0
 10
98.7150179192
 20
63.6678648498
 30
0.0
 10
98.6037500726
 20
63.6550934282
 30
0.0
 10
98.5301468484
 20
63.6443522146
 30
0.0
 10
98.4927891725
 20
63.6379962328
 30
0.0
 10
98.4673508359
 20
63.6328151837
 30
0.0
 10
98.4516508423
 20
63.6291473036
 30
0.0
 10
98.4382873054
 20
63.6254664196
 30
0.0
 10
98.427288076
 20
63.6217769086
 30
0.0
 10
98.4186468036
 20
63.6180976736
 30
0.0
 10
98.4123642125
 20
63.6143976338
 30
0.0
 10
98.4082637861
 20
63.6106422554
 30
0.0
 10
98.4070951327
 20
63.6075765443
 30
0.0
 10
98.4070958103
 20
63.6062510241
 30
0.0
  0
SPLINE
  5
519
100
AcDbEntity
  8
0
100
AcDbSpline
 62
7
  6
BYLAYER
 70
0
 71
3
 72
21
 73
17
 74
0
 42
0.0000001
 43
0.0000001
 44
0.0000000001
 40
0.0
 40
0.0
 40
0.0
 40
0.0
 40
0.0058533877
 40
0.0136927389
 40
0.0235586527
 40
0.0354607429
 40
0.0652938642
 40
0.1029477233
 40
0.1481245696
 40
0.2005008945
 40
0.2596788415
 40
0.3251946984
 40
0.472820164
 40
0.6382632697
 40
0.815994287
 40
1.0
 40
1.0
 40
1.0
 40
1.0
 10
101.0004650675
 20
64.0798412783
 30
0.0
 10
100.9979286515
 20
64.078381353
 30
0.0
 10
100.9916150023
 20
64.0756501377
 30
0.0
 10
100.9803965578
 20
64.0720518922
 30
0.0
 10
100.9660386858
 20
64.0684111458
 30
0.0
 10
100.9407845658
 20
64.0631175963
 30
0.0
 10
100.901585662
 20
64.0567658755
 30
0.0
 10
100.8457155304
 20
64.0495613432
 30
0.0
 10
100.7784916412
 20
64.0423905636
 30
0.0
 10
100.7004543811
 20
64.0352457538
 30
0.0
 10
100.6122153487
 20
64.028047236
 30
0.0
 10
100.4764454128
 20
64.0178243048
 30
0.0
 10
100.2875790457
 20
64.0052029268
 30
0.0
 10
100.0426020989
 20
63.9909599814
 30
0.0
 10
99.7794047411
 20
63.9767911304
 30
0.0
 10
99.5988099869
 20
63.9669912617
 30
0.0
 10
99.506943863
 20
63.9620515577
 30
0.0
  0
SPLINE
  5
51A
100
AcDbEntity
  8
0
100
AcDbSpline
 62
7
  6
BYLAYER
 70
0
 71
3
 72
34
 73
30
 74
0
 42
0.0000001
 43
0.0000001
 44
0.0000000001
 40
0.0
 40
0.0
 40
0.0
 40
0.0
 40
0.003727731
 40
0.0084050907
 40
0.020699626
 40
0.0369226213
 40
0.0569353564
 40
0.0805679214
 40
0.1076404759
 40
0.1379570594
 40
0.1713021266
 40
0.2459349907
 40
0.3289137293
 40
0.4175731069
 40
0.5089461875
 40
0.599979061
 40
0.6876222959
 40
0.7689645529
 40
0.8413730282
 40
0.8733965422
 40
0.9022903356
 40
0.9278458831
 40
0.9498834238
 40
0.9682309709
 40
0.9827177873
 40
0.9884753829
 40
0.9932514299
 40
0.9970745389
 40
1.0
 40
1.0
 40
1.0
 40
1.0
 10
100.5982438081
 20
63.3463568892
 30
0.0
 10
100.5958773068
 20
63.3449786031
 30
0.0
 10
100.590282819
 20
63.3423207091
 30
0.0
 10
100.5760056107
 20
63.3370594028
 30
0.0
 10
100.5523922559
 20
63.3308008527
 30
0.0
 10
100.5174587289
 20
63.3236601243
 30
0.0
 10
100.4740507049
 20
63.3165074369
 30
0.0
 10
100.4225874083
 20
63.3093701099
 30
0.0
 10
100.3634956985
 20
63.3021953866
 30
0.0
 10
100.2972298086
 20
63.2949589915
 30
0.0
 10
100.196130249
 20
63.284881399
 30
0.0
 10
100.056378161
 20
63.2725814722
 30
0.0
 10
99.8760081627
 20
63.2584079855
 30
0.0
 10
99.6833264188
 20
63.2439425274
 30
0.0
 10
99.4847001105
 20
63.2296369221
 30
0.0
 10
99.2868196011
 20
63.2153682883
 30
0.0
 10
99.0963402715
 20
63.2009315998
 30
0.0
 10
98.9195702446
 20
63.1866875351
 30
0.0
 10
98.7836353293
 20
63.1744374322
 30
0.0
 10
98.6862058996
 20
63.1643472767
 30
0.0
 10
98.623089956
 20
63.1571066695
 30
0.0
 10
98.5673594374
 20
63.1499062655
 30
0.0
 10
98.5194405115
 20
63.1427520617
 30
0.0
 10
98.4797573417
 20
63.1356390809
 30
0.0
 10
98.4520727724
 20
63.1294108685
 30
0.0
 10
98.4344411241
 20
63.1241924647
 30
0.0
 10
98.4245148054
 20
63.1205918559
 30
0.0
 10
98.4168321532
 20
63.1170157803
 30
0.0
 10
98.4126346882
 20
63.114301635
 30
0.0
 10
98.4110147346
 20
63.1128892303
 30
0.0
  0
SPLINE
  5
51B
100
AcDbEntity
  8
0
100
AcDbSpline
 62
7
  6
BYLAYER
 70
0
 71
3
 72
21
 73
17
 74
0
 42
0.0000001
 43
0.0000001
 44
0.0000000001
 40
0.0
 40
0.0
 40
0.0
 40
0.0
 40
0.0058630982
 40
0.0136802716
 40
0.0234939536
 40
0.0353162297
 40
0.0649582637
 40
0.1024866754
 40
0.1476519187
 40
0.2000953096
 40
0.2593451847
 40
0.3248647958
 40
0.4724704391
 40
0.6379941753
 40
0.8158655753
 40
1.0
 40
1.0
 40
1.0
 40
1.0
 10
101.0004368784
 20
63.5799113639
 30
0.0
 10
100.9979035567
 20
63.5784364174
 30
0.0
 10
100.9916097173
 20
63.5756747742
 30
0.0
 10
100.9804336414
 20
63.5720484572
 30
0.0
 10
100.9661566169
 20
63.5684016239
 30
0.0
 10
100.9410607683
 20
63.5631385891
 30
0.0
 10
100.9020464132
 20
63.5568824755
 30
0.0
 10
100.8463263458
 20
63.5498026817
 30
0.0
 10
100.7791329615
 20
63.5426849966
 30
0.0
 10
100.7010476498
 20
63.5353772188
 30
0.0
 10
100.6127550056
 20
63.5279601443
 30
0.0
 10
100.4769610548
 20
63.5176781668
 30
0.0
 10
100.2880338119
 20
63.5054878529
 30
0.0
 10
100.0429590298
 20
63.4912377305
 30
0.0
 10
99.7796217644
 20
63.4764321951
 30
0.0
 10
99.5988772148
 20
63.4669184212
 30
0.0
 10
99.5069408784
 20
63.4620915598
 30
0.0
  0
SPLINE
  5
51C
100
AcDbEntity
  8
0
100
AcDbSpline
 62
7
  6
BYLAYER
 70
0
 71
3
 72
36
 73
32
 74
0
 42
0.0000001
 43
0.0000001
 44
0.0000000001
 40
0.0
 40
0.0
 40
0.0
 40
0.0
 40
0.0040714328
 40
0.0055869296
 40
0.0073360692
 40
0.0115644065
 40
0.0167927691
 40
0.0230311658
 40
0.0302795903
 40
0.0385329535
 40
0.0580213168
 40
0.0814161613
 40
0.1085935133
 40
0.1392798412
 40
0.2098761685
 40
0.2906783323
 40
0.3790567413
 40
0.471814343
 40
0.5656587912
 40
0.6572858336
 40
0.7434152002
 40
0.8211751912
 40
0.8560438492
 40
0.8877535294
 40
0.9160074294
 40
0.9406289286
 40
0.9614661137
 40
0.9783776216
 40
0.9912391626
 40
0.9961297218
 40
1.0
 40
1.0
 40
1.0
 40
1.0
 10
100.6069255785
 20
61.318190422
 30
0.0
 10
100.6069256115
 20
61.3151885384
 30
0.0
 10
100.6034898091
 20
61.3115915575
 30
0.0
 10
100.5990702573
 20
61.3086849087
 30
0.0
 10
100.594194661
 20
61.3060062319
 30
0.0
 10
100.5865859448
 20
61.302793635
 30
0.0
 10
100.5756057494
 20
61.2990986857
 30
0.0
 10
100.5623095041
 20
61.2953994364
 30
0.0
 10
100.546713493
 20
61.2916837714
 30
0.0
 10
100.5214541004
 20
61.2864262477
 30
0.0
 10
100.4842925884
 20
61.2800022089
 30
0.0
 10
100.4331651873
 20
61.2726081012
 30
0.0
 10
100.3737091078
 20
61.2652039574
 30
0.0
 10
100.2795644773
 20
61.2548156096
 30
0.0
 10
100.1459031544
 20
61.2421672781
 30
0.0
 10
99.9697248441
 20
61.2274762457
 30
0.0
 10
99.777156923
 20
61.2127637318
 30
0.0
 10
99.5749487049
 20
61.1980310283
 30
0.0
 10
99.3703397168
 20
61.1832890472
 30
0.0
 10
99.1706300517
 20
61.1685504565
 30
0.0
 10
98.9828118957
 20
61.1538322324
 30
0.0
 10
98.8368062534
 20
61.1412298141
 30
0.0
 10
98.7308832211
 20
61.1309317568
 30
0.0
 10
98.6613581104
 20
61.12349745
 30
0.0
 10
98.5994342558
 20
61.1160705995
 30
0.0
 10
98.5455896754
 20
61.1086706106
 30
0.0
 10
98.5001842095
 20
61.1013233951
 30
0.0
 10
98.4635881146
 20
61.0940266884
 30
0.0
 10
98.4387981386
 20
61.0876333382
 30
0.0
 10
98.4237929156
 20
61.0822244679
 30
0.0
 10
98.4179216671
 20
61.079479951
 30
0.0
 10
98.4154549868
 20
61.0780452529
 30
0.0
  0
SPLINE
  5
51D
100
AcDbEntity
  8
0
100
AcDbSpline
 62
7
  6
BYLAYER
 70
0
 71
3
 72
22
 73
18
 74
0
 42
0.0000001
 43
0.0000001
 44
0.0000000001
 40
0.0
 40
0.0
 40
0.0
 40
0.0
 40
0.1839994939
 40
0.3617184031
 40
0.5271307612
 40
0.6035184493
 40
0.6748173902
 40
0.7403499095
 40
0.7994942817
 40
0.8518550541
 40
0.8970777084
 40
0.9347915889
 40
0.9646479471
 40
0.9765350854
 40
0.9863684771
 40
0.9941705914
 40
1.0
 40
1.0
 40
1.0
 40
1.0
 10
99.5069408784
 20
63.4620915598
 30
0.0
 10
99.4150851227
 20
63.4572689291
 30
0.0
 10
99.2345061342
 20
63.4478384921
 30
0.0
 10
98.9714006206
 20
63.4331409605
 30
0.0
 10
98.7620432077
 20
63.420806889
 30
0.0
 10
98.6058388969
 20
63.4108693021
 30
0.0
 10
98.4994946835
 20
63.4036381976
 30
0.0
 10
98.4017925289
 20
63.3963970354
 30
0.0
 10
98.3135905285
 20
63.3890976713
 30
0.0
 10
98.2355832704
 20
63.3817693619
 30
0.0
 10
98.1683398391
 20
63.374454964
 30
0.0
 10
98.1124159425
 20
63.3672364406
 30
0.0
 10
98.0731707717
 20
63.3610074417
 30
0.0
 10
98.0479030497
 20
63.3558610216
 30
0.0
 10
98.0335636914
 20
63.352329415
 30
0.0
 10
98.0223693806
 20
63.3488167047
 30
0.0
 10
98.0160748712
 20
63.346113853
 30
0.0
 10
98.0135528607
 20
63.3446538062
 30
0.0
  0
SPLINE
  5
51E
100
AcDbEntity
  8
0
100
AcDbSpline
 62
7
  6
BYLAYER
 70
0
 71
3
 72
21
 73
17
 74
0
 42
0.0000001
 43
0.0000001
 44
0.0000000001
 40
0.0
 40
0.0
 40
0.0
 40
0.0
 40
0.0058551256
 40
0.0136634233
 40
0.0234700813
 40
0.0352902295
 40
0.0649440087
 40
0.1024970527
 40
0.1476890262
 40
0.2001510384
 40
0.2594010686
 40
0.3248973915
 40
0.4724608134
 40
0.638018214
 40
0.8158876252
 40
1.0
 40
1.0
 40
1.0
 40
1.0
 10
101.0003703828
 20
61.0799560667
 30
0.0
 10
100.9978450456
 20
61.0784755146
 30
0.0
 10
100.9915677869
 20
61.0756976346
 30
0.0
 10
100.9804128591
 20
61.0720452788
 30
0.0
 10
100.9661521569
 20
61.068372011
 30
0.0
 10
100.9410619171
 20
61.0630782892
 30
0.0
 10
100.9020324909
 20
61.0568100805
 30
0.0
 10
100.8462786789
 20
61.049756555
 30
0.0
 10
100.7790464094
 20
61.0426913919
 30
0.0
 10
100.7009365083
 20
61.035426713
 30
0.0
 10
100.6126477934
 20
61.0280204623
 30
0.0
 10
100.476895936
 20
61.017668101
 30
0.0
 10
100.287998956
 20
61.0053281165
 30
0.0
 10
100.0429217036
 20
60.9913214945
 30
0.0
 10
99.7795867538
 20
60.9765238558
 30
0.0
 10
99.5988642059
 20
60.9669159366
 30
0.0
 10
99.5069442737
 20
60.9620353082
 30
0.0
  0
LINE
  5
51F
100
AcDbEntity
  8
0
100
AcDbLine
 62
7
  6
BYLAYER
 10
100.5979535966
 20
60.8463269091
 11
100.5952775233
 21
60.8448734001
  0
SPLINE
  5
520
100
AcDbEntity
  8
0
100
AcDbSpline
 62
7
  6
BYLAYER
 70
0
 71
3
 72
18
 73
14
 74
0
 42
0.0000001
 43
0.0000001
 44
0.0000000001
 40
0.0
 40
0.0
 40
0.0
 40
0.0
 40
0.0181104381
 40
0.0433173618
 40
0.0757387499
 40
0.1153284785
 40
0.1617595663
 40
0.2146199678
 40
0.3380139321
 40
0.4823166197
 40
0.6439636928
 40
0.8181730863
 40
1.0
 40
1.0
 40
1.0
 40
1.0
 10
100.5952775233
 20
60.8448734001
 30
0.0
 10
100.5898957283
 20
60.8421335021
 30
0.0
 10
100.5762520186
 20
60.8371715216
 30
0.0
 10
100.5518367577
 20
60.8307229689
 30
0.0
 10
100.5200585149
 20
60.824215781
 30
0.0
 10
100.481106694
 20
60.8176720049
 30
0.0
 10
100.4352602543
 20
60.8110971774
 30
0.0
 10
100.3615837588
 20
60.8018164203
 30
0.0
 10
100.2552812116
 20
60.79051741
 30
0.0
 10
100.1127086892
 20
60.777441596
 30
0.0
 10
99.9531288565
 20
60.7643539133
 30
0.0
 10
99.7810014092
 20
60.7512314044
 30
0.0
 10
99.6625937124
 20
60.7425723579
 30
0.0
 10
99.6021211099
 20
60.7381792968
 30
0.0
  0
SPLINE
  5
521
100
AcDbEntity
  8
0
100
AcDbSpline
 62
7
  6
BYLAYER
 70
0
 71
3
 72
14
 73
10
 74
0
 42
0.0000001
 43
0.0000001
 44
0.0000000001
 40
0.0
 40
0.0
 40
0.0
 40
0.0
 40
0.3168594934
 40
0.4649703286
 40
0.6025201169
 40
0.7266988568
 40
0.8354220135
 40
0.92705359
 40
1.0
 40
1.0
 40
1.0
 40
1.0
 10
99.4011463237
 20
60.7236100111
 30
0.0
 10
99.3045939533
 20
60.7165869825
 30
0.0
 10
99.1629169025
 20
60.7061714996
 30
0.0
 10
98.9794106492
 20
60.6916036972
 30
0.0
 10
98.8546486189
 20
60.6809495393
 30
0.0
 10
98.7419682318
 20
60.6702989151
 30
0.0
 10
98.6433790743
 20
60.6596971249
 30
0.0
 10
98.5605424916
 20
60.6491745579
 30
0.0
 10
98.510850435
 20
60.641360949
 30
0.0
 10
98.4889565246
 20
60.6371951103
 30
0.0
  0
SPLINE
  5
522
100
AcDbEntity
  8
0
100
AcDbSpline
 62
7
  6
BYLAYER
 70
0
 71
3
 72
19
 73
15
 74
0
 42
0.0000001
 43
0.0000001
 44
0.0000000001
 40
0.0
 40
0.0
 40
0.0
 40
0.0
 40
0.0086847321
 40
0.0192172488
 40
0.0457811451
 40
0.0795488227
 40
0.1203054198
 40
0.1677662979
 40
0.2215786133
 40
0.3466097014
 40
0.4916317712
 40
0.6521971005
 40
0.8233911967
 40
1.0
 40
1.0
 40
1.0
 40
1.0
 10
98.0281717913
 20
61.350431976
 30
0.0
 10
98.0322608869
 20
61.3517491676
 30
0.0
 10
98.0414231353
 20
61.3543082713
 30
0.0
 10
98.063498463
 20
61.359379927
 30
0.0
 10
98.0980427847
 20
61.3654477401
 30
0.0
 10
98.1475809561
 20
61.3722893563
 30
0.0
 10
98.2075480683
 20
61.3790477632
 30
0.0
 10
98.2774839296
 20
61.3857706094
 30
0.0
 10
98.3890195929
 20
61.3953403449
 30
0.0
 10
98.5487733078
 20
61.4073955901
 30
0.0
 10
98.7613340463
 20
61.4212822615
 30
0.0
 10
98.9968054442
 20
61.4345918914
 30
0.0
 10
99.2479050136
 20
61.4482410928
 30
0.0
 10
99.4196911924
 20
61.4576762842
 30
0.0
 10
99.5069268966
 20
61.462366769
 30
0.0
  0
SPLINE
  5
523
100
AcDbEntity
  8
0
100
AcDbSpline
 62
7
  6
BYLAYER
 70
0
 71
3
 72
22
 73
18
 74
0
 42
0.0000001
 43
0.0000001
 44
0.0000000001
 40
0.0
 40
0.0
 40
0.0
 40
0.0
 40
0.1843000881
 40
0.3623189771
 40
0.5280045143
 40
0.604436813
 40
0.675687325
 40
0.7411807836
 40
0.8003848495
 40
0.8527808869
 40
0.897911093
 40
0.9354279546
 40
0.9650423871
 40
0.9768174363
 40
0.9865519742
 40
0.9942625606
 40
1.0
 40
1.0
 40
1.0
 40
1.0
 10
99.5069268966
 20
61.462366769
 30
0.0
 10
99.5989456978
 20
61.4673144312
 30
0.0
 10
99.7798623063
 20
61.4767541842
 30
0.0
 10
100.0434924326
 20
61.490870507
 30
0.0
 10
100.2531877222
 20
61.5034825093
 30
0.0
 10
100.4095405677
 20
61.5137130014
 30
0.0
 10
100.5158831282
 20
61.5209759497
 30
0.0
 10
100.6135987338
 20
61.5281194288
 30
0.0
 10
100.701859875
 20
61.5352632632
 30
0.0
 10
100.7798936025
 20
61.5425039062
 30
0.0
 10
100.8470165045
 20
61.5498890995
 30
0.0
 10
100.9026671597
 20
61.5572446999
 30
0.0
 10
100.9416210927
 20
61.5636031958
 30
0.0
 10
100.966649409
 20
61.568815227
 30
0.0
 10
100.9808315946
 20
61.5723642125
 30
0.0
 10
100.9918829885
 20
61.5758670738
 30
0.0
 10
100.9980898863
 20
61.5785434409
 30
0.0
 10
101.0005699028
 20
61.5799854428
 30
0.0
  0
SPLINE
  5
524
100
AcDbEntity
  8
0
100
AcDbSpline
 62
7
  6
BYLAYER
 70
0
 71
3
 72
38
 73
34
 74
0
 42
0.0000001
 43
0.0000001
 44
0.0000000001
 40
0.0
 40
0.0
 40
0.0
 40
0.0
 40
0.0038306427
 40
0.0086679978
 40
0.021411164
 40
0.0382093849
 40
0.0589668485
 40
0.0835814172
 40
0.1118914531
 40
0.1436021224
 40
0.1784004931
 40
0.2560397339
 40
0.342229492
 40
0.4338957483
 40
0.527779217
 40
0.6205675194
 40
0.6655248847
 40
0.7089984615
 40
0.7899578141
 40
0.8605668696
 40
0.8912164821
 40
0.9184008748
 40
0.9418698576
 40
0.9614339408
 40
0.9697167343
 40
0.9769845511
 40
0.9832307312
 40
0.9884541354
 40
0.992663399
 40
0.9958908438
 40
0.9971665121
 40
0.9982470667
 40
1.0
 40
1.0
 40
1.0
 40
1.0
 10
98.4152874173
 20
64.0777991676
 30
0.0
 10
98.4177297108
 20
64.0792187776
 30
0.0
 10
98.4235332208
 20
64.0819468338
 30
0.0
 10
98.4383778303
 20
64.0873507347
 30
0.0
 10
98.4629381522
 20
64.0938074519
 30
0.0
 10
98.4992937636
 20
64.1011811792
 30
0.0
 10
98.5445533796
 20
64.1085668424
 30
0.0
 10
98.5983879327
 20
64.115957184
 30
0.0
 10
98.6603691045
 20
64.1233204272
 30
0.0
 10
98.7299026908
 20
64.1307118281
 30
0.0
 10
98.8357064476
 20
64.141003585
 30
0.0
 10
98.9816345515
 20
64.1537164081
 30
0.0
 10
99.1694691511
 20
64.1685087419
 30
0.0
 10
99.3693356763
 20
64.1830470839
 30
0.0
 10
99.5740622487
 20
64.1978374029
 30
0.0
 10
99.7444111137
 20
64.2104467811
 30
0.0
 10
99.877674907
 20
64.2204680446
 30
0.0
 10
100.0022273159
 20
64.2300023961
 30
0.0
 10
100.1455696262
 20
64.2419155361
 30
0.0
 10
100.2793270811
 20
64.2548652779
 30
0.0
 10
100.3734785087
 20
64.2652397657
 30
0.0
 10
100.432999011
 20
64.2724810719
 30
0.0
 10
100.4842701333
 20
64.2797660159
 30
0.0
 10
100.5215664781
 20
64.2862384865
 30
0.0
 10
100.5469083566
 20
64.2915765058
 30
0.0
 10
100.562535857
 20
64.2953528618
 30
0.0
 10
100.5758360062
 20
64.2991129507
 30
0.0
 10
100.5867921274
 20
64.3028380819
 30
0.0
 10
100.595379352
 20
64.3065201692
 30
0.0
 10
100.6009803461
 20
64.3097400164
 30
0.0
 10
100.6041326912
 20
64.3124181836
 30
0.0
 10
100.6061083198
 20
64.3147133044
 30
0.0
 10
100.6069110844
 20
64.316809424
 30
0.0
 10
100.6068979683
 20
64.3181020572
 30
0.0
  0
SPLINE
  5
525
100
AcDbEntity
  8
0
100
AcDbSpline
 62
7
  6
BYLAYER
 70
0
 71
3
 72
31
 73
27
 74
0
 42
0.0000001
 43
0.0000001
 44
0.0000000001
 40
0.0
 40
0.0
 40
0.0
 40
0.0
 40
0.0034789902
 40
0.0049304806
 40
0.0065391026
 40
0.0085200127
 40
0.0109897519
 40
0.0140061053
 40
0.0175984147
 40
0.0265657853
 40
0.0379601278
 40
0.0518040475
 40
0.0680883339
 40
0.0867687632
 40
0.1077927141
 40
0.13110074
 40
0.1566274661
 40
0.2140657678
 40
0.279533265
 40
0.3523870168
 40
0.4318493828
 40
0.517111539
 40
0.6073477642
 40
0.7016712443
 40
0.7991783539
 40
1.0
 40
1.0
 40
1.0
 40
1.0
 10
101.2355383016
 20
59.1240232383
 30
0.0
 10
101.2370230469
 20
59.1226391956
 30
0.0
 10
101.2390315394
 20
59.1201471778
 30
0.0
 10
101.2388599634
 20
59.1161875548
 30
0.0
 10
101.2374181539
 20
59.1135428837
 30
0.0
 10
101.2348875349
 20
59.111036445
 30
0.0
 10
101.231278723
 20
59.1085685995
 30
0.0
 10
101.2265786305
 20
59.1061096943
 30
0.0
 10
101.2182049128
 20
59.1025607861
 30
0.0
 10
101.2048697136
 20
59.0983011449
 30
0.0
 10
101.1854920973
 20
59.0935015738
 30
0.0
 10
101.1617235826
 20
59.0887776865
 30
0.0
 10
101.1336221246
 20
59.0841491652
 30
0.0
 10
101.1012725829
 20
59.0795958167
 30
0.0
 10
101.0647824482
 20
59.0751051711
 30
0.0
 10
101.0242654249
 20
59.0706661293
 30
0.0
 10
100.9625605093
 20
59.0645728049
 30
0.0
 10
100.8762702855
 20
59.0571919422
 30
0.0
 10
100.7623570331
 20
59.0488751436
 30
0.0
 10
100.6355418049
 20
59.0409006803
 30
0.0
 10
100.4971444062
 20
59.0331571036
 30
0.0
 10
100.3485792908
 20
59.0256351846
 30
0.0
 10
100.1913200633
 20
59.0183941109
 30
0.0
 10
100.0268973128
 20
59.0114359622
 30
0.0
 10
99.7979836731
 20
59.0024453401
 30
0.0
 10
99.6240334262
 20
58.9963207019
 30
0.0
 10
99.5069358796
 20
58.9922645445
 30
0.0
  0
SPLINE
  5
526
100
AcDbEntity
  8
0
100
AcDbSpline
 62
7
  6
BYLAYER
 70
0
 71
3
 72
35
 73
31
 74
0
 42
0.0000001
 43
0.0000001
 44
0.0000000001
 40
0.0
 40
0.0
 40
0.0
 40
0.0
 40
0.0038559382
 40
0.0087321141
 40
0.0215795401
 40
0.0385056953
 40
0.0593821511
 40
0.084053364
 40
0.1123500792
 40
0.1440836051
 40
0.1789536024
 40
0.2567039799
 40
0.3428874291
 40
0.434542235
 40
0.5283878849
 40
0.6211274556
 40
0.7094776847
 40
0.7903517528
 40
0.8608649536
 40
0.918631557
 40
0.9420847429
 40
0.9616269248
 40
0.9698783111
 40
0.9771065942
 40
0.9833135182
 40
0.9885062434
 40
0.992701855
 40
0.9944374378
 40
0.9959420618
 40
1.0
 40
1.0
 40
1.0
 40
1.0
 10
98.4155169498
 20
63.5780796903
 30
0.0
 10
98.4179732578
 20
63.5795111842
 30
0.0
 10
98.4238236379
 20
63.5822511097
 30
0.0
 10
98.4388076946
 20
63.587627099
 30
0.0
 10
98.4635979694
 20
63.5939760624
 30
0.0
 10
98.500228286
 20
63.6012485605
 30
0.0
 10
98.5457094028
 20
63.6086046616
 30
0.0
 10
98.599646659
 20
63.6160427792
 30
0.0
 10
98.6616518337
 20
63.6235121562
 30
0.0
 10
98.7312255252
 20
63.6309638134
 30
0.0
 10
98.8371622153
 20
63.6412412981
 30
0.0
 10
98.9832157789
 20
63.6536775568
 30
0.0
 10
99.1710752187
 20
63.6685381165
 30
0.0
 10
99.3708348127
 20
63.6834364624
 30
0.0
 10
99.5754773972
 20
63.6978178571
 30
0.0
 10
99.7776424613
 20
63.7126941592
 30
0.0
 10
99.9702040119
 20
63.7277133813
 30
0.0
 10
100.1463940489
 20
63.7419230896
 30
0.0
 10
100.2999093257
 20
63.7566094376
 30
0.0
 10
100.4110440173
 20
63.769580542
 30
0.0
 10
100.4846019268
 20
63.7800179637
 30
0.0
 10
100.5218700822
 20
63.7863054354
 30
0.0
 10
100.5471587648
 20
63.7915393444
 30
0.0
 10
100.5627129925
 20
63.7952612743
 30
0.0
 10
100.5759353762
 20
63.7989879545
 30
0.0
 10
100.5868242043
 20
63.8027236629
 30
0.0
 10
100.5943506225
 20
63.8059791479
 30
0.0
 10
100.5991587634
 20
63.8086901023
 30
0.0
 10
100.6035222755
 20
63.8116385753
 30
0.0
 10
100.6068749739
 20
63.8152592496
 30
0.0
 10
100.6068616206
 20
63.8182511506
 30
0.0
  0
SPLINE
  5
527
100
AcDbEntity
  8
0
100
AcDbSpline
 62
7
  6
BYLAYER
 70
0
 71
3
 72
33
 73
29
 74
0
 42
0.0000001
 43
0.0000001
 44
0.0000000001
 40
0.0
 40
0.0
 40
0.0
 40
0.0
 40
0.0131893277
 40
0.0301932215
 40
0.0509490657
 40
0.075287411
 40
0.1338424404
 40
0.2039364115
 40
0.2834640198
 40
0.3697374594
 40
0.4599639428
 40
0.5512137124
 40
0.6405234876
 40
0.7249644671
 40
0.8017527403
 40
0.8684864008
 40
0.8973868944
 40
0.9229685484
 40
0.9450304014
 40
0.9634228117
 40
0.9712200851
 40
0.9780748277
 40
0.9839787185
 40
0.9889261883
 40
0.9929229738
 40
0.9960013576
 40
0.998268467
 40
1.0
 40
1.0
 40
1.0
 40
1.0
 10
100.5753531933
 20
64.337187883
 30
0.0
 10
100.5661585357
 20
64.3343734633
 30
0.0
 10
100.5447637952
 20
64.329084942
 30
0.0
 10
100.5082869599
 20
64.3220488107
 30
0.0
 10
100.4635577722
 20
64.3150031222
 30
0.0
 10
100.3886660117
 20
64.3049095891
 30
0.0
 10
100.2777980113
 20
64.2925956232
 30
0.0
 10
100.1266679662
 20
64.278613622
 30
0.0
 10
99.9552638978
 20
64.26452241
 30
0.0
 10
99.7691549758
 20
64.2502036754
 30
0.0
 10
99.5744542881
 20
64.2361852556
 30
0.0
 10
99.3775507064
 20
64.2219419048
 30
0.0
 10
99.1848809959
 20
64.207637026
 30
0.0
 10
99.0027589137
 20
64.1936552602
 30
0.0
 10
98.8371647281
 20
64.1794769949
 30
0.0
 10
98.7120536426
 20
64.1672031215
 30
0.0
 10
98.6242403846
 20
64.157257078
 30
0.0
 10
98.5688790641
 20
64.1502128293
 30
0.0
 10
98.5212553704
 20
64.1431242195
 30
0.0
 10
98.4866300099
 20
64.1368577362
 30
0.0
 10
98.4630841074
 20
64.131749621
 30
0.0
 10
98.4485290811
 20
64.128170735
 30
0.0
 10
98.4361094159
 20
64.1246347436
 30
0.0
 10
98.4258630536
 20
64.1211257835
 30
0.0
 10
98.4177998462
 20
64.1176454131
 30
0.0
 10
98.4119337031
 20
64.114140947
 30
0.0
 10
98.4081068466
 20
64.1105620865
 30
0.0
 10
98.4070304041
 20
64.1076578316
 30
0.0
 10
98.4070285912
 20
64.1063954493
 30
0.0
  0
SPLINE
  5
528
100
AcDbEntity
  8
0
100
AcDbSpline
 62
7
  6
BYLAYER
 70
0
 71
3
 72
22
 73
18
 74
0
 42
0.0000001
 43
0.0000001
 44
0.0000000001
 40
0.0
 40
0.0
 40
0.0
 40
0.0
 40
0.1840262556
 40
0.3617518152
 40
0.5272655512
 40
0.6036744795
 40
0.67491991
 40
0.7403896887
 40
0.7995385139
 40
0.8519340951
 40
0.8971755993
 40
0.9348713078
 40
0.9646827973
 40
0.9765529665
 40
0.9863767035
 40
0.9941739135
 40
1.0
 40
1.0
 40
1.0
 40
1.0
 10
99.5069442737
 20
60.9620353082
 30
0.0
 10
99.4150762809
 20
60.9571574376
 30
0.0
 10
99.2344718345
 20
60.9478322007
 30
0.0
 10
98.9712792991
 20
60.9333871347
 30
0.0
 10
98.7618698632
 20
60.9207674972
 30
0.0
 10
98.6056327314
 20
60.9107582519
 30
0.0
 10
98.4993286954
 20
60.9036097765
 30
0.0
 10
98.4016716385
 20
60.8964903981
 30
0.0
 10
98.313478641
 20
60.8891999859
 30
0.0
 10
98.2354451738
 20
60.8818228975
 30
0.0
 10
98.1681883399
 20
60.8744556419
 30
0.0
 10
98.1122893926
 20
60.8672101162
 30
0.0
 10
98.0730828618
 20
60.860988856
 30
0.0
 10
98.0478501861
 20
60.8558465082
 30
0.0
 10
98.0335270325
 20
60.8523140142
 30
0.0
 10
98.0223416644
 20
60.8488017251
 30
0.0
 10
98.0160500541
 20
60.8461037368
 30
0.0
 10
98.0135272442
 20
60.8446482814
 30
0.0
  0
LINE
  5
529
100
AcDbEntity
  8
0
100
AcDbLine
 62
7
  6
BYLAYER
 10
100.5984644688
 20
61.346506479
 11
100.5943604015
 21
61.3443504437
  0
SPLINE
  5
52A
100
AcDbEntity
  8
0
100
AcDbSpline
 62
7
  6
BYLAYER
 70
0
 71
3
 72
35
 73
31
 74
0
 42
0.0000001
 43
0.0000001
 44
0.0000000001
 40
0.0
 40
0.0
 40
0.0
 40
0.0
 40
0.0043828349
 40
0.0097523511
 40
0.0234696738
 40
0.0411358107
 40
0.0626813321
 40
0.088014307
 40
0.1169358263
 40
0.1842907229
 40
0.2622718974
 40
0.3483891501
 40
0.4396624107
 40
0.5328548441
 40
0.6247828509
 40
0.7121809438
 40
0.7921538262
 40
0.8619813752
 40
0.8922225852
 40
0.9189914682
 40
0.9421338903
 40
0.9615046781
 40
0.9697340479
 40
0.9769717531
 40
0.9832054539
 40
0.9884278685
 40
0.992640331
 40
0.9958709793
 40
0.99822866
 40
1.0
 40
1.0
 40
1.0
 40
1.0
 10
100.5943604015
 20
61.3443504437
 30
0.0
 10
100.5914518604
 20
61.3429573766
 30
0.0
 10
100.5847869379
 20
61.3402636899
 30
0.0
 10
100.5683498792
 20
61.3349453159
 30
0.0
 10
100.5420324631
 20
61.3285890975
 30
0.0
 10
100.5037651263
 20
61.3213312352
 30
0.0
 10
100.456829591
 20
61.3140260828
 30
0.0
 10
100.4015370851
 20
61.3066901578
 30
0.0
 10
100.3126501869
 20
61.2963642047
 30
0.0
 10
100.1850363271
 20
61.2838245484
 30
0.0
 10
100.0153503799
 20
61.2692850892
 30
0.0
 10
99.8280100755
 20
61.2547043713
 30
0.0
 10
99.6294474504
 20
61.240110258
 30
0.0
 10
99.4265991847
 20
61.2254999104
 30
0.0
 10
99.2266095933
 20
61.2108920445
 30
0.0
 10
99.0363723966
 20
61.1962960054
 30
0.0
 10
98.8624440579
 20
61.1817610968
 30
0.0
 10
98.7305531075
 20
61.1692433476
 30
0.0
 10
98.6377945356
 20
61.1589244577
 30
0.0
 10
98.5792745093
 20
61.1515720641
 30
0.0
 10
98.5288211297
 20
61.144251208
 30
0.0
 10
98.4920196439
 20
61.137898279
 30
0.0
 10
98.4669162983
 20
61.1326960695
 30
0.0
 10
98.4513758339
 20
61.129016405
 30
0.0
 10
98.4381134117
 20
61.1253491192
 30
0.0
 10
98.4271729699
 20
61.1216948245
 30
0.0
 10
98.4185672587
 20
61.1180712546
 30
0.0
 10
98.4123167862
 20
61.1144314903
 30
0.0
 10
98.4082340706
 20
61.1107527118
 30
0.0
 10
98.4070661063
 20
61.1077325809
 30
0.0
 10
98.4070662314
 20
61.1064292082
 30
0.0
  0
SPLINE
  5
52B
100
AcDbEntity
  8
0
100
AcDbSpline
 62
7
  6
BYLAYER
 70
0
 71
3
 72
22
 73
18
 74
0
 42
0.0000001
 43
0.0000001
 44
0.0000000001
 40
0.0
 40
0.0
 40
0.0
 40
0.0
 40
0.1841805764
 40
0.3620961718
 40
0.5276892034
 40
0.6040826414
 40
0.6753303159
 40
0.740832448
 40
0.8000317283
 40
0.8524486338
 40
0.8976384923
 40
0.9351945898
 40
0.9648272499
 40
0.9766324214
 40
0.9864191425
 40
0.9941946466
 40
1.0
 40
1.0
 40
1.0
 40
1.0
 10
99.5069255317
 20
62.9623940223
 30
0.0
 10
99.5988811283
 20
62.9672427938
 30
0.0
 10
99.7796777654
 20
62.9765188704
 30
0.0
 10
100.0431097156
 20
62.9909303066
 30
0.0
 10
100.2526616723
 20
63.0036280817
 30
0.0
 10
100.4089469843
 20
63.0136352018
 30
0.0
 10
100.5152701053
 20
63.0207945382
 30
0.0
 10
100.6129781959
 20
63.0279262995
 30
0.0
 10
100.701234096
 20
63.0351888948
 30
0.0
 10
100.7792864877
 20
63.0425555775
 30
0.0
 10
100.8464586566
 20
63.0499776062
 30
0.0
 10
100.9021716209
 20
63.0572585196
 30
0.0
 10
100.9411884882
 20
63.0634756154
 30
0.0
 10
100.9662814842
 20
63.0686124069
 30
0.0
 10
100.9805425191
 20
63.0721447542
 30
0.0
 10
100.9916867897
 20
63.0756581408
 30
0.0
 10
100.9979563549
 20
63.0783567598
 30
0.0
 10
101.0004663407
 20
63.0798142345
 30
0.0
  0
SPLINE
  5
52C
100
AcDbEntity
  8
0
100
AcDbSpline
 62
7
  6
BYLAYER
 70
0
 71
3
 72
39
 73
35
 74
0
 42
0.0000001
 43
0.0000001
 44
0.0000000001
 40
0.0
 40
0.0
 40
0.0
 40
0.0
 40
0.0038518245
 40
0.0087015275
 40
0.0215134202
 40
0.0384772871
 40
0.0594285333
 40
0.0841728439
 40
0.1125059159
 40
0.1442069677
 40
0.1790381504
 40
0.2568147347
 40
0.3429872577
 40
0.4345875565
 40
0.4814210816
 40
0.5283909056
 40
0.621078411
 40
0.7093871689
 40
0.7509279093
 40
0.7902357858
 40
0.8269540112
 40
0.860738213
 40
0.8913136037
 40
0.9184511444
 40
0.941925666
 40
0.9615201046
 40
0.9698074796
 40
0.9770655601
 40
0.9832822697
 40
0.9884628028
 40
0.9926332786
 40
0.9958444073
 40
0.9982081475
 40
1.0
 40
1.0
 40
1.0
 40
1.0
 10
98.4159230918
 20
63.0781404962
 30
0.0
 10
98.4183766528
 20
63.0795697263
 30
0.0
 10
98.4241943117
 20
63.0823201611
 30
0.0
 10
98.4391050317
 20
63.0877500289
 30
0.0
 10
98.4638613259
 20
63.0941514507
 30
0.0
 10
98.5005450911
 20
63.1014182858
 30
0.0
 10
98.5461683698
 20
63.1087065655
 30
0.0
 10
98.6002492315
 20
63.1160276255
 30
0.0
 10
98.6623084635
 20
63.1234294788
 30
0.0
 10
98.7318400961
 20
63.1309175569
 30
0.0
 10
98.8377095865
 20
63.1413537453
 30
0.0
 10
98.9837067052
 20
63.1539727635
 30
0.0
 10
99.1715431642
 20
63.1683520419
 30
0.0
 10
99.3366543494
 20
63.1807356634
 30
0.0
 10
99.4729608322
 20
63.1907747039
 30
0.0
 10
99.6100855508
 20
63.2006109406
 30
0.0
 10
99.7777148346
 20
63.2125235932
 30
0.0
 10
99.9412736618
 20
63.2252236315
 30
0.0
 10
100.0655452203
 20
63.2355437483
 30
0.0
 10
100.1518954123
 20
63.2429576409
 30
0.0
 10
100.232516755
 20
63.2502487047
 30
0.0
 10
100.3066658895
 20
63.2576113818
 30
0.0
 10
100.3737042356
 20
63.2650656831
 30
0.0
 10
100.4330858219
 20
63.2725620207
 30
0.0
 10
100.4843010725
 20
63.2800349929
 30
0.0
 10
100.5216235345
 20
63.2864331613
 30
0.0
 10
100.5470022383
 20
63.2916381185
 30
0.0
 10
100.5626221695
 20
63.2953080532
 30
0.0
 10
100.5758821999
 20
63.2989749401
 30
0.0
 10
100.5867623499
 20
63.3026457539
 30
0.0
 10
100.5952904318
 20
63.3063019803
 30
0.0
 10
100.6014884701
 20
63.309979922
 30
0.0
 10
100.6055458136
 20
63.313706217
 30
0.0
 10
100.6067174291
 20
63.3167471923
 30
0.0
 10
100.6067238755
 20
63.3180680918
 30
0.0
  0
SPLINE
  5
52D
100
AcDbEntity
  8
0
100
AcDbSpline
 62
7
  6
BYLAYER
 70
0
 71
3
 72
21
 73
17
 74
0
 42
0.0000001
 43
0.0000001
 44
0.0000000001
 40
0.0
 40
0.0
 40
0.0
 40
0.0
 40
0.005900343
 40
0.0137711596
 40
0.0236510576
 40
0.0355484992
 40
0.0653439573
 40
0.1029872445
 40
0.1482004519
 40
0.2006272337
 40
0.2598302322
 40
0.325319879
 40
0.4728980001
 40
0.638336282
 40
0.8160431777
 40
1.0
 40
1.0
 40
1.0
 40
1.0
 10
98.0136261395
 20
62.8444944895
 30
0.0
 10
98.0161780591
 20
62.8459737203
 30
0.0
 10
98.0225157726
 20
62.8487455964
 30
0.0
 10
98.0337666108
 20
62.8523908582
 30
0.0
 10
98.0481367814
 20
62.8560591756
 30
0.0
 10
98.073374248
 20
62.86134867
 30
0.0
 10
98.1125545606
 20
62.8676235726
 30
0.0
 10
98.1684308298
 20
62.8746720922
 30
0.0
 10
98.2356961061
 20
62.8817198709
 30
0.0
 10
98.3137704194
 20
62.8889498746
 30
0.0
 10
98.4020077073
 20
62.8963255583
 30
0.0
 10
98.5377234167
 20
62.90670737
 30
0.0
 10
98.7265423036
 20
62.9190911496
 30
0.0
 10
98.9714634602
 20
62.9330459514
 30
0.0
 10
99.2345588502
 20
62.9477159142
 30
0.0
 10
99.4150910529
 20
62.9575516372
 30
0.0
 10
99.5069255317
 20
62.9623940223
 30
0.0
  0
SPLINE
  5
52E
100
AcDbEntity
  8
0
100
AcDbSpline
 62
7
  6
BYLAYER
 70
0
 71
3
 72
23
 73
19
 74
0
 42
0.0000001
 43
0.0000001
 44
0.0000000001
 40
0.0
 40
0.0
 40
0.0
 40
0.0
 40
0.1843057731
 40
0.3623220653
 40
0.4470641616
 40
0.5279958385
 40
0.6044110386
 40
0.6756390235
 40
0.7411430192
 40
0.8004018285
 40
0.8528201168
 40
0.8979092443
 40
0.9353649979
 40
0.9649462356
 40
0.9767279374
 40
0.9864865584
 40
0.9942303716
 40
1.0
 40
1.0
 40
1.0
 40
1.0
 10
99.506943863
 20
63.9620515577
 30
0.0
 10
99.414907702
 20
63.9571027107
 30
0.0
 10
99.2339729065
 20
63.9474370776
 30
0.0
 10
99.0107179242
 20
63.9355347068
 30
0.0
 10
98.8391316799
 20
63.9255638961
 30
0.0
 10
98.7182963024
 20
63.9180930889
 30
0.0
 10
98.6042333309
 20
63.9106166147
 30
0.0
 10
98.4978891473
 20
63.9033439358
 30
0.0
 10
98.4001388866
 20
63.8961682066
 30
0.0
 10
98.3118240374
 20
63.888971647
 30
0.0
 10
98.2337611131
 20
63.8817217634
 30
0.0
 10
98.1666593075
 20
63.8744160596
 30
0.0
 10
98.111059485
 20
63.8671226628
 30
0.0
 10
98.0721432971
 20
63.860761368
 30
0.0
 10
98.0471185836
 20
63.8555171328
 30
0.0
 10
98.0329100283
 20
63.8519321848
 30
0.0
 10
98.0218212846
 20
63.848392336
 30
0.0
 10
98.0155872308
 20
63.8456955017
 30
0.0
 10
98.0130921225
 20
63.84424653
 30
0.0
  0
SPLINE
  5
52F
100
AcDbEntity
  8
0
100
AcDbSpline
 62
7
  6
BYLAYER
 70
0
 71
3
 72
35
 73
31
 74
0
 42
0.0000001
 43
0.0000001
 44
0.0000000001
 40
0.0
 40
0.0
 40
0.0
 40
0.0
 40
0.0040769383
 40
0.0091570287
 40
0.0223456747
 40
0.0395287571
 40
0.0606065882
 40
0.0854599334
 40
0.1139554828
 40
0.1808370948
 40
0.2586431763
 40
0.3447174313
 40
0.4361922122
 40
0.5297629222
 40
0.6221925037
 40
0.7101760521
 40
0.7906527631
 40
0.8609880542
 40
0.9185425653
 40
0.9418361798
 40
0.9612903409
 40
0.9695450213
 40
0.9768032629
 40
0.9830565911
 40
0.9883015198
 40
0.99254504
 40
0.9958172039
 40
0.9971156228
 40
0.9982165849
 40
1.0
 40
1.0
 40
1.0
 40
1.0
 10
100.5970165583
 20
62.8456034587
 30
0.0
 10
100.5943677955
 20
62.8441863116
 30
0.0
 10
100.5881763247
 20
62.8414615425
 30
0.0
 10
100.5726033312
 20
62.8360916256
 30
0.0
 10
100.5472334461
 20
62.829712205
 30
0.0
 10
100.5100266231
 20
62.8224308257
 30
0.0
 10
100.4640937953
 20
62.8151006357
 30
0.0
 10
100.4097501547
 20
62.8077186348
 30
0.0
 10
100.3217712912
 20
62.7972980282
 30
0.0
 10
100.1947782277
 20
62.7846997422
 30
0.0
 10
100.0253704418
 20
62.7701027459
 30
0.0
 10
99.8377863272
 20
62.7554366473
 30
0.0
 10
99.6385551676
 20
62.74075729
 30
0.0
 10
99.4346296657
 20
62.7260680957
 30
0.0
 10
99.2332823572
 20
62.7113892719
 30
0.0
 10
99.041609644
 20
62.6967141626
 30
0.0
 10
98.8662612025
 20
62.6820951565
 30
0.0
 10
98.7134141263
 20
62.6675918161
 30
0.0
 10
98.602714724
 20
62.6549651349
 30
0.0
 10
98.5295649242
 20
62.6443825388
 30
0.0
 10
98.4925233301
 20
62.6379869732
 30
0.0
 10
98.4672931928
 20
62.6327523612
 30
0.0
 10
98.4516845126
 20
62.629052438
 30
0.0
 10
98.4383619712
 20
62.6253632165
 30
0.0
 10
98.4273493782
 20
62.6216909814
 30
0.0
 10
98.4186794235
 20
62.6180330428
 30
0.0
 10
98.4130025119
 20
62.6148046643
 30
0.0
 10
98.4097892092
 20
62.612103483
 30
0.0
 10
98.407766303
 20
62.6097806384
 30
0.0
 10
98.4069346163
 20
62.6076569961
 30
0.0
 10
98.4069339644
 20
62.60634291
 30
0.0
  0
LINE
  5
530
100
AcDbEntity
  8
0
100
AcDbLine
 62
7
  6
BYLAYER
 10
100.6007337793
 20
62.3480607542
 11
100.5980719446
 21
62.3463796167
  0
SPLINE
  5
531
100
AcDbEntity
  8
0
100
AcDbSpline
 62
7
  6
BYLAYER
 70
0
 71
3
 72
36
 73
32
 74
0
 42
0.0000001
 43
0.0000001
 44
0.0000000001
 40
0.0
 40
0.0
 40
0.0
 40
0.0
 40
0.0038563846
 40
0.0086964599
 40
0.0213985893
 40
0.0381621179
 40
0.0589641535
 40
0.0836785955
 40
0.1120309175
 40
0.1437262337
 40
0.1784804066
 40
0.2560319984
 40
0.3421910319
 40
0.4337787267
 40
0.5275706109
 40
0.6202760119
 40
0.7086087464
 40
0.7895881366
 40
0.86023314
 40
0.8908316095
 40
0.9179845926
 40
0.9415016547
 40
0.9611964669
 40
0.9695542709
 40
0.9768890406
 40
0.9831828453
 40
0.9884270706
 40
0.9926340375
 40
0.9958586375
 40
0.9982189177
 40
1.0
 40
1.0
 40
1.0
 40
1.0
 10
100.5980719446
 20
62.3463796167
 30
0.0
 10
100.5956120095
 20
62.3449547007
 30
0.0
 10
100.5897941983
 20
62.3422146913
 30
0.0
 10
100.5749652439
 20
62.3368098492
 30
0.0
 10
100.5504571707
 20
62.3304000221
 30
0.0
 10
100.5141260766
 20
62.3230927093
 30
0.0
 10
100.4687953652
 20
62.3157478985
 30
0.0
 10
100.4148409416
 20
62.3083704243
 30
0.0
 10
100.3527942949
 20
62.3009652478
 30
0.0
 10
100.2833033701
 20
62.2935390383
 30
0.0
 10
100.1776492166
 20
62.2832388347
 30
0.0
 10
100.0318885244
 20
62.2706108336
 30
0.0
 10
99.8442621138
 20
62.2559265412
 30
0.0
 10
99.6446322656
 20
62.2412095423
 30
0.0
 10
99.440165625
 20
62.2264726503
 30
0.0
 10
99.2381049984
 20
62.2117314179
 30
0.0
 10
99.0455126267
 20
62.1970185599
 30
0.0
 10
98.8692281542
 20
62.1823779412
 30
0.0
 10
98.7354873243
 20
62.1697359358
 30
0.0
 10
98.6414096194
 20
62.159319642
 30
0.0
 10
98.5819576236
 20
62.1519105679
 30
0.0
 10
98.530610907
 20
62.1445315576
 30
0.0
 10
98.4931293084
 20
62.1381276688
 30
0.0
 10
98.4675735409
 20
62.1328783596
 30
0.0
 10
98.4517936168
 20
62.1291674071
 30
0.0
 10
98.4383763322
 20
62.1254689403
 30
0.0
 10
98.4273636916
 20
62.1217832614
 30
0.0
 10
98.4187480356
 20
62.118117835
 30
0.0
 10
98.4125100721
 20
62.1144416893
 30
0.0
 10
98.4084401337
 20
62.1107271546
 30
0.0
 10
98.407277911
 20
62.1076911584
 30
0.0
 10
98.4072778632
 20
62.1063781905
 30
0.0
  0
SPLINE
  5
532
100
AcDbEntity
  8
0
100
AcDbSpline
 62
7
  6
BYLAYER
 70
0
 71
3
 72
23
 73
19
 74
0
 42
0.0000001
 43
0.0000001
 44
0.0000000001
 40
0.0
 40
0.0
 40
0.0
 40
0.0
 40
0.0058134362
 40
0.0136017761
 40
0.0233979221
 40
0.0352048373
 40
0.0648099543
 40
0.1022967373
 40
0.1474169818
 40
0.1998114371
 40
0.2590285085
 40
0.3245553385
 40
0.3958109567
 40
0.4721881818
 40
0.5530686331
 40
0.6377844604
 40
0.8157586397
 40
1.0
 40
1.0
 40
1.0
 40
1.0
 10
101.0006738597
 20
62.5801063716
 30
0.0
 10
100.9981649587
 20
62.5786377624
 30
0.0
 10
100.9919082714
 20
62.5758854698
 30
0.0
 10
100.9807830053
 20
62.5722530767
 30
0.0
 10
100.9665425875
 20
62.5685769338
 30
0.0
 10
100.9414937423
 20
62.5632382789
 30
0.0
 10
100.9025385512
 20
62.5568598812
 30
0.0
 10
100.8468761971
 20
62.5497230962
 30
0.0
 10
100.7797327987
 20
62.5426526337
 30
0.0
 10
100.7016836721
 20
62.5354804565
 30
0.0
 10
100.6134018162
 20
62.5281860739
 30
0.0
 10
100.5156697154
 20
62.5207558824
 30
0.0
 10
100.4093351056
 20
62.5133026346
 30
0.0
 10
100.2952995902
 20
62.5059349959
 30
0.0
 10
100.1745121773
 20
62.4986948212
 30
0.0
 10
100.0029746678
 20
62.4890290439
 30
0.0
 10
99.779816579
 20
62.4767201056
 30
0.0
 10
99.5989439278
 20
62.467004629
 30
0.0
 10
99.5069427198
 20
62.4620654856
 30
0.0
  0
SPLINE
  5
533
100
AcDbEntity
  8
0
100
AcDbSpline
 62
7
  6
BYLAYER
 70
0
 71
3
 72
30
 73
26
 74
0
 42
0.0000001
 43
0.0000001
 44
0.0000000001
 40
0.0
 40
0.0
 40
0.0
 40
0.0
 40
0.0036445005
 40
0.0081889079
 40
0.0200761631
 40
0.0357331488
 40
0.0550255671
 40
0.077765536
 40
0.1037658223
 40
0.1647967104
 40
0.2365109667
 40
0.3165920417
 40
0.4024054414
 40
0.4913485436
 40
0.5806202948
 40
0.6674228606
 40
0.7490810242
 40
0.8228649827
 40
0.8865515799
 40
0.9140537453
 40
0.9383708149
 40
0.9592776515
 40
0.9765597787
 40
0.9901229527
 40
1.0
 40
1.0
 40
1.0
 40
1.0
 10
100.5978938667
 20
61.8462164075
 30
0.0
 10
100.5955945365
 20
61.8448778264
 30
0.0
 10
100.5901850158
 20
61.8422922726
 30
0.0
 10
100.5764389277
 20
61.83718316
 30
0.0
 10
100.553769142
 20
61.8311211079
 30
0.0
 10
100.5202732783
 20
61.8242426765
 30
0.0
 10
100.4787231058
 20
61.8173125754
 30
0.0
 10
100.4295477828
 20
61.8103347126
 30
0.0
 10
100.3500185201
 20
61.8004651206
 30
0.0
 10
100.2347449998
 20
61.7884557541
 30
0.0
 10
100.0799903632
 20
61.7746260839
 30
0.0
 10
99.9070833008
 20
61.7607549907
 30
0.0
 10
99.7215665651
 20
61.746827997
 30
0.0
 10
99.5293238846
 20
61.7328803687
 30
0.0
 10
99.3363570218
 20
61.7189356587
 30
0.0
 10
99.148721161
 20
61.7050087712
 30
0.0
 10
98.9724199474
 20
61.6911292585
 30
0.0
 10
98.8130502176
 20
61.6772633797
 30
0.0
 10
98.6932058029
 20
61.6652789741
 30
0.0
 10
98.6094563491
 20
61.6554490598
 30
0.0
 10
98.556822348
 20
61.6484627709
 30
0.0
 10
98.5117220419
 20
61.6415094792
 30
0.0
 10
98.4745624484
 20
61.6345989952
 30
0.0
 10
98.4456379473
 20
61.6277345962
 30
0.0
 10
98.4292888822
 20
61.622480298
 30
0.0
 10
98.422680901
 20
61.6195947912
 30
0.0
  0
SPLINE
  5
534
100
AcDbEntity
  8
0
100
AcDbSpline
 62
7
  6
BYLAYER
 70
0
 71
3
 72
22
 73
18
 74
0
 42
0.0000001
 43
0.0000001
 44
0.0000000001
 40
0.0
 40
0.0
 40
0.0
 40
0.0
 40
0.0058807415
 40
0.0137068558
 40
0.0235362131
 40
0.0353952122
 40
0.0651734991
 40
0.1028622118
 40
0.1481485179
 40
0.2006350973
 40
0.2598569068
 40
0.3253126218
 40
0.4728406845
 40
0.5536948629
 40
0.6383426443
 40
0.8160487505
 40
1.0
 40
1.0
 40
1.0
 40
1.0
 10
101.0001126659
 20
62.0796890586
 30
0.0
 10
100.9975747818
 20
62.0782058441
 30
0.0
 10
100.9912730868
 20
62.0754315635
 30
0.0
 10
100.9800756957
 20
62.0718097577
 30
0.0
 10
100.9657630276
 20
62.068191707
 30
0.0
 10
100.9405600866
 20
62.0630094256
 30
0.0
 10
100.9013655624
 20
62.0568933439
 30
0.0
 10
100.8454489545
 20
62.0498266891
 30
0.0
 10
100.7781208706
 20
62.0425971821
 30
0.0
 10
100.6999917902
 20
62.0352280655
 30
0.0
 10
100.6117450489
 20
62.0278116367
 30
0.0
 10
100.4760654315
 20
62.0175792047
 30
0.0
 10
100.3294839394
 20
62.008217537
 30
0.0
 10
100.1732920071
 20
61.9989044855
 30
0.0
 10
100.0020296213
 20
61.9888965503
 30
0.0
 10
99.7792943083
 20
61.9763475068
 30
0.0
 10
99.598764255
 20
61.9669077046
 30
0.0
 10
99.506939905
 20
61.9621209632
 30
0.0
  0
SPLINE
  5
535
100
AcDbEntity
  8
0
100
AcDbSpline
 62
7
  6
BYLAYER
 70
0
 71
3
 72
20
 73
16
 74
0
 42
0.0000001
 43
0.0000001
 44
0.0000000001
 40
0.0
 40
0.0
 40
0.0
 40
0.0
 40
0.0086236169
 40
0.0191100208
 40
0.0456442953
 40
0.0794600621
 40
0.1202994524
 40
0.167824147
 40
0.2216287323
 40
0.2813311693
 40
0.3465518157
 40
0.4915964376
 40
0.6522264533
 40
0.8233965969
 40
1.0
 40
1.0
 40
1.0
 40
1.0
 10
98.0281522473
 20
61.8506870783
 30
0.0
 10
98.0322139053
 20
61.8519904007
 30
0.0
 10
98.0413383565
 20
61.8544902885
 30
0.0
 10
98.0633830007
 20
61.8593867481
 30
0.0
 10
98.0979497674
 20
61.8652276939
 30
0.0
 10
98.1475461713
 20
61.871984542
 30
0.0
 10
98.2075928767
 20
61.8788698753
 30
0.0
 10
98.277568519
 20
61.8858672199
 30
0.0
 10
98.356913966
 20
61.8928867318
 30
0.0
 10
98.445046611
 20
61.8998605244
 30
0.0
 10
98.578251614
 20
61.9093093228
 30
0.0
 10
98.7613538788
 20
61.9208228322
 30
0.0
 10
98.9968134233
 20
61.9347270803
 30
0.0
 10
99.2479070833
 20
61.9486771451
 30
0.0
 10
99.4197003955
 20
61.957605424
 30
0.0
 10
99.5069382311
 20
61.9621530735
 30
0.0
  0
SPLINE
  5
536
100
AcDbEntity
  8
0
100
AcDbSpline
 62
7
  6
BYLAYER
 70
0
 71
3
 72
14
 73
10
 74
0
 42
0.0000001
 43
0.0000001
 44
0.0000000001
 40
0.0
 40
0.0
 40
0.0
 40
0.0
 40
0.3459606249
 40
0.4983770437
 40
0.6351298414
 40
0.7547629521
 40
0.8560204679
 40
0.9380262954
 40
1.0
 40
1.0
 40
1.0
 40
1.0
 10
98.4751517919
 20
59.1371993472
 30
0.0
 10
98.4006496215
 20
59.1326050361
 30
0.0
 10
98.2933442235
 20
59.1256399392
 30
0.0
 10
98.1566878979
 20
59.1154576987
 30
0.0
 10
98.0687855875
 20
59.1081691188
 30
0.0
 10
97.9919623555
 20
59.1009064073
 30
0.0
 10
97.9270034978
 20
59.0936841262
 30
0.0
 10
97.8745775959
 20
59.0865214247
 30
0.0
 10
97.8439615751
 20
59.0811128601
 30
0.0
 10
97.8309188233
 20
59.0781669276
 30
0.0
  0
SPLINE
  5
537
100
AcDbEntity
  8
0
100
AcDbSpline
 62
7
  6
BYLAYER
 70
0
 71
3
 72
18
 73
14
 74
0
 42
0.0000001
 43
0.0000001
 44
0.0000000001
 40
0.0
 40
0.0
 40
0.0
 40
0.0
 40
0.1799385032
 40
0.3548373705
 40
0.5186978404
 40
0.6659050746
 40
0.7914601524
 40
0.8447516019
 40
0.8910962889
 40
0.9300998184
 40
0.9614257299
 40
0.9848133985
 40
1.0
 40
1.0
 40
1.0
 40
1.0
 10
99.5069358796
 20
58.9922645538
 30
0.0
 10
99.3926289862
 20
58.9883050623
 30
0.0
 10
99.1671941271
 20
58.9811538684
 30
0.0
 10
98.8376344554
 20
58.9714248032
 30
0.0
 10
98.5288510087
 20
58.9630010076
 30
0.0
 10
98.2514053104
 20
58.9560230821
 30
0.0
 10
98.0442090924
 20
58.9512201955
 30
0.0
 10
97.9011009484
 20
58.9482143813
 30
0.0
 10
97.8129929342
 20
58.9465048542
 30
0.0
 10
97.7388419014
 20
58.9452299383
 30
0.0
 10
97.6792766445
 20
58.944387715
 30
0.0
 10
97.6348495097
 20
58.9439953655
 30
0.0
 10
97.6103256962
 20
58.943974541
 30
0.0
 10
97.6006758467
 20
58.9442271636
 30
0.0
  0
ELLIPSE
  5
538
100
AcDbEntity
  8
0
100
AcDbEllipse
 62
7
  6
BYLAYER
 10
80.1569358796
 20
77.1596290105
 30
0.0
 11
0.1998928111
 21
-0.0373810416
 31
0.0
 40
0.1751439963
 41
-1.5380551524
 42
0.0327411744
  0
ELLIPSE
  5
539
100
AcDbEntity
  8
0
100
AcDbEllipse
 62
7
  6
BYLAYER
 10
73.0569358796
 20
77.1596290105
 30
0.0
 11
0.1998928111
 21
0.0373810416
 31
0.0
 40
0.1751439963
 41
3.1088514792
 42
4.679647806
  0
ELLIPSE
  5
53A
100
AcDbEntity
  8
0
100
AcDbEllipse
 62
7
  6
BYLAYER
 10
99.1569358796
 20
77.1596290105
 30
0.0
 11
0.1998928111
 21
-0.0373810416
 31
0.0
 40
0.1751439963
 41
-1.5380551524
 42
0.0327411744
  0
ELLIPSE
  5
53B
100
AcDbEntity
  8
0
100
AcDbEllipse
 62
7
  6
BYLAYER
 10
92.0569358796
 20
77.1596290105
 30
0.0
 11
0.1998928111
 21
0.0373810416
 31
0.0
 40
0.1751439963
 41
3.1088514792
 42
4.679647806
  0
ELLIPSE
  5
53C
100
AcDbEntity
  8
0
100
AcDbEllipse
 62
7
  6
BYLAYER
 10
61.1569358796
 20
77.1596290105
 30
0.0
 11
0.1998928111
 21
-0.0373810416
 31
0.0
 40
0.1751439963
 41
-1.5380551524
 42
0.0327411744
  0
ELLIPSE
  5
53D
100
AcDbEntity
  8
0
100
AcDbEllipse
 62
7
  6
BYLAYER
 10
54.0569358796
 20
77.1596290105
 30
0.0
 11
0.1998928111
 21
0.0373810416
 31
0.0
 40
0.1751439963
 41
3.1088514792
 42
4.679647806
  0
ELLIPSE
  5
53E
100
AcDbEntity
  8
0
100
AcDbEllipse
 62
7
  6
BYLAYER
 10
89.6569358796
 20
77.1596290105
 30
0.0
 11
0.1998928111
 21
-0.0373810416
 31
0.0
 40
0.1751439963
 41
-1.5380551524
 42
0.0327411744
  0
ELLIPSE
  5
53F
100
AcDbEntity
  8
0
100
AcDbEllipse
 62
7
  6
BYLAYER
 10
82.5569358796
 20
77.1596290105
 30
0.0
 11
0.1998928111
 21
0.0373810416
 31
0.0
 40
0.1751439963
 41
3.1088514792
 42
4.679647806
  0
ELLIPSE
  5
540
100
AcDbEntity
  8
0
100
AcDbEllipse
 62
7
  6
BYLAYER
 10
70.6569358796
 20
77.1596290105
 30
0.0
 11
0.1998928111
 21
-0.0373810416
 31
0.0
 40
0.1751439963
 41
-1.5380551524
 42
0.0327411744
  0
ELLIPSE
  5
541
100
AcDbEntity
  8
0
100
AcDbEllipse
 62
7
  6
BYLAYER
 10
63.5569358796
 20
77.1596290105
 30
0.0
 11
0.1998928111
 21
0.0373810416
 31
0.0
 40
0.1751439963
 41
3.1088514792
 42
4.679647806
  0
ELLIPSE
  5
542
100
AcDbEntity
  8
0
100
AcDbEllipse
 62
7
  6
BYLAYER
 10
44.5569358796
 20
77.1596290105
 30
0.0
 11
0.1998928111
 21
0.0373810416
 31
0.0
 40
0.1751439963
 41
3.1088514792
 42
4.679647806
  0
ELLIPSE
  5
543
100
AcDbEntity
  8
0
100
AcDbEllipse
 62
7
  6
BYLAYER
 10
51.6569358796
 20
77.1596290105
 30
0.0
 11
0.1998928111
 21
-0.0373810416
 31
0.0
 40
0.1751439963
 41
-1.5380551524
 42
0.0327411744
  0
ELLIPSE
  5
544
100
AcDbEntity
  8
0
100
AcDbEllipse
 62
7
  6
BYLAYER
 10
42.1569358796
 20
77.1596290105
 30
0.0
 11
0.1998928111
 21
-0.0373810416
 31
0.0
 40
0.1751439963
 41
-1.5380551524
 42
0.0327411744
  0
ELLIPSE
  5
545
100
AcDbEntity
  8
0
100
AcDbEllipse
 62
7
  6
BYLAYER
 10
35.0569358796
 20
77.1596290105
 30
0.0
 11
0.1998928111
 21
0.0373810416
 31
0.0
 40
0.1751439963
 41
3.1088514792
 42
4.679647806
  0
ENDSEC
  0
SECTION
  2
OBJECTS
  0
DICTIONARY
  5
C
100
AcDbDictionary
280
0
281
1
  3
ACAD_GROUP
350
D
  3
ACAD_MLINESTYLE
350
17
  3
ACAD_LAYOUT
350
1A
  3
ACAD_PLOTSETTINGS
350
19
  3
ACAD_PLOTSTYLENAME
350
E
  0
DICTIONARY
  5
D
102
{ACAD_REACTORS
330
C
102
}
100
AcDbDictionary
280
0
281
1
  0
ACDBDICTIONARYWDFLT
  5
E
102
{ACAD_REACTORS
330
C
102
}
100
AcDbDictionary
281
1
  3
Normal
350
F
100
AcDbDictionaryWithDefault
340
F
  0
DICTIONARY
  5
17
102
{ACAD_REACTORS
330
C
102
}
100
AcDbDictionary
280
0
281
1
  3
Standard
350
18
  0
DICTIONARY
  5
19
102
{ACAD_REACTORS
330
C
102
}
100
AcDbDictionary
281
1
  0
DICTIONARY
  5
1A
102
{ACAD_REACTORS
330
C
102
}
100
AcDbDictionary
281
1
  3
Model
350
546
  3
Layout1
350
547
  0
ACDBPLACEHOLDER
  5
F
102
{ACAD_REACTORS
330
E
102
}
  0
MLINESTYLE
  5
18
102
{ACAD_REACTORS
330
17
102
}
100
AcDbMlineStyle
  2
STANDARD
 70
0
  3

 62
256
 51
90.0
 52
90.0
 71
2
 49
0.5
 62
256
  6
BYLAYER
 49
-0.5
 62
256
  6
BYLAYER
  0
LAYOUT
  5
546
102
{ACAD_REACTORS
330
1A
102
}
100
AcDbPlotSettings
  1

  2
none_device
  4

  6

 40
0.0
 41
0.0
 42
0.0
 43
0.0
 44
210.0
 45
297.0
 46
0.0
 47
0.0
 48
0.0
 49
0.0
140
0.0
141
0.0
142
1.0
143
1.0
 70
1024
 72
1
 73
0
 74
0
  7

 75
0
147
1.0
148
0.0
149
0.0
100
AcDbLayout
  1
Model
 70
0
 71
0
 10
0.0
 20
0.0
 11
210.0
 21
297.0
 12
0.0
 22
0.0
 32
0.0
 14
0.0
 24
0.0
 34
0.0
 15
0.0
 25
0.0
 35
0.0
146
0.0
 13
0.0
 23
0.0
 33
0.0
 16
1.0
 26
0.0
 36
0.0
 17
0.0
 27
1.0
 37
0.0
 76
0
330
210
345
0
346
0
  0
LAYOUT
  5
547
102
{ACAD_REACTORS
330
1A
102
}
100
AcDbPlotSettings
  1

  2
none_device
  4

  6

 40
0.0
 41
0.0
 42
0.0
 43
0.0
 44
210.0
 45
297.0
 46
0.0
 47
0.0
 48
0.0
 49
0.0
140
0.0
141
0.0
142
1.0
143
1.0
 70
0
 72
1
 73
0
 74
0
  7

 75
0
147
1.0
148
0.0
149
0.0
100
AcDbLayout
  1
Layout1
 70
0
 71
1
 10
0.0
 20
0.0
 11
210.0
 21
297.0
 12
0.0
 22
0.0
 32
0.0
 14
0.0
 24
0.0
 34
0.0
 15
0.0
 25
0.0
 35
0.0
146
0.0
 13
0.0
 23
0.0
 33
0.0
 16
1.0
 26
0.0
 36
0.0
 17
0.0
 27
1.0
 37
0.0
 76
0
330
211
345
0
346
0
  0
ENDSEC
  0
EOF
