999
DXF file: C:\Users\sesa63760\OneDrive - Schneider Electric\Documents\7-Dev\_Creo\CAD\MCADUE0000397_3D-CAD\drw0001_2.dxf
999
Pro/ENGINEER 2019471 by Parametric Technology Corporation
  0
SECTION
  2
HEADER
  9
$ACADVER
  1
AC1024
  9
$DWGCODEPAGE
  3
ANSI_1252
  9
$EXTMAX
 10
453.0798177857
 20
640.7843137255
 30
0.0
  9
$EXTMIN
 10
0.0
 20
0.0
 30
0.0
  9
$LIMMIN
 10
0.0
 20
0.0
  9
$LIMMAX
 10
453.0798177857
 20
640.7843137255
  9
$VIEWCTR
 10
226.5399088929
 20
320.3921568627
  9
$VIEWSIZE
 40
640.7843137255
  9
$CLAYER
  8
0
  9
$LTSCALE
 40
41.769644154
  9
$CELTYPE
  6
BYLAYER
  9
$DIMSCALE
 40
1.0
  9
$DIMASZ
 40
5.3938073546
  9
$DIMEXO
 40
1.0
  9
$DIMDLI
 40
28.85902687
  9
$DIMEXE
 40
1.0
  9
$DIMCEN
 40
6.8350326797
  9
$DIMLFAC
 40
1.0
  9
$DIMBLK
  1
_FILLED
  9
$DIMALT
 70
0
  9
$DIMALTF
 40
0.0393700787
  9
$DIMTXT
 40
7.5513302964
  9
$DIMTOL
 70
1
  9
$DIMLIM
 70
0
  9
$DIMTFAC
 40
1.0
  9
$DIMTP
 40
0.01
  9
$DIMTM
 40
0.01
  9
$DIMGAP
 40
0.625
  9
$DIMDSEP
 70
46
  9
$AUNITS
 70
0
  9
$PDMODE
 70
3
  9
$PDSIZE
 40
0.3125
  9
$HANDSEED
  5
359
  9
$TILEMODE
 70
1
  9
$MEASUREMENT
 70
1
  9
$INSUNITS
 70
4
  0
ENDSEC
  0
SECTION
  2
CLASSES
  0
CLASS
  1
ACDBDICTIONARYWDFLT
  2
AcDbDictionaryWithDefault
  3
AutoCAD 2000
 90
0
 91
1
280
0
281
0
  0
CLASS
  1
ACDBPLACEHOLDER
  2
AcDbPlaceHolder
  3
AutoCAD 2000
 90
0
 91
1
280
0
281
0
  0
CLASS
  1
LAYOUT
  2
AcDbLayout
  3
AutoCAD 2000
 90
0
 91
0
280
0
281
0
  0
ENDSEC
  0
SECTION
  2
TABLES
  0
TABLE
  2
VPORT
  5
8
100
AcDbSymbolTable
 70
2
  0
VPORT
  5
1F4
100
AcDbSymbolTableRecord
100
AcDbViewportTableRecord
  2
*ACTIVE
 70
0
 10
0.0
 20
0.0
 11
1.0
 21
1.0
 12
226.5399088929
 22
320.3921568627
 13
0.0
 23
0.0
 14
1.0
 24
1.0
 15
0.0
 25
0.0
 16
0.0
 26
0.0
 36
1.0
 17
0.0
 27
0.0
 37
0.0
 40
640.7843137255
 41
0.7070707071
 42
50.0
 43
0.0
 44
0.0
 50
0.0
 51
0.0
 71
0
 72
100
 73
1
 74
1
 75
0
 76
0
 77
0
 78
0
  0
ENDTAB
  0
TABLE
  2
LTYPE
  5
5
100
AcDbSymbolTable
 70
6
  0
LTYPE
  5
14
100
AcDbSymbolTableRecord
100
AcDbLinetypeTableRecord
  2
BYBLOCK
 70
0
  3

 72
65
 73
0
 40
0.0
  0
LTYPE
  5
15
100
AcDbSymbolTableRecord
100
AcDbLinetypeTableRecord
  2
BYLAYER
 70
0
  3

 72
65
 73
0
 40
0.0
  0
LTYPE
  5
16
100
AcDbSymbolTableRecord
100
AcDbLinetypeTableRecord
  2
CONTINUOUS
 70
64
  3
Solid line
 72
65
 73
0
 40
0.0
  0
LTYPE
  5
1F5
100
AcDbSymbolTableRecord
100
AcDbLinetypeTableRecord
  2
CENTER
 70
64
  3
____ _ ____ _ ____ _ ____ _ ____ _ ____ _ ____
 72
65
 73
4
 40
0.6
 49
0.375
 74
0
 49
-0.075
 74
0
 49
0.075
 74
0
 49
-0.075
 74
0
  0
LTYPE
  5
1F6
100
AcDbSymbolTableRecord
100
AcDbLinetypeTableRecord
  2
HIDDEN
 70
64
  3
- - - - - - - - - - - - - - - - - - - -
 72
65
 73
2
 40
0.2
 49
0.1
 74
0
 49
-0.1
 74
0
  0
LTYPE
  5
1F7
100
AcDbSymbolTableRecord
100
AcDbLinetypeTableRecord
  2
PHANTOM
 70
64
  3
_____ _ _ _____ _ _ _____ _ _ _____
 72
65
 73
6
 40
0.8
 49
0.45
 74
0
 49
-0.05
 74
0
 49
0.1
 74
0
 49
-0.05
 74
0
 49
0.1
 74
0
 49
-0.05
 74
0
  0
LTYPE
  5
1F8
100
AcDbSymbolTableRecord
100
AcDbLinetypeTableRecord
  2
DOT
 70
64
  3
. . . . . . . . . . . . . . . . . . . .
 72
65
 73
2
 40
0.2
 49
0.1
 74
0
 49
-0.1
 74
0
  0
LTYPE
  5
1F9
100
AcDbSymbolTableRecord
100
AcDbLinetypeTableRecord
  2
DASHED
 70
64
  3
- - - - - - - - - - - - - - - - - - - -
 72
65
 73
2
 40
0.2
 49
0.1
 74
0
 49
-0.1
 74
0
  0
ENDTAB
  0
TABLE
  2
LAYER
  5
2
100
AcDbSymbolTable
 70
36
  0
LAYER
  5
10
100
AcDbSymbolTableRecord
100
AcDbLayerTableRecord
  2
0
 70
0
 62
7
  6
CONTINUOUS
370
-3
390
F
  0
LAYER
  5
1FA
100
AcDbSymbolTableRecord
100
AcDbLayerTableRecord
  2
DEFAULT_1
 70
0
 62
7
  6
CENTER
370
-3
390
F
  0
LAYER
  5
1FB
100
AcDbSymbolTableRecord
100
AcDbLayerTableRecord
  2
DEFAULT_2
 70
0
 62
8
  6
HIDDEN
370
-3
390
F
  0
LAYER
  5
1FC
100
AcDbSymbolTableRecord
100
AcDbLayerTableRecord
  2
DEFAULT_3
 70
0
 62
7
  6
PHANTOM
370
-3
390
F
  0
LAYER
  5
1FD
100
AcDbSymbolTableRecord
100
AcDbLayerTableRecord
  2
00_COMPONENTS
 70
0
 62
7
  6
CONTINUOUS
370
-3
390
F
  0
LAYER
  5
1FE
100
AcDbSymbolTableRecord
100
AcDbLayerTableRecord
  2
01_1_DEFAULT_DATUMS
 70
0
 62
7
  6
CONTINUOUS
370
-3
390
F
  0
LAYER
  5
1FF
100
AcDbSymbolTableRecord
100
AcDbLayerTableRecord
  2
01_PLANES
 70
0
 62
7
  6
CONTINUOUS
370
-3
390
F
  0
LAYER
  5
200
100
AcDbSymbolTableRecord
100
AcDbLayerTableRecord
  2
02_COORD_SYS
 70
0
 62
7
  6
CONTINUOUS
370
-3
390
F
  0
LAYER
  5
201
100
AcDbSymbolTableRecord
100
AcDbLayerTableRecord
  2
03_AXES
 70
0
 62
7
  6
CONTINUOUS
370
-3
390
F
  0
LAYER
  5
202
100
AcDbSymbolTableRecord
100
AcDbLayerTableRecord
  2
04_POINTS
 70
0
 62
7
  6
CONTINUOUS
370
-3
390
F
  0
LAYER
  5
203
100
AcDbSymbolTableRecord
100
AcDbLayerTableRecord
  2
05_CURVES
 70
0
 62
7
  6
CONTINUOUS
370
-3
390
F
  0
LAYER
  5
204
100
AcDbSymbolTableRecord
100
AcDbLayerTableRecord
  2
06_SURFS
 70
0
 62
7
  6
CONTINUOUS
370
-3
390
F
  0
LAYER
  5
205
100
AcDbSymbolTableRecord
100
AcDbLayerTableRecord
  2
07_COSMETICS
 70
0
 62
7
  6
CONTINUOUS
370
-3
390
F
  0
LAYER
  5
206
100
AcDbSymbolTableRecord
100
AcDbLayerTableRecord
  2
10_NOTES
 70
0
 62
7
  6
CONTINUOUS
370
-3
390
F
  0
LAYER
  5
207
100
AcDbSymbolTableRecord
100
AcDbLayerTableRecord
  2
11_NOTES_PUB
 70
0
 62
7
  6
CONTINUOUS
370
-3
390
F
  0
LAYER
  5
208
100
AcDbSymbolTableRecord
100
AcDbLayerTableRecord
  2
13_REF_GTOL
 70
0
 62
7
  6
CONTINUOUS
370
-3
390
F
  0
LAYER
  5
209
100
AcDbSymbolTableRecord
100
AcDbLayerTableRecord
  2
16_MISC
 70
0
 62
7
  6
CONTINUOUS
370
-3
390
F
  0
LAYER
  5
20A
100
AcDbSymbolTableRecord
100
AcDbLayerTableRecord
  2
17_NO_PRINT
 70
0
 62
7
  6
CONTINUOUS
370
-3
390
F
  0
LAYER
  5
20B
100
AcDbSymbolTableRecord
100
AcDbLayerTableRecord
  2
18_DATUM_CAMS_JOINTS
 70
0
 62
7
  6
CONTINUOUS
370
-3
390
F
  0
LAYER
  5
20C
100
AcDbSymbolTableRecord
100
AcDbLayerTableRecord
  2
19_DATUM_FUNCTIONAL
 70
0
 62
7
  6
CONTINUOUS
370
-3
390
F
  0
LAYER
  5
20D
100
AcDbSymbolTableRecord
100
AcDbLayerTableRecord
  2
20_DATUM_KINEMATIC_SCHEME
 70
0
 62
7
  6
CONTINUOUS
370
-3
390
F
  0
ENDTAB
  0
TABLE
  2
STYLE
  5
3
100
AcDbSymbolTable
 70
1
  0
STYLE
  5
11
100
AcDbSymbolTableRecord
100
AcDbTextStyleTableRecord
  2
STANDARD
 70
0
 40
0.0
 41
0.8
 50
0.0
 71
0
 42
0.2
  3
txt
  4

  0
STYLE
  5
20E
100
AcDbSymbolTableRecord
100
AcDbTextStyleTableRecord
  2
TEXTSTYLE_1
 70
0
 40
0.0
 41
0.8
 50
0.0
 71
0
 42
0.2
  3
gdt
  4

  0
ENDTAB
  0
TABLE
  2
VIEW
  5
6
100
AcDbSymbolTable
 70
0
  0
ENDTAB
  0
TABLE
  2
UCS
  5
7
100
AcDbSymbolTable
 70
0
  0
ENDTAB
  0
TABLE
  2
APPID
  5
9
100
AcDbSymbolTable
 70
1
  0
APPID
  5
20F
100
AcDbSymbolTableRecord
100
AcDbRegAppTableRecord
  2
ACAD
 70
0
  0
ENDTAB
  0
TABLE
  2
BLOCK_RECORD
  5
1
100
AcDbSymbolTable
 70
0
  0
BLOCK_RECORD
  5
210
100
AcDbSymbolTableRecord
100
AcDbBlockTableRecord
  2
*Model_Space
  0
BLOCK_RECORD
  5
211
100
AcDbSymbolTableRecord
100
AcDbBlockTableRecord
  2
*Paper_Space
  0
BLOCK_RECORD
  5
212
100
AcDbSymbolTableRecord
100
AcDbBlockTableRecord
  2
_FILLED
  0
ENDTAB
  0
TABLE
  2
DIMSTYLE
  5
A
100
AcDbSymbolTable
 70
1
100
AcDbDimStyleTable
 71
0
  0
DIMSTYLE
105
213
100
AcDbSymbolTableRecord
100
AcDbDimStyleTableRecord
  2
STANDARD
 70
0
  3

  4

 40
1.0
 41
5.3938073546
 42
1.0
 43
0.38
 44
1.0
 45
0.0
 46
0.0
 47
0.01
 48
0.01
140
7.5513302964
141
0.09
142
0.0
143
25.4
144
1.0
145
0.0
146
1.0
147
0.625
 71
1
 72
0
 73
0
 74
0
 75
0
 76
0
 77
1
 78
8
 79
2
170
0
171
1
172
0
173
0
174
0
175
0
176
0
177
0
178
0
270
2
179
2
271
2
272
2
273
2
274
2
275
0
280
0
281
0
282
0
283
1
284
8
285
0
286
0
287
3
288
0
340
11
278
46
341
212
342
212
343
212
344
212
  0
ENDTAB
  0
ENDSEC
  0
SECTION
  2
BLOCKS
  0
BLOCK
  5
20
100
AcDbEntity
  8
0
100
AcDbBlockBegin
  2
*Model_Space
 70
0
 10
0.0
 20
0.0
 30
0.0
  3
*Model_Space
  1

  0
ENDBLK
  5
21
100
AcDbEntity
  8
0
100
AcDbBlockEnd
  0
BLOCK
  5
1C
100
AcDbEntity
  8
0
100
AcDbBlockBegin
  2
*Paper_Space
 70
0
 10
0.0
 20
0.0
 30
0.0
  3
*Paper_Space
  1

  0
ENDBLK
  5
1D
100
AcDbEntity
  8
0
100
AcDbBlockEnd
  0
BLOCK
  5
214
100
AcDbEntity
  8
0
100
AcDbBlockBegin
  2
_FILLED
 70
64
 10
0.0
 20
0.0
  3
_FILLED
  1

  0
SOLID
  5
215
100
AcDbEntity
  8
0
  6
BYBLOCK
 62
0
100
AcDbTrace
 10
0.0
 20
0.0
 11
-1.0
 21
0.25
 12
-1.0
 22
-0.25
 13
-1.0
 23
-0.25
  0
ENDBLK
  5
216
100
AcDbEntity
  8
0
  6
BYBLOCK
 62
0
100
AcDbBlockEnd
  0
ENDSEC
  0
SECTION
  2
ENTITIES
  0
LINE
  5
217
100
AcDbEntity
  8
0
100
AcDbLine
 62
7
  6
CONTINUOUS
 10
72.2941731527
 20
443.8118803522
 11
60.0809697171
 21
431.5986769166
  0
LINE
  5
218
100
AcDbEntity
  8
0
100
AcDbLine
 62
7
  6
CONTINUOUS
 10
73.3495398694
 20
442.7647623074
 11
61.1280877795
 21
430.5433102175
  0
LINE
  5
219
100
AcDbEntity
  8
0
100
AcDbLine
 62
7
  6
CONTINUOUS
 10
73.0368711725
 20
439.2809593225
 11
64.6118907468
 21
430.8559788968
  0
LINE
  5
21A
100
AcDbEntity
  8
0
100
AcDbLine
 62
7
  6
CONTINUOUS
 10
74.2882093304
 20
440.4986127148
 11
74.0502119181
 21
440.2606153026
  0
LINE
  5
21B
100
AcDbEntity
  8
0
100
AcDbLine
 62
7
  6
CONTINUOUS
 10
63.6322347667
 20
429.8426381512
 11
63.3942373606
 21
429.604640745
  0
LINE
  5
21C
100
AcDbEntity
  8
0
100
AcDbLine
 62
7
  6
CONTINUOUS
 10
60.0809697171
 20
206.8326956324
 11
72.2941731527
 21
194.6194921968
  0
LINE
  5
21D
100
AcDbEntity
  8
0
100
AcDbLine
 62
7
  6
CONTINUOUS
 10
61.128087762
 20
207.8880623491
 11
73.3495398597
 21
195.6666102513
  0
LINE
  5
21E
100
AcDbEntity
  8
0
100
AcDbLine
 62
7
  6
CONTINUOUS
 10
73.0368711726
 20
199.1504132266
 11
64.6118907469
 21
207.5753936523
  0
LINE
  5
21F
100
AcDbEntity
  8
0
100
AcDbLine
 62
7
  6
CONTINUOUS
 10
63.3942373545
 20
208.82673181
 11
63.6322347667
 21
208.5887343978
  0
LINE
  5
220
100
AcDbEntity
  8
0
100
AcDbLine
 62
7
  6
CONTINUOUS
 10
74.0502119181
 20
198.1707572464
 11
74.2882093304
 21
197.9327598342
  0
LINE
  5
221
100
AcDbEntity
  8
0
100
AcDbLine
 62
7
  6
CONTINUOUS
 10
49.6771637948
 20
443.7156862745
 11
49.6771637948
 21
194.7156862745
  0
LINE
  5
222
100
AcDbEntity
  8
0
100
AcDbLine
 62
7
  6
CONTINUOUS
 10
63.6363236086
 20
429.8565880698
 11
63.6322347667
 21
429.8426381512
  0
LINE
  5
223
100
AcDbEntity
  8
0
100
AcDbLine
 62
7
  6
CONTINUOUS
 10
76.9041059398
 20
437.8827160923
 11
74.1771637948
 21
435.1557739473
  0
LINE
  5
224
100
AcDbEntity
  8
0
100
AcDbLine
 62
7
  6
CONTINUOUS
 10
68.737076122
 20
429.7156862745
 11
66.010133977
 21
426.9887441295
  0
LINE
  5
225
100
AcDbEntity
  8
0
100
AcDbLine
 62
7
  6
CONTINUOUS
 10
66.010133977
 20
211.4426284195
 11
68.737076122
 21
208.7156862745
  0
LINE
  5
226
100
AcDbEntity
  8
0
100
AcDbLine
 62
7
  6
CONTINUOUS
 10
74.1771637948
 20
203.2755986017
 11
76.9041059398
 21
200.5486564567
  0
LINE
  5
227
100
AcDbEntity
  8
0
100
AcDbLine
 62
7
  6
CONTINUOUS
 10
63.6363236087
 20
208.5747844793
 11
63.6322347667
 21
208.5887343978
  0
LINE
  5
228
100
AcDbEntity
  8
0
100
AcDbLine
 62
7
  6
CONTINUOUS
 10
58.1771637948
 20
427.0024828389
 11
58.1771637948
 21
211.4288897101
  0
LINE
  5
229
100
AcDbEntity
  8
0
100
AcDbLine
 62
7
  6
CONTINUOUS
 10
59.663845027
 20
211.4230570432
 11
59.663845027
 21
427.0083155306
  0
LINE
  5
22A
100
AcDbEntity
  8
0
100
AcDbLine
 62
7
  6
CONTINUOUS
 10
61.9299943122
 20
426.0696453277
 11
61.9299943122
 21
212.3617272299
  0
LINE
  5
22B
100
AcDbEntity
  8
0
100
AcDbLine
 62
7
  6
CONTINUOUS
 10
65.6294307843
 20
212.3617272305
 11
65.6294307843
 21
426.0696453185
  0
LINE
  5
22C
100
AcDbEntity
  8
0
100
AcDbLine
 62
7
  6
CONTINUOUS
 10
73.0368711725
 20
439.2809593225
 11
73.0368711725
 21
429.8565880698
  0
LINE
  5
22D
100
AcDbEntity
  8
0
100
AcDbLine
 62
7
  6
CONTINUOUS
 10
73.0368711725
 20
208.5747844792
 11
73.0368711725
 21
199.1504132265
  0
LINE
  5
22E
100
AcDbEntity
  8
0
100
AcDbLine
 62
7
  6
CONTINUOUS
 10
74.0362619996
 20
198.1748460883
 11
74.0362619996
 21
207.5753936522
  0
LINE
  5
22F
100
AcDbEntity
  8
0
100
AcDbLine
 62
7
  6
CONTINUOUS
 10
74.0362619996
 20
430.8559788968
 11
74.0362619996
 21
440.2565264607
  0
LINE
  5
230
100
AcDbEntity
  8
0
100
AcDbLine
 62
7
  6
CONTINUOUS
 10
74.1771637948
 20
435.1557739473
 11
74.1771637948
 21
430.7150771015
  0
LINE
  5
231
100
AcDbEntity
  8
0
100
AcDbLine
 62
7
  6
CONTINUOUS
 10
74.1771637948
 20
207.7162954475
 11
74.1771637948
 21
203.2755986017
  0
LINE
  5
232
100
AcDbEntity
  8
0
100
AcDbLine
 62
7
  6
CONTINUOUS
 10
76.7121267767
 20
317.7819455588
 11
76.7121267767
 21
317.0538396934
  0
LINE
  5
233
100
AcDbEntity
  8
0
100
AcDbLine
 62
7
  6
CONTINUOUS
 10
76.8903672304
 20
192.7156862745
 11
76.8845343716
 21
194.2155689686
  0
LINE
  5
234
100
AcDbEntity
  8
0
100
AcDbLine
 62
7
  6
CONTINUOUS
 10
76.8845343746
 20
444.2158035804
 11
76.8903672304
 21
445.7156862745
  0
LINE
  5
235
100
AcDbEntity
  8
0
100
AcDbLine
 62
7
  6
CONTINUOUS
 10
77.8232056988
 20
196.4685167919
 11
77.8232056988
 21
200.167953264
  0
LINE
  5
236
100
AcDbEntity
  8
0
100
AcDbLine
 62
7
  6
CONTINUOUS
 10
77.8232047502
 20
438.263419285
 11
77.8232047502
 21
441.9628557571
  0
LINE
  5
237
100
AcDbEntity
  8
0
100
AcDbLine
 62
7
  6
CONTINUOUS
 10
79.5050660634
 20
317.6960664118
 11
79.5050660634
 21
320.5711512813
  0
LINE
  5
238
100
AcDbEntity
  8
0
100
AcDbLine
 62
7
  6
CONTINUOUS
 10
80.1771637948
 20
320.5711512813
 11
80.1771637948
 21
316.9156862633
  0
LINE
  5
239
100
AcDbEntity
  8
0
100
AcDbLine
 62
7
  6
CONTINUOUS
 10
74.0362619996
 20
440.2565264606
 11
74.0502119181
 21
440.2606153026
  0
LINE
  5
23A
100
AcDbEntity
  8
0
100
AcDbLine
 62
7
  6
CONTINUOUS
 10
74.0362619996
 20
198.1748460883
 11
74.0502119181
 21
198.1707572464
  0
LINE
  5
23B
100
AcDbEntity
  8
0
100
AcDbLine
 62
7
  6
CONTINUOUS
 10
60.1771637948
 20
184.2156862745
 11
399.1771637948
 21
184.2156862745
  0
LINE
  5
23C
100
AcDbEntity
  8
0
100
AcDbLine
 62
7
  6
CONTINUOUS
 10
76.8903672304
 20
192.7156862745
 11
382.4639603592
 21
192.7156862745
  0
LINE
  5
23D
100
AcDbEntity
  8
0
100
AcDbLine
 62
7
  6
CONTINUOUS
 10
382.469793026
 20
194.2023675067
 11
76.8845345609
 21
194.2023675067
  0
LINE
  5
23E
100
AcDbEntity
  8
0
100
AcDbLine
 62
7
  6
CONTINUOUS
 10
77.8232047502
 20
196.4685167919
 11
381.5311228394
 21
196.4685167919
  0
LINE
  5
23F
100
AcDbEntity
  8
0
100
AcDbLine
 62
7
  6
CONTINUOUS
 10
381.5311228388
 20
200.167953264
 11
77.8232047508
 21
200.167953264
  0
LINE
  5
240
100
AcDbEntity
  8
0
100
AcDbLine
 62
7
  6
CONTINUOUS
 10
64.6118907468
 20
207.5753936522
 11
74.0362619995
 21
207.5753936522
  0
LINE
  5
241
100
AcDbEntity
  8
0
100
AcDbLine
 62
7
  6
CONTINUOUS
 10
385.2469977782
 20
207.6464614641
 11
394.8135046547
 21
207.6464614641
  0
LINE
  5
242
100
AcDbEntity
  8
0
100
AcDbLine
 62
7
  6
CONTINUOUS
 10
73.0368711725
 20
208.5747844793
 11
63.6363236086
 21
208.5747844793
  0
LINE
  5
243
100
AcDbEntity
  8
0
100
AcDbLine
 62
7
  6
CONTINUOUS
 10
395.7890717929
 20
208.6458522912
 11
386.2463886052
 21
208.6458522912
  0
LINE
  5
244
100
AcDbEntity
  8
0
100
AcDbLine
 62
7
  6
CONTINUOUS
 10
68.737076122
 20
208.7156862745
 11
73.1777729678
 21
208.7156862745
  0
LINE
  5
245
100
AcDbEntity
  8
0
100
AcDbLine
 62
7
  6
CONTINUOUS
 10
386.10548681
 20
208.7867540864
 11
390.6883192795
 21
208.7867540864
  0
LINE
  5
246
100
AcDbEntity
  8
0
100
AcDbLine
 62
7
  6
CONTINUOUS
 10
230.1545568945
 20
209.4023803005
 11
229.5870077701
 21
209.4023803005
  0
LINE
  5
247
100
AcDbEntity
  8
0
100
AcDbLine
 62
7
  6
CONTINUOUS
 10
230.3151137175
 20
210.9407374093
 11
231.5771638023
 21
210.9407374093
  0
LINE
  5
248
100
AcDbEntity
  8
0
100
AcDbLine
 62
7
  6
CONTINUOUS
 10
401.1771637948
 20
211.4288897101
 11
399.6772811007
 21
211.4230587749
  0
LINE
  5
249
100
AcDbEntity
  8
0
100
AcDbLine
 62
7
  6
CONTINUOUS
 10
59.6770464889
 20
211.4230568543
 11
58.1771637948
 21
211.4288897101
  0
LINE
  5
24A
100
AcDbEntity
  8
0
100
AcDbLine
 62
7
  6
CONTINUOUS
 10
397.4243332774
 20
212.3617281386
 11
393.7248968053
 21
212.3617281386
  0
LINE
  5
24B
100
AcDbEntity
  8
0
100
AcDbLine
 62
7
  6
CONTINUOUS
 10
65.6294307843
 20
212.3617272299
 11
61.9299943122
 21
212.3617272299
  0
LINE
  5
24C
100
AcDbEntity
  8
0
100
AcDbLine
 62
7
  6
CONTINUOUS
 10
229.5870077701
 20
214.7156862745
 11
230.3151137175
 21
214.7156862745
  0
LINE
  5
24D
100
AcDbEntity
  8
0
100
AcDbLine
 62
7
  6
CONTINUOUS
 10
73.3495398597
 20
195.6666102513
 11
74.2882093304
 21
197.9327598342
  0
LINE
  5
24E
100
AcDbEntity
  8
0
100
AcDbLine
 62
7
  6
CONTINUOUS
 10
77.8232047502
 20
196.4685167919
 11
76.8845345609
 21
194.2023675067
  0
LINE
  5
24F
100
AcDbEntity
  8
0
100
AcDbLine
 62
7
  6
CONTINUOUS
 10
74.2882093304
 20
440.4986127148
 11
73.3495398694
 21
442.7647623074
  0
LINE
  5
250
100
AcDbEntity
  8
0
100
AcDbLine
 62
7
  6
CONTINUOUS
 10
76.8845345635
 20
444.2290050423
 11
77.8232047502
 21
441.9628557571
  0
LINE
  5
251
100
AcDbEntity
  8
0
100
AcDbLine
 62
7
  6
CONTINUOUS
 10
60.0809697171
 20
206.8326956324
 11
61.1374238483
 21
207.897395949
  0
LINE
  5
252
100
AcDbEntity
  8
0
100
AcDbLine
 62
7
  6
CONTINUOUS
 10
63.3942380065
 20
208.8267311579
 11
66.0101346225
 21
211.4426277739
  0
LINE
  5
253
100
AcDbEntity
  8
0
100
AcDbLine
 62
7
  6
CONTINUOUS
 10
73.0368711725
 20
208.5747844793
 11
73.1777729678
 21
208.7156862745
  0
LINE
  5
254
100
AcDbEntity
  8
0
100
AcDbLine
 62
7
  6
CONTINUOUS
 10
74.1771637948
 20
207.7162954475
 11
74.0362619996
 21
207.5753936522
  0
LINE
  5
255
100
AcDbEntity
  8
0
100
AcDbLine
 62
7
  6
CONTINUOUS
 10
395.9600902351
 20
429.604640739
 11
398.2262398276
 21
430.5433102
  0
LINE
  5
256
100
AcDbEntity
  8
0
100
AcDbLine
 62
7
  6
CONTINUOUS
 10
399.6904825626
 20
427.0083155058
 11
397.4243332774
 21
426.0696453191
  0
LINE
  5
257
100
AcDbEntity
  8
0
100
AcDbLine
 62
7
  6
CONTINUOUS
 10
395.9600902115
 20
208.8267317864
 11
398.2262395138
 21
207.8880620352
  0
LINE
  5
258
100
AcDbEntity
  8
0
100
AcDbLine
 62
7
  6
CONTINUOUS
 10
397.4243332774
 20
212.3617272213
 11
399.6904825626
 21
211.4230570175
  0
LINE
  5
259
100
AcDbEntity
  8
0
100
AcDbLine
 62
7
  6
CONTINUOUS
 10
61.1374224893
 20
430.533975241
 11
60.0809697171
 21
431.5986769167
  0
LINE
  5
25A
100
AcDbEntity
  8
0
100
AcDbLine
 62
7
  6
CONTINUOUS
 10
66.0101339765
 20
426.9887441291
 11
63.3942373605
 21
429.6046407451
  0
LINE
  5
25B
100
AcDbEntity
  8
0
100
AcDbLine
 62
7
  6
CONTINUOUS
 10
73.1777729678
 20
429.7156862745
 11
73.0368711725
 21
429.8565880698
  0
LINE
  5
25C
100
AcDbEntity
  8
0
100
AcDbLine
 62
7
  6
CONTINUOUS
 10
74.0362619996
 20
430.8559788968
 11
74.1771637948
 21
430.7150771016
  0
LINE
  5
25D
100
AcDbEntity
  8
0
100
AcDbLine
 62
7
  6
CONTINUOUS
 10
76.9041059453
 20
200.5486564511
 11
74.2882093293
 21
197.9327598351
  0
LINE
  5
25E
100
AcDbEntity
  8
0
100
AcDbLine
 62
7
  6
CONTINUOUS
 10
73.3588734486
 20
195.6759463487
 11
72.2941731526
 21
194.6194921968
  0
LINE
  5
25F
100
AcDbEntity
  8
0
100
AcDbLine
 62
7
  6
CONTINUOUS
 10
74.2882086782
 20
440.4986120628
 11
76.9041052942
 21
437.8827154468
  0
LINE
  5
260
100
AcDbEntity
  8
0
100
AcDbLine
 62
7
  6
CONTINUOUS
 10
72.2941731527
 20
443.8118803522
 11
73.3588734694
 21
442.7554262211
  0
LINE
  5
261
100
AcDbEntity
  8
0
100
AcDbLine
 62
7
  6
CONTINUOUS
 10
228.0078494409
 20
427.3524819145
 11
228.0078494409
 21
427.4831676016
  0
LINE
  5
262
100
AcDbEntity
  8
0
100
AcDbLine
 62
7
  6
CONTINUOUS
 10
229.2997706206
 20
426.1389720568
 11
229.2997706206
 21
426.8110698292
  0
LINE
  5
263
100
AcDbEntity
  8
0
100
AcDbLine
 62
7
  6
CONTINUOUS
 10
229.5870077701
 20
209.4023803005
 11
229.5870077701
 21
214.7156862745
  0
LINE
  5
264
100
AcDbEntity
  8
0
100
AcDbLine
 62
7
  6
CONTINUOUS
 10
230.3151137175
 20
214.7156862745
 11
230.3151137175
 21
210.9407374093
  0
LINE
  5
265
100
AcDbEntity
  8
0
100
AcDbLine
 62
7
  6
CONTINUOUS
 10
231.5771638023
 20
210.9407374093
 11
231.5771638023
 21
210.376922054
  0
LINE
  5
266
100
AcDbEntity
  8
0
100
AcDbLine
 62
7
  6
CONTINUOUS
 10
381.0851745309
 20
317.6071326086
 11
380.4877543526
 21
317.6071326086
  0
LINE
  5
267
100
AcDbEntity
  8
0
100
AcDbLine
 62
7
  6
CONTINUOUS
 10
384.4904697688
 20
318.4024482021
 11
381.0851745309
 21
318.4024482021
  0
LINE
  5
268
100
AcDbEntity
  8
0
100
AcDbLine
 62
7
  6
CONTINUOUS
 10
380.4877543526
 20
318.4024482021
 11
379.1771637948
 21
318.4024482021
  0
LINE
  5
269
100
AcDbEntity
  8
0
100
AcDbLine
 62
7
  6
CONTINUOUS
 10
379.1771637948
 20
319.0558764735
 11
380.4877543526
 21
319.0558764735
  0
LINE
  5
26A
100
AcDbEntity
  8
0
100
AcDbLine
 62
7
  6
CONTINUOUS
 10
381.0851745309
 20
319.0558764735
 11
383.4636539371
 21
319.0558764735
  0
LINE
  5
26B
100
AcDbEntity
  8
0
100
AcDbLine
 62
7
  6
CONTINUOUS
 10
79.5050660634
 20
320.5711512813
 11
80.1771637948
 21
320.5711512813
  0
LINE
  5
26C
100
AcDbEntity
  8
0
100
AcDbLine
 62
7
  6
CONTINUOUS
 10
380.4877543526
 20
321.4156862764
 11
381.1635859759
 21
321.4156862764
  0
LINE
  5
26D
100
AcDbEntity
  8
0
100
AcDbLine
 62
7
  6
CONTINUOUS
 10
385.9954527612
 20
442.7554275801
 11
387.060154437
 21
443.8118803522
  0
LINE
  5
26E
100
AcDbEntity
  8
0
100
AcDbLine
 62
7
  6
CONTINUOUS
 10
382.4502216494
 20
437.8827160928
 11
385.0661182654
 21
440.4986127088
  0
LINE
  5
26F
100
AcDbEntity
  8
0
100
AcDbLine
 62
7
  6
CONTINUOUS
 10
385.1771637948
 20
430.7150771016
 11
385.3180655901
 21
430.8559788968
  0
LINE
  5
270
100
AcDbEntity
  8
0
100
AcDbLine
 62
7
  6
CONTINUOUS
 10
387.060154437
 20
194.6194921968
 11
385.9954541796
 21
195.6759463873
  0
LINE
  5
271
100
AcDbEntity
  8
0
100
AcDbLine
 62
7
  6
CONTINUOUS
 10
385.0661189114
 20
197.9327604862
 11
382.4502222954
 21
200.5486571022
  0
LINE
  5
272
100
AcDbEntity
  8
0
100
AcDbLine
 62
7
  6
CONTINUOUS
 10
385.2469977782
 20
207.6464614641
 11
385.1060959829
 21
207.7873632594
  0
LINE
  5
273
100
AcDbEntity
  8
0
100
AcDbLine
 62
7
  6
CONTINUOUS
 10
386.3174564171
 20
429.8565880698
 11
386.1765546219
 21
429.7156862745
  0
LINE
  5
274
100
AcDbEntity
  8
0
100
AcDbLine
 62
7
  6
CONTINUOUS
 10
395.9600895831
 20
429.6046413911
 11
393.3441929671
 21
426.9887447751
  0
LINE
  5
275
100
AcDbEntity
  8
0
100
AcDbLine
 62
7
  6
CONTINUOUS
 10
399.2733578726
 20
431.5986769166
 11
398.2169037413
 21
430.5339766
  0
LINE
  5
276
100
AcDbEntity
  8
0
100
AcDbLine
 62
7
  6
CONTINUOUS
 10
59.663845027
 20
211.4230570432
 11
61.9299943122
 21
212.3617272299
  0
LINE
  5
277
100
AcDbEntity
  8
0
100
AcDbLine
 62
7
  6
CONTINUOUS
 10
63.3942373545
 20
208.82673181
 11
61.128087762
 21
207.8880623491
  0
LINE
  5
278
100
AcDbEntity
  8
0
100
AcDbLine
 62
7
  6
CONTINUOUS
 10
61.9299943122
 20
426.0696453277
 11
59.663845027
 21
427.0083155306
  0
LINE
  5
279
100
AcDbEntity
  8
0
100
AcDbLine
 62
7
  6
CONTINUOUS
 10
61.1280877795
 20
430.5433102175
 11
63.3942373606
 21
429.604640745
  0
LINE
  5
27A
100
AcDbEntity
  8
0
100
AcDbLine
 62
7
  6
CONTINUOUS
 10
386.10548681
 20
208.7867540864
 11
386.2463886052
 21
208.6458522912
  0
LINE
  5
27B
100
AcDbEntity
  8
0
100
AcDbLine
 62
7
  6
CONTINUOUS
 10
393.3441936131
 20
211.4426284199
 11
395.9600902291
 21
208.8267318039
  0
LINE
  5
27C
100
AcDbEntity
  8
0
100
AcDbLine
 62
7
  6
CONTINUOUS
 10
398.2169050125
 20
207.8973972202
 11
399.2733578725
 21
206.8326956323
  0
LINE
  5
27D
100
AcDbEntity
  8
0
100
AcDbLine
 62
7
  6
CONTINUOUS
 10
381.0851745309
 20
320.7286530385
 11
383.4636539371
 21
319.0558764735
  0
LINE
  5
27E
100
AcDbEntity
  8
0
100
AcDbLine
 62
7
  6
CONTINUOUS
 10
384.4904697688
 20
319.0558764735
 11
381.1635859759
 21
321.4156862764
  0
LINE
  5
27F
100
AcDbEntity
  8
0
100
AcDbLine
 62
7
  6
CONTINUOUS
 10
381.531122848
 20
441.9628557571
 11
382.4697930509
 21
444.2290050423
  0
LINE
  5
280
100
AcDbEntity
  8
0
100
AcDbLine
 62
7
  6
CONTINUOUS
 10
386.0047877377
 20
442.7647622898
 11
385.0661182653
 21
440.4986127088
  0
LINE
  5
281
100
AcDbEntity
  8
0
100
AcDbLine
 62
7
  6
CONTINUOUS
 10
227.8771637948
 20
425.4183338115
 11
228.6052696602
 21
425.4183338115
  0
LINE
  5
282
100
AcDbEntity
  8
0
100
AcDbLine
 62
7
  6
CONTINUOUS
 10
61.9299943122
 20
426.0696444104
 11
65.6294307843
 21
426.0696444104
  0
LINE
  5
283
100
AcDbEntity
  8
0
100
AcDbLine
 62
7
  6
CONTINUOUS
 10
393.7248968053
 20
426.0696453191
 11
397.4243332774
 21
426.0696453191
  0
LINE
  5
284
100
AcDbEntity
  8
0
100
AcDbLine
 62
7
  6
CONTINUOUS
 10
382.469793026
 20
194.2023675067
 11
381.5311228394
 21
196.4685167919
  0
LINE
  5
285
100
AcDbEntity
  8
0
100
AcDbLine
 62
7
  6
CONTINUOUS
 10
385.0661182708
 20
197.9327598457
 11
386.0047877202
 21
195.6666102417
  0
LINE
  5
286
100
AcDbEntity
  8
0
100
AcDbLine
 62
7
  6
CONTINUOUS
 10
58.1771637948
 20
427.0024828389
 11
59.6770464889
 21
427.0083137725
  0
LINE
  5
287
100
AcDbEntity
  8
0
100
AcDbLine
 62
7
  6
CONTINUOUS
 10
399.6772811007
 20
427.0083156947
 11
401.1771637948
 21
427.0024828389
  0
LINE
  5
288
100
AcDbEntity
  8
0
100
AcDbLine
 62
7
  6
CONTINUOUS
 10
228.7359553473
 20
427.3524819145
 11
228.0078494409
 21
427.3524819145
  0
LINE
  5
289
100
AcDbEntity
  8
0
100
AcDbLine
 62
7
  6
CONTINUOUS
 10
390.6172514676
 20
429.7156862745
 11
386.1765546218
 21
429.7156862745
  0
LINE
  5
28A
100
AcDbEntity
  8
0
100
AcDbLine
 62
7
  6
CONTINUOUS
 10
73.1777729678
 20
429.7156862745
 11
68.737076122
 21
429.7156862745
  0
LINE
  5
28B
100
AcDbEntity
  8
0
100
AcDbLine
 62
7
  6
CONTINUOUS
 10
63.6363236086
 20
429.8565880698
 11
73.0368711725
 21
429.8565880698
  0
LINE
  5
28C
100
AcDbEntity
  8
0
100
AcDbLine
 62
7
  6
CONTINUOUS
 10
386.3174564171
 20
429.8565880698
 11
395.718003981
 21
429.8565880698
  0
LINE
  5
28D
100
AcDbEntity
  8
0
100
AcDbLine
 62
7
  6
CONTINUOUS
 10
394.7424368428
 20
430.8559788968
 11
385.3180655901
 21
430.8559788968
  0
LINE
  5
28E
100
AcDbEntity
  8
0
100
AcDbLine
 62
7
  6
CONTINUOUS
 10
74.0362619995
 20
430.8559788968
 11
64.6118907468
 21
430.8559788968
  0
LINE
  5
28F
100
AcDbEntity
  8
0
100
AcDbLine
 62
7
  6
CONTINUOUS
 10
77.8232047508
 20
438.263419285
 11
381.5311228388
 21
438.263419285
  0
LINE
  5
290
100
AcDbEntity
  8
0
100
AcDbLine
 62
7
  6
CONTINUOUS
 10
381.531122848
 20
441.9628557571
 11
77.8232047502
 21
441.9628557571
  0
LINE
  5
291
100
AcDbEntity
  8
0
100
AcDbLine
 62
7
  6
CONTINUOUS
 10
76.8845345635
 20
444.2290050423
 11
382.4697930509
 21
444.2290050423
  0
LINE
  5
292
100
AcDbEntity
  8
0
100
AcDbLine
 62
7
  6
CONTINUOUS
 10
382.4639603592
 20
445.7156862745
 11
76.8903672304
 21
445.7156862745
  0
LINE
  5
293
100
AcDbEntity
  8
0
100
AcDbLine
 62
7
  6
CONTINUOUS
 10
399.1771637948
 20
454.2156862745
 11
60.1771637948
 21
454.2156862745
  0
LINE
  5
294
100
AcDbEntity
  8
0
100
AcDbLine
 62
7
  6
CONTINUOUS
 10
379.1771637948
 20
318.4024482021
 11
379.1771637948
 21
319.0558764735
  0
LINE
  5
295
100
AcDbEntity
  8
0
100
AcDbLine
 62
7
  6
CONTINUOUS
 10
380.4877543526
 20
317.6071326086
 11
380.4877543526
 21
318.4024482021
  0
LINE
  5
296
100
AcDbEntity
  8
0
100
AcDbLine
 62
7
  6
CONTINUOUS
 10
380.4877543526
 20
319.0558764735
 11
380.4877543526
 21
321.4156862764
  0
LINE
  5
297
100
AcDbEntity
  8
0
100
AcDbLine
 62
7
  6
CONTINUOUS
 10
381.0851745309
 20
320.7286530385
 11
381.0851745309
 21
319.0558764735
  0
LINE
  5
298
100
AcDbEntity
  8
0
100
AcDbLine
 62
7
  6
CONTINUOUS
 10
381.0851745309
 20
318.4024482021
 11
381.0851745309
 21
317.6071326086
  0
LINE
  5
299
100
AcDbEntity
  8
0
100
AcDbLine
 62
7
  6
CONTINUOUS
 10
381.5311219307
 20
441.9628557571
 11
381.5311219307
 21
438.263419285
  0
LINE
  5
29A
100
AcDbEntity
  8
0
100
AcDbLine
 62
7
  6
CONTINUOUS
 10
381.5311228394
 20
200.167953264
 11
381.5311228394
 21
196.4685167919
  0
LINE
  5
29B
100
AcDbEntity
  8
0
100
AcDbLine
 62
7
  6
CONTINUOUS
 10
382.4639603592
 20
445.7156862745
 11
382.4697912928
 21
444.2158035804
  0
LINE
  5
29C
100
AcDbEntity
  8
0
100
AcDbLine
 62
7
  6
CONTINUOUS
 10
382.4697932405
 20
194.2155689686
 11
382.4639603592
 21
192.7156862745
  0
LINE
  5
29D
100
AcDbEntity
  8
0
100
AcDbLine
 62
7
  6
CONTINUOUS
 10
384.4904697688
 20
319.0558764735
 11
384.4904697688
 21
318.4024482021
  0
LINE
  5
29E
100
AcDbEntity
  8
0
100
AcDbLine
 62
7
  6
CONTINUOUS
 10
385.1060959829
 20
203.2045307898
 11
385.1060959829
 21
207.7873632593
  0
LINE
  5
29F
100
AcDbEntity
  8
0
100
AcDbLine
 62
7
  6
CONTINUOUS
 10
385.1771637948
 20
430.7150771015
 11
385.1771637948
 21
435.1557739473
  0
LINE
  5
2A0
100
AcDbEntity
  8
0
100
AcDbLine
 62
7
  6
CONTINUOUS
 10
385.2469977782
 20
207.6464614641
 11
385.2469977782
 21
198.1037782764
  0
LINE
  5
2A1
100
AcDbEntity
  8
0
100
AcDbLine
 62
7
  6
CONTINUOUS
 10
385.3180655901
 20
440.2565264607
 11
385.3180655901
 21
430.8559788968
  0
LINE
  5
2A2
100
AcDbEntity
  8
0
100
AcDbLine
 62
7
  6
CONTINUOUS
 10
386.2463886052
 20
199.0793454146
 11
386.2463886052
 21
208.6458522911
  0
LINE
  5
2A3
100
AcDbEntity
  8
0
100
AcDbLine
 62
7
  6
CONTINUOUS
 10
386.3174564171
 20
429.8565880698
 11
386.3174564171
 21
439.2809593225
  0
LINE
  5
2A4
100
AcDbEntity
  8
0
100
AcDbLine
 62
7
  6
CONTINUOUS
 10
393.7248968053
 20
426.0696453185
 11
393.7248968053
 21
212.3617272305
  0
LINE
  5
2A5
100
AcDbEntity
  8
0
100
AcDbLine
 62
7
  6
CONTINUOUS
 10
385.2469977781
 20
198.1037782765
 11
385.2330478596
 21
198.0996894345
  0
LINE
  5
2A6
100
AcDbEntity
  8
0
100
AcDbLine
 62
7
  6
CONTINUOUS
 10
385.3180655901
 20
440.2565264607
 11
385.3041156715
 21
440.2606153026
  0
LINE
  5
2A7
100
AcDbEntity
  8
0
100
AcDbLine
 62
7
  6
CONTINUOUS
 10
397.4243332774
 20
212.3617272213
 11
397.4243332774
 21
426.0696453191
  0
LINE
  5
2A8
100
AcDbEntity
  8
0
100
AcDbLine
 62
7
  6
CONTINUOUS
 10
399.6904825626
 20
427.0083155058
 11
399.6904825626
 21
211.4230570175
  0
LINE
  5
2A9
100
AcDbEntity
  8
0
100
AcDbLine
 62
7
  6
CONTINUOUS
 10
401.1771637948
 20
211.4288897101
 11
401.1771637948
 21
427.0024828389
  0
LINE
  5
2AA
100
AcDbEntity
  8
0
100
AcDbLine
 62
7
  6
CONTINUOUS
 10
409.6771637948
 20
194.7156862745
 11
409.6771637948
 21
443.7156862745
  0
LINE
  5
2AB
100
AcDbEntity
  8
0
100
AcDbLine
 62
7
  6
CONTINUOUS
 10
395.7890717929
 20
208.6458522912
 11
395.7931606348
 21
208.6598022097
  0
LINE
  5
2AC
100
AcDbEntity
  8
0
100
AcDbLine
 62
7
  6
CONTINUOUS
 10
382.4502216498
 20
200.5486564567
 11
385.1060959829
 21
203.2045307898
  0
LINE
  5
2AD
100
AcDbEntity
  8
0
100
AcDbLine
 62
7
  6
CONTINUOUS
 10
390.6883192795
 20
208.7867540864
 11
393.3441936126
 21
211.4426284195
  0
LINE
  5
2AE
100
AcDbEntity
  8
0
100
AcDbLine
 62
7
  6
CONTINUOUS
 10
385.0661182708
 20
197.9327598457
 11
385.2330478596
 21
198.0996894345
  0
LINE
  5
2AF
100
AcDbEntity
  8
0
100
AcDbLine
 62
7
  6
CONTINUOUS
 10
395.7931606348
 20
208.6598022097
 11
395.9600902115
 21
208.8267317864
  0
LINE
  5
2B0
100
AcDbEntity
  8
0
100
AcDbLine
 62
7
  6
CONTINUOUS
 10
386.2463886052
 20
199.0793454146
 11
394.8135046547
 21
207.6464614641
  0
LINE
  5
2B1
100
AcDbEntity
  8
0
100
AcDbLine
 62
7
  6
CONTINUOUS
 10
393.3441936126
 20
426.9887441295
 11
390.6172514676
 21
429.7156862745
  0
LINE
  5
2B2
100
AcDbEntity
  8
0
100
AcDbLine
 62
7
  6
CONTINUOUS
 10
385.1771637948
 20
435.1557739473
 11
382.4502216498
 21
437.8827160923
  0
LINE
  5
2B3
100
AcDbEntity
  8
0
100
AcDbLine
 62
7
  6
CONTINUOUS
 10
395.9600902351
 20
429.604640739
 11
395.7220928229
 21
429.8426381512
  0
LINE
  5
2B4
100
AcDbEntity
  8
0
100
AcDbLine
 62
7
  6
CONTINUOUS
 10
385.3041156715
 20
440.2606153026
 11
385.0661182653
 21
440.4986127088
  0
LINE
  5
2B5
100
AcDbEntity
  8
0
100
AcDbLine
 62
7
  6
CONTINUOUS
 10
386.3174564171
 20
439.2809593225
 11
394.7424368428
 21
430.8559788968
  0
LINE
  5
2B6
100
AcDbEntity
  8
0
100
AcDbLine
 62
7
  6
CONTINUOUS
 10
395.7180039809
 20
429.8565880697
 11
395.7220928229
 21
429.8426381512
  0
LINE
  5
2B7
100
AcDbEntity
  8
0
100
AcDbLine
 62
7
  6
CONTINUOUS
 10
398.2262395138
 20
207.8880620352
 11
386.0047877202
 21
195.6666102417
  0
LINE
  5
2B8
100
AcDbEntity
  8
0
100
AcDbLine
 62
7
  6
CONTINUOUS
 10
387.0601544369
 20
194.6194921968
 11
399.2733578725
 21
206.8326956324
  0
LINE
  5
2B9
100
AcDbEntity
  8
0
100
AcDbLine
 62
7
  6
CONTINUOUS
 10
398.2262398276
 20
430.5433102
 11
386.0047877377
 21
442.7647622898
  0
LINE
  5
2BA
100
AcDbEntity
  8
0
100
AcDbLine
 62
7
  6
CONTINUOUS
 10
399.2733578725
 20
431.5986769166
 11
387.0601544369
 21
443.8118803522
  0
ARC
  5
2BB
100
AcDbEntity
  8
0
100
AcDbCircle
 62
7
  6
CONTINUOUS
 10
60.1771637948
 20
194.7156862745
 40
10.5
100
AcDbArc
 50
180.0
 51
270.0
  0
CIRCLE
  5
2BC
100
AcDbEntity
  8
0
100
AcDbCircle
 62
7
  6
CONTINUOUS
 10
60.1771637948
 20
194.7156862745
 40
7.0
  0
CIRCLE
  5
2BD
100
AcDbEntity
  8
0
100
AcDbCircle
 62
7
  6
CONTINUOUS
 10
60.1771637948
 20
194.7156862745
 40
5.2405511811
  0
CIRCLE
  5
2BE
100
AcDbEntity
  8
0
100
AcDbCircle
 62
7
  6
CONTINUOUS
 10
60.1771637948
 20
194.7156862745
 40
5.1
  0
CIRCLE
  5
2BF
100
AcDbEntity
  8
0
100
AcDbCircle
 62
7
  6
CONTINUOUS
 10
60.1771637948
 20
194.7156862745
 40
3.75
  0
ARC
  5
2C0
100
AcDbEntity
  8
0
100
AcDbCircle
 62
7
  6
CONTINUOUS
 10
64.6771637948
 20
211.4288897101
 40
6.5
100
AcDbArc
 50
180.0
 51
225.0
  0
ARC
  5
2C1
100
AcDbEntity
  8
0
100
AcDbCircle
 62
7
  6
CONTINUOUS
 10
64.6551792973
 20
211.4208191734
 40
5.7345484911
100
AcDbArc
 50
179.9193645597
 51
225.0983013302
  0
ARC
  5
2C2
100
AcDbEntity
  8
0
100
AcDbCircle
 62
7
  6
CONTINUOUS
 10
66.9298039016
 20
212.3619637868
 40
4.9998095902
100
AcDbArc
 50
180.0027108167
 51
224.9972864334
  0
ARC
  5
2C3
100
AcDbEntity
  8
0
100
AcDbCircle
 62
7
  6
CONTINUOUS
 10
66.9286990144
 20
212.361485829
 40
1.2992100531
100
AcDbArc
 50
179.9893545536
 51
225.0091169491
  0
ARC
  5
2C4
100
AcDbEntity
  8
0
100
AcDbCircle
 62
7
  6
CONTINUOUS
 10
76.8903672304
 20
199.2156862745
 40
6.5
100
AcDbArc
 50
225.0
 51
270.0
  0
ARC
  5
2C5
100
AcDbEntity
  8
0
100
AcDbCircle
 62
7
  6
CONTINUOUS
 10
76.8823373076
 20
199.1938109544
 40
5.7346560784
100
AcDbArc
 50
224.9021849027
 51
270.0802281486
  0
ARC
  5
2C6
100
AcDbEntity
  8
0
100
AcDbCircle
 62
7
  6
CONTINUOUS
 10
77.8234413024
 20
201.4683263698
 40
4.9998095835
100
AcDbArc
 50
225.0027134561
 51
269.9972892153
  0
ARC
  5
2C7
100
AcDbEntity
  8
0
100
AcDbCircle
 62
7
  6
CONTINUOUS
 10
77.8229635879
 20
201.4672212569
 40
1.2992079526
100
AcDbArc
 50
224.9908682124
 51
270.0106349239
  0
CIRCLE
  5
2C8
100
AcDbEntity
  8
0
100
AcDbCircle
 62
7
  6
CONTINUOUS
 10
84.6771637948
 20
219.2156862745
 40
15.0788988238
  0
CIRCLE
  5
2C9
100
AcDbEntity
  8
0
100
AcDbCircle
 62
7
  6
CONTINUOUS
 10
84.6771637948
 20
219.2156862745
 40
11.2152219277
  0
CIRCLE
  5
2CA
100
AcDbEntity
  8
0
100
AcDbCircle
 62
7
  6
CONTINUOUS
 10
84.6771637948
 20
219.2156862745
 40
10.3971954102
  0
CIRCLE
  5
2CB
100
AcDbEntity
  8
0
100
AcDbCircle
 62
7
  6
CONTINUOUS
 10
84.6771637948
 20
219.2156862745
 40
8.4653239205
  0
CIRCLE
  5
2CC
100
AcDbEntity
  8
0
100
AcDbCircle
 62
7
  6
CONTINUOUS
 10
84.6771637948
 20
219.2156862745
 40
8.0
  0
CIRCLE
  5
2CD
100
AcDbEntity
  8
0
100
AcDbCircle
 62
7
  6
CONTINUOUS
 10
84.6771637948
 20
219.2156862745
 40
5.05
  0
CIRCLE
  5
2CE
100
AcDbEntity
  8
0
100
AcDbCircle
 62
7
  6
CONTINUOUS
 10
84.6771637948
 20
219.2156862745
 40
4.0
  0
CIRCLE
  5
2CF
100
AcDbEntity
  8
0
100
AcDbCircle
 62
7
  6
CONTINUOUS
 10
84.6771637948
 20
219.2156862745
 40
3.85
  0
ARC
  5
2D0
100
AcDbEntity
  8
0
100
AcDbCircle
 62
7
  6
CONTINUOUS
 10
73.035400575
 20
207.5739230547
 40
1.000862505
100
AcDbArc
 50
0.0841864487
 51
89.9158135469
  0
ARC
  5
2D1
100
AcDbEntity
  8
0
100
AcDbCircle
 62
7
  6
CONTINUOUS
 10
64.6771637948
 20
427.0024828389
 40
6.5
100
AcDbArc
 50
135.0
 51
180.0
  0
ARC
  5
2D2
100
AcDbEntity
  8
0
100
AcDbCircle
 62
7
  6
CONTINUOUS
 10
64.6559066097
 20
427.0123229791
 40
5.7345434637
100
AcDbArc
 50
134.9193391776
 51
180.0983162445
  0
ARC
  5
2D3
100
AcDbEntity
  8
0
100
AcDbCircle
 62
7
  6
CONTINUOUS
 10
66.929803681
 20
426.06940884
 40
4.9998093743
100
AcDbArc
 50
135.0027097874
 51
179.9972874554
  0
ARC
  5
2D4
100
AcDbEntity
  8
0
100
AcDbCircle
 62
7
  6
CONTINUOUS
 10
66.9286860907
 20
426.0698518571
 40
1.299211112
100
AcDbArc
 50
134.9893930615
 51
180.0091081333
  0
ARC
  5
2D5
100
AcDbEntity
  8
0
100
AcDbCircle
 62
7
  6
CONTINUOUS
 10
60.1771637948
 20
443.7156862745
 40
10.5
100
AcDbArc
 50
90.0
 51
180.0
  0
CIRCLE
  5
2D6
100
AcDbEntity
  8
0
100
AcDbCircle
 62
7
  6
CONTINUOUS
 10
60.1771637948
 20
443.7156862745
 40
7.0
  0
CIRCLE
  5
2D7
100
AcDbEntity
  8
0
100
AcDbCircle
 62
7
  6
CONTINUOUS
 10
60.1771637948
 20
443.7156862745
 40
5.2405511811
  0
CIRCLE
  5
2D8
100
AcDbEntity
  8
0
100
AcDbCircle
 62
7
  6
CONTINUOUS
 10
60.1771637948
 20
443.7156862745
 40
5.1
  0
CIRCLE
  5
2D9
100
AcDbEntity
  8
0
100
AcDbCircle
 62
7
  6
CONTINUOUS
 10
60.1771637948
 20
443.7156862745
 40
3.75
  0
CIRCLE
  5
2DA
100
AcDbEntity
  8
0
100
AcDbCircle
 62
7
  6
CONTINUOUS
 10
84.6771637948
 20
419.2156862745
 40
15.0788988238
  0
CIRCLE
  5
2DB
100
AcDbEntity
  8
0
100
AcDbCircle
 62
7
  6
CONTINUOUS
 10
84.6771637948
 20
419.2156862745
 40
11.2152219277
  0
CIRCLE
  5
2DC
100
AcDbEntity
  8
0
100
AcDbCircle
 62
7
  6
CONTINUOUS
 10
84.6771637948
 20
419.2156862745
 40
10.3971954102
  0
CIRCLE
  5
2DD
100
AcDbEntity
  8
0
100
AcDbCircle
 62
7
  6
CONTINUOUS
 10
84.6771637948
 20
419.2156862745
 40
8.4653239205
  0
CIRCLE
  5
2DE
100
AcDbEntity
  8
0
100
AcDbCircle
 62
7
  6
CONTINUOUS
 10
84.6771637948
 20
419.2156862745
 40
8.0
  0
CIRCLE
  5
2DF
100
AcDbEntity
  8
0
100
AcDbCircle
 62
7
  6
CONTINUOUS
 10
84.6771637948
 20
419.2156862745
 40
5.05
  0
CIRCLE
  5
2E0
100
AcDbEntity
  8
0
100
AcDbCircle
 62
7
  6
CONTINUOUS
 10
84.6771637948
 20
419.2156862745
 40
4.0
  0
CIRCLE
  5
2E1
100
AcDbEntity
  8
0
100
AcDbCircle
 62
7
  6
CONTINUOUS
 10
84.6771637948
 20
419.2156862745
 40
3.85
  0
ARC
  5
2E2
100
AcDbEntity
  8
0
100
AcDbCircle
 62
7
  6
CONTINUOUS
 10
73.035400575
 20
430.8574494943
 40
1.000862505
100
AcDbArc
 50
270.0841864487
 51
359.9158135469
  0
ARC
  5
2E3
100
AcDbEntity
  8
0
100
AcDbCircle
 62
7
  6
CONTINUOUS
 10
76.8903672304
 20
439.2156862745
 40
6.5
100
AcDbArc
 50
90.0
 51
135.0
  0
ARC
  5
2E4
100
AcDbEntity
  8
0
100
AcDbCircle
 62
7
  6
CONTINUOUS
 10
76.8822966939
 20
439.2376707716
 40
5.7345484916
100
AcDbArc
 50
89.9193645616
 51
135.0983013283
  0
ARC
  5
2E5
100
AcDbEntity
  8
0
100
AcDbCircle
 62
7
  6
CONTINUOUS
 10
77.8234413042
 20
436.9630461747
 40
4.9998095833
100
AcDbArc
 50
90.0027107838
 51
134.9972864662
  0
ARC
  5
2E6
100
AcDbEntity
  8
0
100
AcDbCircle
 62
7
  6
CONTINUOUS
 10
77.822963453
 20
436.9641510361
 40
1.2992101098
100
AcDbArc
 50
89.9893591301
 51
135.0091195961
  0
ARC
  5
2E7
100
AcDbEntity
  8
0
100
AcDbCircle
 62
7
  6
CONTINUOUS
 10
382.4639603592
 20
199.2156862745
 40
6.5
100
AcDbArc
 50
270.0
 51
315.0
  0
ARC
  5
2E8
100
AcDbEntity
  8
0
100
AcDbCircle
 62
7
  6
CONTINUOUS
 10
382.4719499934
 20
199.1936191944
 40
5.7344991815
100
AcDbArc
 50
269.9201721981
 51
315.0994571999
  0
ARC
  5
2E9
100
AcDbEntity
  8
0
100
AcDbCircle
 62
7
  6
CONTINUOUS
 10
381.5308862852
 20
201.4683263748
 40
4.9998095837
100
AcDbArc
 50
270.0027107856
 51
314.9972865575
  0
ARC
  5
2EA
100
AcDbEntity
  8
0
100
AcDbCircle
 62
7
  6
CONTINUOUS
 10
381.5313641554
 20
201.4672215218
 40
1.2992101107
100
AcDbArc
 50
269.9893582987
 51
315.009118733
  0
CIRCLE
  5
2EB
100
AcDbEntity
  8
0
100
AcDbCircle
 62
7
  6
CONTINUOUS
 10
374.6771637948
 20
219.2156862745
 40
15.0788988238
  0
CIRCLE
  5
2EC
100
AcDbEntity
  8
0
100
AcDbCircle
 62
7
  6
CONTINUOUS
 10
374.6771637948
 20
219.2156862745
 40
11.2152219277
  0
CIRCLE
  5
2ED
100
AcDbEntity
  8
0
100
AcDbCircle
 62
7
  6
CONTINUOUS
 10
374.6771637948
 20
219.2156862745
 40
10.3971954102
  0
CIRCLE
  5
2EE
100
AcDbEntity
  8
0
100
AcDbCircle
 62
7
  6
CONTINUOUS
 10
374.6771637948
 20
219.2156862745
 40
8.4653239205
  0
CIRCLE
  5
2EF
100
AcDbEntity
  8
0
100
AcDbCircle
 62
7
  6
CONTINUOUS
 10
374.6771637948
 20
219.2156862745
 40
8.0
  0
CIRCLE
  5
2F0
100
AcDbEntity
  8
0
100
AcDbCircle
 62
7
  6
CONTINUOUS
 10
374.6771637948
 20
219.2156862745
 40
5.05
  0
CIRCLE
  5
2F1
100
AcDbEntity
  8
0
100
AcDbCircle
 62
7
  6
CONTINUOUS
 10
374.6771637948
 20
219.2156862745
 40
4.0
  0
CIRCLE
  5
2F2
100
AcDbEntity
  8
0
100
AcDbCircle
 62
7
  6
CONTINUOUS
 10
374.6771637948
 20
219.2156862745
 40
3.85
  0
ARC
  5
2F3
100
AcDbEntity
  8
0
100
AcDbCircle
 62
7
  6
CONTINUOUS
 10
386.2478592028
 20
207.6449908665
 40
1.000862505
100
AcDbArc
 50
90.0841864544
 51
179.9158135469
  0
ARC
  5
2F4
100
AcDbEntity
  8
0
100
AcDbCircle
 62
7
  6
CONTINUOUS
 10
399.1771637948
 20
194.7156862745
 40
10.5
100
AcDbArc
 50
270.0
 51
360.0
  0
CIRCLE
  5
2F5
100
AcDbEntity
  8
0
100
AcDbCircle
 62
7
  6
CONTINUOUS
 10
399.1771637948
 20
194.7156862745
 40
7.0
  0
CIRCLE
  5
2F6
100
AcDbEntity
  8
0
100
AcDbCircle
 62
7
  6
CONTINUOUS
 10
399.1771637948
 20
194.7156862745
 40
5.2405511811
  0
CIRCLE
  5
2F7
100
AcDbEntity
  8
0
100
AcDbCircle
 62
7
  6
CONTINUOUS
 10
399.1771637948
 20
194.7156862745
 40
5.1
  0
CIRCLE
  5
2F8
100
AcDbEntity
  8
0
100
AcDbCircle
 62
7
  6
CONTINUOUS
 10
399.1771637948
 20
194.7156862745
 40
3.75
  0
ARC
  5
2F9
100
AcDbEntity
  8
0
100
AcDbCircle
 62
7
  6
CONTINUOUS
 10
394.6771637948
 20
211.4288897101
 40
6.5
100
AcDbArc
 50
315.0
 51
360.0
  0
ARC
  5
2FA
100
AcDbEntity
  8
0
100
AcDbCircle
 62
7
  6
CONTINUOUS
 10
394.6982904027
 20
211.4191187802
 40
5.734711205
100
AcDbArc
 50
314.9197750791
 51
0.0976218845
  0
ARC
  5
2FB
100
AcDbEntity
  8
0
100
AcDbCircle
 62
7
  6
CONTINUOUS
 10
392.4245618451
 20
212.3619479452
 40
4.9997714371
100
AcDbArc
 50
314.9957524439
 51
359.9974680791
  0
ARC
  5
2FC
100
AcDbEntity
  8
0
100
AcDbCircle
 62
7
  6
CONTINUOUS
 10
392.4256414732
 20
212.3615206815
 40
1.2992111316
100
AcDbArc
 50
314.9893941872
 51
0.0091085903
  0
CIRCLE
  5
2FD
100
AcDbEntity
  8
0
100
AcDbCircle
 62
7
  6
CONTINUOUS
 10
374.6771637948
 20
419.2156862745
 40
15.0788988238
  0
CIRCLE
  5
2FE
100
AcDbEntity
  8
0
100
AcDbCircle
 62
7
  6
CONTINUOUS
 10
374.6771637948
 20
419.2156862745
 40
11.2152219277
  0
CIRCLE
  5
2FF
100
AcDbEntity
  8
0
100
AcDbCircle
 62
7
  6
CONTINUOUS
 10
374.6771637948
 20
419.2156862745
 40
10.3971954102
  0
CIRCLE
  5
300
100
AcDbEntity
  8
0
100
AcDbCircle
 62
7
  6
CONTINUOUS
 10
374.6771637948
 20
419.2156862745
 40
8.4653239205
  0
CIRCLE
  5
301
100
AcDbEntity
  8
0
100
AcDbCircle
 62
7
  6
CONTINUOUS
 10
374.6771637948
 20
419.2156862745
 40
8.0
  0
CIRCLE
  5
302
100
AcDbEntity
  8
0
100
AcDbCircle
 62
7
  6
CONTINUOUS
 10
374.6771637948
 20
419.2156862745
 40
5.05
  0
CIRCLE
  5
303
100
AcDbEntity
  8
0
100
AcDbCircle
 62
7
  6
CONTINUOUS
 10
374.6771637948
 20
419.2156862745
 40
4.0
  0
CIRCLE
  5
304
100
AcDbEntity
  8
0
100
AcDbCircle
 62
7
  6
CONTINUOUS
 10
374.6771637948
 20
419.2156862745
 40
3.85
  0
ARC
  5
305
100
AcDbEntity
  8
0
100
AcDbCircle
 62
7
  6
CONTINUOUS
 10
386.3189270146
 20
430.8574494943
 40
1.000862505
100
AcDbArc
 50
180.0841864487
 51
269.9158135469
  0
ARC
  5
306
100
AcDbEntity
  8
0
100
AcDbCircle
 62
7
  6
CONTINUOUS
 10
382.4639603592
 20
439.2156862745
 40
6.5
100
AcDbArc
 50
45.0
 51
90.0
  0
ARC
  5
307
100
AcDbEntity
  8
0
100
AcDbCircle
 62
7
  6
CONTINUOUS
 10
382.4738004993
 20
439.2369434596
 40
5.7345434637
100
AcDbArc
 50
44.9193391784
 51
90.0983162443
  0
ARC
  5
308
100
AcDbEntity
  8
0
100
AcDbCircle
 62
7
  6
CONTINUOUS
 10
381.530886363
 20
436.9630463952
 40
4.9998093676
100
AcDbArc
 50
45.0027097557
 51
89.9972874872
  0
ARC
  5
309
100
AcDbEntity
  8
0
100
AcDbCircle
 62
7
  6
CONTINUOUS
 10
381.5313293882
 20
436.9641639117
 40
1.2992111693
100
AcDbArc
 50
44.9893954872
 51
90.0091086084
  0
ARC
  5
30A
100
AcDbEntity
  8
0
100
AcDbCircle
 62
7
  6
CONTINUOUS
 10
394.6771637948
 20
427.0024828389
 40
6.5
100
AcDbArc
 50
0.0
 51
45.0
  0
ARC
  5
30B
100
AcDbEntity
  8
0
100
AcDbCircle
 62
7
  6
CONTINUOUS
 10
394.6991482923
 20
427.0105533756
 40
5.7345484911
100
AcDbArc
 50
359.9193645597
 51
45.0983013301
  0
ARC
  5
30C
100
AcDbEntity
  8
0
100
AcDbCircle
 62
7
  6
CONTINUOUS
 10
392.424523683
 20
426.0694087602
 40
4.9998095952
100
AcDbArc
 50
0.0027108404
 51
44.9972864097
  0
ARC
  5
30D
100
AcDbEntity
  8
0
100
AcDbCircle
 62
7
  6
CONTINUOUS
 10
392.425628557
 20
426.0698867124
 40
1.2992100727
100
AcDbArc
 50
359.9893548926
 51
45.0091166202
  0
ARC
  5
30E
100
AcDbEntity
  8
0
100
AcDbCircle
 62
7
  6
CONTINUOUS
 10
399.1771637948
 20
443.7156862745
 40
10.5
100
AcDbArc
 50
0.0
 51
89.9999999998
  0
CIRCLE
  5
30F
100
AcDbEntity
  8
0
100
AcDbCircle
 62
7
  6
CONTINUOUS
 10
399.1771637948
 20
443.7156862745
 40
7.0
  0
CIRCLE
  5
310
100
AcDbEntity
  8
0
100
AcDbCircle
 62
7
  6
CONTINUOUS
 10
399.1771637948
 20
443.7156862745
 40
5.2405511811
  0
CIRCLE
  5
311
100
AcDbEntity
  8
0
100
AcDbCircle
 62
7
  6
CONTINUOUS
 10
399.1771637948
 20
443.7156862745
 40
5.1
  0
CIRCLE
  5
312
100
AcDbEntity
  8
0
100
AcDbCircle
 62
7
  6
CONTINUOUS
 10
399.1771637948
 20
443.7156862745
 40
3.75
  0
SPLINE
  5
313
100
AcDbEntity
  8
0
100
AcDbSpline
 62
7
  6
CONTINUOUS
 70
0
 71
3
 72
8
 73
4
 74
0
 42
0.0000001
 43
0.0000001
 44
0.0000000001
 40
0.0
 40
0.0
 40
0.0
 40
0.0
 40
1.0
 40
1.0
 40
1.0
 40
1.0
 10
228.3653667103
 20
424.0657330062
 30
0.0
 10
228.6799471723
 20
423.7530250382
 30
0.0
 10
229.1205446245
 20
423.5999361042
 30
0.0
 10
229.6918276818
 20
423.5999361042
 30
0.0
  0
SPLINE
  5
314
100
AcDbEntity
  8
0
100
AcDbSpline
 62
7
  6
CONTINUOUS
 70
0
 71
3
 72
8
 73
4
 74
0
 42
0.0000001
 43
0.0000001
 44
0.0000000001
 40
0.0
 40
0.0
 40
0.0
 40
0.0
 40
1.0
 40
1.0
 40
1.0
 40
1.0
 10
229.6918276818
 20
423.5999361042
 30
0.0
 10
230.2668446721
 20
423.5999361042
 30
0.0
 10
230.7223774464
 20
423.7567589149
 30
0.0
 10
231.0584264017
 20
424.0704045993
 30
0.0
  0
SPLINE
  5
315
100
AcDbEntity
  8
0
100
AcDbSpline
 62
7
  6
CONTINUOUS
 70
0
 71
3
 72
8
 73
4
 74
0
 42
0.0000001
 43
0.0000001
 44
0.0000000001
 40
0.0
 40
0.0
 40
0.0
 40
0.0
 40
1.0
 40
1.0
 40
1.0
 40
1.0
 10
231.0584264017
 20
424.0704045993
 30
0.0
 10
231.3944752188
 20
424.3840501549
 30
0.0
 10
231.56249958
 20
424.7835748771
 30
0.0
 10
231.56249958
 20
425.2689787874
 30
0.0
  0
SPLINE
  5
316
100
AcDbEntity
  8
0
100
AcDbSpline
 62
7
  6
CONTINUOUS
 70
0
 71
3
 72
8
 73
4
 74
0
 42
0.0000001
 43
0.0000001
 44
0.0000000001
 40
0.0
 40
0.0
 40
0.0
 40
0.0
 40
1.0
 40
1.0
 40
1.0
 40
1.0
 10
231.56249958
 20
425.2689787874
 30
0.0
 10
231.56249958
 20
425.9522781948
 30
0.0
 10
231.2301847907
 20
426.38167393
 30
0.0
 10
230.5692884894
 20
426.5571659932
 30
0.0
  0
SPLINE
  5
317
100
AcDbEntity
  8
0
100
AcDbSpline
 62
7
  6
CONTINUOUS
 70
0
 71
3
 72
8
 73
4
 74
0
 42
0.0000001
 43
0.0000001
 44
0.0000000001
 40
0.0
 40
0.0
 40
0.0
 40
0.0
 40
1.0
 40
1.0
 40
1.0
 40
1.0
 10
230.5692884894
 20
426.5571659932
 30
0.0
 10
230.8717324706
 20
426.6654484103
 30
0.0
 10
231.0808297666
 20
426.8110698292
 30
0.0
 10
231.1936798815
 20
426.9935109777
 30
0.0
  0
SPLINE
  5
318
100
AcDbEntity
  8
0
100
AcDbSpline
 62
7
  6
CONTINUOUS
 70
0
 71
3
 72
8
 73
4
 74
0
 42
0.0000001
 43
0.0000001
 44
0.0000000001
 40
0.0
 40
0.0
 40
0.0
 40
0.0
 40
1.0
 40
1.0
 40
1.0
 40
1.0
 10
231.1936798815
 20
426.9935109777
 30
0.0
 10
231.3048621388
 20
427.1732557545
 30
0.0
 10
231.3646040829
 20
427.4084899256
 30
0.0
 10
231.3646040829
 20
427.6959985027
 30
0.0
  0
SPLINE
  5
319
100
AcDbEntity
  8
0
100
AcDbSpline
 62
7
  6
CONTINUOUS
 70
0
 71
3
 72
8
 73
4
 74
0
 42
0.0000001
 43
0.0000001
 44
0.0000000001
 40
0.0
 40
0.0
 40
0.0
 40
0.0
 40
1.0
 40
1.0
 40
1.0
 40
1.0
 10
231.3646040829
 20
427.6959985027
 30
0.0
 10
231.3646040829
 20
428.1365957091
 30
0.0
 10
231.2152490588
 20
428.4913140962
 30
0.0
 10
230.9165390106
 20
428.7526854703
 30
0.0
  0
SPLINE
  5
31A
100
AcDbEntity
  8
0
100
AcDbSpline
 62
7
  6
CONTINUOUS
 70
0
 71
3
 72
8
 73
4
 74
0
 42
0.0000001
 43
0.0000001
 44
0.0000000001
 40
0.0
 40
0.0
 40
0.0
 40
0.0
 40
1.0
 40
1.0
 40
1.0
 40
1.0
 10
230.9165390106
 20
428.7526854703
 30
0.0
 10
230.6178289624
 20
429.0140568444
 30
0.0
 10
230.2257720651
 20
429.1484764645
 30
0.0
 10
229.7329002889
 20
429.1484764645
 30
0.0
  0
SPLINE
  5
31B
100
AcDbEntity
  8
0
100
AcDbSpline
 62
7
  6
CONTINUOUS
 70
0
 71
3
 72
8
 73
4
 74
0
 42
0.0000001
 43
0.0000001
 44
0.0000000001
 40
0.0
 40
0.0
 40
0.0
 40
0.0
 40
1.0
 40
1.0
 40
1.0
 40
1.0
 10
229.7329002889
 20
429.1484764645
 30
0.0
 10
229.2325608106
 20
429.1484764645
 30
0.0
 10
228.8181006433
 20
428.9991214404
 30
0.0
 10
228.4932533106
 20
428.7041450872
 30
0.0
  0
SPLINE
  5
31C
100
AcDbEntity
  8
0
100
AcDbSpline
 62
7
  6
CONTINUOUS
 70
0
 71
3
 72
8
 73
4
 74
0
 42
0.0000001
 43
0.0000001
 44
0.0000000001
 40
0.0
 40
0.0
 40
0.0
 40
0.0
 40
1.0
 40
1.0
 40
1.0
 40
1.0
 10
228.4932533106
 20
428.7041450872
 30
0.0
 10
228.168406141
 20
428.4091688821
 30
0.0
 10
228.0078494409
 20
428.0021764169
 30
0.0
 10
228.0078494409
 20
427.4831676016
 30
0.0
  0
SPLINE
  5
31D
100
AcDbEntity
  8
0
100
AcDbSpline
 62
7
  6
CONTINUOUS
 70
0
 71
3
 72
8
 73
4
 74
0
 42
0.0000001
 43
0.0000001
 44
0.0000000001
 40
0.0
 40
0.0
 40
0.0
 40
0.0
 40
1.0
 40
1.0
 40
1.0
 40
1.0
 10
228.7359553473
 20
427.3524819145
 30
0.0
 10
228.7770279543
 20
428.099257035
 30
0.0
 10
229.1056090565
 20
428.4763786921
 30
0.0
 10
229.7179648848
 20
428.4763786921
 30
0.0
  0
SPLINE
  5
31E
100
AcDbEntity
  8
0
100
AcDbSpline
 62
7
  6
CONTINUOUS
 70
0
 71
3
 72
8
 73
4
 74
0
 42
0.0000001
 43
0.0000001
 44
0.0000000001
 40
0.0
 40
0.0
 40
0.0
 40
0.0
 40
1.0
 40
1.0
 40
1.0
 40
1.0
 10
229.7179648848
 20
428.4763786921
 30
0.0
 10
229.986803961
 20
428.4763786921
 30
0.0
 10
230.2071025642
 20
428.3979670832
 30
0.0
 10
230.3779316899
 20
428.2475631648
 30
0.0
  0
SPLINE
  5
31F
100
AcDbEntity
  8
0
100
AcDbSpline
 62
7
  6
CONTINUOUS
 70
0
 71
3
 72
8
 73
4
 74
0
 42
0.0000001
 43
0.0000001
 44
0.0000000001
 40
0.0
 40
0.0
 40
0.0
 40
0.0
 40
1.0
 40
1.0
 40
1.0
 40
1.0
 10
230.3779316899
 20
428.2475631648
 30
0.0
 10
230.5506191523
 20
428.0955231021
 30
0.0
 10
230.6364982994
 20
427.8901600668
 30
0.0
 10
230.6364982994
 20
427.6362562308
 30
0.0
  0
SPLINE
  5
320
100
AcDbEntity
  8
0
100
AcDbSpline
 62
7
  6
CONTINUOUS
 70
0
 71
3
 72
8
 73
4
 74
0
 42
0.0000001
 43
0.0000001
 44
0.0000000001
 40
0.0
 40
0.0
 40
0.0
 40
0.0
 40
1.0
 40
1.0
 40
1.0
 40
1.0
 10
230.6364982994
 20
427.6362562308
 30
0.0
 10
230.6364982994
 20
427.3674173186
 30
0.0
 10
230.5394176813
 20
427.1583203504
 30
0.0
 10
230.3496733028
 20
427.0081060399
 30
0.0
  0
SPLINE
  5
321
100
AcDbEntity
  8
0
100
AcDbSpline
 62
7
  6
CONTINUOUS
 70
0
 71
3
 72
8
 73
4
 74
0
 42
0.0000001
 43
0.0000001
 44
0.0000000001
 40
0.0
 40
0.0
 40
0.0
 40
0.0
 40
1.0
 40
1.0
 40
1.0
 40
1.0
 10
230.3496733028
 20
427.0081060399
 30
0.0
 10
230.1809655251
 20
426.8745457063
 30
0.0
 10
229.8299810709
 20
426.8110698292
 30
0.0
 10
229.2997706206
 20
426.8110698292
 30
0.0
  0
SPLINE
  5
322
100
AcDbEntity
  8
0
100
AcDbSpline
 62
7
  6
CONTINUOUS
 70
0
 71
3
 72
8
 73
4
 74
0
 42
0.0000001
 43
0.0000001
 44
0.0000000001
 40
0.0
 40
0.0
 40
0.0
 40
0.0
 40
1.0
 40
1.0
 40
1.0
 40
1.0
 10
229.2997706206
 20
426.1389720568
 30
0.0
 10
229.6432872089
 20
426.1352381239
 30
0.0
 10
229.938263488
 20
426.1053671519
 30
0.0
 10
230.1838084563
 20
426.0493656778
 30
0.0
  0
SPLINE
  5
323
100
AcDbEntity
  8
0
100
AcDbSpline
 62
7
  6
CONTINUOUS
 70
0
 71
3
 72
8
 73
4
 74
0
 42
0.0000001
 43
0.0000001
 44
0.0000000001
 40
0.0
 40
0.0
 40
0.0
 40
0.0
 40
1.0
 40
1.0
 40
1.0
 40
1.0
 10
230.1838084563
 20
426.0493656778
 30
0.0
 10
230.3639254542
 20
426.0082863698
 30
0.0
 10
230.5170144113
 20
425.9149393568
 30
0.0
 10
230.6430406095
 20
425.7685265772
 30
0.0
  0
SPLINE
  5
324
100
AcDbEntity
  8
0
100
AcDbSpline
 62
7
  6
CONTINUOUS
 70
0
 71
3
 72
8
 73
4
 74
0
 42
0.0000001
 43
0.0000001
 44
0.0000000001
 40
0.0
 40
0.0
 40
0.0
 40
0.0
 40
1.0
 40
1.0
 40
1.0
 40
1.0
 10
230.6430406095
 20
425.7685265772
 30
0.0
 10
230.7709179194
 20
425.6199632416
 30
0.0
 10
230.8343937965
 20
425.4519387165
 30
0.0
 10
230.8343937965
 20
425.2577771524
 30
0.0
  0
SPLINE
  5
325
100
AcDbEntity
  8
0
100
AcDbSpline
 62
7
  6
CONTINUOUS
 70
0
 71
3
 72
8
 73
4
 74
0
 42
0.0000001
 43
0.0000001
 44
0.0000000001
 40
0.0
 40
0.0
 40
0.0
 40
0.0
 40
1.0
 40
1.0
 40
1.0
 40
1.0
 10
230.8343937965
 20
425.2577771524
 30
0.0
 10
230.8343937965
 20
424.9814703742
 30
0.0
 10
230.7335792454
 20
424.7499699721
 30
0.0
 10
230.5366191762
 20
424.5585843072
 30
0.0
  0
SPLINE
  5
326
100
AcDbEntity
  8
0
100
AcDbSpline
 62
7
  6
CONTINUOUS
 70
0
 71
3
 72
8
 73
4
 74
0
 42
0.0000001
 43
0.0000001
 44
0.0000000001
 40
0.0
 40
0.0
 40
0.0
 40
0.0
 40
1.0
 40
1.0
 40
1.0
 40
1.0
 10
230.5366191762
 20
424.5585843072
 30
0.0
 10
230.3377882512
 20
424.3653807359
 30
0.0
 10
230.072683108
 20
424.2720338458
 30
0.0
 10
229.7403679909
 20
424.2720338458
 30
0.0
  0
SPLINE
  5
327
100
AcDbEntity
  8
0
100
AcDbSpline
 62
7
  6
CONTINUOUS
 70
0
 71
3
 72
8
 73
4
 74
0
 42
0.0000001
 43
0.0000001
 44
0.0000000001
 40
0.0
 40
0.0
 40
0.0
 40
0.0
 40
1.0
 40
1.0
 40
1.0
 40
1.0
 10
229.7403679909
 20
424.2720338459
 30
0.0
 10
229.0383992465
 20
424.2720338458
 30
0.0
 10
228.6575439023
 20
424.6528891901
 30
0.0
 10
228.6052696602
 20
425.4183338115
 30
0.0
  0
SPLINE
  5
328
100
AcDbEntity
  8
0
100
AcDbSpline
 62
7
  6
CONTINUOUS
 70
0
 71
3
 72
8
 73
4
 74
0
 42
0.0000001
 43
0.0000001
 44
0.0000000001
 40
0.0
 40
0.0
 40
0.0
 40
0.0
 40
1.0
 40
1.0
 40
1.0
 40
1.0
 10
227.8771637948
 20
425.4183338115
 30
0.0
 10
227.8920993013
 20
424.8283814172
 30
0.0
 10
228.0526559809
 20
424.3765823709
 30
0.0
 10
228.3653667103
 20
424.0657330062
 30
0.0
  0
SPLINE
  5
329
100
AcDbEntity
  8
0
100
AcDbSpline
 62
7
  6
CONTINUOUS
 70
0
 71
3
 72
8
 73
4
 74
0
 42
0.0000001
 43
0.0000001
 44
0.0000000001
 40
0.0
 40
0.0
 40
0.0
 40
0.0
 40
1.0
 40
1.0
 40
1.0
 40
1.0
 10
230.1545568945
 20
209.4023803005
 30
0.0
 10
230.2516376765
 20
209.7608322927
 30
0.0
 10
230.3897912295
 20
210.0035343299
 30
0.0
 10
230.5690172552
 20
210.1379539106
 30
0.0
  0
SPLINE
  5
32A
100
AcDbEntity
  8
0
100
AcDbSpline
 62
7
  6
CONTINUOUS
 70
0
 71
3
 72
8
 73
4
 74
0
 42
0.0000001
 43
0.0000001
 44
0.0000000001
 40
0.0
 40
0.0
 40
0.0
 40
0.0
 40
1.0
 40
1.0
 40
1.0
 40
1.0
 10
230.5690172552
 20
210.1379539106
 30
0.0
 10
230.7482433857
 20
210.2723735699
 30
0.0
 10
231.084292108
 20
210.3507848511
 30
0.0
 10
231.5771638023
 20
210.3769220541
 30
0.0
  0
SPLINE
  5
32B
100
AcDbEntity
  8
0
100
AcDbSpline
 62
7
  6
CONTINUOUS
 70
0
 71
3
 72
8
 73
4
 74
0
 42
0.0000001
 43
0.0000001
 44
0.0000000001
 40
0.0
 40
0.0
 40
0.0
 40
0.0
 40
1.0
 40
1.0
 40
1.0
 40
1.0
 10
75.4164713772
 20
318.8498342434
 30
0.0
 10
75.4164713772
 20
319.1485442916
 30
0.0
 10
75.5060844572
 20
319.3912461648
 30
0.0
 10
75.6788412944
 20
319.5770062381
 30
0.0
  0
SPLINE
  5
32C
100
AcDbEntity
  8
0
100
AcDbSpline
 62
7
  6
CONTINUOUS
 70
0
 71
3
 72
8
 73
4
 74
0
 42
0.0000001
 43
0.0000001
 44
0.0000000001
 40
0.0
 40
0.0
 40
0.0
 40
0.0
 40
1.0
 40
1.0
 40
1.0
 40
1.0
 10
75.6788412944
 20
319.5770062381
 30
0.0
 10
75.8533349784
 20
319.7646338889
 30
0.0
 10
76.0811016114
 20
319.8579809019
 30
0.0
 10
76.3611423226
 20
319.8579809019
 30
0.0
  0
SPLINE
  5
32D
100
AcDbEntity
  8
0
100
AcDbSpline
 62
7
  6
CONTINUOUS
 70
0
 71
3
 72
8
 73
4
 74
0
 42
0.0000001
 43
0.0000001
 44
0.0000000001
 40
0.0
 40
0.0
 40
0.0
 40
0.0
 40
1.0
 40
1.0
 40
1.0
 40
1.0
 10
76.3611423226
 20
319.8579809019
 30
0.0
 10
76.6001104268
 20
319.8579809019
 30
0.0
 10
76.8092073949
 20
319.7870371589
 30
0.0
 10
76.995901232
 20
319.6451498558
 30
0.0
  0
SPLINE
  5
32E
100
AcDbEntity
  8
0
100
AcDbSpline
 62
7
  6
CONTINUOUS
 70
0
 71
3
 72
8
 73
4
 74
0
 42
0.0000001
 43
0.0000001
 44
0.0000000001
 40
0.0
 40
0.0
 40
0.0
 40
0.0
 40
1.0
 40
1.0
 40
1.0
 40
1.0
 10
76.995901232
 20
319.6451498558
 30
0.0
 10
77.182595119
 20
319.5032625148
 30
0.0
 10
77.4140953572
 20
319.1709475616
 30
0.0
 10
77.6950521293
 20
318.6486984541
 30
0.0
  0
SPLINE
  5
32F
100
AcDbEntity
  8
0
100
AcDbSpline
 62
7
  6
CONTINUOUS
 70
0
 71
3
 72
8
 73
4
 74
0
 42
0.0000001
 43
0.0000001
 44
0.0000000001
 40
0.0
 40
0.0
 40
0.0
 40
0.0
 40
1.0
 40
1.0
 40
1.0
 40
1.0
 10
77.6950521294
 20
318.6486984542
 30
0.0
 10
78.0488542916
 20
317.991042609
 30
0.0
 10
78.4035725148
 20
317.5429774547
 30
0.0
 10
78.7551429255
 20
317.3048768778
 30
0.0
  0
SPLINE
  5
330
100
AcDbEntity
  8
0
100
AcDbSpline
 62
7
  6
CONTINUOUS
 70
0
 71
3
 72
8
 73
4
 74
0
 42
0.0000001
 43
0.0000001
 44
0.0000000001
 40
0.0
 40
0.0
 40
0.0
 40
0.0
 40
1.0
 40
1.0
 40
1.0
 40
1.0
 10
78.7551429255
 20
317.3048768778
 30
0.0
 10
79.1092751922
 20
317.0650412874
 30
0.0
 10
79.5834774675
 20
316.9343556413
 30
0.0
 10
80.1771637948
 20
316.9156862633
 30
0.0
  0
SPLINE
  5
331
100
AcDbEntity
  8
0
100
AcDbSpline
 62
7
  6
CONTINUOUS
 70
0
 71
3
 72
8
 73
4
 74
0
 42
0.0000001
 43
0.0000001
 44
0.0000000001
 40
0.0
 40
0.0
 40
0.0
 40
0.0
 40
1.0
 40
1.0
 40
1.0
 40
1.0
 10
79.5050660634
 20
317.6960664118
 30
0.0
 10
79.2735657023
 20
317.7595422888
 30
0.0
 10
79.0756702872
 20
317.8715586389
 30
0.0
 10
78.9085714373
 20
318.0367799861
 30
0.0
  0
SPLINE
  5
332
100
AcDbEntity
  8
0
100
AcDbSpline
 62
7
  6
CONTINUOUS
 70
0
 71
3
 72
8
 73
4
 74
0
 42
0.0000001
 43
0.0000001
 44
0.0000000001
 40
0.0
 40
0.0
 40
0.0
 40
0.0
 40
1.0
 40
1.0
 40
1.0
 40
1.0
 10
78.9085714373
 20
318.036779986
 30
0.0
 10
78.743355334
 20
318.200139741
 30
0.0
 10
78.5081211628
 20
318.5623256663
 30
0.0
 10
78.2082598724
 20
319.125526557
 30
0.0
  0
SPLINE
  5
333
100
AcDbEntity
  8
0
100
AcDbSpline
 62
7
  6
CONTINUOUS
 70
0
 71
3
 72
8
 73
4
 74
0
 42
0.0000001
 43
0.0000001
 44
0.0000000001
 40
0.0
 40
0.0
 40
0.0
 40
0.0
 40
1.0
 40
1.0
 40
1.0
 40
1.0
 10
78.2082598724
 20
319.1255265569
 30
0.0
 10
77.9256363066
 20
319.6563514719
 30
0.0
 10
77.6455955954
 20
320.0334728012
 30
0.0
 10
77.3662759773
 20
320.2546790389
 30
0.0
  0
SPLINE
  5
334
100
AcDbEntity
  8
0
100
AcDbSpline
 62
7
  6
CONTINUOUS
 70
0
 71
3
 72
8
 73
4
 74
0
 42
0.0000001
 43
0.0000001
 44
0.0000000001
 40
0.0
 40
0.0
 40
0.0
 40
0.0
 40
1.0
 40
1.0
 40
1.0
 40
1.0
 10
77.3662759773
 20
320.2546790389
 30
0.0
 10
77.089248106
 20
320.4740703354
 30
0.0
 10
76.7494654508
 20
320.5860866854
 30
0.0
 10
76.3462065907
 20
320.5860866854
 30
0.0
  0
SPLINE
  5
335
100
AcDbEntity
  8
0
100
AcDbSpline
 62
7
  6
CONTINUOUS
 70
0
 71
3
 72
8
 73
4
 74
0
 42
0.0000001
 43
0.0000001
 44
0.0000000001
 40
0.0
 40
0.0
 40
0.0
 40
0.0
 40
1.0
 40
1.0
 40
1.0
 40
1.0
 10
76.3462065907
 20
320.5860866854
 30
0.0
 10
75.8496010455
 20
320.5860866854
 30
0.0
 10
75.4575439842
 20
320.4255298624
 30
0.0
 10
75.1737695759
 20
320.1044166255
 30
0.0
  0
SPLINE
  5
336
100
AcDbEntity
  8
0
100
AcDbSpline
 62
7
  6
CONTINUOUS
 70
0
 71
3
 72
8
 73
4
 74
0
 42
0.0000001
 43
0.0000001
 44
0.0000000001
 40
0.0
 40
0.0
 40
0.0
 40
0.0
 40
1.0
 40
1.0
 40
1.0
 40
1.0
 10
75.1737695759
 20
320.1044166255
 30
0.0
 10
74.8899950238
 20
319.783303226
 30
0.0
 10
74.7443736049
 20
319.3613751928
 30
0.0
 10
74.7443736048
 20
318.8386326084
 30
0.0
  0
SPLINE
  5
337
100
AcDbEntity
  8
0
100
AcDbSpline
 62
7
  6
CONTINUOUS
 70
0
 71
3
 72
8
 73
4
 74
0
 42
0.0000001
 43
0.0000001
 44
0.0000000001
 40
0.0
 40
0.0
 40
0.0
 40
0.0
 40
1.0
 40
1.0
 40
1.0
 40
1.0
 10
74.7443736048
 20
318.8386326084
 30
0.0
 10
74.7443736048
 20
318.2860188881
 30
0.0
 10
74.9086643608
 20
317.8528892198
 30
0.0
 10
75.2372454854
 20
317.5317757587
 30
0.0
  0
SPLINE
  5
338
100
AcDbEntity
  8
0
100
AcDbSpline
 62
7
  6
CONTINUOUS
 70
0
 71
3
 72
8
 73
4
 74
0
 42
0.0000001
 43
0.0000001
 44
0.0000000001
 40
0.0
 40
0.0
 40
0.0
 40
0.0
 40
1.0
 40
1.0
 40
1.0
 40
1.0
 10
75.2372454854
 20
317.5317757587
 30
0.0
 10
75.5658264013
 20
317.2106625015
 30
0.0
 10
76.0586983414
 20
317.0538396934
 30
0.0
 10
76.7121267767
 20
317.0538396934
 30
0.0
  0
SPLINE
  5
339
100
AcDbEntity
  8
0
100
AcDbSpline
 62
7
  6
CONTINUOUS
 70
0
 71
3
 72
8
 73
4
 74
0
 42
0.0000001
 43
0.0000001
 44
0.0000000001
 40
0.0
 40
0.0
 40
0.0
 40
0.0
 40
1.0
 40
1.0
 40
1.0
 40
1.0
 10
76.7121267767
 20
317.7819455588
 30
0.0
 10
76.2715292426
 20
317.7819455588
 30
0.0
 10
75.9541498574
 20
317.8790263409
 30
0.0
 10
75.7375041492
 20
318.0768331426
 30
0.0
  0
SPLINE
  5
33A
100
AcDbEntity
  8
0
100
AcDbSpline
 62
7
  6
CONTINUOUS
 70
0
 71
3
 72
8
 73
4
 74
0
 42
0.0000001
 43
0.0000001
 44
0.0000000001
 40
0.0
 40
0.0
 40
0.0
 40
0.0
 40
1.0
 40
1.0
 40
1.0
 40
1.0
 10
75.7375041492
 20
318.0768331426
 30
0.0
 10
75.5247537943
 20
318.2710833201
 30
0.0
 10
75.4164713772
 20
318.5287207613
 30
0.0
 10
75.4164713772
 20
318.8498342434
 30
0.0
  0
SPLINE
  5
33B
100
AcDbEntity
  8
0
100
AcDbSpline
 62
7
  6
CONTINUOUS
 70
0
 71
3
 72
9
 73
5
 74
0
 42
0.0000001
 43
0.0000001
 44
0.0000000001
 40
0.0
 40
0.0
 40
0.0
 40
0.0
 40
0.4999813815
 40
1.0
 40
1.0
 40
1.0
 40
1.0
 10
61.1282401801
 20
430.5431584751
 30
0.0
 10
60.6686853105
 20
430.0836639796
 30
0.0
 10
59.9311709025
 20
428.9684136739
 30
0.0
 10
59.6637148638
 20
427.6582296938
 30
0.0
 10
59.663982976
 20
427.0083153096
 30
0.0
  0
SPLINE
  5
33C
100
AcDbEntity
  8
0
100
AcDbSpline
 62
7
  6
CONTINUOUS
 70
0
 71
3
 72
9
 73
5
 74
0
 42
0.0000001
 43
0.0000001
 44
0.0000000001
 40
0.0
 40
0.0
 40
0.0
 40
0.0
 40
0.4999840322
 40
1.0
 40
1.0
 40
1.0
 40
1.0
 10
398.2260858991
 20
207.8882155925
 30
0.0
 10
398.6856557665
 20
208.3477013675
 30
0.0
 10
399.4231878861
 20
209.4629534326
 30
0.0
 10
399.6906103451
 20
210.7731453039
 30
0.0
 10
399.6903409251
 20
211.4230572372
 30
0.0
  0
SPLINE
  5
33D
100
AcDbEntity
  8
0
100
AcDbSpline
 62
7
  6
CONTINUOUS
 70
0
 71
3
 72
9
 73
5
 74
0
 42
0.0000001
 43
0.0000001
 44
0.0000000001
 40
0.0
 40
0.0
 40
0.0
 40
0.0
 40
0.4999813815
 40
1.0
 40
1.0
 40
1.0
 40
1.0
 10
386.0046359954
 20
442.7646098893
 30
0.0
 10
385.5451414999
 20
443.2241647588
 30
0.0
 10
384.4298911942
 20
443.9616791668
 30
0.0
 10
383.1197072141
 20
444.2291352055
 30
0.0
 10
382.4697928299
 20
444.2288670933
 30
0.0
  0
SPLINE
  5
33E
100
AcDbEntity
  8
0
100
AcDbSpline
 62
7
  6
CONTINUOUS
 70
0
 71
3
 72
9
 73
5
 74
0
 42
0.0000001
 43
0.0000001
 44
0.0000000001
 40
0.0
 40
0.0
 40
0.0
 40
0.0
 40
0.4999814168
 40
1.0
 40
1.0
 40
1.0
 40
1.0
 10
76.8845350288
 20
444.2287899439
 30
0.0
 10
76.2346689449
 20
444.2288326062
 30
0.0
 10
74.9245664314
 20
443.9617330926
 30
0.0
 10
73.8090065067
 20
443.2244130291
 30
0.0
 10
73.3496372554
 20
442.7646646088
 30
0.0
  0
SPLINE
  5
33F
100
AcDbEntity
  8
0
100
AcDbSpline
 62
7
  6
CONTINUOUS
 70
0
 71
3
 72
9
 73
5
 74
0
 42
0.0000001
 43
0.0000001
 44
0.0000000001
 40
0.0
 40
0.0
 40
0.0
 40
0.0
 40
0.4999814167
 40
1.0
 40
1.0
 40
1.0
 40
1.0
 10
399.6902674642
 20
427.0083150405
 30
0.0
 10
399.6903101265
 20
427.6581811244
 30
0.0
 10
399.4232106128
 20
428.9682836379
 30
0.0
 10
398.6858905493
 20
430.0838435626
 30
0.0
 10
398.226142129
 20
430.543212814
 30
0.0
  0
SPLINE
  5
340
100
AcDbEntity
  8
0
100
AcDbSpline
 62
7
  6
CONTINUOUS
 70
0
 71
3
 72
9
 73
5
 74
0
 42
0.0000001
 43
0.0000001
 44
0.0000000001
 40
0.0
 40
0.0
 40
0.0
 40
0.0
 40
0.4999814118
 40
1.0
 40
1.0
 40
1.0
 40
1.0
 10
382.4697925603
 20
194.202585982
 30
0.0
 10
383.1196591695
 20
194.2025455293
 30
0.0
 10
384.4297633951
 20
194.4696285946
 30
0.0
 10
385.5453305899
 20
195.2069492693
 30
0.0
 10
386.0046937812
 20
195.666704505
 30
0.0
  0
SPLINE
  5
341
100
AcDbEntity
  8
0
100
AcDbSpline
 62
7
  6
CONTINUOUS
 70
0
 71
3
 72
9
 73
5
 74
0
 42
0.0000001
 43
0.0000001
 44
0.0000000001
 40
0.0
 40
0.0
 40
0.0
 40
0.0
 40
0.5000191944
 40
1.0
 40
1.0
 40
1.0
 40
1.0
 10
73.3496372765
 20
195.6667079711
 30
0.0
 10
73.8090071755
 20
195.20695904
 30
0.0
 10
74.9245668946
 20
194.4696384089
 30
0.0
 10
76.2346697143
 20
194.2025396913
 30
0.0
 10
76.8845350287
 20
194.2025826826
 30
0.0
  0
SPLINE
  5
342
100
AcDbEntity
  8
0
100
AcDbSpline
 62
7
  6
CONTINUOUS
 70
0
 71
3
 72
9
 73
5
 74
0
 42
0.0000001
 43
0.0000001
 44
0.0000000001
 40
0.0
 40
0.0
 40
0.0
 40
0.0
 40
0.4999814167
 40
1.0
 40
1.0
 40
1.0
 40
1.0
 10
59.6640601254
 20
211.4230575085
 30
0.0
 10
59.6640174631
 20
210.7731914246
 30
0.0
 10
59.9311169768
 20
209.4630889111
 30
0.0
 10
60.6684370403
 20
208.3475289864
 30
0.0
 10
61.1281854606
 20
207.8881597351
 30
0.0
  0
ELLIPSE
  5
343
100
AcDbEntity
  8
0
100
AcDbEllipse
 62
7
  6
CONTINUOUS
 10
68.866282969
 20
429.8448931216
 30
0.0
 11
5.2341851709
 21
0.0031914389
 31
0.0
 40
0.024677657
 41
3.1343432033
 42
4.6876862376
  0
ELLIPSE
  5
344
100
AcDbEntity
  8
0
100
AcDbEllipse
 62
7
  6
CONTINUOUS
 10
68.866282969
 20
208.5864794274
 30
0.0
 11
5.2341851709
 21
-0.0031914389
 31
0.0
 40
0.024677657
 41
1.5954990696
 42
3.1488421039
  0
ELLIPSE
  5
345
100
AcDbEntity
  8
0
100
AcDbEllipse
 62
7
  6
CONTINUOUS
 10
73.1765542506
 20
207.7150767303
 30
0.0
 11
-0.7079685446
 21
-0.7079685446
 31
0.0
 40
0.998782766
 41
2.3568034778
 42
3.9263818294
  0
ELLIPSE
  5
346
100
AcDbEntity
  8
0
100
AcDbEllipse
 62
7
  6
CONTINUOUS
 10
74.0479569477
 20
203.4048054487
 30
0.0
 11
-0.0031914389
 21
5.2341851709
 31
0.0
 40
0.024677657
 41
-3.1488421039
 42
-1.5954990696
  0
ELLIPSE
  5
347
100
AcDbEntity
  8
0
100
AcDbEllipse
 62
7
  6
CONTINUOUS
 10
385.23530283
 20
203.3337376368
 30
0.0
 11
0.0031914389
 21
5.2341851709
 31
0.0
 40
0.024677657
 41
-4.6876862376
 42
-3.1343432033
  0
ELLIPSE
  5
348
100
AcDbEntity
  8
0
100
AcDbEllipse
 62
7
  6
CONTINUOUS
 10
386.1067055273
 20
207.7861445421
 30
0.0
 11
0.7079685446
 21
-0.7079685446
 31
0.0
 40
0.998782766
 41
2.3568034778
 42
3.9263818294
  0
ELLIPSE
  5
349
100
AcDbEntity
  8
0
100
AcDbEllipse
 62
7
  6
CONTINUOUS
 10
390.5591124325
 20
208.6575472393
 30
0.0
 11
5.2341851709
 21
0.0031914389
 31
0.0
 40
0.024677657
 41
-0.0072494503
 42
1.546093584
  0
ELLIPSE
  5
34A
100
AcDbEntity
  8
0
100
AcDbEllipse
 62
7
  6
CONTINUOUS
 10
390.4880446206
 20
429.8448931216
 30
0.0
 11
5.2341851709
 21
-0.0031914389
 31
0.0
 40
0.024677657
 41
-1.546093584
 42
0.0072494503
  0
ELLIPSE
  5
34B
100
AcDbEntity
  8
0
100
AcDbEllipse
 62
7
  6
CONTINUOUS
 10
386.1777733391
 20
430.7162958188
 30
0.0
 11
0.7079685446
 21
0.7079685446
 31
0.0
 40
0.998782766
 41
2.3568034778
 42
3.9263818294
  0
ELLIPSE
  5
34C
100
AcDbEntity
  8
0
100
AcDbEllipse
 62
7
  6
CONTINUOUS
 10
385.3063706419
 20
435.0265671003
 30
0.0
 11
-0.0031914389
 21
5.2341851709
 31
0.0
 40
0.024677657
 41
-0.0072494503
 42
1.546093584
  0
ELLIPSE
  5
34D
100
AcDbEntity
  8
0
100
AcDbEllipse
 62
7
  6
CONTINUOUS
 10
74.0479569477
 20
435.0265671003
 30
0.0
 11
0.0031914389
 21
5.2341851709
 31
0.0
 40
0.024677657
 41
-1.546093584
 42
0.0072494503
  0
ELLIPSE
  5
34E
100
AcDbEntity
  8
0
100
AcDbEllipse
 62
7
  6
CONTINUOUS
 10
73.1765542506
 20
430.7162958188
 30
0.0
 11
-0.7079685446
 21
0.7079685446
 31
0.0
 40
0.998782766
 41
2.3568034778
 42
3.9263818294
  0
ELLIPSE
  5
34F
100
AcDbEntity
  8
0
100
AcDbEllipse
 62
7
  6
CONTINUOUS
 10
73.0368711725
 20
439.2562741329
 30
0.0
 11
0.9999238157
 21
1.0002285182
 31
0.0
 40
0.0123407145
 41
0.0225627373
 42
1.5584524787
  0
ELLIPSE
  5
350
100
AcDbEntity
  8
0
100
AcDbEllipse
 62
7
  6
CONTINUOUS
 10
64.6365759365
 20
430.8559788968
 30
0.0
 11
1.0002285182
 21
0.9999238157
 31
0.0
 40
0.0123407145
 41
1.5831401749
 42
3.1190299163
  0
ELLIPSE
  5
351
100
AcDbEntity
  8
0
100
AcDbEllipse
 62
7
  6
CONTINUOUS
 10
73.0368711725
 20
199.1750984162
 30
0.0
 11
-0.9999238157
 21
1.0002285182
 31
0.0
 40
0.0123407145
 41
-4.7000451323
 42
-3.1641553909
  0
ELLIPSE
  5
352
100
AcDbEntity
  8
0
100
AcDbEllipse
 62
7
  6
CONTINUOUS
 10
64.6365759365
 20
207.5753936522
 30
0.0
 11
1.0002285182
 21
-0.9999238157
 31
0.0
 40
0.0123407145
 41
-3.1190299163
 42
-1.5831401749
  0
ELLIPSE
  5
353
100
AcDbEntity
  8
0
100
AcDbEllipse
 62
7
  6
CONTINUOUS
 10
394.7888194651
 20
207.6464614641
 30
0.0
 11
1.0002285182
 21
0.9999238157
 31
0.0
 40
0.0123407145
 41
-1.5584524787
 42
-0.0225627363
  0
ELLIPSE
  5
354
100
AcDbEntity
  8
0
100
AcDbEllipse
 62
7
  6
CONTINUOUS
 10
386.2463886052
 20
199.1040306043
 30
0.0
 11
0.9999238157
 21
1.0002285182
 31
0.0
 40
0.0123407145
 41
-3.1190299173
 42
-1.5831401749
  0
ELLIPSE
  5
355
100
AcDbEntity
  8
0
100
AcDbEllipse
 62
7
  6
CONTINUOUS
 10
386.3174564171
 20
439.2562741329
 30
0.0
 11
-0.9999238157
 21
1.0002285182
 31
0.0
 40
0.0123407145
 41
-1.5584524787
 42
-0.0225627373
  0
ELLIPSE
  5
356
100
AcDbEntity
  8
0
100
AcDbEllipse
 62
7
  6
CONTINUOUS
 10
394.7177516532
 20
430.8559788968
 30
0.0
 11
1.0002285182
 21
-0.9999238157
 31
0.0
 40
0.0123407145
 41
0.0225627373
 42
1.5584524787
  0
ENDSEC
  0
SECTION
  2
OBJECTS
  0
DICTIONARY
  5
C
100
AcDbDictionary
280
0
281
1
  3
ACAD_GROUP
350
D
  3
ACAD_MLINESTYLE
350
17
  3
ACAD_LAYOUT
350
1A
  3
ACAD_PLOTSETTINGS
350
19
  3
ACAD_PLOTSTYLENAME
350
E
  0
DICTIONARY
  5
D
102
{ACAD_REACTORS
330
C
102
}
100
AcDbDictionary
280
0
281
1
  0
ACDBDICTIONARYWDFLT
  5
E
102
{ACAD_REACTORS
330
C
102
}
100
AcDbDictionary
281
1
  3
Normal
350
F
100
AcDbDictionaryWithDefault
340
F
  0
DICTIONARY
  5
17
102
{ACAD_REACTORS
330
C
102
}
100
AcDbDictionary
280
0
281
1
  3
Standard
350
18
  0
DICTIONARY
  5
19
102
{ACAD_REACTORS
330
C
102
}
100
AcDbDictionary
281
1
  0
DICTIONARY
  5
1A
102
{ACAD_REACTORS
330
C
102
}
100
AcDbDictionary
281
1
  3
Model
350
357
  3
Layout1
350
358
  0
ACDBPLACEHOLDER
  5
F
102
{ACAD_REACTORS
330
E
102
}
  0
MLINESTYLE
  5
18
102
{ACAD_REACTORS
330
17
102
}
100
AcDbMlineStyle
  2
STANDARD
 70
0
  3

 62
256
 51
90.0
 52
90.0
 71
2
 49
0.5
 62
256
  6
BYLAYER
 49
-0.5
 62
256
  6
BYLAYER
  0
LAYOUT
  5
357
102
{ACAD_REACTORS
330
1A
102
}
100
AcDbPlotSettings
  1

  2
none_device
  4

  6

 40
0.0
 41
0.0
 42
0.0
 43
0.0
 44
210.0
 45
297.0
 46
0.0
 47
0.0
 48
0.0
 49
0.0
140
0.0
141
0.0
142
1.0
143
1.0
 70
1024
 72
1
 73
0
 74
0
  7

 75
0
147
1.0
148
0.0
149
0.0
100
AcDbLayout
  1
Model
 70
0
 71
0
 10
0.0
 20
0.0
 11
210.0
 21
297.0
 12
0.0
 22
0.0
 32
0.0
 14
0.0
 24
0.0
 34
0.0
 15
0.0
 25
0.0
 35
0.0
146
0.0
 13
0.0
 23
0.0
 33
0.0
 16
1.0
 26
0.0
 36
0.0
 17
0.0
 27
1.0
 37
0.0
 76
0
330
210
345
0
346
0
  0
LAYOUT
  5
358
102
{ACAD_REACTORS
330
1A
102
}
100
AcDbPlotSettings
  1

  2
none_device
  4

  6

 40
0.0
 41
0.0
 42
0.0
 43
0.0
 44
210.0
 45
297.0
 46
0.0
 47
0.0
 48
0.0
 49
0.0
140
0.0
141
0.0
142
1.0
143
1.0
 70
0
 72
1
 73
0
 74
0
  7

 75
0
147
1.0
148
0.0
149
0.0
100
AcDbLayout
  1
Layout1
 70
0
 71
1
 10
0.0
 20
0.0
 11
210.0
 21
297.0
 12
0.0
 22
0.0
 32
0.0
 14
0.0
 24
0.0
 34
0.0
 15
0.0
 25
0.0
 35
0.0
146
0.0
 13
0.0
 23
0.0
 33
0.0
 16
1.0
 26
0.0
 36
0.0
 17
0.0
 27
1.0
 37
0.0
 76
0
330
211
345
0
346
0
  0
ENDSEC
  0
EOF
