999
DXF file: C:\Users\sesa63760\Dev\_Creo\CAD\MCADID0003859_3D-CAD\drw0001_7.dxf
999
Pro/ENGINEER 2019471 by Parametric Technology Corporation
  0
SECTION
  2
HEADER
  9
$ACADVER
  1
AC1024
  9
$DWGCODEPAGE
  3
ANSI_1252
  9
$EXTMAX
 10
56.9424242424
 20
80.5328571429
 30
0.0
  9
$EXTMIN
 10
0.0
 20
0.0
 30
0.0
  9
$LIMMIN
 10
0.0
 20
0.0
  9
$LIMMAX
 10
56.9424242424
 20
80.5328571429
  9
$VIEWCTR
 10
28.4712121212
 20
40.2664285714
  9
$VIEWSIZE
 40
80.5328571429
  9
$CLAYER
  8
0
  9
$LTSCALE
 40
5.2495492063
  9
$CELTYPE
  6
BYLAYER
  9
$DIMSCALE
 40
1.0
  9
$DIMASZ
 40
0.6778860029
  9
$DIMEXO
 40
1.0
  9
$DIMDLI
 40
3.6269612698
  9
$DIMEXE
 40
1.0
  9
$DIMCEN
 40
0.8590171429
  9
$DIMLFAC
 40
1.0
  9
$DIMBLK
  1
_FILLED
  9
$DIMALT
 70
0
  9
$DIMALTF
 40
0.0393700787
  9
$DIMTXT
 40
0.949040404
  9
$DIMTOL
 70
1
  9
$DIMLIM
 70
0
  9
$DIMTFAC
 40
1.0
  9
$DIMTP
 40
0.01
  9
$DIMTM
 40
0.01
  9
$DIMGAP
 40
0.625
  9
$DIMDSEP
 70
46
  9
$AUNITS
 70
0
  9
$PDMODE
 70
3
  9
$PDSIZE
 40
0.3125
  9
$HANDSEED
  5
30E
  9
$TILEMODE
 70
1
  9
$MEASUREMENT
 70
1
  9
$INSUNITS
 70
4
  0
ENDSEC
  0
SECTION
  2
CLASSES
  0
CLASS
  1
ACDBDICTIONARYWDFLT
  2
AcDbDictionaryWithDefault
  3
AutoCAD 2000
 90
0
 91
1
280
0
281
0
  0
CLASS
  1
ACDBPLACEHOLDER
  2
AcDbPlaceHolder
  3
AutoCAD 2000
 90
0
 91
1
280
0
281
0
  0
CLASS
  1
LAYOUT
  2
AcDbLayout
  3
AutoCAD 2000
 90
0
 91
0
280
0
281
0
  0
ENDSEC
  0
SECTION
  2
TABLES
  0
TABLE
  2
VPORT
  5
8
100
AcDbSymbolTable
 70
2
  0
VPORT
  5
1F4
100
AcDbSymbolTableRecord
100
AcDbViewportTableRecord
  2
*ACTIVE
 70
0
 10
0.0
 20
0.0
 11
1.0
 21
1.0
 12
28.4712121212
 22
40.2664285714
 13
0.0
 23
0.0
 14
1.0
 24
1.0
 15
0.0
 25
0.0
 16
0.0
 26
0.0
 36
1.0
 17
0.0
 27
0.0
 37
0.0
 40
80.5328571429
 41
0.7070707071
 42
50.0
 43
0.0
 44
0.0
 50
0.0
 51
0.0
 71
0
 72
100
 73
1
 74
1
 75
0
 76
0
 77
0
 78
0
  0
ENDTAB
  0
TABLE
  2
LTYPE
  5
5
100
AcDbSymbolTable
 70
6
  0
LTYPE
  5
14
100
AcDbSymbolTableRecord
100
AcDbLinetypeTableRecord
  2
BYBLOCK
 70
0
  3

 72
65
 73
0
 40
0.0
  0
LTYPE
  5
15
100
AcDbSymbolTableRecord
100
AcDbLinetypeTableRecord
  2
BYLAYER
 70
0
  3

 72
65
 73
0
 40
0.0
  0
LTYPE
  5
16
100
AcDbSymbolTableRecord
100
AcDbLinetypeTableRecord
  2
CONTINUOUS
 70
64
  3
Solid line
 72
65
 73
0
 40
0.0
  0
LTYPE
  5
1F5
100
AcDbSymbolTableRecord
100
AcDbLinetypeTableRecord
  2
CENTER
 70
64
  3
____ _ ____ _ ____ _ ____ _ ____ _ ____ _ ____
 72
65
 73
4
 40
0.6
 49
0.375
 74
0
 49
-0.075
 74
0
 49
0.075
 74
0
 49
-0.075
 74
0
  0
LTYPE
  5
1F6
100
AcDbSymbolTableRecord
100
AcDbLinetypeTableRecord
  2
HIDDEN
 70
64
  3
- - - - - - - - - - - - - - - - - - - -
 72
65
 73
2
 40
0.2
 49
0.1
 74
0
 49
-0.1
 74
0
  0
LTYPE
  5
1F7
100
AcDbSymbolTableRecord
100
AcDbLinetypeTableRecord
  2
PHANTOM
 70
64
  3
_____ _ _ _____ _ _ _____ _ _ _____
 72
65
 73
6
 40
0.8
 49
0.45
 74
0
 49
-0.05
 74
0
 49
0.1
 74
0
 49
-0.05
 74
0
 49
0.1
 74
0
 49
-0.05
 74
0
  0
LTYPE
  5
1F8
100
AcDbSymbolTableRecord
100
AcDbLinetypeTableRecord
  2
DOT
 70
64
  3
. . . . . . . . . . . . . . . . . . . .
 72
65
 73
2
 40
0.2
 49
0.1
 74
0
 49
-0.1
 74
0
  0
LTYPE
  5
1F9
100
AcDbSymbolTableRecord
100
AcDbLinetypeTableRecord
  2
DASHED
 70
64
  3
- - - - - - - - - - - - - - - - - - - -
 72
65
 73
2
 40
0.2
 49
0.1
 74
0
 49
-0.1
 74
0
  0
ENDTAB
  0
TABLE
  2
LAYER
  5
2
100
AcDbSymbolTable
 70
36
  0
LAYER
  5
10
100
AcDbSymbolTableRecord
100
AcDbLayerTableRecord
  2
0
 70
0
 62
7
  6
CONTINUOUS
370
-3
390
F
  0
LAYER
  5
1FA
100
AcDbSymbolTableRecord
100
AcDbLayerTableRecord
  2
DEFAULT_1
 70
0
 62
7
  6
CENTER
370
-3
390
F
  0
LAYER
  5
1FB
100
AcDbSymbolTableRecord
100
AcDbLayerTableRecord
  2
DEFAULT_2
 70
0
 62
7
  6
HIDDEN
370
-3
390
F
  0
LAYER
  5
1FC
100
AcDbSymbolTableRecord
100
AcDbLayerTableRecord
  2
DEFAULT_3
 70
0
 62
7
  6
PHANTOM
370
-3
390
F
  0
LAYER
  5
1FD
100
AcDbSymbolTableRecord
100
AcDbLayerTableRecord
  2
00_COMPONENTS
 70
0
 62
7
  6
CONTINUOUS
370
-3
390
F
  0
LAYER
  5
1FE
100
AcDbSymbolTableRecord
100
AcDbLayerTableRecord
  2
01_1_DEFAULT_DATUMS
 70
0
 62
7
  6
CONTINUOUS
370
-3
390
F
  0
LAYER
  5
1FF
100
AcDbSymbolTableRecord
100
AcDbLayerTableRecord
  2
01_PLANES
 70
0
 62
7
  6
CONTINUOUS
370
-3
390
F
  0
LAYER
  5
200
100
AcDbSymbolTableRecord
100
AcDbLayerTableRecord
  2
02_COORD_SYS
 70
0
 62
7
  6
CONTINUOUS
370
-3
390
F
  0
LAYER
  5
201
100
AcDbSymbolTableRecord
100
AcDbLayerTableRecord
  2
03_AXES
 70
0
 62
7
  6
CONTINUOUS
370
-3
390
F
  0
LAYER
  5
202
100
AcDbSymbolTableRecord
100
AcDbLayerTableRecord
  2
04_POINTS
 70
0
 62
7
  6
CONTINUOUS
370
-3
390
F
  0
LAYER
  5
203
100
AcDbSymbolTableRecord
100
AcDbLayerTableRecord
  2
05_CURVES
 70
0
 62
7
  6
CONTINUOUS
370
-3
390
F
  0
LAYER
  5
204
100
AcDbSymbolTableRecord
100
AcDbLayerTableRecord
  2
06_SURFS
 70
0
 62
7
  6
CONTINUOUS
370
-3
390
F
  0
LAYER
  5
205
100
AcDbSymbolTableRecord
100
AcDbLayerTableRecord
  2
07_COSMETICS
 70
0
 62
7
  6
CONTINUOUS
370
-3
390
F
  0
LAYER
  5
206
100
AcDbSymbolTableRecord
100
AcDbLayerTableRecord
  2
10_NOTES
 70
0
 62
7
  6
CONTINUOUS
370
-3
390
F
  0
LAYER
  5
207
100
AcDbSymbolTableRecord
100
AcDbLayerTableRecord
  2
11_NOTES_PUB
 70
0
 62
7
  6
CONTINUOUS
370
-3
390
F
  0
LAYER
  5
208
100
AcDbSymbolTableRecord
100
AcDbLayerTableRecord
  2
13_REF_GTOL
 70
0
 62
7
  6
CONTINUOUS
370
-3
390
F
  0
LAYER
  5
209
100
AcDbSymbolTableRecord
100
AcDbLayerTableRecord
  2
16_MISC
 70
0
 62
7
  6
CONTINUOUS
370
-3
390
F
  0
LAYER
  5
20A
100
AcDbSymbolTableRecord
100
AcDbLayerTableRecord
  2
17_NO_PRINT
 70
0
 62
7
  6
CONTINUOUS
370
-3
390
F
  0
LAYER
  5
20B
100
AcDbSymbolTableRecord
100
AcDbLayerTableRecord
  2
18_DATUM_CAMS_JOINTS
 70
0
 62
7
  6
CONTINUOUS
370
-3
390
F
  0
LAYER
  5
20C
100
AcDbSymbolTableRecord
100
AcDbLayerTableRecord
  2
19_DATUM_FUNCTIONAL
 70
0
 62
7
  6
CONTINUOUS
370
-3
390
F
  0
LAYER
  5
20D
100
AcDbSymbolTableRecord
100
AcDbLayerTableRecord
  2
20_DATUM_KINEMATIC_SCHEME
 70
0
 62
7
  6
CONTINUOUS
370
-3
390
F
  0
ENDTAB
  0
TABLE
  2
STYLE
  5
3
100
AcDbSymbolTable
 70
1
  0
STYLE
  5
11
100
AcDbSymbolTableRecord
100
AcDbTextStyleTableRecord
  2
STANDARD
 70
0
 40
0.0
 41
1.0
 50
0.0
 71
0
 42
0.2
  3
ARIAL.TTF
  4

  0
STYLE
  5
20E
100
AcDbSymbolTableRecord
100
AcDbTextStyleTableRecord
  2
TEXTSTYLE_1
 70
0
 40
0.0
 41
0.8
 50
0.0
 71
0
 42
0.2
  3
gdt
  4

  0
ENDTAB
  0
TABLE
  2
VIEW
  5
6
100
AcDbSymbolTable
 70
0
  0
ENDTAB
  0
TABLE
  2
UCS
  5
7
100
AcDbSymbolTable
 70
0
  0
ENDTAB
  0
TABLE
  2
APPID
  5
9
100
AcDbSymbolTable
 70
1
  0
APPID
  5
20F
100
AcDbSymbolTableRecord
100
AcDbRegAppTableRecord
  2
ACAD
 70
0
  0
ENDTAB
  0
TABLE
  2
BLOCK_RECORD
  5
1
100
AcDbSymbolTable
 70
0
  0
BLOCK_RECORD
  5
210
100
AcDbSymbolTableRecord
100
AcDbBlockTableRecord
  2
*Model_Space
  0
BLOCK_RECORD
  5
211
100
AcDbSymbolTableRecord
100
AcDbBlockTableRecord
  2
*Paper_Space
  0
BLOCK_RECORD
  5
212
100
AcDbSymbolTableRecord
100
AcDbBlockTableRecord
  2
_FILLED
  0
ENDTAB
  0
TABLE
  2
DIMSTYLE
  5
A
100
AcDbSymbolTable
 70
1
100
AcDbDimStyleTable
 71
0
  0
DIMSTYLE
105
213
100
AcDbSymbolTableRecord
100
AcDbDimStyleTableRecord
  2
STANDARD
 70
0
  3

  4

 40
1.0
 41
0.6778860029
 42
1.0
 43
0.38
 44
1.0
 45
0.0
 46
0.0
 47
0.01
 48
0.01
140
0.949040404
141
0.09
142
0.0
143
25.4
144
1.0
145
0.0
146
1.0
147
0.625
 71
1
 72
0
 73
0
 74
0
 75
0
 76
0
 77
1
 78
8
 79
2
170
0
171
1
172
0
173
0
174
0
175
0
176
0
177
0
178
0
270
2
179
2
271
2
272
2
273
2
274
2
275
0
280
0
281
0
282
0
283
1
284
8
285
0
286
0
287
3
288
0
340
11
278
46
341
212
342
212
343
212
344
212
  0
ENDTAB
  0
ENDSEC
  0
SECTION
  2
BLOCKS
  0
BLOCK
  5
20
100
AcDbEntity
  8
0
100
AcDbBlockBegin
  2
*Model_Space
 70
0
 10
0.0
 20
0.0
 30
0.0
  3
*Model_Space
  1

  0
ENDBLK
  5
21
100
AcDbEntity
  8
0
100
AcDbBlockEnd
  0
BLOCK
  5
1C
100
AcDbEntity
  8
0
100
AcDbBlockBegin
  2
*Paper_Space
 70
0
 10
0.0
 20
0.0
 30
0.0
  3
*Paper_Space
  1

  0
ENDBLK
  5
1D
100
AcDbEntity
  8
0
100
AcDbBlockEnd
  0
BLOCK
  5
214
100
AcDbEntity
  8
0
100
AcDbBlockBegin
  2
_FILLED
 70
64
 10
0.0
 20
0.0
  3
_FILLED
  1

  0
SOLID
  5
215
100
AcDbEntity
  8
0
  6
BYBLOCK
 62
0
100
AcDbTrace
 10
0.0
 20
0.0
 11
-1.0
 21
0.25
 12
-1.0
 22
-0.25
 13
-1.0
 23
-0.25
  0
ENDBLK
  5
216
100
AcDbEntity
  8
0
  6
BYBLOCK
 62
0
100
AcDbBlockEnd
  0
ENDSEC
  0
SECTION
  2
ENTITIES
  0
LINE
  5
217
100
AcDbEntity
  8
0
100
AcDbLine
 62
7
  6
BYLAYER
 10
27.8020087576
 20
5.9635714286
 11
25.8020087576
 21
5.9635714286
  0
LINE
  5
218
100
AcDbEntity
  8
0
100
AcDbLine
 62
7
  6
BYLAYER
 10
22.7697757106
 20
74.5635714286
 11
22.5697757106
 21
74.3635714286
  0
LINE
  5
219
100
AcDbEntity
  8
0
100
AcDbLine
 62
7
  6
BYLAYER
 10
28.0074002686
 20
15.9635714286
 11
25.5966172295
 21
15.9635714286
  0
LINE
  5
21A
100
AcDbEntity
  8
0
100
AcDbLine
 62
7
  6
BYLAYER
 10
28.2071261927
 20
16.1531042374
 11
25.3968913226
 21
16.1531042374
  0
LINE
  5
21B
100
AcDbEntity
  8
0
100
AcDbLine
 62
7
  6
BYLAYER
 10
33.3695922785
 20
17.9635714286
 11
23.7697757106
 21
17.9635714286
  0
LINE
  5
21C
100
AcDbEntity
  8
0
100
AcDbLine
 62
7
  6
BYLAYER
 10
33.5697757106
 20
18.1635714286
 11
23.5697757106
 21
18.1635714286
  0
LINE
  5
21D
100
AcDbEntity
  8
0
100
AcDbLine
 62
7
  6
BYLAYER
 10
23.5697757106
 20
20.1635714286
 11
33.5695360101
 21
20.1635714286
  0
LINE
  5
21E
100
AcDbEntity
  8
0
100
AcDbLine
 62
7
  6
BYLAYER
 10
33.5695897683
 20
20.2635714286
 11
23.5699616529
 21
20.2635714286
  0
LINE
  5
21F
100
AcDbEntity
  8
0
100
AcDbLine
 62
7
  6
BYLAYER
 10
21.3188546694
 20
65.1653968505
 11
21.2647757106
 21
64.9635714286
  0
LINE
  5
220
100
AcDbEntity
  8
0
100
AcDbLine
 62
7
  6
BYLAYER
 10
23.5697757106
 20
27.9635714286
 11
33.5697757106
 21
27.9635714286
  0
LINE
  5
221
100
AcDbEntity
  8
0
100
AcDbLine
 62
7
  6
BYLAYER
 10
23.5697757106
 20
27.9635714286
 11
22.5697757106
 21
28.9635714286
  0
LINE
  5
222
100
AcDbEntity
  8
0
100
AcDbLine
 62
7
  6
BYLAYER
 10
34.5697757106
 20
28.9635714286
 11
22.5697757106
 21
28.9635714286
  0
LINE
  5
223
100
AcDbEntity
  8
0
100
AcDbLine
 62
7
  6
BYLAYER
 10
20.0697757106
 20
64.9635714286
 11
20.0697757106
 21
61.9635714286
  0
LINE
  5
224
100
AcDbEntity
  8
0
100
AcDbLine
 62
7
  6
BYLAYER
 10
20.0697757106
 20
68.9635714286
 11
20.0697757106
 21
71.9635714286
  0
LINE
  5
225
100
AcDbEntity
  8
0
100
AcDbLine
 62
7
  6
BYLAYER
 10
20.5027884125
 20
64.3430638166
 11
20.5027884125
 21
62.5840790406
  0
LINE
  5
226
100
AcDbEntity
  8
0
100
AcDbLine
 62
7
  6
BYLAYER
 10
20.5027884125
 20
69.5840790406
 11
20.5027884125
 21
71.3430637972
  0
LINE
  5
227
100
AcDbEntity
  8
0
100
AcDbLine
 62
7
  6
BYLAYER
 10
25.3968913226
 20
16.1531042374
 11
25.3020087576
 21
17.9635714286
  0
LINE
  5
228
100
AcDbEntity
  8
0
100
AcDbLine
 62
7
  6
BYLAYER
 10
22.5697757106
 20
74.3635714286
 11
22.5697757106
 21
71.9635714286
  0
LINE
  5
229
100
AcDbEntity
  8
0
100
AcDbLine
 62
7
  6
BYLAYER
 10
22.5697757106
 20
68.3387508921
 11
22.5697757106
 21
65.5883819043
  0
LINE
  5
22A
100
AcDbEntity
  8
0
100
AcDbLine
 62
7
  6
BYLAYER
 10
22.5697757106
 20
61.9635714286
 11
22.5697757106
 21
28.9635714286
  0
LINE
  5
22B
100
AcDbEntity
  8
0
100
AcDbLine
 62
7
  6
BYLAYER
 10
23.3197757106
 20
74.7635714286
 11
23.3197757106
 21
74.5635714286
  0
LINE
  5
22C
100
AcDbEntity
  8
0
100
AcDbLine
 62
7
  6
BYLAYER
 10
23.5697757106
 20
27.9635714286
 11
23.5697757106
 21
20.2635714286
  0
LINE
  5
22D
100
AcDbEntity
  8
0
100
AcDbLine
 62
7
  6
BYLAYER
 10
23.5697757106
 20
20.1635714286
 11
23.5697757106
 21
18.1635714286
  0
LINE
  5
22E
100
AcDbEntity
  8
0
100
AcDbLine
 62
7
  6
BYLAYER
 10
23.6197757106
 20
20.2635714286
 11
23.6197757106
 21
20.1635714286
  0
LINE
  5
22F
100
AcDbEntity
  8
0
100
AcDbLine
 62
7
  6
BYLAYER
 10
25.8020087576
 20
5.9635714286
 11
25.8020087576
 21
15.9635714286
  0
LINE
  5
230
100
AcDbEntity
  8
0
100
AcDbLine
 62
7
  6
BYLAYER
 10
27.8020087576
 20
5.9635714286
 11
27.8020087576
 21
15.9635714286
  0
LINE
  5
231
100
AcDbEntity
  8
0
100
AcDbLine
 62
7
  6
BYLAYER
 10
27.8469340958
 20
74.5635714286
 11
27.8469340958
 21
74.7635714286
  0
LINE
  5
232
100
AcDbEntity
  8
0
100
AcDbLine
 62
7
  6
BYLAYER
 10
28.1367630087
 20
64.3430638131
 11
28.1367630087
 21
62.5840790632
  0
LINE
  5
233
100
AcDbEntity
  8
0
100
AcDbLine
 62
7
  6
BYLAYER
 10
28.1367630087
 20
69.5840790441
 11
28.1367630087
 21
71.343063813
  0
LINE
  5
234
100
AcDbEntity
  8
0
100
AcDbLine
 62
7
  6
BYLAYER
 10
28.8295833317
 20
64.2889688945
 11
28.8295833317
 21
62.6381739943
  0
LINE
  5
235
100
AcDbEntity
  8
0
100
AcDbLine
 62
7
  6
BYLAYER
 10
28.8295833317
 20
69.6381739627
 11
28.8295833317
 21
71.2889689027
  0
LINE
  5
236
100
AcDbEntity
  8
0
100
AcDbLine
 62
7
  6
BYLAYER
 10
35.8206967518
 20
68.7617460067
 11
35.8747757106
 21
68.9635714286
  0
LINE
  5
237
100
AcDbEntity
  8
0
100
AcDbLine
 62
7
  6
BYLAYER
 10
29.2926173253
 20
74.7635714286
 11
29.2926173253
 21
74.5635714286
  0
LINE
  5
238
100
AcDbEntity
  8
0
100
AcDbLine
 62
7
  6
BYLAYER
 10
28.2071261927
 20
16.1531042374
 11
28.3020087576
 21
17.9635714286
  0
LINE
  5
239
100
AcDbEntity
  8
0
100
AcDbLine
 62
7
  6
BYLAYER
 10
21.3188546694
 20
68.7617460067
 11
21.2647757106
 21
68.9635714286
  0
LINE
  5
23A
100
AcDbEntity
  8
0
100
AcDbLine
 62
7
  6
BYLAYER
 10
33.5197757106
 20
20.2635714286
 11
33.5197757106
 21
20.1635714286
  0
LINE
  5
23B
100
AcDbEntity
  8
0
100
AcDbLine
 62
7
  6
BYLAYER
 10
33.5697757106
 20
27.9635714286
 11
33.5697757106
 21
20.2635714286
  0
LINE
  5
23C
100
AcDbEntity
  8
0
100
AcDbLine
 62
7
  6
BYLAYER
 10
33.5697757106
 20
20.1635714286
 11
33.5697757106
 21
18.1635714286
  0
LINE
  5
23D
100
AcDbEntity
  8
0
100
AcDbLine
 62
7
  6
BYLAYER
 10
33.8197757106
 20
74.7635714286
 11
33.8197757106
 21
74.5635714286
  0
LINE
  5
23E
100
AcDbEntity
  8
0
100
AcDbLine
 62
7
  6
BYLAYER
 10
34.5697757106
 20
74.3635714286
 11
34.5697757106
 21
71.9635714286
  0
LINE
  5
23F
100
AcDbEntity
  8
0
100
AcDbLine
 62
7
  6
BYLAYER
 10
34.5697757106
 20
68.3387609528
 11
34.5697757106
 21
65.588391965
  0
LINE
  5
240
100
AcDbEntity
  8
0
100
AcDbLine
 62
7
  6
BYLAYER
 10
34.5697757106
 20
61.9635714286
 11
34.5697757106
 21
28.9635714286
  0
LINE
  5
241
100
AcDbEntity
  8
0
100
AcDbLine
 62
7
  6
BYLAYER
 10
36.8099680894
 20
64.2889688934
 11
36.8099680894
 21
62.6381739556
  0
LINE
  5
242
100
AcDbEntity
  8
0
100
AcDbLine
 62
7
  6
BYLAYER
 10
36.8099680894
 20
69.6381739637
 11
36.8099680894
 21
71.2889688622
  0
LINE
  5
243
100
AcDbEntity
  8
0
100
AcDbLine
 62
7
  6
BYLAYER
 10
37.0697757106
 20
61.9635714286
 11
37.0697757106
 21
64.9635714286
  0
LINE
  5
244
100
AcDbEntity
  8
0
100
AcDbLine
 62
7
  6
BYLAYER
 10
37.0697757106
 20
68.9635714286
 11
37.0697757106
 21
71.9635714286
  0
LINE
  5
245
100
AcDbEntity
  8
0
100
AcDbLine
 62
7
  6
BYLAYER
 10
33.5697757106
 20
27.9635714286
 11
34.5697757106
 21
28.9635714286
  0
LINE
  5
246
100
AcDbEntity
  8
0
100
AcDbLine
 62
7
  6
BYLAYER
 10
35.8206967518
 20
65.1653968505
 11
35.8747757106
 21
64.9635714286
  0
LINE
  5
247
100
AcDbEntity
  8
0
100
AcDbLine
 62
7
  6
BYLAYER
 10
37.0697757106
 20
61.9635714286
 11
20.0697757106
 21
61.9635714286
  0
LINE
  5
248
100
AcDbEntity
  8
0
100
AcDbLine
 62
7
  6
BYLAYER
 10
20.0697757106
 20
64.9635714286
 11
37.0697757106
 21
64.9635714286
  0
LINE
  5
249
100
AcDbEntity
  8
0
100
AcDbLine
 62
7
  6
BYLAYER
 10
21.454641035
 20
65.6635714286
 11
22.228756001
 21
65.6635714286
  0
LINE
  5
24A
100
AcDbEntity
  8
0
100
AcDbLine
 62
7
  6
BYLAYER
 10
22.2377777398
 20
65.6635714286
 11
22.5092573403
 21
65.6635714286
  0
LINE
  5
24B
100
AcDbEntity
  8
0
100
AcDbLine
 62
7
  6
BYLAYER
 10
22.919878169
 20
65.6635714286
 11
23.2139968886
 21
65.6635714286
  0
LINE
  5
24C
100
AcDbEntity
  8
0
100
AcDbLine
 62
7
  6
BYLAYER
 10
23.7835709538
 20
65.6635714286
 11
24.0908752431
 21
65.6635714286
  0
LINE
  5
24D
100
AcDbEntity
  8
0
100
AcDbLine
 62
7
  6
BYLAYER
 10
24.8010962976
 20
65.6635714286
 11
25.1117091438
 21
65.6635714286
  0
LINE
  5
24E
100
AcDbEntity
  8
0
100
AcDbLine
 62
7
  6
BYLAYER
 10
25.9397500987
 20
65.6635714286
 11
26.2436881494
 21
65.6635714286
  0
LINE
  5
24F
100
AcDbEntity
  8
0
100
AcDbLine
 62
7
  6
BYLAYER
 10
27.1629350869
 20
65.6635714286
 11
27.450429523
 21
65.6635714286
  0
LINE
  5
250
100
AcDbEntity
  8
0
100
AcDbLine
 62
7
  6
BYLAYER
 10
28.4313370903
 20
65.6635714286
 11
28.7082143309
 21
65.6635714286
  0
LINE
  5
251
100
AcDbEntity
  8
0
100
AcDbLine
 62
7
  6
BYLAYER
 10
29.6891218981
 20
65.6635714286
 11
29.9766163343
 21
65.6635714286
  0
LINE
  5
252
100
AcDbEntity
  8
0
100
AcDbLine
 62
7
  6
BYLAYER
 10
30.8958632718
 20
65.6635714286
 11
31.1998013225
 21
65.6635714286
  0
LINE
  5
253
100
AcDbEntity
  8
0
100
AcDbLine
 62
7
  6
BYLAYER
 10
32.0278422773
 20
65.6635714286
 11
32.3384551235
 21
65.6635714286
  0
LINE
  5
254
100
AcDbEntity
  8
0
100
AcDbLine
 62
7
  6
BYLAYER
 10
33.0486761781
 20
65.6635714286
 11
33.3559804674
 21
65.6635714286
  0
LINE
  5
255
100
AcDbEntity
  8
0
100
AcDbLine
 62
7
  6
BYLAYER
 10
33.9255545326
 20
65.6635714286
 11
34.2196732522
 21
65.6635714286
  0
LINE
  5
256
100
AcDbEntity
  8
0
100
AcDbLine
 62
7
  6
BYLAYER
 10
34.5697757106
 20
65.6635714286
 11
34.5849387447
 21
65.6635714286
  0
LINE
  5
257
100
AcDbEntity
  8
0
100
AcDbLine
 62
7
  6
BYLAYER
 10
34.630293749
 20
65.6635714286
 11
34.9017736813
 21
65.6635714286
  0
LINE
  5
258
100
AcDbEntity
  8
0
100
AcDbLine
 62
7
  6
BYLAYER
 10
34.9107954201
 20
65.6635714286
 11
35.6849103862
 21
65.6635714286
  0
LINE
  5
259
100
AcDbEntity
  8
0
100
AcDbLine
 62
7
  6
BYLAYER
 10
35.6849103862
 20
68.2635714286
 11
34.9107954201
 21
68.2635714286
  0
LINE
  5
25A
100
AcDbEntity
  8
0
100
AcDbLine
 62
7
  6
BYLAYER
 10
34.9017736813
 20
68.2635714286
 11
34.630293749
 21
68.2635714286
  0
LINE
  5
25B
100
AcDbEntity
  8
0
100
AcDbLine
 62
7
  6
BYLAYER
 10
34.2196732522
 20
68.2635714286
 11
33.9255545326
 21
68.2635714286
  0
LINE
  5
25C
100
AcDbEntity
  8
0
100
AcDbLine
 62
7
  6
BYLAYER
 10
33.3559804674
 20
68.2635714286
 11
33.0486761781
 21
68.2635714286
  0
LINE
  5
25D
100
AcDbEntity
  8
0
100
AcDbLine
 62
7
  6
BYLAYER
 10
32.3384551235
 20
68.2635714286
 11
32.0278422773
 21
68.2635714286
  0
LINE
  5
25E
100
AcDbEntity
  8
0
100
AcDbLine
 62
7
  6
BYLAYER
 10
31.1998013225
 20
68.2635714286
 11
30.8958632718
 21
68.2635714286
  0
LINE
  5
25F
100
AcDbEntity
  8
0
100
AcDbLine
 62
7
  6
BYLAYER
 10
29.9766163343
 20
68.2635714286
 11
29.6891218981
 21
68.2635714286
  0
LINE
  5
260
100
AcDbEntity
  8
0
100
AcDbLine
 62
7
  6
BYLAYER
 10
27.450429523
 20
68.2635714286
 11
27.1629350869
 21
68.2635714286
  0
LINE
  5
261
100
AcDbEntity
  8
0
100
AcDbLine
 62
7
  6
BYLAYER
 10
26.2436881494
 20
68.2635714286
 11
25.9397500987
 21
68.2635714286
  0
LINE
  5
262
100
AcDbEntity
  8
0
100
AcDbLine
 62
7
  6
BYLAYER
 10
25.1117091438
 20
68.2635714286
 11
24.8010962976
 21
68.2635714286
  0
LINE
  5
263
100
AcDbEntity
  8
0
100
AcDbLine
 62
7
  6
BYLAYER
 10
24.0908752431
 20
68.2635714286
 11
23.7835709538
 21
68.2635714286
  0
LINE
  5
264
100
AcDbEntity
  8
0
100
AcDbLine
 62
7
  6
BYLAYER
 10
23.2139968886
 20
68.2635714286
 11
22.919878169
 21
68.2635714286
  0
LINE
  5
265
100
AcDbEntity
  8
0
100
AcDbLine
 62
7
  6
BYLAYER
 10
22.5697757106
 20
68.2635714286
 11
22.5546171818
 21
68.2635714286
  0
LINE
  5
266
100
AcDbEntity
  8
0
100
AcDbLine
 62
7
  6
BYLAYER
 10
22.5092573403
 20
68.2635714286
 11
22.2377777398
 21
68.2635714286
  0
LINE
  5
267
100
AcDbEntity
  8
0
100
AcDbLine
 62
7
  6
BYLAYER
 10
22.228756001
 20
68.2635714286
 11
21.454641035
 21
68.2635714286
  0
LINE
  5
268
100
AcDbEntity
  8
0
100
AcDbLine
 62
7
  6
BYLAYER
 10
28.4313370903
 20
68.2635714286
 11
28.7082143309
 21
68.2635714286
  0
LINE
  5
269
100
AcDbEntity
  8
0
100
AcDbLine
 62
7
  6
BYLAYER
 10
37.0697757106
 20
68.9635714286
 11
20.0697757106
 21
68.9635714286
  0
LINE
  5
26A
100
AcDbEntity
  8
0
100
AcDbLine
 62
7
  6
BYLAYER
 10
34.3697757106
 20
74.5635714286
 11
34.5697757106
 21
74.3635714286
  0
LINE
  5
26B
100
AcDbEntity
  8
0
100
AcDbLine
 62
7
  6
BYLAYER
 10
20.0697757106
 20
71.9635714286
 11
37.0697757106
 21
71.9635714286
  0
LINE
  5
26C
100
AcDbEntity
  8
0
100
AcDbLine
 62
7
  6
BYLAYER
 10
22.5697757106
 20
74.3635714286
 11
34.5697757106
 21
74.3635714286
  0
LINE
  5
26D
100
AcDbEntity
  8
0
100
AcDbLine
 62
7
  6
BYLAYER
 10
22.7697757106
 20
74.5635714286
 11
34.3695318352
 21
74.5635714286
  0
LINE
  5
26E
100
AcDbEntity
  8
0
100
AcDbLine
 62
7
  6
BYLAYER
 10
23.3197757106
 20
74.7635714286
 11
27.8469340958
 21
74.7635714286
  0
LINE
  5
26F
100
AcDbEntity
  8
0
100
AcDbLine
 62
7
  6
BYLAYER
 10
29.2926173253
 20
74.7635714286
 11
33.8197757106
 21
74.7635714286
  0
LINE
  5
270
100
AcDbEntity
  8
0
100
AcDbLine
 62
7
  6
BYLAYER
 10
23.5197757106
 20
74.9635714286
 11
33.6197660136
 21
74.9635714286
  0
ARC
  5
271
100
AcDbEntity
  8
0
100
AcDbCircle
 62
7
  6
BYLAYER
 10
27.177278811
 20
86.3363601455
 40
16.7797357555
100
AcDbArc
 50
273.2780252399
 51
275.6510866013
  0
ARC
  5
272
100
AcDbEntity
  8
0
100
AcDbCircle
 62
7
  6
BYLAYER
 10
27.1772788101
 20
47.5907827117
 40
16.7797357556
100
AcDbArc
 50
84.3489133954
 51
86.7219747568
  0
ARC
  5
273
100
AcDbEntity
  8
0
100
AcDbCircle
 62
7
  6
BYLAYER
 10
27.1772805205
 20
54.5907961264
 40
16.7797222459
100
AcDbArc
 50
84.3489146999
 51
86.7219779648
  0
ARC
  5
274
100
AcDbEntity
  8
0
100
AcDbCircle
 62
7
  6
BYLAYER
 10
27.177280559
 20
79.3363462251
 40
16.7797217389
100
AcDbArc
 50
273.2780220026
 51
275.6510853393
  0
ARC
  5
275
100
AcDbEntity
  8
0
100
AcDbCircle
 62
7
  6
BYLAYER
 10
28.2189352732
 20
70.4557225741
 40
7.78117115
100
AcDbArc
 50
345.0022520936
 51
347.4396747245
  0
ARC
  5
276
100
AcDbEntity
  8
0
100
AcDbCircle
 62
7
  6
BYLAYER
 10
28.920616148
 20
63.471420283
 40
7.78117115
100
AcDbArc
 50
165.0022520936
 51
167.4396747245
  0
ARC
  5
277
100
AcDbEntity
  8
0
100
AcDbCircle
 62
7
  6
BYLAYER
 10
28.9117138421
 20
70.4535394114
 40
7.7720071335
100
AcDbArc
 50
192.5588880692
 51
194.9991851128
  0
ARC
  5
278
100
AcDbEntity
  8
0
100
AcDbCircle
 62
7
  6
BYLAYER
 10
28.2278375791
 20
63.4736034457
 40
7.7720071336
100
AcDbArc
 50
12.5588880692
 51
14.9991851128
  0
ARC
  5
279
100
AcDbEntity
  8
0
100
AcDbCircle
 62
7
  6
BYLAYER
 10
28.2647943593
 20
70.4437214496
 40
7.7337685489
100
AcDbArc
 50
343.6263594207
 51
345.0002136725
  0
ARC
  5
27A
100
AcDbEntity
  8
0
100
AcDbCircle
 62
7
  6
BYLAYER
 10
28.8747570618
 20
63.4834214076
 40
7.7337685487
100
AcDbArc
 50
163.6263594207
 51
165.0002136725
  0
ARC
  5
27B
100
AcDbEntity
  8
0
100
AcDbCircle
 62
7
  6
BYLAYER
 10
28.8692805309
 20
70.4421834364
 40
7.7280805596
100
AcDbArc
 50
194.999280714
 51
196.3741461927
  0
ARC
  5
27C
100
AcDbEntity
  8
0
100
AcDbCircle
 62
7
  6
BYLAYER
 10
28.2702708904
 20
63.4849594208
 40
7.7280805594
100
AcDbArc
 50
14.999280714
 51
16.3741461927
  0
ARC
  5
27D
100
AcDbEntity
  8
0
100
AcDbCircle
 62
7
  6
BYLAYER
 10
21.1130475114
 20
64.698017649
 40
6.673009402
100
AcDbArc
 50
95.2471368394
 51
98.9946375784
  0
ARC
  5
27E
100
AcDbEntity
  8
0
100
AcDbCircle
 62
7
  6
BYLAYER
 10
21.1117563624
 20
69.218789967
 40
6.6625994015
100
AcDbArc
 50
261.0024337302
 51
264.7557918573
  0
ARC
  5
27F
100
AcDbEntity
  8
0
100
AcDbCircle
 62
7
  6
BYLAYER
 10
21.1082632784
 20
57.736317304
 40
6.6344328541
100
AcDbArc
 50
95.2362414037
 51
99.0055402152
  0
ARC
  5
280
100
AcDbEntity
  8
0
100
AcDbCircle
 62
7
  6
BYLAYER
 10
21.1066245473
 20
76.1777080272
 40
6.6212205289
100
AcDbArc
 50
260.9906976945
 51
264.7675206814
  0
ARC
  5
281
100
AcDbEntity
  8
0
100
AcDbCircle
 62
7
  6
BYLAYER
 10
37.4510824503
 20
68.8607681134
 40
2.5114112948
100
AcDbArc
 50
98.7329733303
 51
104.7902074274
  0
ARC
  5
282
100
AcDbEntity
  8
0
100
AcDbCircle
 62
7
  6
BYLAYER
 10
37.4502863221
 20
65.0625510893
 40
2.5075111018
100
AcDbArc
 50
255.2050774446
 51
261.2717417935
  0
ARC
  5
283
100
AcDbEntity
  8
0
100
AcDbCircle
 62
7
  6
BYLAYER
 10
37.444583888
 20
61.8919807304
 40
2.4795744524
100
AcDbArc
 50
98.6940557893
 51
104.8291366408
  0
ARC
  5
284
100
AcDbEntity
  8
0
100
AcDbCircle
 62
7
  6
BYLAYER
 10
37.4435734079
 20
72.0303089837
 40
2.4746243459
100
AcDbArc
 50
255.1647213299
 51
261.3120862443
  0
ARC
  5
285
100
AcDbEntity
  8
0
100
AcDbCircle
 62
7
  6
BYLAYER
 10
33.6197757106
 20
74.7635714286
 40
0.2
100
AcDbArc
 50
0.0
 51
90.0
  0
ARC
  5
286
100
AcDbEntity
  8
0
100
AcDbCircle
 62
7
  6
BYLAYER
 10
23.5197757106
 20
74.7635714286
 40
0.2
100
AcDbArc
 50
90.0
 51
180.0
  0
ARC
  5
287
100
AcDbEntity
  8
0
100
AcDbCircle
 62
7
  6
BYLAYER
 10
28.0074002857
 20
16.1635714286
 40
0.2
100
AcDbArc
 50
269.9999999998
 51
357.0000000139
  0
ARC
  5
288
100
AcDbEntity
  8
0
100
AcDbCircle
 62
7
  6
BYLAYER
 10
25.5966172295
 20
16.1635714286
 40
0.2
100
AcDbArc
 50
182.9999999861
 51
270.0
  0
ARC
  5
289
100
AcDbEntity
  8
0
100
AcDbCircle
 62
7
  6
BYLAYER
 10
23.7697757106
 20
18.1635714286
 40
0.2
100
AcDbArc
 50
180.0
 51
270.0
  0
ARC
  5
28A
100
AcDbEntity
  8
0
100
AcDbCircle
 62
7
  6
BYLAYER
 10
33.3697757106
 20
18.1635714286
 40
0.2
100
AcDbArc
 50
270.0
 51
360.0
  0
SPLINE
  5
28B
100
AcDbEntity
  8
0
100
AcDbSpline
 62
7
  6
BYLAYER
 70
0
 71
3
 72
42
 73
38
 74
0
 42
0.0000001
 43
0.0000001
 44
0.0000000001
 40
0.0
 40
0.0
 40
0.0
 40
0.0
 40
0.0078308663
 40
0.0156957327
 40
0.0235253168
 40
0.031344184
 40
0.0391593469
 40
0.0469729328
 40
0.0625958372
 40
0.0938311717
 40
0.1250725786
 40
0.1563155759
 40
0.1875592519
 40
0.2188031535
 40
0.2500472046
 40
0.3125334043
 40
0.3750204298
 40
0.437507953
 40
0.4999955697
 40
0.5624832199
 40
0.6249706639
 40
0.68745778
 40
0.7499439941
 40
0.781188048
 40
0.8124319797
 40
0.8436755792
 40
0.8749186193
 40
0.9061599688
 40
0.9217822853
 40
0.9374059856
 40
0.953027398
 40
0.9608415113
 40
0.9686576979
 40
0.976475427
 40
0.9843043782
 40
0.9921692339
 40
1.0
 40
1.0
 40
1.0
 40
1.0
 10
29.2926173253
 20
74.7635714286
 30
0.0
 10
29.2926173253
 20
74.7675194104
 30
0.0
 10
29.2907173981
 20
74.7754588108
 30
0.0
 10
29.2843583313
 20
74.7856210701
 30
0.0
 10
29.2758823475
 20
74.7940002326
 30
0.0
 10
29.2664918195
 20
74.8012207398
 30
0.0
 10
29.2564736091
 20
74.8075220525
 30
0.0
 10
29.2425992564
 20
74.8150055462
 30
0.0
 10
29.2173474979
 20
74.8261454272
 30
0.0
 10
29.1798903085
 20
74.8385026996
 30
0.0
 10
29.1340522139
 20
74.8500461016
 30
0.0
 10
29.0877089074
 20
74.8593508618
 30
0.0
 10
29.0410696215
 20
74.8669969915
 30
0.0
 10
28.9942388279
 20
74.8733554731
 30
0.0
 10
28.9316234849
 20
74.8804003889
 30
0.0
 10
28.8531309939
 20
74.8870559529
 30
0.0
 10
28.7587531975
 20
74.8922310413
 30
0.0
 10
28.6642824452
 20
74.8952139165
 30
0.0
 10
28.5697700843
 20
74.8961780718
 30
0.0
 10
28.4752577375
 20
74.8952261176
 30
0.0
 10
28.3807864514
 20
74.8922391724
 30
0.0
 10
28.2864127793
 20
74.8870034518
 30
0.0
 10
28.2079147334
 20
74.8804131633
 30
0.0
 10
28.1453013529
 20
74.8733487676
 30
0.0
 10
28.0984695394
 20
74.8669991295
 30
0.0
 10
28.0518322246
 20
74.8593374306
 30
0.0
 10
28.005486151
 20
74.8500617898
 30
0.0
 10
27.9672831011
 20
74.8404016484
 30
0.0
 10
27.9371918667
 20
74.8310483367
 30
0.0
 10
27.9149493017
 20
74.8230500484
 30
0.0
 10
27.8968986235
 20
74.815097759
 30
0.0
 10
27.8830687778
 20
74.8075322582
 30
0.0
 10
27.8730631243
 20
74.801213374
 30
0.0
 10
27.8636677499
 20
74.7940000687
 30
0.0
 10
27.8551930806
 20
74.7856203662
 30
0.0
 10
27.8488339898
 20
74.775458773
 30
0.0
 10
27.8469340958
 20
74.7675193599
 30
0.0
 10
27.8469340958
 20
74.7635714286
 30
0.0
  0
SPLINE
  5
28C
100
AcDbEntity
  8
0
100
AcDbSpline
 62
7
  6
BYLAYER
 70
0
 71
3
 72
11
 73
7
 74
0
 42
0.0000001
 43
0.0000001
 44
0.0000000001
 40
0.0
 40
0.0
 40
0.0
 40
0.0
 40
0.2512966373
 40
0.501588327
 40
0.7510379633
 40
1.0
 40
1.0
 40
1.0
 40
1.0
 10
36.8099680894
 20
69.6381739637
 30
0.0
 10
36.485669229
 20
69.535144677
 30
0.0
 10
35.8325684839
 20
69.3470338901
 30
0.0
 10
34.8378979537
 20
69.1310647601
 30
0.0
 10
33.8321531535
 20
68.994758922
 30
0.0
 10
33.156886147
 20
68.9635714286
 30
0.0
 10
32.8197757109
 20
68.9635714286
 30
0.0
  0
SPLINE
  5
28D
100
AcDbEntity
  8
0
100
AcDbSpline
 62
7
  6
BYLAYER
 70
0
 71
3
 72
11
 73
7
 74
0
 42
0.0000001
 43
0.0000001
 44
0.0000000001
 40
0.0
 40
0.0
 40
0.0
 40
0.0
 40
0.248962233
 40
0.4984116828
 40
0.7487035809
 40
1.0
 40
1.0
 40
1.0
 40
1.0
 10
32.8197757225
 20
71.9635714286
 30
0.0
 10
33.1568862126
 20
71.9635714282
 30
0.0
 10
33.8321507913
 20
71.9323552689
 30
0.0
 10
34.8379001506
 20
71.7960865724
 30
0.0
 10
35.8325626661
 20
71.5800829473
 30
0.0
 10
36.4856697138
 20
71.3919979929
 30
0.0
 10
36.8099680894
 20
71.2889688622
 30
0.0
  0
SPLINE
  5
28E
100
AcDbEntity
  8
0
100
AcDbSpline
 62
7
  6
BYLAYER
 70
0
 71
3
 72
11
 73
7
 74
0
 42
0.0000001
 43
0.0000001
 44
0.0000000001
 40
0.0
 40
0.0
 40
0.0
 40
0.0
 40
0.2489622325
 40
0.4984116811
 40
0.74870358
 40
1.0
 40
1.0
 40
1.0
 40
1.0
 10
32.8197757109
 20
68.9635714286
 30
0.0
 10
32.4826652187
 20
68.9635714286
 30
0.0
 10
31.8074006385
 20
68.9947875096
 30
0.0
 10
30.8016512391
 20
69.1310560154
 30
0.0
 10
29.8069887512
 20
69.3470598338
 30
0.0
 10
29.1538817107
 20
69.5351448289
 30
0.0
 10
28.8295833317
 20
69.6381739627
 30
0.0
  0
SPLINE
  5
28F
100
AcDbEntity
  8
0
100
AcDbSpline
 62
7
  6
BYLAYER
 70
0
 71
3
 72
11
 73
7
 74
0
 42
0.0000001
 43
0.0000001
 44
0.0000000001
 40
0.0
 40
0.0
 40
0.0
 40
0.0
 40
0.2512101947
 40
0.5014743658
 40
0.7509613101
 40
1.0
 40
1.0
 40
1.0
 40
1.0
 10
28.1367630087
 20
69.5840790441
 30
0.0
 10
27.8260934437
 20
69.488740164
 30
0.0
 10
27.2006029242
 20
69.3150703327
 30
0.0
 10
26.2487813467
 20
69.1167492523
 30
0.0
 10
25.2871767534
 20
68.9920092972
 30
0.0
 10
24.6419360213
 20
68.96357143
 30
0.0
 10
24.3197757597
 20
68.9635714286
 30
0.0
  0
SPLINE
  5
290
100
AcDbEntity
  8
0
100
AcDbSpline
 62
7
  6
BYLAYER
 70
0
 71
3
 72
11
 73
7
 74
0
 42
0.0000001
 43
0.0000001
 44
0.0000000001
 40
0.0
 40
0.0
 40
0.0
 40
0.0
 40
0.2490354585
 40
0.4985183698
 40
0.7487843769
 40
1.0
 40
1.0
 40
1.0
 40
1.0
 10
24.3197757597
 20
68.9635714286
 30
0.0
 10
23.9976199434
 20
68.9635714271
 30
0.0
 10
23.3523926078
 20
68.9920512791
 30
0.0
 10
22.3907851864
 20
69.116714586
 30
0.0
 10
21.4389782102
 20
69.3151245123
 30
0.0
 10
20.8134644351
 20
69.4887381787
 30
0.0
 10
20.5027884125
 20
69.5840790406
 30
0.0
  0
SPLINE
  5
291
100
AcDbEntity
  8
0
100
AcDbSpline
 62
7
  6
BYLAYER
 70
0
 71
3
 72
11
 73
7
 74
0
 42
0.0000001
 43
0.0000001
 44
0.0000000001
 40
0.0
 40
0.0
 40
0.0
 40
0.0
 40
0.2512964424
 40
0.501588353
 40
0.7510378001
 40
1.0
 40
1.0
 40
1.0
 40
1.0
 10
28.8295833317
 20
71.2889688629
 30
0.0
 10
29.1538817395
 20
71.3919980038
 30
0.0
 10
29.8069888268
 20
71.5800830134
 30
0.0
 10
30.8016514054
 20
71.7960865966
 30
0.0
 10
31.8074007407
 20
71.9323552718
 30
0.0
 10
32.4826652751
 20
71.9635714289
 30
0.0
 10
32.8197757225
 20
71.9635714286
 30
0.0
  0
SPLINE
  5
292
100
AcDbEntity
  8
0
100
AcDbSpline
 62
7
  6
BYLAYER
 70
0
 71
3
 72
11
 73
7
 74
0
 42
0.0000001
 43
0.0000001
 44
0.0000000001
 40
0.0
 40
0.0
 40
0.0
 40
0.0
 40
0.2490354585
 40
0.4985183698
 40
0.7487843768
 40
1.0
 40
1.0
 40
1.0
 40
1.0
 10
24.3197757088
 20
71.9635714286
 30
0.0
 10
24.6419315212
 20
71.9635714286
 30
0.0
 10
25.2871588486
 20
71.9350915677
 30
0.0
 10
26.2487662576
 20
71.8104282619
 30
0.0
 10
27.2005732248
 20
71.612018347
 30
0.0
 10
27.8260869873
 20
71.4384046658
 30
0.0
 10
28.1367630087
 20
71.343063813
 30
0.0
  0
SPLINE
  5
293
100
AcDbEntity
  8
0
100
AcDbSpline
 62
7
  6
BYLAYER
 70
0
 71
3
 72
11
 73
7
 74
0
 42
0.0000001
 43
0.0000001
 44
0.0000000001
 40
0.0
 40
0.0
 40
0.0
 40
0.0
 40
0.2512101947
 40
0.5014743657
 40
0.7509613101
 40
1.0
 40
1.0
 40
1.0
 40
1.0
 10
20.5027884125
 20
71.3430638166
 30
0.0
 10
20.8134579838
 20
71.4384026894
 30
0.0
 10
21.4389485084
 20
71.612072531
 30
0.0
 10
22.3907700986
 20
71.8103936083
 30
0.0
 10
23.3523747022
 20
71.9351335786
 30
0.0
 10
23.9976154433
 20
71.9635714285
 30
0.0
 10
24.3197757088
 20
71.9635714286
 30
0.0
  0
SPLINE
  5
294
100
AcDbEntity
  8
0
100
AcDbSpline
 62
7
  6
BYLAYER
 70
0
 71
3
 72
11
 73
7
 74
0
 42
0.0000001
 43
0.0000001
 44
0.0000000001
 40
0.0
 40
0.0
 40
0.0
 40
0.0
 40
0.2512964423
 40
0.501588353
 40
0.7510378001
 40
1.0
 40
1.0
 40
1.0
 40
1.0
 10
36.8099680894
 20
62.638173995
 30
0.0
 10
36.4856696837
 20
62.5351448547
 30
0.0
 10
35.8325625994
 20
62.3470598497
 30
0.0
 10
34.8379000272
 20
62.1310562665
 30
0.0
 10
33.8321506977
 20
61.9947875961
 30
0.0
 10
33.1568861679
 20
61.9635714289
 30
0.0
 10
32.8197757225
 20
61.9635714286
 30
0.0
  0
SPLINE
  5
295
100
AcDbEntity
  8
0
100
AcDbSpline
 62
7
  6
BYLAYER
 70
0
 71
3
 72
11
 73
7
 74
0
 42
0.0000001
 43
0.0000001
 44
0.0000000001
 40
0.0
 40
0.0
 40
0.0
 40
0.0
 40
0.2512099322
 40
0.501474398
 40
0.7509612109
 40
1.0
 40
1.0
 40
1.0
 40
1.0
 10
28.1367630087
 20
62.5840790441
 30
0.0
 10
27.8260939556
 20
62.4887403301
 30
0.0
 10
27.2005956907
 20
62.3151030333
 30
0.0
 10
26.2487846373
 20
62.1167326413
 30
0.0
 10
25.2871738293
 20
61.9920416126
 30
0.0
 10
24.6419359019
 20
61.9635714285
 30
0.0
 10
24.3197757088
 20
61.9635714286
 30
0.0
  0
SPLINE
  5
296
100
AcDbEntity
  8
0
100
AcDbSpline
 62
7
  6
BYLAYER
 70
0
 71
3
 72
11
 73
7
 74
0
 42
0.0000001
 43
0.0000001
 44
0.0000000001
 40
0.0
 40
0.0
 40
0.0
 40
0.0
 40
0.2490353298
 40
0.4985183921
 40
0.7487841884
 40
1.0
 40
1.0
 40
1.0
 40
1.0
 10
24.3197757597
 20
64.9635714286
 30
0.0
 10
24.6419315683
 20
64.9635714271
 30
0.0
 10
25.2871609304
 20
64.9351150181
 30
0.0
 10
26.2487641594
 20
64.8104183176
 30
0.0
 10
27.2005789319
 20
64.6120438657
 30
0.0
 10
27.8260865998
 20
64.4384047935
 30
0.0
 10
28.1367630087
 20
64.3430638131
 30
0.0
  0
SPLINE
  5
297
100
AcDbEntity
  8
0
100
AcDbSpline
 62
7
  6
BYLAYER
 70
0
 71
3
 72
11
 73
7
 74
0
 42
0.0000001
 43
0.0000001
 44
0.0000000001
 40
0.0
 40
0.0
 40
0.0
 40
0.0
 40
0.2512964433
 40
0.5015883548
 40
0.7510378005
 40
1.0
 40
1.0
 40
1.0
 40
1.0
 10
28.8295833317
 20
64.2889688945
 30
0.0
 10
29.1538817407
 20
64.3919980378
 30
0.0
 10
29.8069888178
 20
64.5800830835
 30
0.0
 10
30.8016513625
 20
64.79608686
 30
0.0
 10
31.8074007321
 20
64.9323553396
 30
0.0
 10
32.4826652633
 20
64.9635714286
 30
0.0
 10
32.8197757109
 20
64.9635714286
 30
0.0
  0
SPLINE
  5
298
100
AcDbEntity
  8
0
100
AcDbSpline
 62
7
  6
BYLAYER
 70
0
 71
3
 72
11
 73
7
 74
0
 42
0.0000001
 43
0.0000001
 44
0.0000000001
 40
0.0
 40
0.0
 40
0.0
 40
0.0
 40
0.248962233
 40
0.4984116828
 40
0.7487035809
 40
1.0
 40
1.0
 40
1.0
 40
1.0
 10
32.8197757225
 20
61.9635714286
 30
0.0
 10
32.4826652304
 20
61.9635714282
 30
0.0
 10
31.8074006471
 20
61.9947875775
 30
0.0
 10
30.801651282
 20
62.1310562788
 30
0.0
 10
29.8069887601
 20
62.3470599039
 30
0.0
 10
29.1538817094
 20
62.5351448629
 30
0.0
 10
28.8295833317
 20
62.6381739943
 30
0.0
  0
SPLINE
  5
299
100
AcDbEntity
  8
0
100
AcDbSpline
 62
7
  6
BYLAYER
 70
0
 71
3
 72
11
 73
7
 74
0
 42
0.0000001
 43
0.0000001
 44
0.0000000001
 40
0.0
 40
0.0
 40
0.0
 40
0.0
 40
0.2490353297
 40
0.4985183921
 40
0.7487841885
 40
1.0
 40
1.0
 40
1.0
 40
1.0
 10
24.3197757088
 20
61.9635714286
 30
0.0
 10
23.9976198963
 20
61.9635714286
 30
0.0
 10
23.3523905253
 20
61.9920278204
 30
0.0
 10
22.3907872859
 20
62.1167245359
 30
0.0
 10
21.4389725004
 20
62.3150989835
 30
0.0
 10
20.8134648276
 20
62.4887380672
 30
0.0
 10
20.5027884125
 20
62.5840790406
 30
0.0
  0
SPLINE
  5
29A
100
AcDbEntity
  8
0
100
AcDbSpline
 62
7
  6
BYLAYER
 70
0
 71
3
 72
11
 73
7
 74
0
 42
0.0000001
 43
0.0000001
 44
0.0000000001
 40
0.0
 40
0.0
 40
0.0
 40
0.0
 40
0.2489620696
 40
0.498411709
 40
0.7487033859
 40
1.0
 40
1.0
 40
1.0
 40
1.0
 10
32.8197757109
 20
64.9635714286
 30
0.0
 10
33.1568861916
 20
64.9635714286
 30
0.0
 10
33.8321532487
 20
64.9323839612
 30
0.0
 10
34.8378980757
 20
64.7960780703
 30
0.0
 10
35.8325685505
 20
64.5801089071
 30
0.0
 10
36.485669259
 20
64.3919981706
 30
0.0
 10
36.8099680894
 20
64.2889688934
 30
0.0
  0
SPLINE
  5
29B
100
AcDbEntity
  8
0
100
AcDbSpline
 62
7
  6
BYLAYER
 70
0
 71
3
 72
11
 73
7
 74
0
 42
0.0000001
 43
0.0000001
 44
0.0000000001
 40
0.0
 40
0.0
 40
0.0
 40
0.0
 40
0.2512099322
 40
0.501474398
 40
0.7509612109
 40
1.0
 40
1.0
 40
1.0
 40
1.0
 10
20.5027884125
 20
64.3430638166
 30
0.0
 10
20.8134574668
 20
64.43840254
 30
0.0
 10
21.4389557438
 20
64.6120398238
 30
0.0
 10
22.3907668067
 20
64.8104102243
 30
0.0
 10
23.3523776271
 20
64.9351012547
 30
0.0
 10
23.9976155626
 20
64.96357143
 30
0.0
 10
24.3197757597
 20
64.9635714286
 30
0.0
  0
ELLIPSE
  5
29C
100
AcDbEntity
  8
0
100
AcDbEllipse
 62
7
  6
BYLAYER
 10
29.9152910641
 20
65.9241446843
 30
0.0
 11
-6.2207204371
 21
6.9314322382
 31
0.0
 40
0.5754627739
 41
-1.7429586143
 42
-1.7423775439
  0
ELLIPSE
  5
29D
100
AcDbEntity
  8
0
100
AcDbEllipse
 62
7
  6
BYLAYER
 10
29.5617258368
 20
70.8568732329
 30
0.0
 11
6.4469290971
 21
6.8367675082
 31
0.0
 40
0.5863744367
 41
4.8791148637
 42
4.8830345478
  0
ELLIPSE
  5
29E
100
AcDbEntity
  8
0
100
AcDbEllipse
 62
7
  6
BYLAYER
 10
27.5778255844
 20
70.8568732329
 30
0.0
 11
-6.4469290971
 21
6.8367675082
 31
0.0
 40
0.5863744367
 41
1.4001512048
 42
1.4040704434
  0
ELLIPSE
  5
29F
100
AcDbEntity
  8
0
100
AcDbEllipse
 62
7
  6
BYLAYER
 10
29.2016076016
 20
65.9241446843
 30
0.0
 11
-5.0865149455
 21
6.7252967502
 31
0.0
 40
0.7772485561
 41
-1.7976715889
 42
-1.7902232144
  0
ELLIPSE
  5
2A0
100
AcDbEntity
  8
0
100
AcDbEllipse
 62
7
  6
BYLAYER
 10
29.6857414966
 20
65.9241446843
 30
0.0
 11
-5.9202559579
 21
6.8236913888
 31
0.0
 40
0.6386759476
 41
-1.772230277
 42
-1.7486870591
  0
ELLIPSE
  5
2A1
100
AcDbEntity
  8
0
100
AcDbEllipse
 62
7
  6
BYLAYER
 10
30.1340073331
 20
65.9241446843
 30
0.0
 11
-6.4824495915
 21
7.0480159323
 31
0.0
 40
0.5159191069
 41
-1.7092875862
 42
-1.6752065722
  0
ELLIPSE
  5
2A2
100
AcDbEntity
  8
0
100
AcDbEllipse
 62
7
  6
BYLAYER
 10
30.5319974781
 20
65.9241446843
 30
0.0
 11
-6.9216984394
 21
7.2769696888
 31
0.0
 40
0.4062082967
 41
-1.6349387742
 42
-1.5930114798
  0
ELLIPSE
  5
2A3
100
AcDbEntity
  8
0
100
AcDbEllipse
 62
7
  6
BYLAYER
 10
30.866920201
 20
65.9241446843
 30
0.0
 11
-7.268044928
 21
7.4765406722
 31
0.0
 40
0.3064555396
 41
-1.5557693485
 42
-1.5073953105
  0
ELLIPSE
  5
2A4
100
AcDbEntity
  8
0
100
AcDbEllipse
 62
7
  6
BYLAYER
 10
27.2242603571
 20
65.9241446843
 30
0.0
 11
6.2207204371
 21
6.9314322382
 31
0.0
 40
0.5754627739
 41
-4.540807727
 42
-4.5402266929
  0
ELLIPSE
  5
2A5
100
AcDbEntity
  8
0
100
AcDbEllipse
 62
7
  6
BYLAYER
 10
31.1280108099
 20
65.9241446843
 30
0.0
 11
-7.5282167115
 21
7.6331288306
 31
0.0
 40
0.2139823
 41
-1.4742207939
 42
-1.4201217952
  0
ELLIPSE
  5
2A6
100
AcDbEntity
  8
0
100
AcDbEllipse
 62
7
  6
BYLAYER
 10
31.3068776378
 20
65.9241446843
 30
0.0
 11
-7.7026497539
 21
7.7402006165
 31
0.0
 40
0.1264692835
 41
-1.391428999
 42
-1.3322802269
  0
ELLIPSE
  5
2A7
100
AcDbEntity
  8
0
100
AcDbEllipse
 62
7
  6
BYLAYER
 10
31.3977717576
 20
65.9241446843
 30
0.0
 11
-7.7902843385
 21
7.794448427
 31
0.0
 40
0.0418408513
 41
-1.3080256756
 42
-1.2430383942
  0
ELLIPSE
  5
2A8
100
AcDbEntity
  8
0
100
AcDbEllipse
 62
7
  6
BYLAYER
 10
28.6636913409
 20
70.8568732329
 30
0.0
 11
3.4237190403
 21
7.1153262798
 31
0.0
 40
0.9421244918
 41
-1.483549955
 42
-1.4164428607
  0
ELLIPSE
  5
2A9
100
AcDbEntity
  8
0
100
AcDbEllipse
 62
7
  6
BYLAYER
 10
29.0355791831
 20
70.8568732329
 30
0.0
 11
5.5530222093
 21
6.469413374
 31
0.0
 40
0.7886457323
 41
-1.3140899128
 42
-1.2469828185
  0
ELLIPSE
  5
2AA
100
AcDbEntity
  8
0
100
AcDbEllipse
 62
7
  6
BYLAYER
 10
29.3924957185
 20
70.8568732329
 30
0.0
 11
6.197937693
 21
6.695058716
 31
0.0
 40
0.6495644904
 41
-1.3677680495
 42
-1.3006609551
  0
ELLIPSE
  5
2AB
100
AcDbEntity
  8
0
100
AcDbEllipse
 62
7
  6
BYLAYER
 10
29.7229693559
 20
70.8568732329
 30
0.0
 11
6.6685500783
 21
6.9780819968
 31
0.0
 40
0.5267450305
 41
-1.4428193721
 42
-1.3757122777
  0
ELLIPSE
  5
2AC
100
AcDbEntity
  8
0
100
AcDbEllipse
 62
7
  6
BYLAYER
 10
30.0163784006
 20
70.8568732329
 30
0.0
 11
7.0466597578
 21
7.2404907802
 31
0.0
 40
0.4163458233
 41
-1.524186034
 42
-1.4570789397
  0
ELLIPSE
  5
2AD
100
AcDbEntity
  8
0
100
AcDbEllipse
 62
7
  6
BYLAYER
 10
30.2632924447
 20
70.8568732329
 30
0.0
 11
7.3476587713
 21
7.4611649987
 31
0.0
 40
0.315182696
 41
-1.6082077057
 42
-1.5411006114
  0
ELLIPSE
  5
2AE
100
AcDbEntity
  8
0
100
AcDbEllipse
 62
7
  6
BYLAYER
 10
30.4557754675
 20
70.8568732329
 30
0.0
 11
7.5743709651
 21
7.6313984435
 31
0.0
 40
0.2206788892
 41
-1.6935424562
 42
-1.6264353618
  0
ELLIPSE
  5
2AF
100
AcDbEntity
  8
0
100
AcDbEllipse
 62
7
  6
BYLAYER
 10
30.5876409062
 20
70.8568732329
 30
0.0
 11
7.7264004309
 21
7.7467918457
 31
0.0
 40
0.130674701
 41
-1.7795669473
 42
-1.712459853
  0
ELLIPSE
  5
2B0
100
AcDbEntity
  8
0
100
AcDbEllipse
 62
7
  6
BYLAYER
 10
30.6546504973
 20
70.8568732329
 30
0.0
 11
7.8027481921
 21
7.8050083264
 31
0.0
 40
0.0432740808
 41
-1.8659325838
 42
-1.7988254894
  0
ELLIPSE
  5
2B1
100
AcDbEntity
  8
0
100
AcDbEllipse
 62
7
  6
BYLAYER
 10
26.4849009239
 20
70.8568732329
 30
0.0
 11
-7.8027481921
 21
7.8050083264
 31
0.0
 40
0.0432740808
 41
-4.4843598178
 42
-4.4172527234
  0
ELLIPSE
  5
2B2
100
AcDbEntity
  8
0
100
AcDbEllipse
 62
7
  6
BYLAYER
 10
26.5519105149
 20
70.8568732329
 30
0.0
 11
-7.7264004309
 21
7.7467918457
 31
0.0
 40
0.130674701
 41
-4.5707254542
 42
-4.5036183599
  0
ELLIPSE
  5
2B3
100
AcDbEntity
  8
0
100
AcDbEllipse
 62
7
  6
BYLAYER
 10
26.6837759537
 20
70.8568732329
 30
0.0
 11
-7.5743709651
 21
7.6313984435
 31
0.0
 40
0.2206788892
 41
-4.6567499453
 42
-4.589642851
  0
ELLIPSE
  5
2B4
100
AcDbEntity
  8
0
100
AcDbEllipse
 62
7
  6
BYLAYER
 10
26.8762589765
 20
70.8568732329
 30
0.0
 11
-7.3476587713
 21
7.4611649987
 31
0.0
 40
0.315182696
 41
1.5411006114
 42
1.6082077057
  0
ELLIPSE
  5
2B5
100
AcDbEntity
  8
0
100
AcDbEllipse
 62
7
  6
BYLAYER
 10
27.1231730205
 20
70.8568732329
 30
0.0
 11
-7.0466597578
 21
7.2404907802
 31
0.0
 40
0.4163458233
 41
1.4570789397
 42
1.524186034
  0
ELLIPSE
  5
2B6
100
AcDbEntity
  8
0
100
AcDbEllipse
 62
7
  6
BYLAYER
 10
27.4165820653
 20
70.8568732329
 30
0.0
 11
-6.6685500783
 21
6.9780819968
 31
0.0
 40
0.5267450305
 41
1.3757122777
 42
1.4428193721
  0
ELLIPSE
  5
2B7
100
AcDbEntity
  8
0
100
AcDbEllipse
 62
7
  6
BYLAYER
 10
27.7470557027
 20
70.8568732329
 30
0.0
 11
-6.197937693
 21
6.695058716
 31
0.0
 40
0.6495644904
 41
1.3006609551
 42
1.3677680495
  0
ELLIPSE
  5
2B8
100
AcDbEntity
  8
0
100
AcDbEllipse
 62
7
  6
BYLAYER
 10
28.103972238
 20
70.8568732329
 30
0.0
 11
-5.5530222093
 21
6.469413374
 31
0.0
 40
0.7886457323
 41
1.2469828185
 42
1.3140899128
  0
ELLIPSE
  5
2B9
100
AcDbEntity
  8
0
100
AcDbEllipse
 62
7
  6
BYLAYER
 10
28.4758600803
 20
70.8568732329
 30
0.0
 11
-3.4237190403
 21
7.1153262798
 31
0.0
 40
0.9421244918
 41
1.4164428607
 42
1.483549955
  0
ELLIPSE
  5
2BA
100
AcDbEntity
  8
0
100
AcDbEllipse
 62
7
  6
BYLAYER
 10
25.7417796636
 20
65.9241446843
 30
0.0
 11
7.7902843385
 21
7.794448427
 31
0.0
 40
0.0418408513
 41
1.2430384603
 42
1.3080256756
  0
ELLIPSE
  5
2BB
100
AcDbEntity
  8
0
100
AcDbEllipse
 62
7
  6
BYLAYER
 10
25.8326737834
 20
65.9241446843
 30
0.0
 11
7.7026497539
 21
7.7402006165
 31
0.0
 40
0.1264692835
 41
1.3322804057
 42
1.391428999
  0
ELLIPSE
  5
2BC
100
AcDbEntity
  8
0
100
AcDbEllipse
 62
7
  6
BYLAYER
 10
26.0115406113
 20
65.9241446843
 30
0.0
 11
7.5282167115
 21
7.6331288306
 31
0.0
 40
0.2139823
 41
1.4201220283
 42
1.4742207939
  0
ELLIPSE
  5
2BD
100
AcDbEntity
  8
0
100
AcDbEllipse
 62
7
  6
BYLAYER
 10
26.2726312202
 20
65.9241446843
 30
0.0
 11
7.268044928
 21
7.4765406722
 31
0.0
 40
0.3064555396
 41
1.5073955921
 42
1.5557693485
  0
ELLIPSE
  5
2BE
100
AcDbEntity
  8
0
100
AcDbEllipse
 62
7
  6
BYLAYER
 10
26.6075539431
 20
65.9241446843
 30
0.0
 11
6.9216984394
 21
7.2769696888
 31
0.0
 40
0.4062082967
 41
-4.6901738679
 42
-4.6482465329
  0
ELLIPSE
  5
2BF
100
AcDbEntity
  8
0
100
AcDbEllipse
 62
7
  6
BYLAYER
 10
27.0055440881
 20
65.9241446843
 30
0.0
 11
6.4824495915
 21
7.0480159323
 31
0.0
 40
0.5159191069
 41
-4.6079787463
 42
-4.573897721
  0
ELLIPSE
  5
2C0
100
AcDbEntity
  8
0
100
AcDbEllipse
 62
7
  6
BYLAYER
 10
27.4538099245
 20
65.9241446843
 30
0.0
 11
5.9202559579
 21
6.8236913888
 31
0.0
 40
0.6386759476
 41
-4.5344982847
 42
-4.5109550302
  0
ELLIPSE
  5
2C1
100
AcDbEntity
  8
0
100
AcDbEllipse
 62
7
  6
BYLAYER
 10
27.9379438195
 20
65.9241446843
 30
0.0
 11
5.0865149455
 21
6.7252967502
 31
0.0
 40
0.7772485561
 41
1.7902231974
 42
1.7976715889
  0
ELLIPSE
  5
2C2
100
AcDbEntity
  8
0
100
AcDbEllipse
 62
7
  6
BYLAYER
 10
27.7470557027
 20
70.8568732329
 30
0.0
 11
-6.197937693
 21
6.695058716
 31
0.0
 40
0.6495644904
 41
-2.4505663003
 42
-2.3834592059
  0
ELLIPSE
  5
2C3
100
AcDbEntity
  8
0
100
AcDbEllipse
 62
7
  6
BYLAYER
 10
27.6923445923
 20
65.9241446843
 30
0.0
 11
5.5603216015
 21
6.7418945421
 31
0.0
 40
0.7059151333
 41
-0.7390048479
 42
-0.7178024436
  0
ELLIPSE
  5
2C4
100
AcDbEntity
  8
0
100
AcDbEllipse
 62
7
  6
BYLAYER
 10
26.5519105149
 20
70.8568732329
 30
0.0
 11
-7.7264004309
 21
7.7467918457
 31
0.0
 40
0.130674701
 41
-2.0387674024
 42
-1.9716603081
  0
ELLIPSE
  5
2C5
100
AcDbEntity
  8
0
100
AcDbEllipse
 62
7
  6
BYLAYER
 10
29.4472068289
 20
65.9241446843
 30
0.0
 11
-5.5603216015
 21
6.7418945421
 31
0.0
 40
0.7059151333
 41
0.7178026724
 42
0.7390048479
  0
ELLIPSE
  5
2C6
100
AcDbEntity
  8
0
100
AcDbEllipse
 62
7
  6
BYLAYER
 10
27.4165820653
 20
70.8568732329
 30
0.0
 11
-6.6685500783
 21
6.9780819968
 31
0.0
 40
0.5267450305
 41
-2.3755149777
 42
-2.3084078833
  0
ELLIPSE
  5
2C7
100
AcDbEntity
  8
0
100
AcDbEllipse
 62
7
  6
BYLAYER
 10
26.4849009239
 20
70.8568732329
 30
0.0
 11
-7.8027481921
 21
7.8050083264
 31
0.0
 40
0.0432740808
 41
-1.952401766
 42
-1.8852946716
  0
ELLIPSE
  5
2C8
100
AcDbEntity
  8
0
100
AcDbEllipse
 62
7
  6
BYLAYER
 10
27.1231730205
 20
70.8568732329
 30
0.0
 11
-7.0466597578
 21
7.2404907802
 31
0.0
 40
0.4163458233
 41
-2.2941483157
 42
-2.2270412214
  0
ELLIPSE
  5
2C9
100
AcDbEntity
  8
0
100
AcDbEllipse
 62
7
  6
BYLAYER
 10
26.8762589765
 20
70.8568732329
 30
0.0
 11
-7.3476587713
 21
7.4611649987
 31
0.0
 40
0.315182696
 41
-2.210126644
 42
-2.1430195497
  0
ELLIPSE
  5
2CA
100
AcDbEntity
  8
0
100
AcDbEllipse
 62
7
  6
BYLAYER
 10
28.103972238
 20
70.8568732329
 30
0.0
 11
-5.5530222093
 21
6.469413374
 31
0.0
 40
0.7886457323
 41
-2.5042444369
 42
-2.4371373426
  0
ELLIPSE
  5
2CB
100
AcDbEntity
  8
0
100
AcDbEllipse
 62
7
  6
BYLAYER
 10
30.6546504973
 20
70.8568732329
 30
0.0
 11
7.8027481921
 21
7.8050083264
 31
0.0
 40
0.0432740808
 41
-4.3978906356
 42
-4.3307835412
  0
ELLIPSE
  5
2CC
100
AcDbEntity
  8
0
100
AcDbEllipse
 62
7
  6
BYLAYER
 10
30.5876409062
 20
70.8568732329
 30
0.0
 11
7.7264004309
 21
7.7467918457
 31
0.0
 40
0.130674701
 41
-4.3115249991
 42
-4.2444179047
  0
ELLIPSE
  5
2CD
100
AcDbEntity
  8
0
100
AcDbEllipse
 62
7
  6
BYLAYER
 10
30.4557754675
 20
70.8568732329
 30
0.0
 11
7.5743709651
 21
7.6313984435
 31
0.0
 40
0.2206788892
 41
-4.225500508
 42
-4.1583934136
  0
ELLIPSE
  5
2CE
100
AcDbEntity
  8
0
100
AcDbEllipse
 62
7
  6
BYLAYER
 10
30.2632924447
 20
70.8568732329
 30
0.0
 11
7.3476587713
 21
7.4611649987
 31
0.0
 40
0.315182696
 41
-4.1401657575
 42
-4.0730586632
  0
ELLIPSE
  5
2CF
100
AcDbEntity
  8
0
100
AcDbEllipse
 62
7
  6
BYLAYER
 10
30.0163784006
 20
70.8568732329
 30
0.0
 11
7.0466597578
 21
7.2404907802
 31
0.0
 40
0.4163458233
 41
-4.0561440858
 42
-3.9890369915
  0
ELLIPSE
  5
2D0
100
AcDbEntity
  8
0
100
AcDbEllipse
 62
7
  6
BYLAYER
 10
29.7229693559
 20
70.8568732329
 30
0.0
 11
6.6685500783
 21
6.9780819968
 31
0.0
 40
0.5267450305
 41
-3.9747774239
 42
-3.9076703295
  0
ELLIPSE
  5
2D1
100
AcDbEntity
  8
0
100
AcDbEllipse
 62
7
  6
BYLAYER
 10
29.3924957185
 20
70.8568732329
 30
0.0
 11
6.197937693
 21
6.695058716
 31
0.0
 40
0.6495644904
 41
-3.8997261013
 42
-3.8326190069
  0
ELLIPSE
  5
2D2
100
AcDbEntity
  8
0
100
AcDbEllipse
 62
7
  6
BYLAYER
 10
29.0355791831
 20
70.8568732329
 30
0.0
 11
5.5530222093
 21
6.469413374
 31
0.0
 40
0.7886457323
 41
-3.8460479646
 42
-3.7789408702
  0
ELLIPSE
  5
2D3
100
AcDbEntity
  8
0
100
AcDbEllipse
 62
7
  6
BYLAYER
 10
26.6837759537
 20
70.8568732329
 30
0.0
 11
-7.5743709651
 21
7.6313984435
 31
0.0
 40
0.2206788892
 41
-2.1247918936
 42
-2.0576847992
  0
ELLIPSE
  5
2D4
100
AcDbEntity
  8
0
100
AcDbEllipse
 62
7
  6
BYLAYER
 10
29.2016076016
 20
68.0029981729
 30
0.0
 11
5.0865149455
 21
6.7252967502
 31
0.0
 40
0.7772485561
 41
4.931815851
 42
4.9392642425
  0
ELLIPSE
  5
2D5
100
AcDbEntity
  8
0
100
AcDbEllipse
 62
7
  6
BYLAYER
 10
29.6857414966
 20
68.0029981729
 30
0.0
 11
5.9202559579
 21
6.8236913888
 31
0.0
 40
0.6386759476
 41
-1.3929056311
 42
-1.3693623766
  0
ELLIPSE
  5
2D6
100
AcDbEntity
  8
0
100
AcDbEllipse
 62
7
  6
BYLAYER
 10
30.1340073331
 20
68.0029981729
 30
0.0
 11
6.4824495915
 21
7.0480159323
 31
0.0
 40
0.5159191069
 41
-1.4663860927
 42
-1.4323050674
  0
ELLIPSE
  5
2D7
100
AcDbEntity
  8
0
100
AcDbEllipse
 62
7
  6
BYLAYER
 10
30.5319974781
 20
68.0029981729
 30
0.0
 11
6.9216984394
 21
7.2769696888
 31
0.0
 40
0.4062082967
 41
-1.5485812143
 42
-1.5066538794
  0
ELLIPSE
  5
2D8
100
AcDbEntity
  8
0
100
AcDbEllipse
 62
7
  6
BYLAYER
 10
30.866920201
 20
68.0029981729
 30
0.0
 11
7.268044928
 21
7.4765406722
 31
0.0
 40
0.3064555396
 41
-1.6341970615
 42
-1.5858233051
  0
ELLIPSE
  5
2D9
100
AcDbEntity
  8
0
100
AcDbEllipse
 62
7
  6
BYLAYER
 10
31.1280108099
 20
68.0029981729
 30
0.0
 11
7.5282167115
 21
7.6331288306
 31
0.0
 40
0.2139823
 41
-1.7214706253
 42
-1.6673718597
  0
ELLIPSE
  5
2DA
100
AcDbEntity
  8
0
100
AcDbEllipse
 62
7
  6
BYLAYER
 10
31.3068776378
 20
68.0029981729
 30
0.0
 11
7.7026497539
 21
7.7402006165
 31
0.0
 40
0.1264692835
 41
-1.8093122479
 42
-1.7501636546
  0
ELLIPSE
  5
2DB
100
AcDbEntity
  8
0
100
AcDbEllipse
 62
7
  6
BYLAYER
 10
31.3977717576
 20
68.0029981729
 30
0.0
 11
7.7902843385
 21
7.794448427
 31
0.0
 40
0.0418408513
 41
-1.8985541933
 42
-1.833566978
  0
ELLIPSE
  5
2DC
100
AcDbEntity
  8
0
100
AcDbEllipse
 62
7
  6
BYLAYER
 10
27.2242603571
 20
68.0029981729
 30
0.0
 11
-6.2207204371
 21
6.9314322382
 31
0.0
 40
0.5754627739
 41
1.3986340393
 42
1.3992151097
  0
ELLIPSE
  5
2DD
100
AcDbEntity
  8
0
100
AcDbEllipse
 62
7
  6
BYLAYER
 10
29.5617258368
 20
63.0702696242
 30
0.0
 11
-6.4469290971
 21
6.8367675082
 31
0.0
 40
0.5863744367
 41
-1.7414414488
 42
-1.7375222101
  0
ELLIPSE
  5
2DE
100
AcDbEntity
  8
0
100
AcDbEllipse
 62
7
  6
BYLAYER
 10
29.9152910641
 20
68.0029981729
 30
0.0
 11
6.2207204371
 21
6.9314322382
 31
0.0
 40
0.5754627739
 41
-1.3992150734
 42
-1.3986340393
  0
ELLIPSE
  5
2DF
100
AcDbEntity
  8
0
100
AcDbEllipse
 62
7
  6
BYLAYER
 10
27.5778255844
 20
63.0702696242
 30
0.0
 11
6.4469290971
 21
6.8367675082
 31
0.0
 40
0.5863744367
 41
1.7375222101
 42
1.7414418942
  0
ELLIPSE
  5
2E0
100
AcDbEntity
  8
0
100
AcDbEllipse
 62
7
  6
BYLAYER
 10
28.6636913409
 20
63.0702696242
 30
0.0
 11
-3.4237190403
 21
7.1153262798
 31
0.0
 40
0.9421244918
 41
-1.7251497929
 42
-1.6580426986
  0
ELLIPSE
  5
2E1
100
AcDbEntity
  8
0
100
AcDbEllipse
 62
7
  6
BYLAYER
 10
29.0355791831
 20
63.0702696242
 30
0.0
 11
-5.5530222093
 21
6.469413374
 31
0.0
 40
0.7886457323
 41
-1.8946098351
 42
-1.8275027408
  0
ELLIPSE
  5
2E2
100
AcDbEntity
  8
0
100
AcDbEllipse
 62
7
  6
BYLAYER
 10
29.3924957185
 20
63.0702696242
 30
0.0
 11
-6.197937693
 21
6.695058716
 31
0.0
 40
0.6495644904
 41
-1.8409316985
 42
-1.7738246041
  0
ELLIPSE
  5
2E3
100
AcDbEntity
  8
0
100
AcDbEllipse
 62
7
  6
BYLAYER
 10
29.7229693559
 20
63.0702696242
 30
0.0
 11
-6.6685500783
 21
6.9780819968
 31
0.0
 40
0.5267450305
 41
-1.7658803759
 42
-1.6987732815
  0
ELLIPSE
  5
2E4
100
AcDbEntity
  8
0
100
AcDbEllipse
 62
7
  6
BYLAYER
 10
27.9379438195
 20
68.0029981729
 30
0.0
 11
-5.0865149455
 21
6.7252967502
 31
0.0
 40
0.7772485561
 41
1.3439210647
 42
1.3513694391
  0
ELLIPSE
  5
2E5
100
AcDbEntity
  8
0
100
AcDbEllipse
 62
7
  6
BYLAYER
 10
30.0163784006
 20
63.0702696242
 30
0.0
 11
-7.0466597578
 21
7.2404907802
 31
0.0
 40
0.4163458233
 41
-1.6845137139
 42
-1.6174066196
  0
ELLIPSE
  5
2E6
100
AcDbEntity
  8
0
100
AcDbEllipse
 62
7
  6
BYLAYER
 10
27.4538099245
 20
68.0029981729
 30
0.0
 11
-5.9202559579
 21
6.8236913888
 31
0.0
 40
0.6386759476
 41
1.3693623766
 42
1.3929055945
  0
ELLIPSE
  5
2E7
100
AcDbEntity
  8
0
100
AcDbEllipse
 62
7
  6
BYLAYER
 10
30.2632924447
 20
63.0702696242
 30
0.0
 11
-7.3476587713
 21
7.4611649987
 31
0.0
 40
0.315182696
 41
-1.6004920422
 42
-1.5333849479
  0
ELLIPSE
  5
2E8
100
AcDbEntity
  8
0
100
AcDbEllipse
 62
7
  6
BYLAYER
 10
27.0055440881
 20
68.0029981729
 30
0.0
 11
-6.4824495915
 21
7.0480159323
 31
0.0
 40
0.5159191069
 41
1.4323050674
 42
1.4663860814
  0
ELLIPSE
  5
2E9
100
AcDbEntity
  8
0
100
AcDbEllipse
 62
7
  6
BYLAYER
 10
30.4557754675
 20
63.0702696242
 30
0.0
 11
-7.5743709651
 21
7.6313984435
 31
0.0
 40
0.2206788892
 41
-1.5151572918
 42
-1.4480501974
  0
ELLIPSE
  5
2EA
100
AcDbEntity
  8
0
100
AcDbEllipse
 62
7
  6
BYLAYER
 10
26.6075539431
 20
68.0029981729
 30
0.0
 11
-6.9216984394
 21
7.2769696888
 31
0.0
 40
0.4062082967
 41
1.5066538794
 42
1.5485811738
  0
ELLIPSE
  5
2EB
100
AcDbEntity
  8
0
100
AcDbEllipse
 62
7
  6
BYLAYER
 10
30.5876409062
 20
63.0702696242
 30
0.0
 11
-7.7264004309
 21
7.7467918457
 31
0.0
 40
0.130674701
 41
-1.4291328006
 42
-1.3620257063
  0
ELLIPSE
  5
2EC
100
AcDbEntity
  8
0
100
AcDbEllipse
 62
7
  6
BYLAYER
 10
26.2726312202
 20
68.0029981729
 30
0.0
 11
-7.268044928
 21
7.4765406722
 31
0.0
 40
0.3064555396
 41
-4.6973620021
 42
-4.6489879641
  0
ELLIPSE
  5
2ED
100
AcDbEntity
  8
0
100
AcDbEllipse
 62
7
  6
BYLAYER
 10
30.6546504973
 20
63.0702696242
 30
0.0
 11
-7.8027481921
 21
7.8050083264
 31
0.0
 40
0.0432740808
 41
-1.3427671642
 42
-1.2756600698
  0
ELLIPSE
  5
2EE
100
AcDbEntity
  8
0
100
AcDbEllipse
 62
7
  6
BYLAYER
 10
26.0115406113
 20
68.0029981729
 30
0.0
 11
-7.5282167115
 21
7.6331288306
 31
0.0
 40
0.2139823
 41
-4.6158134475
 42
-4.5617144488
  0
ELLIPSE
  5
2EF
100
AcDbEntity
  8
0
100
AcDbEllipse
 62
7
  6
BYLAYER
 10
25.7417796636
 20
68.0029981729
 30
0.0
 11
-7.7902843385
 21
7.794448427
 31
0.0
 40
0.0418408513
 41
-4.4496183291
 42
-4.3846310478
  0
ELLIPSE
  5
2F0
100
AcDbEntity
  8
0
100
AcDbEllipse
 62
7
  6
BYLAYER
 10
28.4758600803
 20
63.0702696242
 30
0.0
 11
3.4237190403
 21
7.1153262798
 31
0.0
 40
0.9421244918
 41
-4.6251426086
 42
-4.5580355142
  0
ELLIPSE
  5
2F1
100
AcDbEntity
  8
0
100
AcDbEllipse
 62
7
  6
BYLAYER
 10
28.103972238
 20
63.0702696242
 30
0.0
 11
5.5530222093
 21
6.469413374
 31
0.0
 40
0.7886457323
 41
-4.4556825664
 42
-4.388575472
  0
ELLIPSE
  5
2F2
100
AcDbEntity
  8
0
100
AcDbEllipse
 62
7
  6
BYLAYER
 10
27.7470557027
 20
63.0702696242
 30
0.0
 11
6.197937693
 21
6.695058716
 31
0.0
 40
0.6495644904
 41
-4.5093607031
 42
-4.4422536087
  0
ELLIPSE
  5
2F3
100
AcDbEntity
  8
0
100
AcDbEllipse
 62
7
  6
BYLAYER
 10
27.4165820653
 20
63.0702696242
 30
0.0
 11
6.6685500783
 21
6.9780819968
 31
0.0
 40
0.5267450305
 41
-4.5844120257
 42
-4.5173049313
  0
ELLIPSE
  5
2F4
100
AcDbEntity
  8
0
100
AcDbEllipse
 62
7
  6
BYLAYER
 10
27.1231730205
 20
63.0702696242
 30
0.0
 11
7.0466597578
 21
7.2404907802
 31
0.0
 40
0.4163458233
 41
-4.6657786876
 42
-4.5986715933
  0
ELLIPSE
  5
2F5
100
AcDbEntity
  8
0
100
AcDbEllipse
 62
7
  6
BYLAYER
 10
26.8762589765
 20
63.0702696242
 30
0.0
 11
7.3476587713
 21
7.4611649987
 31
0.0
 40
0.315182696
 41
1.5333849479
 42
1.6004920422
  0
ELLIPSE
  5
2F6
100
AcDbEntity
  8
0
100
AcDbEllipse
 62
7
  6
BYLAYER
 10
26.6837759537
 20
63.0702696242
 30
0.0
 11
7.5743709651
 21
7.6313984435
 31
0.0
 40
0.2206788892
 41
1.4480501974
 42
1.5151572918
  0
ELLIPSE
  5
2F7
100
AcDbEntity
  8
0
100
AcDbEllipse
 62
7
  6
BYLAYER
 10
26.5519105149
 20
63.0702696242
 30
0.0
 11
7.7264004309
 21
7.7467918457
 31
0.0
 40
0.130674701
 41
1.3620257063
 42
1.4291328006
  0
ELLIPSE
  5
2F8
100
AcDbEntity
  8
0
100
AcDbEllipse
 62
7
  6
BYLAYER
 10
26.4849009239
 20
63.0702696242
 30
0.0
 11
7.8027481921
 21
7.8050083264
 31
0.0
 40
0.0432740808
 41
1.2756600698
 42
1.3427671642
  0
ELLIPSE
  5
2F9
100
AcDbEntity
  8
0
100
AcDbEllipse
 62
7
  6
BYLAYER
 10
25.8326737834
 20
68.0029981729
 30
0.0
 11
-7.7026497539
 21
7.7402006165
 31
0.0
 40
0.1264692835
 41
-4.5330216526
 42
-4.4738728805
  0
ELLIPSE
  5
2FA
100
AcDbEntity
  8
0
100
AcDbEllipse
 62
7
  6
BYLAYER
 10
29.0355791831
 20
63.0702696242
 30
0.0
 11
-5.5530222093
 21
6.469413374
 31
0.0
 40
0.7886457323
 41
0.6373482167
 42
0.704455311
  0
ELLIPSE
  5
2FB
100
AcDbEntity
  8
0
100
AcDbEllipse
 62
7
  6
BYLAYER
 10
29.3924957185
 20
63.0702696242
 30
0.0
 11
-6.197937693
 21
6.695058716
 31
0.0
 40
0.6495644904
 41
0.6910263533
 42
0.7581334477
  0
ELLIPSE
  5
2FC
100
AcDbEntity
  8
0
100
AcDbEllipse
 62
7
  6
BYLAYER
 10
27.6923445923
 20
68.0029981729
 30
0.0
 11
-5.5603216015
 21
6.7418945421
 31
0.0
 40
0.7059151333
 41
-2.4237899812
 42
-2.4025878057
  0
ELLIPSE
  5
2FD
100
AcDbEntity
  8
0
100
AcDbEllipse
 62
7
  6
BYLAYER
 10
29.7229693559
 20
63.0702696242
 30
0.0
 11
-6.6685500783
 21
6.9780819968
 31
0.0
 40
0.5267450305
 41
0.7660776759
 42
0.8331847703
  0
ELLIPSE
  5
2FE
100
AcDbEntity
  8
0
100
AcDbEllipse
 62
7
  6
BYLAYER
 10
30.0163784006
 20
63.0702696242
 30
0.0
 11
-7.0466597578
 21
7.2404907802
 31
0.0
 40
0.4163458233
 41
0.8474443379
 42
0.9145514322
  0
ELLIPSE
  5
2FF
100
AcDbEntity
  8
0
100
AcDbEllipse
 62
7
  6
BYLAYER
 10
30.2632924447
 20
63.0702696242
 30
0.0
 11
-7.3476587713
 21
7.4611649987
 31
0.0
 40
0.315182696
 41
0.9314660096
 42
0.9985731039
  0
ELLIPSE
  5
300
100
AcDbEntity
  8
0
100
AcDbEllipse
 62
7
  6
BYLAYER
 10
29.4472068289
 20
68.0029981729
 30
0.0
 11
5.5603216015
 21
6.7418945421
 31
0.0
 40
0.7059151333
 41
-3.8805975015
 42
-3.8593950972
  0
ELLIPSE
  5
301
100
AcDbEntity
  8
0
100
AcDbEllipse
 62
7
  6
BYLAYER
 10
30.6546504973
 20
63.0702696242
 30
0.0
 11
-7.8027481921
 21
7.8050083264
 31
0.0
 40
0.0432740808
 41
1.1891908876
 42
1.256297982
  0
ELLIPSE
  5
302
100
AcDbEntity
  8
0
100
AcDbEllipse
 62
7
  6
BYLAYER
 10
30.4557754675
 20
63.0702696242
 30
0.0
 11
-7.5743709651
 21
7.6313984435
 31
0.0
 40
0.2206788892
 41
1.01680076
 42
1.0839078544
  0
ELLIPSE
  5
303
100
AcDbEntity
  8
0
100
AcDbEllipse
 62
7
  6
BYLAYER
 10
26.4849009239
 20
63.0702696242
 30
0.0
 11
7.8027481921
 21
7.8050083264
 31
0.0
 40
0.0432740808
 41
-1.256297982
 42
-1.1891908876
  0
ELLIPSE
  5
304
100
AcDbEntity
  8
0
100
AcDbEllipse
 62
7
  6
BYLAYER
 10
26.5519105149
 20
63.0702696242
 30
0.0
 11
7.7264004309
 21
7.7467918457
 31
0.0
 40
0.130674701
 41
-1.1699323455
 42
-1.1028252511
  0
ELLIPSE
  5
305
100
AcDbEntity
  8
0
100
AcDbEllipse
 62
7
  6
BYLAYER
 10
26.6837759537
 20
63.0702696242
 30
0.0
 11
7.5743709651
 21
7.6313984435
 31
0.0
 40
0.2206788892
 41
-1.0839078544
 42
-1.01680076
  0
ELLIPSE
  5
306
100
AcDbEntity
  8
0
100
AcDbEllipse
 62
7
  6
BYLAYER
 10
26.8762589765
 20
63.0702696242
 30
0.0
 11
7.3476587713
 21
7.4611649987
 31
0.0
 40
0.315182696
 41
-0.9985731039
 42
-0.9314660096
  0
ELLIPSE
  5
307
100
AcDbEntity
  8
0
100
AcDbEllipse
 62
7
  6
BYLAYER
 10
27.1231730205
 20
63.0702696242
 30
0.0
 11
7.0466597578
 21
7.2404907802
 31
0.0
 40
0.4163458233
 41
-0.9145514322
 42
-0.8474443379
  0
ELLIPSE
  5
308
100
AcDbEntity
  8
0
100
AcDbEllipse
 62
7
  6
BYLAYER
 10
27.4165820653
 20
63.0702696242
 30
0.0
 11
6.6685500783
 21
6.9780819968
 31
0.0
 40
0.5267450305
 41
-0.8331847703
 42
-0.7660776759
  0
ELLIPSE
  5
309
100
AcDbEntity
  8
0
100
AcDbEllipse
 62
7
  6
BYLAYER
 10
27.7470557027
 20
63.0702696242
 30
0.0
 11
6.197937693
 21
6.695058716
 31
0.0
 40
0.6495644904
 41
-0.7581334477
 42
-0.6910263533
  0
ELLIPSE
  5
30A
100
AcDbEntity
  8
0
100
AcDbEllipse
 62
7
  6
BYLAYER
 10
28.103972238
 20
63.0702696242
 30
0.0
 11
5.5530222093
 21
6.469413374
 31
0.0
 40
0.7886457323
 41
-0.704455311
 42
-0.6373482167
  0
ELLIPSE
  5
30B
100
AcDbEntity
  8
0
100
AcDbEllipse
 62
7
  6
BYLAYER
 10
30.5876409062
 20
63.0702696242
 30
0.0
 11
-7.7264004309
 21
7.7467918457
 31
0.0
 40
0.130674701
 41
1.1028252511
 42
1.1699323455
  0
ENDSEC
  0
SECTION
  2
OBJECTS
  0
DICTIONARY
  5
C
100
AcDbDictionary
280
0
281
1
  3
ACAD_GROUP
350
D
  3
ACAD_MLINESTYLE
350
17
  3
ACAD_LAYOUT
350
1A
  3
ACAD_PLOTSETTINGS
350
19
  3
ACAD_PLOTSTYLENAME
350
E
  0
DICTIONARY
  5
D
102
{ACAD_REACTORS
330
C
102
}
100
AcDbDictionary
280
0
281
1
  0
ACDBDICTIONARYWDFLT
  5
E
102
{ACAD_REACTORS
330
C
102
}
100
AcDbDictionary
281
1
  3
Normal
350
F
100
AcDbDictionaryWithDefault
340
F
  0
DICTIONARY
  5
17
102
{ACAD_REACTORS
330
C
102
}
100
AcDbDictionary
280
0
281
1
  3
Standard
350
18
  0
DICTIONARY
  5
19
102
{ACAD_REACTORS
330
C
102
}
100
AcDbDictionary
281
1
  0
DICTIONARY
  5
1A
102
{ACAD_REACTORS
330
C
102
}
100
AcDbDictionary
281
1
  3
Model
350
30C
  3
Layout1
350
30D
  0
ACDBPLACEHOLDER
  5
F
102
{ACAD_REACTORS
330
E
102
}
  0
MLINESTYLE
  5
18
102
{ACAD_REACTORS
330
17
102
}
100
AcDbMlineStyle
  2
STANDARD
 70
0
  3

 62
256
 51
90.0
 52
90.0
 71
2
 49
0.5
 62
256
  6
BYLAYER
 49
-0.5
 62
256
  6
BYLAYER
  0
LAYOUT
  5
30C
102
{ACAD_REACTORS
330
1A
102
}
100
AcDbPlotSettings
  1

  2
none_device
  4

  6

 40
0.0
 41
0.0
 42
0.0
 43
0.0
 44
210.0
 45
297.0
 46
0.0
 47
0.0
 48
0.0
 49
0.0
140
0.0
141
0.0
142
1.0
143
1.0
 70
1024
 72
1
 73
0
 74
0
  7

 75
0
147
1.0
148
0.0
149
0.0
100
AcDbLayout
  1
Model
 70
0
 71
0
 10
0.0
 20
0.0
 11
210.0
 21
297.0
 12
0.0
 22
0.0
 32
0.0
 14
0.0
 24
0.0
 34
0.0
 15
0.0
 25
0.0
 35
0.0
146
0.0
 13
0.0
 23
0.0
 33
0.0
 16
1.0
 26
0.0
 36
0.0
 17
0.0
 27
1.0
 37
0.0
 76
0
330
210
345
0
346
0
  0
LAYOUT
  5
30D
102
{ACAD_REACTORS
330
1A
102
}
100
AcDbPlotSettings
  1

  2
none_device
  4

  6

 40
0.0
 41
0.0
 42
0.0
 43
0.0
 44
210.0
 45
297.0
 46
0.0
 47
0.0
 48
0.0
 49
0.0
140
0.0
141
0.0
142
1.0
143
1.0
 70
0
 72
1
 73
0
 74
0
  7

 75
0
147
1.0
148
0.0
149
0.0
100
AcDbLayout
  1
Layout1
 70
0
 71
1
 10
0.0
 20
0.0
 11
210.0
 21
297.0
 12
0.0
 22
0.0
 32
0.0
 14
0.0
 24
0.0
 34
0.0
 15
0.0
 25
0.0
 35
0.0
146
0.0
 13
0.0
 23
0.0
 33
0.0
 16
1.0
 26
0.0
 36
0.0
 17
0.0
 27
1.0
 37
0.0
 76
0
330
211
345
0
346
0
  0
ENDSEC
  0
EOF
