999
DXF file: C:\Users\sesa63760\Dev\_Creo\CAD\MCADID0000333_3D-CAD\drw0001_1.dxf
999
Pro/ENGINEER 2019471 by Parametric Technology Corporation
  0
SECTION
  2
HEADER
  9
$ACADVER
  1
AC1024
  9
$DWGCODEPAGE
  3
ANSI_1252
  9
$EXTMAX
 10
210.8714701228
 20
298.2325077451
 30
0.0
  9
$EXTMIN
 10
0.0
 20
0.0
 30
0.0
  9
$LIMMIN
 10
0.0
 20
0.0
  9
$LIMMAX
 10
210.8714701228
 20
298.2325077451
  9
$VIEWCTR
 10
105.4357350614
 20
149.1162538725
  9
$VIEWSIZE
 40
298.2325077451
  9
$CLAYER
  8
0
  9
$LTSCALE
 40
19.4403412456
  9
$CELTYPE
  6
BYLAYER
  9
$DIMSCALE
 40
1.0
  9
$DIMASZ
 40
2.5103746443
  9
$DIMEXO
 40
1.0
  9
$DIMDLI
 40
13.431508497
  9
$DIMEXE
 40
1.0
  9
$DIMCEN
 40
3.1811467493
  9
$DIMLFAC
 40
1.0
  9
$DIMBLK
  1
_FILLED
  9
$DIMALT
 70
0
  9
$DIMALTF
 40
0.0393700787
  9
$DIMTXT
 40
3.514524502
  9
$DIMTOL
 70
1
  9
$DIMLIM
 70
0
  9
$DIMTFAC
 40
1.0
  9
$DIMTP
 40
0.01
  9
$DIMTM
 40
0.01
  9
$DIMGAP
 40
0.625
  9
$DIMDSEP
 70
46
  9
$AUNITS
 70
0
  9
$PDMODE
 70
3
  9
$PDSIZE
 40
0.3125
  9
$HANDSEED
  5
3DA
  9
$TILEMODE
 70
1
  9
$MEASUREMENT
 70
1
  9
$INSUNITS
 70
4
  0
ENDSEC
  0
SECTION
  2
CLASSES
  0
CLASS
  1
ACDBDICTIONARYWDFLT
  2
AcDbDictionaryWithDefault
  3
AutoCAD 2000
 90
0
 91
1
280
0
281
0
  0
CLASS
  1
ACDBPLACEHOLDER
  2
AcDbPlaceHolder
  3
AutoCAD 2000
 90
0
 91
1
280
0
281
0
  0
CLASS
  1
LAYOUT
  2
AcDbLayout
  3
AutoCAD 2000
 90
0
 91
0
280
0
281
0
  0
ENDSEC
  0
SECTION
  2
TABLES
  0
TABLE
  2
VPORT
  5
8
100
AcDbSymbolTable
 70
2
  0
VPORT
  5
1F4
100
AcDbSymbolTableRecord
100
AcDbViewportTableRecord
  2
*ACTIVE
 70
0
 10
0.0
 20
0.0
 11
1.0
 21
1.0
 12
105.4357350614
 22
149.1162538725
 13
0.0
 23
0.0
 14
1.0
 24
1.0
 15
0.0
 25
0.0
 16
0.0
 26
0.0
 36
1.0
 17
0.0
 27
0.0
 37
0.0
 40
298.2325077451
 41
0.7070707071
 42
50.0
 43
0.0
 44
0.0
 50
0.0
 51
0.0
 71
0
 72
100
 73
1
 74
1
 75
0
 76
0
 77
0
 78
0
  0
ENDTAB
  0
TABLE
  2
LTYPE
  5
5
100
AcDbSymbolTable
 70
6
  0
LTYPE
  5
14
100
AcDbSymbolTableRecord
100
AcDbLinetypeTableRecord
  2
BYBLOCK
 70
0
  3

 72
65
 73
0
 40
0.0
  0
LTYPE
  5
15
100
AcDbSymbolTableRecord
100
AcDbLinetypeTableRecord
  2
BYLAYER
 70
0
  3

 72
65
 73
0
 40
0.0
  0
LTYPE
  5
16
100
AcDbSymbolTableRecord
100
AcDbLinetypeTableRecord
  2
CONTINUOUS
 70
64
  3
Solid line
 72
65
 73
0
 40
0.0
  0
LTYPE
  5
1F5
100
AcDbSymbolTableRecord
100
AcDbLinetypeTableRecord
  2
CENTER
 70
64
  3
____ _ ____ _ ____ _ ____ _ ____ _ ____ _ ____
 72
65
 73
4
 40
0.6
 49
0.375
 74
0
 49
-0.075
 74
0
 49
0.075
 74
0
 49
-0.075
 74
0
  0
LTYPE
  5
1F6
100
AcDbSymbolTableRecord
100
AcDbLinetypeTableRecord
  2
HIDDEN
 70
64
  3
- - - - - - - - - - - - - - - - - - - -
 72
65
 73
2
 40
0.2
 49
0.1
 74
0
 49
-0.1
 74
0
  0
LTYPE
  5
1F7
100
AcDbSymbolTableRecord
100
AcDbLinetypeTableRecord
  2
PHANTOM
 70
64
  3
_____ _ _ _____ _ _ _____ _ _ _____
 72
65
 73
6
 40
0.8
 49
0.45
 74
0
 49
-0.05
 74
0
 49
0.1
 74
0
 49
-0.05
 74
0
 49
0.1
 74
0
 49
-0.05
 74
0
  0
LTYPE
  5
1F8
100
AcDbSymbolTableRecord
100
AcDbLinetypeTableRecord
  2
DOT
 70
64
  3
. . . . . . . . . . . . . . . . . . . .
 72
65
 73
2
 40
0.2
 49
0.1
 74
0
 49
-0.1
 74
0
  0
LTYPE
  5
1F9
100
AcDbSymbolTableRecord
100
AcDbLinetypeTableRecord
  2
DASHED
 70
64
  3
- - - - - - - - - - - - - - - - - - - -
 72
65
 73
2
 40
0.2
 49
0.1
 74
0
 49
-0.1
 74
0
  0
ENDTAB
  0
TABLE
  2
LAYER
  5
2
100
AcDbSymbolTable
 70
36
  0
LAYER
  5
10
100
AcDbSymbolTableRecord
100
AcDbLayerTableRecord
  2
0
 70
0
 62
7
  6
CONTINUOUS
370
-3
390
F
  0
LAYER
  5
1FA
100
AcDbSymbolTableRecord
100
AcDbLayerTableRecord
  2
DEFAULT_1
 70
0
 62
7
  6
CENTER
370
-3
390
F
  0
LAYER
  5
1FB
100
AcDbSymbolTableRecord
100
AcDbLayerTableRecord
  2
DEFAULT_2
 70
0
 62
8
  6
HIDDEN
370
-3
390
F
  0
LAYER
  5
1FC
100
AcDbSymbolTableRecord
100
AcDbLayerTableRecord
  2
DEFAULT_3
 70
0
 62
7
  6
PHANTOM
370
-3
390
F
  0
LAYER
  5
1FD
100
AcDbSymbolTableRecord
100
AcDbLayerTableRecord
  2
00_COMPONENTS
 70
0
 62
7
  6
CONTINUOUS
370
-3
390
F
  0
LAYER
  5
1FE
100
AcDbSymbolTableRecord
100
AcDbLayerTableRecord
  2
01_1_DEFAULT_DATUMS
 70
0
 62
7
  6
CONTINUOUS
370
-3
390
F
  0
LAYER
  5
1FF
100
AcDbSymbolTableRecord
100
AcDbLayerTableRecord
  2
01_PLANES
 70
0
 62
7
  6
CONTINUOUS
370
-3
390
F
  0
LAYER
  5
200
100
AcDbSymbolTableRecord
100
AcDbLayerTableRecord
  2
02_COORD_SYS
 70
0
 62
7
  6
CONTINUOUS
370
-3
390
F
  0
LAYER
  5
201
100
AcDbSymbolTableRecord
100
AcDbLayerTableRecord
  2
03_AXES
 70
0
 62
7
  6
CONTINUOUS
370
-3
390
F
  0
LAYER
  5
202
100
AcDbSymbolTableRecord
100
AcDbLayerTableRecord
  2
04_POINTS
 70
0
 62
7
  6
CONTINUOUS
370
-3
390
F
  0
LAYER
  5
203
100
AcDbSymbolTableRecord
100
AcDbLayerTableRecord
  2
05_CURVES
 70
0
 62
7
  6
CONTINUOUS
370
-3
390
F
  0
LAYER
  5
204
100
AcDbSymbolTableRecord
100
AcDbLayerTableRecord
  2
06_SURFS
 70
0
 62
7
  6
CONTINUOUS
370
-3
390
F
  0
LAYER
  5
205
100
AcDbSymbolTableRecord
100
AcDbLayerTableRecord
  2
07_COSMETICS
 70
0
 62
7
  6
CONTINUOUS
370
-3
390
F
  0
LAYER
  5
206
100
AcDbSymbolTableRecord
100
AcDbLayerTableRecord
  2
10_NOTES
 70
0
 62
7
  6
CONTINUOUS
370
-3
390
F
  0
LAYER
  5
207
100
AcDbSymbolTableRecord
100
AcDbLayerTableRecord
  2
11_NOTES_PUB
 70
0
 62
7
  6
CONTINUOUS
370
-3
390
F
  0
LAYER
  5
208
100
AcDbSymbolTableRecord
100
AcDbLayerTableRecord
  2
13_REF_GTOL
 70
0
 62
7
  6
CONTINUOUS
370
-3
390
F
  0
LAYER
  5
209
100
AcDbSymbolTableRecord
100
AcDbLayerTableRecord
  2
16_MISC
 70
0
 62
7
  6
CONTINUOUS
370
-3
390
F
  0
LAYER
  5
20A
100
AcDbSymbolTableRecord
100
AcDbLayerTableRecord
  2
17_NO_PRINT
 70
0
 62
7
  6
CONTINUOUS
370
-3
390
F
  0
LAYER
  5
20B
100
AcDbSymbolTableRecord
100
AcDbLayerTableRecord
  2
18_DATUM_CAMS_JOINTS
 70
0
 62
7
  6
CONTINUOUS
370
-3
390
F
  0
LAYER
  5
20C
100
AcDbSymbolTableRecord
100
AcDbLayerTableRecord
  2
19_DATUM_FUNCTIONAL
 70
0
 62
7
  6
CONTINUOUS
370
-3
390
F
  0
LAYER
  5
20D
100
AcDbSymbolTableRecord
100
AcDbLayerTableRecord
  2
20_DATUM_KINEMATIC_SCHEME
 70
0
 62
7
  6
CONTINUOUS
370
-3
390
F
  0
ENDTAB
  0
TABLE
  2
STYLE
  5
3
100
AcDbSymbolTable
 70
1
  0
STYLE
  5
11
100
AcDbSymbolTableRecord
100
AcDbTextStyleTableRecord
  2
STANDARD
 70
0
 40
0.0
 41
0.8
 50
0.0
 71
0
 42
0.2
  3
txt
  4

  0
STYLE
  5
20E
100
AcDbSymbolTableRecord
100
AcDbTextStyleTableRecord
  2
TEXTSTYLE_1
 70
0
 40
0.0
 41
0.8
 50
0.0
 71
0
 42
0.2
  3
gdt
  4

  0
ENDTAB
  0
TABLE
  2
VIEW
  5
6
100
AcDbSymbolTable
 70
0
  0
ENDTAB
  0
TABLE
  2
UCS
  5
7
100
AcDbSymbolTable
 70
0
  0
ENDTAB
  0
TABLE
  2
APPID
  5
9
100
AcDbSymbolTable
 70
1
  0
APPID
  5
20F
100
AcDbSymbolTableRecord
100
AcDbRegAppTableRecord
  2
ACAD
 70
0
  0
ENDTAB
  0
TABLE
  2
BLOCK_RECORD
  5
1
100
AcDbSymbolTable
 70
0
  0
BLOCK_RECORD
  5
210
100
AcDbSymbolTableRecord
100
AcDbBlockTableRecord
  2
*Model_Space
  0
BLOCK_RECORD
  5
211
100
AcDbSymbolTableRecord
100
AcDbBlockTableRecord
  2
*Paper_Space
  0
BLOCK_RECORD
  5
212
100
AcDbSymbolTableRecord
100
AcDbBlockTableRecord
  2
_FILLED
  0
ENDTAB
  0
TABLE
  2
DIMSTYLE
  5
A
100
AcDbSymbolTable
 70
1
100
AcDbDimStyleTable
 71
0
  0
DIMSTYLE
105
213
100
AcDbSymbolTableRecord
100
AcDbDimStyleTableRecord
  2
STANDARD
 70
0
  3

  4

 40
1.0
 41
2.5103746443
 42
1.0
 43
0.38
 44
1.0
 45
0.0
 46
0.0
 47
0.01
 48
0.01
140
3.514524502
141
0.09
142
0.0
143
25.4
144
1.0
145
0.0
146
1.0
147
0.625
 71
1
 72
0
 73
0
 74
0
 75
0
 76
0
 77
1
 78
8
 79
2
170
0
171
1
172
0
173
0
174
0
175
0
176
0
177
0
178
0
270
2
179
2
271
2
272
2
273
2
274
2
275
0
280
0
281
0
282
0
283
1
284
8
285
0
286
0
287
3
288
0
340
11
278
46
341
212
342
212
343
212
344
212
  0
ENDTAB
  0
ENDSEC
  0
SECTION
  2
BLOCKS
  0
BLOCK
  5
20
100
AcDbEntity
  8
0
100
AcDbBlockBegin
  2
*Model_Space
 70
0
 10
0.0
 20
0.0
 30
0.0
  3
*Model_Space
  1

  0
ENDBLK
  5
21
100
AcDbEntity
  8
0
100
AcDbBlockEnd
  0
BLOCK
  5
1C
100
AcDbEntity
  8
0
100
AcDbBlockBegin
  2
*Paper_Space
 70
0
 10
0.0
 20
0.0
 30
0.0
  3
*Paper_Space
  1

  0
ENDBLK
  5
1D
100
AcDbEntity
  8
0
100
AcDbBlockEnd
  0
BLOCK
  5
214
100
AcDbEntity
  8
0
100
AcDbBlockBegin
  2
_FILLED
 70
64
 10
0.0
 20
0.0
  3
_FILLED
  1

  0
SOLID
  5
215
100
AcDbEntity
  8
0
  6
BYBLOCK
 62
0
100
AcDbTrace
 10
0.0
 20
0.0
 11
-1.0
 21
0.25
 12
-1.0
 22
-0.25
 13
-1.0
 23
-0.25
  0
ENDBLK
  5
216
100
AcDbEntity
  8
0
  6
BYBLOCK
 62
0
100
AcDbBlockEnd
  0
ENDSEC
  0
SECTION
  2
ENTITIES
  0
LINE
  5
217
100
AcDbEntity
  8
0
100
AcDbLine
 62
7
  6
CONTINUOUS
 10
33.8063578723
 20
132.4807315837
 11
33.8063578723
 21
144.1953933936
  0
LINE
  5
218
100
AcDbEntity
  8
0
100
AcDbLine
 62
7
  6
CONTINUOUS
 10
34.5757240906
 20
207.1685962627
 11
34.5757240906
 21
194.9319023313
  0
LINE
  5
219
100
AcDbEntity
  8
0
100
AcDbLine
 62
7
  6
CONTINUOUS
 10
33.8162948569
 20
153.8942302752
 11
35.7529188717
 21
167.9158860339
  0
LINE
  5
21A
100
AcDbEntity
  8
0
100
AcDbLine
 62
7
  6
CONTINUOUS
 10
36.1044276795
 20
171.3315501562
 11
36.1044276795
 21
178.9129297303
  0
LINE
  5
21B
100
AcDbEntity
  8
0
100
AcDbLine
 62
7
  6
CONTINUOUS
 10
37.3419064981
 20
142.154189621
 11
37.3419064981
 21
130.4395278111
  0
LINE
  5
21C
100
AcDbEntity
  8
0
100
AcDbLine
 62
7
  6
CONTINUOUS
 10
41.7613054807
 20
179.7295157798
 11
41.7613054807
 21
168.7406788194
  0
LINE
  5
21D
100
AcDbEntity
  8
0
100
AcDbLine
 62
7
  6
CONTINUOUS
 10
39.2884674974
 20
165.8746822613
 11
37.3518434826
 21
151.8530265026
  0
LINE
  5
21E
100
AcDbEntity
  8
0
100
AcDbLine
 62
7
  6
CONTINUOUS
 10
39.6399468656
 20
185.0366625853
 11
41.8776839203
 21
186.3286129643
  0
LINE
  5
21F
100
AcDbEntity
  8
0
100
AcDbLine
 62
7
  6
CONTINUOUS
 10
43.7110529489
 20
179.7295276775
 11
43.7110529489
 21
183.4854387963
  0
LINE
  5
220
100
AcDbEntity
  8
0
100
AcDbLine
 62
7
  6
CONTINUOUS
 10
44.5897414373
 20
178.5047952159
 11
44.5897414373
 21
182.2607063347
  0
LINE
  5
221
100
AcDbEntity
  8
0
100
AcDbLine
 62
7
  6
CONTINUOUS
 10
44.8110529489
 20
183.4854387963
 11
44.8110529489
 21
184.5125103875
  0
LINE
  5
222
100
AcDbEntity
  8
0
100
AcDbLine
 62
7
  6
CONTINUOUS
 10
50.9537348515
 20
194.8325251392
 11
50.9537348515
 21
180.7094633373
  0
LINE
  5
223
100
AcDbEntity
  8
0
100
AcDbLine
 62
7
  6
CONTINUOUS
 10
43.7110529489
 20
180.855196286
 11
41.7613054807
 21
179.7295157798
  0
LINE
  5
224
100
AcDbEntity
  8
0
100
AcDbLine
 62
7
  6
CONTINUOUS
 10
141.7619275711
 20
60.425652779
 11
135.7514949073
 21
63.8956991924
  0
LINE
  5
225
100
AcDbEntity
  8
0
100
AcDbLine
 62
7
  6
CONTINUOUS
 10
140.9334782882
 20
62.2567973702
 11
134.9230456244
 21
65.7268437837
  0
LINE
  5
226
100
AcDbEntity
  8
0
100
AcDbLine
 62
7
  6
CONTINUOUS
 10
35.2398517571
 20
130.7750946877
 11
35.2023026366
 21
130.8044059165
  0
LINE
  5
227
100
AcDbEntity
  8
0
100
AcDbLine
 62
7
  6
CONTINUOUS
 10
38.7754003829
 20
128.7338909151
 11
38.7378512623
 21
128.7632021439
  0
LINE
  5
228
100
AcDbEntity
  8
0
100
AcDbLine
 62
7
  6
CONTINUOUS
 10
56.8001215185
 20
218.3480002361
 11
56.8001215185
 21
217.9854875591
  0
LINE
  5
229
100
AcDbEntity
  8
0
100
AcDbLine
 62
7
  6
CONTINUOUS
 10
58.7319359402
 20
174.0958912443
 11
58.7319359402
 21
170.3399801255
  0
LINE
  5
22A
100
AcDbEntity
  8
0
100
AcDbLine
 62
7
  6
CONTINUOUS
 10
58.9532474519
 20
175.3206237059
 11
58.9532474519
 21
176.5453773316
  0
LINE
  5
22B
100
AcDbEntity
  8
0
100
AcDbLine
 62
7
  6
CONTINUOUS
 10
59.4390486093
 20
169.1152457082
 11
59.4390486093
 21
162.8130560908
  0
LINE
  5
22C
100
AcDbEntity
  8
0
100
AcDbLine
 62
7
  6
CONTINUOUS
 10
59.4596537129
 20
169.2644771003
 11
59.4596537129
 21
162.9963340103
  0
LINE
  5
22D
100
AcDbEntity
  8
0
100
AcDbLine
 62
7
  6
CONTINUOUS
 10
67.5813953336
 20
113.457187936
 11
68.4096337471
 21
113.1290198144
  0
LINE
  5
22E
100
AcDbEntity
  8
0
100
AcDbLine
 62
7
  6
CONTINUOUS
 10
145.8500883786
 20
65.147706691
 11
143.1000646186
 21
66.7353977307
  0
LINE
  5
22F
100
AcDbEntity
  8
0
100
AcDbLine
 62
7
  6
CONTINUOUS
 10
38.7344906841
 20
128.7573813199
 11
35.2397960986
 21
130.774998535
  0
LINE
  5
230
100
AcDbEntity
  8
0
100
AcDbLine
 62
7
  6
CONTINUOUS
 10
38.7753447243
 20
128.7337947624
 11
58.4595406506
 21
117.3693760431
  0
LINE
  5
231
100
AcDbEntity
  8
0
100
AcDbLine
 62
7
  6
CONTINUOUS
 10
35.2023026366
 20
130.8044059165
 11
58.3838204219
 21
117.4208531593
  0
LINE
  5
232
100
AcDbEntity
  8
0
100
AcDbLine
 62
7
  6
CONTINUOUS
 10
51.5177459419
 20
122.2552882445
 11
33.8063578723
 21
132.4807315837
  0
LINE
  5
233
100
AcDbEntity
  8
0
100
AcDbLine
 62
7
  6
CONTINUOUS
 10
134.9230456244
 20
74.7241936243
 11
68.4403099907
 21
113.1063056207
  0
LINE
  5
234
100
AcDbEntity
  8
0
100
AcDbLine
 62
7
  6
CONTINUOUS
 10
68.4096337471
 20
113.1290198144
 11
134.9230456244
 21
74.7292083994
  0
LINE
  5
235
100
AcDbEntity
  8
0
100
AcDbLine
 62
7
  6
CONTINUOUS
 10
134.9230456244
 20
75.095592628
 11
67.5728565033
 21
113.9781699435
  0
LINE
  5
236
100
AcDbEntity
  8
0
100
AcDbLine
 62
7
  6
CONTINUOUS
 10
144.8500573327
 20
69.7664908503
 11
147.6000810926
 21
68.1787998106
  0
LINE
  5
237
100
AcDbEntity
  8
0
100
AcDbLine
 62
7
  6
CONTINUOUS
 10
58.4595150696
 20
117.3693911086
 11
58.3838204219
 21
117.4208531593
  0
LINE
  5
238
100
AcDbEntity
  8
0
100
AcDbLine
 62
7
  6
CONTINUOUS
 10
68.4404905568
 20
113.1066180404
 11
68.4096337471
 21
113.1290198144
  0
LINE
  5
239
100
AcDbEntity
  8
0
100
AcDbLine
 62
7
  6
CONTINUOUS
 10
62.7532474519
 20
175.3206237059
 11
62.7532474519
 21
176.5453773316
  0
LINE
  5
23A
100
AcDbEntity
  8
0
100
AcDbLine
 62
7
  6
CONTINUOUS
 10
62.9745766273
 20
170.3399903235
 11
62.9745766273
 21
174.0959014423
  0
LINE
  5
23B
100
AcDbEntity
  8
0
100
AcDbLine
 62
7
  6
CONTINUOUS
 10
62.9745766273
 20
174.0959014423
 11
77.1166533716
 21
182.2607845198
  0
LINE
  5
23C
100
AcDbEntity
  8
0
100
AcDbLine
 62
7
  6
CONTINUOUS
 10
83.8341398251
 20
186.1391039815
 11
97.9762165694
 21
194.303987059
  0
LINE
  5
23D
100
AcDbEntity
  8
0
100
AcDbLine
 62
7
  6
CONTINUOUS
 10
97.9762165694
 20
190.5480759402
 11
83.8341398251
 21
182.3831928627
  0
LINE
  5
23E
100
AcDbEntity
  8
0
100
AcDbLine
 62
7
  6
CONTINUOUS
 10
77.1166533716
 20
178.504873401
 11
62.9745766273
 21
170.3399903235
  0
LINE
  5
23F
100
AcDbEntity
  8
0
100
AcDbLine
 62
7
  6
CONTINUOUS
 10
140.9334782882
 20
80.3970107215
 11
134.9230456244
 21
83.867057135
  0
LINE
  5
240
100
AcDbEntity
  8
0
100
AcDbLine
 62
7
  6
CONTINUOUS
 10
149.9752632588
 20
75.4677644823
 11
151.7430375717
 21
74.4471625959
  0
LINE
  5
241
100
AcDbEntity
  8
0
100
AcDbLine
 62
7
  6
CONTINUOUS
 10
65.6362324885
 20
125.763618258
 11
125.740559126
 21
91.0631541238
  0
LINE
  5
242
100
AcDbEntity
  8
0
100
AcDbLine
 62
7
  6
CONTINUOUS
 10
125.7399402402
 20
91.0669221886
 11
140.5892444683
 21
82.4938663437
  0
LINE
  5
243
100
AcDbEntity
  8
0
100
AcDbLine
 62
7
  6
CONTINUOUS
 10
33.8063578723
 20
144.1953933936
 11
65.626295504
 21
125.8245594402
  0
LINE
  5
244
100
AcDbEntity
  8
0
100
AcDbLine
 62
7
  6
CONTINUOUS
 10
128.5448158846
 20
78.406151635
 11
128.5115352666
 21
78.4308118889
  0
LINE
  5
245
100
AcDbEntity
  8
0
100
AcDbLine
 62
7
  6
CONTINUOUS
 10
67.5728565033
 20
113.9781699435
 11
65.6362324885
 21
125.763618258
  0
LINE
  5
246
100
AcDbEntity
  8
0
100
AcDbLine
 62
7
  6
CONTINUOUS
 10
73.4105343423
 20
160.0147929115
 11
73.4105343423
 21
160.0373762397
  0
LINE
  5
247
100
AcDbEntity
  8
0
100
AcDbLine
 62
7
  6
CONTINUOUS
 10
74.8531885725
 20
186.4248814915
 11
74.8531885725
 21
209.3689846656
  0
LINE
  5
248
100
AcDbEntity
  8
0
100
AcDbLine
 62
7
  6
CONTINUOUS
 10
67.5728565033
 20
149.5450520805
 11
65.6362324885
 21
135.5233963218
  0
LINE
  5
249
100
AcDbEntity
  8
0
100
AcDbLine
 62
7
  6
CONTINUOUS
 10
73.4671158527
 20
160.120224514
 11
73.4105343423
 21
160.0373762397
  0
LINE
  5
24A
100
AcDbEntity
  8
0
100
AcDbLine
 62
7
  6
CONTINUOUS
 10
73.4697821976
 20
160.1177443395
 11
73.4105343423
 21
160.0373762397
  0
LINE
  5
24B
100
AcDbEntity
  8
0
100
AcDbLine
 62
7
  6
CONTINUOUS
 10
65.5441582165
 20
125.8033135215
 11
65.6362324885
 21
125.763618258
  0
LINE
  5
24C
100
AcDbEntity
  8
0
100
AcDbLine
 62
7
  6
CONTINUOUS
 10
140.5892444683
 20
92.2453936544
 11
125.7399402402
 21
100.8184494993
  0
LINE
  5
24D
100
AcDbEntity
  8
0
100
AcDbLine
 62
7
  6
CONTINUOUS
 10
125.740559126
 20
100.8229321875
 11
33.8162948569
 21
153.8942302752
  0
LINE
  5
24E
100
AcDbEntity
  8
0
100
AcDbLine
 62
7
  6
CONTINUOUS
 10
76.8953241962
 20
183.4855067833
 11
76.8953241962
 21
184.710260409
  0
LINE
  5
24F
100
AcDbEntity
  8
0
100
AcDbLine
 62
7
  6
CONTINUOUS
 10
77.1166533716
 20
182.2607845198
 11
77.1166533716
 21
178.504873401
  0
LINE
  5
250
100
AcDbEntity
  8
0
100
AcDbLine
 62
7
  6
CONTINUOUS
 10
77.9953241962
 20
179.7295956645
 11
77.9953241962
 21
183.4855067833
  0
LINE
  5
251
100
AcDbEntity
  8
0
100
AcDbLine
 62
7
  6
CONTINUOUS
 10
79.591499138
 20
186.1390937835
 11
79.591499138
 21
182.3831826647
  0
LINE
  5
252
100
AcDbEntity
  8
0
100
AcDbLine
 62
7
  6
CONTINUOUS
 10
79.8128106497
 20
187.3638262451
 11
79.8128106497
 21
188.5885798708
  0
LINE
  5
253
100
AcDbEntity
  8
0
100
AcDbLine
 62
7
  6
CONTINUOUS
 10
83.6128106497
 20
187.3638262451
 11
83.6128106497
 21
188.5885798708
  0
LINE
  5
254
100
AcDbEntity
  8
0
100
AcDbLine
 62
7
  6
CONTINUOUS
 10
83.8341398251
 20
182.3831928627
 11
83.8341398251
 21
186.1391039815
  0
LINE
  5
255
100
AcDbEntity
  8
0
100
AcDbLine
 62
7
  6
CONTINUOUS
 10
97.54630503
 20
179.2772757239
 11
82.4964507457
 21
170.5882901678
  0
LINE
  5
256
100
AcDbEntity
  8
0
100
AcDbLine
 62
7
  6
CONTINUOUS
 10
77.2493912886
 20
165.1094098093
 11
102.7933644871
 21
179.8571415796
  0
LINE
  5
257
100
AcDbEntity
  8
0
100
AcDbLine
 62
7
  6
CONTINUOUS
 10
134.9230456244
 20
98.2097802944
 11
140.9334782882
 21
94.739733881
  0
LINE
  5
258
100
AcDbEntity
  8
0
100
AcDbLine
 62
7
  6
CONTINUOUS
 10
69.9952868076
 20
152.4586870839
 11
70.0456944866
 21
152.4110486386
  0
LINE
  5
259
100
AcDbEntity
  8
0
100
AcDbLine
 62
7
  6
CONTINUOUS
 10
69.99528325
 20
152.4586762289
 11
70.0456944866
 21
152.4110486386
  0
LINE
  5
25A
100
AcDbEntity
  8
0
100
AcDbLine
 62
7
  6
CONTINUOUS
 10
68.7972492756
 20
151.6492772312
 11
69.5214632377
 21
152.0673998613
  0
LINE
  5
25B
100
AcDbEntity
  8
0
100
AcDbLine
 62
7
  6
CONTINUOUS
 10
160.7250808633
 20
94.0874159685
 11
160.0179711381
 21
94.4956567231
  0
LINE
  5
25C
100
AcDbEntity
  8
0
100
AcDbLine
 62
7
  6
CONTINUOUS
 10
127.6749270655
 20
114.8394875191
 11
134.9230456244
 21
110.6548789865
  0
LINE
  5
25D
100
AcDbEntity
  8
0
100
AcDbLine
 62
7
  6
CONTINUOUS
 10
35.7529188717
 20
167.9158860339
 11
127.6771831408
 21
114.8445879463
  0
LINE
  5
25E
100
AcDbEntity
  8
0
100
AcDbLine
 62
7
  6
CONTINUOUS
 10
178.1350242286
 20
87.5000898969
 11
162.2250554127
 21
96.6855068736
  0
LINE
  5
25F
100
AcDbEntity
  8
0
100
AcDbLine
 62
7
  6
CONTINUOUS
 10
128.5115352666
 20
116.6549029646
 11
134.9230456244
 21
112.9532994751
  0
LINE
  5
260
100
AcDbEntity
  8
0
100
AcDbLine
 62
7
  6
CONTINUOUS
 10
36.5896961155
 20
169.7312575294
 11
128.5139603846
 21
116.6599594417
  0
LINE
  5
261
100
AcDbEntity
  8
0
100
AcDbLine
 62
7
  6
CONTINUOUS
 10
128.8638955105
 20
117.0140778583
 11
68.759568873
 21
151.7145419925
  0
LINE
  5
262
100
AcDbEntity
  8
0
100
AcDbLine
 62
7
  6
CONTINUOUS
 10
36.9396312414
 20
170.0853759459
 11
68.5205549348
 21
151.8525336323
  0
LINE
  5
263
100
AcDbEntity
  8
0
100
AcDbLine
 62
7
  6
CONTINUOUS
 10
134.9230456244
 20
113.6065619407
 11
129.0422345217
 21
117.001773004
  0
LINE
  5
264
100
AcDbEntity
  8
0
100
AcDbLine
 62
7
  6
CONTINUOUS
 10
36.1044276795
 20
171.3315501562
 11
37.6715994386
 21
170.4267635882
  0
LINE
  5
265
100
AcDbEntity
  8
0
100
AcDbLine
 62
7
  6
CONTINUOUS
 10
70.0456944866
 20
152.4110486386
 11
38.2257568549
 21
170.781882592
  0
LINE
  5
266
100
AcDbEntity
  8
0
100
AcDbLine
 62
7
  6
CONTINUOUS
 10
134.9230456244
 20
115.5334912286
 11
140.9334782882
 21
112.0634448151
  0
LINE
  5
267
100
AcDbEntity
  8
0
100
AcDbLine
 62
7
  6
CONTINUOUS
 10
184.0999291283
 20
87.2311307241
 11
182.3499364142
 21
88.2415183766
  0
LINE
  5
268
100
AcDbEntity
  8
0
100
AcDbLine
 62
7
  6
CONTINUOUS
 10
144.850092542
 20
109.8926823585
 11
143.1000998279
 21
110.903070011
  0
LINE
  5
269
100
AcDbEntity
  8
0
100
AcDbLine
 62
7
  6
CONTINUOUS
 10
95.7127517704
 20
198.4680840307
 11
95.7127517704
 21
221.4121872048
  0
LINE
  5
26A
100
AcDbEntity
  8
0
100
AcDbLine
 62
7
  6
CONTINUOUS
 10
97.754887394
 20
195.5287093225
 11
97.754887394
 21
196.7534629482
  0
LINE
  5
26B
100
AcDbEntity
  8
0
100
AcDbLine
 62
7
  6
CONTINUOUS
 10
97.9762165694
 20
194.303987059
 11
97.9762165694
 21
190.5480759402
  0
LINE
  5
26C
100
AcDbEntity
  8
0
100
AcDbLine
 62
7
  6
CONTINUOUS
 10
98.854887394
 20
191.7727982037
 11
98.854887394
 21
195.5287093225
  0
LINE
  5
26D
100
AcDbEntity
  8
0
100
AcDbLine
 62
7
  6
CONTINUOUS
 10
65.5715835982
 20
125.8103024998
 11
51.5177459419
 21
122.2552882445
  0
LINE
  5
26E
100
AcDbEntity
  8
0
100
AcDbLine
 62
7
  6
CONTINUOUS
 10
176.6423309942
 20
97.2630613008
 11
166.7427948422
 21
102.9784318641
  0
LINE
  5
26F
100
AcDbEntity
  8
0
100
AcDbLine
 62
7
  6
CONTINUOUS
 10
145.8500883786
 20
115.6662163417
 11
147.6000810926
 21
114.6558286892
  0
LINE
  5
270
100
AcDbEntity
  8
0
100
AcDbLine
 62
7
  6
CONTINUOUS
 10
185.0999249649
 20
93.0046647073
 11
186.8499176789
 21
91.9942770548
  0
LINE
  5
271
100
AcDbEntity
  8
0
100
AcDbLine
 62
7
  6
CONTINUOUS
 10
143.761893637
 20
116.9624310991
 11
137.7514609733
 21
120.4324775126
  0
LINE
  5
272
100
AcDbEntity
  8
0
100
AcDbLine
 62
7
  6
CONTINUOUS
 10
166.7427948422
 20
104.5106187497
 11
176.6423309942
 21
98.7952481864
  0
LINE
  5
273
100
AcDbEntity
  8
0
100
AcDbLine
 62
7
  6
CONTINUOUS
 10
139.4200603167
 20
121.3958380422
 11
133.5393313645
 21
124.7910016769
  0
LINE
  5
274
100
AcDbEntity
  8
0
100
AcDbLine
 62
7
  6
CONTINUOUS
 10
133.4395007966
 20
124.9393027216
 11
73.3351741591
 21
159.6397668558
  0
LINE
  5
275
100
AcDbEntity
  8
0
100
AcDbLine
 62
7
  6
CONTINUOUS
 10
133.5712083385
 20
125.4194184692
 11
73.466881701
 21
160.1198826034
  0
LINE
  5
276
100
AcDbEntity
  8
0
100
AcDbLine
 62
7
  6
CONTINUOUS
 10
133.5743747885
 20
125.4240469258
 11
139.9858229877
 21
121.7224793228
  0
LINE
  5
277
100
AcDbEntity
  8
0
100
AcDbLine
 62
7
  6
CONTINUOUS
 10
183.6349309099
 20
97.0264232155
 11
180.0565386686
 21
99.0923622014
  0
LINE
  5
278
100
AcDbEntity
  8
0
100
AcDbLine
 62
7
  6
CONTINUOUS
 10
73.4105343423
 20
158.8035060018
 11
59.4596537129
 21
162.9963340103
  0
LINE
  5
279
100
AcDbEntity
  8
0
100
AcDbLine
 62
7
  6
CONTINUOUS
 10
41.7613054807
 20
179.3212645712
 11
59.4390486093
 21
169.1152457082
  0
LINE
  5
27A
100
AcDbEntity
  8
0
100
AcDbLine
 62
7
  6
CONTINUOUS
 10
41.5699123034
 20
179.8400141824
 11
41.7613054807
 21
179.7295157798
  0
LINE
  5
27B
100
AcDbEntity
  8
0
100
AcDbLine
 62
7
  6
CONTINUOUS
 10
179.4707463431
 20
100.4282248019
 11
169.571210191
 21
106.1435953652
  0
LINE
  5
27C
100
AcDbEntity
  8
0
100
AcDbLine
 62
7
  6
CONTINUOUS
 10
60.3061570914
 20
169.4311236812
 11
42.1148573993
 21
179.9336378567
  0
LINE
  5
27D
100
AcDbEntity
  8
0
100
AcDbLine
 62
7
  6
CONTINUOUS
 10
169.2249366436
 20
108.8099310972
 11
168.5178269184
 21
109.2181718518
  0
LINE
  5
27E
100
AcDbEntity
  8
0
100
AcDbLine
 62
7
  6
CONTINUOUS
 10
44.5897414373
 20
182.2607063347
 11
58.7319359402
 21
174.0958912443
  0
LINE
  5
27F
100
AcDbEntity
  8
0
100
AcDbLine
 62
7
  6
CONTINUOUS
 10
146.1925894904
 20
125.3059362436
 11
77.2493912886
 21
165.1094098093
  0
LINE
  5
280
100
AcDbEntity
  8
0
100
AcDbLine
 62
7
  6
CONTINUOUS
 10
50.9537348515
 20
180.7094633373
 11
37.9878096658
 21
188.736905473
  0
LINE
  5
281
100
AcDbEntity
  8
0
100
AcDbLine
 62
7
  6
CONTINUOUS
 10
74.8354833561
 20
209.3949975794
 11
74.8522815612
 21
209.3694494004
  0
LINE
  5
282
100
AcDbEntity
  8
0
100
AcDbLine
 62
7
  6
CONTINUOUS
 10
125.740559126
 20
91.0631541238
 11
127.6771831408
 21
79.2777058093
  0
LINE
  5
283
100
AcDbEntity
  8
0
100
AcDbLine
 62
7
  6
CONTINUOUS
 10
127.6749270655
 20
79.2802011606
 11
125.7399402402
 21
91.0669221886
  0
LINE
  5
284
100
AcDbEntity
  8
0
100
AcDbLine
 62
7
  6
CONTINUOUS
 10
26.8188971271
 20
206.8390047775
 11
34.5757240906
 21
202.3606999549
  0
LINE
  5
285
100
AcDbEntity
  8
0
100
AcDbLine
 62
7
  6
CONTINUOUS
 10
79.591499138
 20
182.3831826647
 11
77.9953241962
 21
183.3047138492
  0
LINE
  5
286
100
AcDbEntity
  8
0
100
AcDbLine
 62
7
  6
CONTINUOUS
 10
77.1166357078
 20
184.7102392449
 11
76.8500198544
 21
184.8641664974
  0
LINE
  5
287
100
AcDbEntity
  8
0
100
AcDbLine
 62
7
  6
CONTINUOUS
 10
74.920290527
 20
185.9782710396
 11
74.8012794001
 21
186.0469805913
  0
LINE
  5
288
100
AcDbEntity
  8
0
100
AcDbLine
 62
7
  6
CONTINUOUS
 10
106.6322214333
 20
179.2178117328
 11
106.6122506368
 21
179.2548630455
  0
LINE
  5
289
100
AcDbEntity
  8
0
100
AcDbLine
 62
7
  6
CONTINUOUS
 10
125.7399402402
 20
100.8184494993
 11
127.6749270655
 21
114.8394875191
  0
LINE
  5
28A
100
AcDbEntity
  8
0
100
AcDbLine
 62
7
  6
CONTINUOUS
 10
127.6771831408
 20
114.8445879463
 11
125.740559126
 21
100.8229321875
  0
LINE
  5
28B
100
AcDbEntity
  8
0
100
AcDbLine
 62
7
  6
CONTINUOUS
 10
166.7150227339
 20
144.5192710126
 11
166.6770342622
 21
144.5357622023
  0
LINE
  5
28C
100
AcDbEntity
  8
0
100
AcDbLine
 62
7
  6
CONTINUOUS
 10
179.974754248
 20
127.4295825835
 11
181.7425285609
 21
126.4089806972
  0
LINE
  5
28D
100
AcDbEntity
  8
0
100
AcDbLine
 62
7
  6
CONTINUOUS
 10
74.8531885725
 20
188.8746967764
 11
79.591499138
 21
186.1390937835
  0
LINE
  5
28E
100
AcDbEntity
  8
0
100
AcDbLine
 62
7
  6
CONTINUOUS
 10
102.7933644871
 20
179.8571415796
 11
171.7365626889
 21
140.0536680138
  0
LINE
  5
28F
100
AcDbEntity
  8
0
100
AcDbLine
 62
7
  6
CONTINUOUS
 10
185.0999249649
 20
133.1307952298
 11
182.349901205
 21
134.7184862695
  0
LINE
  5
290
100
AcDbEntity
  8
0
100
AcDbLine
 62
7
  6
CONTINUOUS
 10
140.5892444683
 20
82.4938663437
 11
140.9334782882
 21
80.3970107215
  0
LINE
  5
291
100
AcDbEntity
  8
0
100
AcDbLine
 62
7
  6
CONTINUOUS
 10
134.9230456244
 20
65.7268437837
 11
134.9230456244
 21
83.867057135
  0
LINE
  5
292
100
AcDbEntity
  8
0
100
AcDbLine
 62
7
  6
CONTINUOUS
 10
134.9230456244
 20
98.2097802944
 11
134.9230456244
 21
115.5334912286
  0
LINE
  5
293
100
AcDbEntity
  8
0
100
AcDbLine
 62
7
  6
CONTINUOUS
 10
162.8976911246
 20
145.1566774453
 11
137.3537179261
 21
130.4089456751
  0
LINE
  5
294
100
AcDbEntity
  8
0
100
AcDbLine
 62
7
  6
CONTINUOUS
 10
106.6322214333
 20
179.2178117328
 11
106.5746966671
 21
179.2294190273
  0
LINE
  5
295
100
AcDbEntity
  8
0
100
AcDbLine
 62
7
  6
CONTINUOUS
 10
106.6322214333
 20
179.2178117328
 11
106.5772873354
 21
179.2348196192
  0
LINE
  5
296
100
AcDbEntity
  8
0
100
AcDbLine
 62
7
  6
CONTINUOUS
 10
106.5758740747
 20
179.2352541596
 11
106.6106974083
 21
179.2197374165
  0
LINE
  5
297
100
AcDbEntity
  8
0
100
AcDbLine
 62
7
  6
CONTINUOUS
 10
173.0884824613
 20
140.8341945992
 11
106.5758740747
 21
179.2352541596
  0
LINE
  5
298
100
AcDbEntity
  8
0
100
AcDbLine
 62
7
  6
CONTINUOUS
 10
106.610876376
 20
179.2200477435
 11
173.0928237623
 21
140.8367010356
  0
LINE
  5
299
100
AcDbEntity
  8
0
100
AcDbLine
 62
7
  6
CONTINUOUS
 10
184.099893919
 20
137.7495793891
 11
186.8499176789
 21
136.1618883494
  0
LINE
  5
29A
100
AcDbEntity
  8
0
100
AcDbLine
 62
7
  6
CONTINUOUS
 10
38.3187020063
 20
226.7577017163
 11
47.7744071504
 21
221.298571308
  0
LINE
  5
29B
100
AcDbEntity
  8
0
100
AcDbLine
 62
7
  6
CONTINUOUS
 10
180.1776912061
 20
144.9271267449
 11
186.1881238698
 21
141.4570803314
  0
LINE
  5
29C
100
AcDbEntity
  8
0
100
AcDbLine
 62
7
  6
CONTINUOUS
 10
98.854887394
 20
192.4902311067
 11
99.5504200567
 21
192.0886742211
  0
LINE
  5
29D
100
AcDbEntity
  8
0
100
AcDbLine
 62
7
  6
CONTINUOUS
 10
98.854887394
 20
192.6593269021
 11
99.549948583
 21
192.2580422158
  0
LINE
  5
29E
100
AcDbEntity
  8
0
100
AcDbLine
 62
7
  6
CONTINUOUS
 10
99.5499356574
 20
192.2581321436
 11
99.631404126
 21
192.2053155305
  0
LINE
  5
29F
100
AcDbEntity
  8
0
100
AcDbLine
 62
7
  6
CONTINUOUS
 10
95.6950465539
 20
221.4382001187
 11
95.711844759
 21
221.4126519396
  0
LINE
  5
2A0
100
AcDbEntity
  8
0
100
AcDbLine
 62
7
  6
CONTINUOUS
 10
140.9334782882
 20
112.0634448151
 11
140.9334782882
 21
94.739733881
  0
LINE
  5
2A1
100
AcDbEntity
  8
0
100
AcDbLine
 62
7
  6
CONTINUOUS
 10
140.9334782882
 20
80.3970107215
 11
140.9334782882
 21
62.2567973702
  0
LINE
  5
2A2
100
AcDbEntity
  8
0
100
AcDbLine
 62
7
  6
CONTINUOUS
 10
140.9334782882
 20
94.739733881
 11
140.5892444683
 21
92.2453936544
  0
LINE
  5
2A3
100
AcDbEntity
  8
0
100
AcDbLine
 62
7
  6
CONTINUOUS
 10
137.7514609733
 20
120.4324775126
 11
146.1925894904
 21
125.3059362436
  0
LINE
  5
2A4
100
AcDbEntity
  8
0
100
AcDbLine
 62
7
  6
CONTINUOUS
 10
171.7365626889
 20
140.0536680138
 11
180.1776912061
 21
144.9271267449
  0
LINE
  5
2A5
100
AcDbEntity
  8
0
100
AcDbLine
 62
7
  6
CONTINUOUS
 10
50.5413405878
 20
220.9666306598
 11
74.837317284
 21
209.3941241118
  0
LINE
  5
2A6
100
AcDbEntity
  8
0
100
AcDbLine
 62
7
  6
CONTINUOUS
 10
188.1880899358
 20
141.6551918697
 11
182.177657272
 21
145.1252382831
  0
LINE
  5
2A7
100
AcDbEntity
  8
0
100
AcDbLine
 62
7
  6
CONTINUOUS
 10
97.9761989056
 20
196.7534417841
 11
97.7095830522
 21
196.9073690366
  0
LINE
  5
2A8
100
AcDbEntity
  8
0
100
AcDbLine
 62
7
  6
CONTINUOUS
 10
95.7798537248
 20
198.0214735788
 11
95.6608282084
 21
198.0901914381
  0
LINE
  5
2A9
100
AcDbEntity
  8
0
100
AcDbLine
 62
7
  6
CONTINUOUS
 10
186.1881238698
 20
141.4570803314
 11
143.761893637
 21
116.9624310991
  0
LINE
  5
2AA
100
AcDbEntity
  8
0
100
AcDbLine
 62
7
  6
CONTINUOUS
 10
60.2389297918
 20
238.1885431238
 11
69.7996701628
 21
232.6687719708
  0
LINE
  5
2AB
100
AcDbEntity
  8
0
100
AcDbLine
 62
7
  6
CONTINUOUS
 10
166.1570025166
 20
103.951361292
 11
166.1570025166
 21
105.3271070575
  0
LINE
  5
2AC
100
AcDbEntity
  8
0
100
AcDbLine
 62
7
  6
CONTINUOUS
 10
166.7427948422
 20
102.9784318641
 11
166.7427948422
 21
104.5106187497
  0
LINE
  5
2AD
100
AcDbEntity
  8
0
100
AcDbLine
 62
7
  6
CONTINUOUS
 10
72.8151232359
 20
232.3362211005
 11
95.6968804818
 21
221.437326651
  0
LINE
  5
2AE
100
AcDbEntity
  8
0
100
AcDbLine
 62
7
  6
CONTINUOUS
 10
176.6423309942
 20
98.7952481864
 11
176.6423309942
 21
97.2630613008
  0
LINE
  5
2AF
100
AcDbEntity
  8
0
100
AcDbLine
 62
7
  6
CONTINUOUS
 10
180.0565386686
 20
98.2359907287
 11
180.0565386686
 21
99.6117364942
  0
LINE
  5
2B0
100
AcDbEntity
  8
0
100
AcDbLine
 62
7
  6
CONTINUOUS
 10
143.1000998279
 20
66.7354587164
 11
144.850092542
 21
69.7665518359
  0
LINE
  5
2B1
100
AcDbEntity
  8
0
100
AcDbLine
 62
7
  6
CONTINUOUS
 10
182.3499364142
 20
134.7185472552
 11
184.0999291283
 21
137.7496403747
  0
LINE
  5
2B2
100
AcDbEntity
  8
0
100
AcDbLine
 62
7
  6
CONTINUOUS
 10
184.7740516177
 20
94.100390943
 11
184.7740486738
 21
94.5086367967
  0
LINE
  5
2B3
100
AcDbEntity
  8
0
100
AcDbLine
 62
7
  6
CONTINUOUS
 10
189.0165392187
 20
90.0173998335
 11
189.0165392187
 21
108.1576131848
  0
LINE
  5
2B4
100
AcDbEntity
  8
0
100
AcDbLine
 62
7
  6
CONTINUOUS
 10
189.0165392187
 20
122.5003363442
 11
189.0165392187
 21
139.8240472784
  0
LINE
  5
2B5
100
AcDbEntity
  8
0
100
AcDbLine
 62
7
  6
CONTINUOUS
 10
186.8499176789
 20
136.1618883494
 11
185.0999249649
 21
133.1307952298
  0
LINE
  5
2B6
100
AcDbEntity
  8
0
100
AcDbLine
 62
7
  6
CONTINUOUS
 10
147.6000810926
 20
68.1787998106
 11
145.8500883786
 21
65.147706691
  0
LINE
  5
2B7
100
AcDbEntity
  8
0
100
AcDbLine
 62
7
  6
CONTINUOUS
 10
181.2385324318
 20
94.7944192763
 11
182.0837383584
 21
95.1023512976
  0
LINE
  5
2B8
100
AcDbEntity
  8
0
100
AcDbLine
 62
7
  6
CONTINUOUS
 10
189.3607730386
 20
120.4034807221
 11
189.0165392187
 21
122.5003363442
  0
LINE
  5
2B9
100
AcDbEntity
  8
0
100
AcDbLine
 62
7
  6
CONTINUOUS
 10
189.0165392187
 20
108.1576131848
 11
189.3607730386
 21
110.6519534114
  0
LINE
  5
2BA
100
AcDbEntity
  8
0
100
AcDbLine
 62
7
  6
CONTINUOUS
 10
181.2385324318
 20
87.9766240933
 11
180.8849775692
 21
87.772493262
  0
LINE
  5
2BB
100
AcDbEntity
  8
0
100
AcDbLine
 62
7
  6
CONTINUOUS
 10
143.761893637
 20
60.6237643172
 11
186.1881238698
 21
85.1184135495
  0
ARC
  5
2BC
100
AcDbEntity
  8
0
100
AcDbCircle
 62
7
  6
CONTINUOUS
 10
98.8416281253
 20
139.5247892396
 40
65.122160614
100
AcDbArc
 50
154.3737468961
 51
156.1325252575
  0
ARC
  5
2BD
100
AcDbEntity
  8
0
100
AcDbCircle
 62
7
  6
CONTINUOUS
 10
95.1433021527
 20
141.6410235941
 40
64.9429443627
100
AcDbArc
 50
154.3713199464
 51
156.1349522072
  0
ARC
  5
2BE
100
AcDbEntity
  8
0
100
AcDbCircle
 62
7
  6
CONTINUOUS
 10
98.6788507787
 20
139.5998198214
 40
64.942944363
100
AcDbArc
 50
154.3713199464
 51
156.1349522072
  0
ARC
  5
2BF
100
AcDbEntity
  8
0
100
AcDbCircle
 62
7
  6
CONTINUOUS
 10
100.335372628
 20
130.3995000539
 40
35.0629648143
100
AcDbArc
 50
177.2163081056
 51
179.023717139
  0
ARC
  5
2C0
100
AcDbEntity
  8
0
100
AcDbCircle
 62
7
  6
CONTINUOUS
 10
97.6629614901
 20
130.4417453223
 40
32.3902219907
100
AcDbArc
 50
179.017888876
 51
182.8256145499
  0
ARC
  5
2C1
100
AcDbEntity
  8
0
100
AcDbCircle
 62
7
  6
CONTINUOUS
 10
94.632020988
 20
130.3176973127
 40
29.3568624926
100
AcDbArc
 50
182.8754159373
 51
185.3155627668
  0
ARC
  5
2C2
100
AcDbEntity
  8
0
100
AcDbCircle
 62
7
  6
CONTINUOUS
 10
92.1421413178
 20
130.0879463004
 40
26.8564060653
100
AcDbArc
 50
185.3196206621
 51
189.1342031275
  0
ARC
  5
2C3
100
AcDbEntity
  8
0
100
AcDbCircle
 62
7
  6
CONTINUOUS
 10
77.7991763156
 20
136.865443561
 40
25.5378380474
100
AcDbArc
 50
247.8889596926
 51
248.4170065696
  0
ARC
  5
2C4
100
AcDbEntity
  8
0
100
AcDbCircle
 62
7
  6
CONTINUOUS
 10
90.3863283088
 20
129.8306152487
 40
25.0820196084
100
AcDbArc
 50
189.190541741
 51
189.3315904865
  0
ARC
  5
2C5
100
AcDbEntity
  8
0
100
AcDbCircle
 62
7
  6
CONTINUOUS
 10
68.948425141
 20
127.6149574868
 40
14.6809937773
100
AcDbArc
 50
221.3553501603
 51
223.1061247899
  0
ARC
  5
2C6
100
AcDbEntity
  8
0
100
AcDbCircle
 62
7
  6
CONTINUOUS
 10
68.800837919
 20
127.4775690391
 40
14.4793572999
100
AcDbArc
 50
223.1082939386
 51
223.9917993495
  0
ARC
  5
2C7
100
AcDbEntity
  8
0
100
AcDbCircle
 62
7
  6
CONTINUOUS
 10
77.9753563284
 20
123.3846894524
 40
14.024785627
100
AcDbArc
 50
222.1216417409
 51
223.7541279602
  0
ARC
  5
2C8
100
AcDbEntity
  8
0
100
AcDbCircle
 62
7
  6
CONTINUOUS
 10
77.7622389644
 20
123.1800253017
 40
13.7293093655
100
AcDbArc
 50
223.7522613545
 51
227.0613751573
  0
ARC
  5
2C9
100
AcDbEntity
  8
0
100
AcDbCircle
 62
7
  6
CONTINUOUS
 10
77.7150683823
 20
123.1321800656
 40
13.6621494927
100
AcDbArc
 50
223.7441256685
 51
227.0695108433
  0
ARC
  5
2CA
100
AcDbEntity
  8
0
100
AcDbCircle
 62
7
  6
CONTINUOUS
 10
63.6248083844
 20
133.3932835561
 40
7.828891073
100
AcDbArc
 50
284.3985581616
 51
284.8123396639
  0
ARC
  5
2CB
100
AcDbEntity
  8
0
100
AcDbCircle
 62
7
  6
CONTINUOUS
 10
60.8231854667
 20
196.8474149926
 40
20.2889995268
100
AcDbArc
 50
264.7080697438
 51
264.8226151373
  0
ARC
  5
2CC
100
AcDbEntity
  8
0
100
AcDbCircle
 62
7
  6
CONTINUOUS
 10
81.6827488517
 20
208.890614467
 40
20.2889965011
100
AcDbArc
 50
264.7080756383
 51
264.8226120739
  0
ARC
  5
2CD
100
AcDbEntity
  8
0
100
AcDbCircle
 62
7
  6
CONTINUOUS
 10
102.2055527414
 20
163.5720338251
 40
16.2957275061
100
AcDbArc
 50
87.8557281878
 51
88.2252448576
  0
ARC
  5
2CE
100
AcDbEntity
  8
0
100
AcDbCircle
 62
7
  6
CONTINUOUS
 10
102.2306480465
 20
164.099174546
 40
15.7680178454
100
AcDbArc
 50
84.7529466064
 51
87.8751839693
  0
ARC
  5
2CF
100
AcDbEntity
  8
0
100
AcDbCircle
 62
7
  6
CONTINUOUS
 10
102.2670633543
 20
164.5124857706
 40
15.353108429
100
AcDbArc
 50
83.9517178539
 51
84.7472190649
  0
ARC
  5
2D0
100
AcDbEntity
  8
0
100
AcDbCircle
 62
7
  6
CONTINUOUS
 10
64.0362164284
 20
159.7248652916
 40
9.5091427035
100
AcDbArc
 50
328.1217479071
 51
331.4723988635
  0
ARC
  5
2D1
100
AcDbEntity
  8
0
100
AcDbCircle
 62
7
  6
CONTINUOUS
 10
64.0764829728
 20
159.7038301156
 40
9.4637190421
100
AcDbArc
 50
331.467862144
 51
334.1649780137
  0
ARC
  5
2D2
100
AcDbEntity
  8
0
100
AcDbCircle
 62
7
  6
CONTINUOUS
 10
64.1754379302
 20
159.6365542138
 40
9.344281291
100
AcDbArc
 50
321.6445191275
 51
328.1307381393
  0
ARC
  5
2D3
100
AcDbEntity
  8
0
100
AcDbCircle
 62
7
  6
CONTINUOUS
 10
65.8140201147
 20
158.1168931753
 40
7.1045186773
100
AcDbArc
 50
309.7315528712
 51
311.6578829312
  0
ARC
  5
2D4
100
AcDbEntity
  8
0
100
AcDbCircle
 62
7
  6
CONTINUOUS
 10
66.1165808848
 20
157.7517746096
 40
6.6303308811
100
AcDbArc
 50
306.3415102937
 51
309.7375760035
  0
ARC
  5
2D5
100
AcDbEntity
  8
0
100
AcDbCircle
 62
7
  6
CONTINUOUS
 10
69.1876860701
 20
150.987065458
 40
0.8629957715
100
AcDbArc
 50
147.032630147
 51
154.3653983411
  0
ARC
  5
2D6
100
AcDbEntity
  8
0
100
AcDbCircle
 62
7
  6
CONTINUOUS
 10
40.8988178839
 20
167.319157091
 40
0.8578926178
100
AcDbArc
 50
142.0165098764
 51
154.3841884889
  0
ARC
  5
2D7
100
AcDbEntity
  8
0
100
AcDbCircle
 62
7
  6
CONTINUOUS
 10
127.1260171314
 20
123.1951590587
 40
65.1221606142
100
AcDbArc
 50
154.3737468961
 51
156.1325252575
  0
ARC
  5
2D8
100
AcDbEntity
  8
0
100
AcDbCircle
 62
7
  6
CONTINUOUS
 10
126.9632397845
 20
123.2701896406
 40
64.942944363
100
AcDbArc
 50
154.3713199464
 51
156.1349522072
  0
ARC
  5
2D9
100
AcDbEntity
  8
0
100
AcDbCircle
 62
7
  6
CONTINUOUS
 10
126.3442089185
 20
123.9759115077
 40
64.0499674769
100
AcDbArc
 50
141.5865786331
 51
145.6453109003
  0
ARC
  5
2DA
100
AcDbEntity
  8
0
100
AcDbCircle
 62
7
  6
CONTINUOUS
 10
125.0406224009
 20
124.9970175501
 40
62.394100549
100
AcDbArc
 50
141.2651362317
 51
141.5775117936
  0
ARC
  5
2DB
100
AcDbEntity
  8
0
100
AcDbCircle
 62
7
  6
CONTINUOUS
 10
124.3895514713
 20
125.5235084854
 40
61.5567983312
100
AcDbArc
 50
139.9664351172
 51
141.2682103438
  0
ARC
  5
2DC
100
AcDbEntity
  8
0
100
AcDbCircle
 62
7
  6
CONTINUOUS
 10
165.2182852651
 20
95.3592343117
 40
39.8540193154
100
AcDbArc
 50
172.1203479387
 51
175.8651038072
  0
ARC
  5
2DD
100
AcDbEntity
  8
0
100
AcDbCircle
 62
7
  6
CONTINUOUS
 10
162.0872918201
 20
95.6173291165
 40
36.7125794303
100
AcDbArc
 50
175.9145188446
 51
177.2329698179
  0
ARC
  5
2DE
100
AcDbEntity
  8
0
100
AcDbCircle
 62
7
  6
CONTINUOUS
 10
155.0223003466
 20
95.633426374
 40
29.6432672957
100
AcDbArc
 50
182.9198276777
 51
184.440246741
  0
ARC
  5
2DF
100
AcDbEntity
  8
0
100
AcDbCircle
 62
7
  6
CONTINUOUS
 10
162.3482265394
 20
129.5989067374
 40
15.5674705952
100
AcDbArc
 50
83.1610911757
 51
87.9772859157
  0
ARC
  5
2E0
100
AcDbEntity
  8
0
100
AcDbCircle
 62
7
  6
CONTINUOUS
 10
162.4204550279
 20
130.2267776744
 40
14.9354665095
100
AcDbArc
 50
81.5026157885
 51
83.1493860942
  0
ARC
  5
2E1
100
AcDbEntity
  8
0
100
AcDbCircle
 62
7
  6
CONTINUOUS
 10
162.5005201856
 20
130.7385374842
 40
14.417494159
100
AcDbArc
 50
78.1402119694
 51
81.516788994
  0
ARC
  5
2E2
100
AcDbEntity
  8
0
100
AcDbCircle
 62
7
  6
CONTINUOUS
 10
138.1235192364
 20
88.7244260844
 40
14.0842629121
100
AcDbArc
 50
222.1233362104
 51
222.9304585116
  0
ARC
  5
2E3
100
AcDbEntity
  8
0
100
AcDbCircle
 62
7
  6
CONTINUOUS
 10
162.5789564051
 20
131.1145552946
 40
14.0333830287
100
AcDbArc
 50
76.0782241582
 51
78.1381039292
  0
ARC
  5
2E4
100
AcDbEntity
  8
0
100
AcDbCircle
 62
7
  6
CONTINUOUS
 10
138.0369687814
 20
88.6439166975
 40
13.9660565561
100
AcDbArc
 50
222.9304706548
 51
223.7490065686
  0
ARC
  5
2E5
100
AcDbEntity
  8
0
100
AcDbCircle
 62
7
  6
CONTINUOUS
 10
137.9551343448
 20
88.5655925654
 40
13.8527801481
100
AcDbArc
 50
223.7490441522
 51
224.5720435266
  0
ARC
  5
2E6
100
AcDbEntity
  8
0
100
AcDbCircle
 62
7
  6
CONTINUOUS
 10
137.8806699254
 20
88.495670118
 40
13.7507110881
100
AcDbArc
 50
222.081056495
 51
227.0502739023
  0
ARC
  5
2E7
100
AcDbEntity
  8
0
100
AcDbCircle
 62
7
  6
CONTINUOUS
 10
137.8789364615
 20
88.4905348177
 40
13.7458232275
100
AcDbArc
 50
224.5720740271
 51
225.3993369038
  0
ARC
  5
2E8
100
AcDbEntity
  8
0
100
AcDbCircle
 62
7
  6
CONTINUOUS
 10
162.6722536021
 20
131.4833304383
 40
13.6529937153
100
AcDbArc
 50
72.9289041898
 51
76.0859056703
  0
ARC
  5
2E9
100
AcDbEntity
  8
0
100
AcDbCircle
 62
7
  6
CONTINUOUS
 10
137.8082349613
 20
88.418854426
 40
13.6451416473
100
AcDbArc
 50
225.3993769561
 51
226.2306969589
  0
ARC
  5
2EA
100
AcDbEntity
  8
0
100
AcDbCircle
 62
7
  6
CONTINUOUS
 10
137.7421023456
 20
88.3498242708
 40
13.5495451768
100
AcDbArc
 50
226.2307153879
 51
227.0729568098
  0
ARC
  5
2EB
100
AcDbEntity
  8
0
100
AcDbCircle
 62
7
  6
CONTINUOUS
 10
160.7806029412
 20
101.7682284435
 40
8.3843965658
100
AcDbArc
 50
300.0174206679
 51
303.6152317679
  0
ARC
  5
2EC
100
AcDbEntity
  8
0
100
AcDbCircle
 62
7
  6
CONTINUOUS
 10
127.5482048999
 20
120.793597304
 40
4.0020385179
100
AcDbArc
 50
291.0406629368
 51
291.6253319493
  0
ARC
  5
2ED
100
AcDbEntity
  8
0
100
AcDbCircle
 62
7
  6
CONTINUOUS
 10
129.6587325322
 20
124.2132619362
 40
3.849849853
100
AcDbArc
 50
8.9502338332
 51
10.8704732924
  0
ARC
  5
2EE
100
AcDbEntity
  8
0
100
AcDbCircle
 62
7
  6
CONTINUOUS
 10
127.6023671093
 20
120.6511840728
 40
3.8496747295
100
AcDbArc
 50
289.1290765162
 51
291.0492906562
  0
ARC
  5
2EF
100
AcDbEntity
  8
0
100
AcDbCircle
 62
7
  6
CONTINUOUS
 10
133.8341779714
 20
125.0118198615
 40
0.4013740419
100
AcDbArc
 50
184.3682550485
 51
186.4250805336
  0
ARC
  5
2F0
100
AcDbEntity
  8
0
100
AcDbCircle
 62
7
  6
CONTINUOUS
 10
128.9983775615
 20
116.6361353089
 40
0.4012455255
100
AcDbArc
 50
113.5714070382
 51
115.6176483383
  0
ARC
  5
2F1
100
AcDbEntity
  8
0
100
AcDbCircle
 62
7
  6
CONTINUOUS
 10
133.7932972942
 20
125.00694501
 40
0.3602047208
100
AcDbArc
 50
186.3822087899
 51
190.8237490708
  0
ARC
  5
2F2
100
AcDbEntity
  8
0
100
AcDbCircle
 62
7
  6
CONTINUOUS
 10
128.9822001832
 20
116.6738889589
 40
0.3601728513
100
AcDbArc
 50
109.1757174183
 51
113.6143254412
  0
ARC
  5
2F3
100
AcDbEntity
  8
0
100
AcDbCircle
 62
7
  6
CONTINUOUS
 10
303.053556835
 20
-137.9372982699
 40
415.186917597
100
AcDbArc
 50
121.3855737616
 51
123.3542960546
  0
ARC
  5
2F4
100
AcDbEntity
  8
0
100
AcDbCircle
 62
7
  6
CONTINUOUS
 10
187.5345736722
 20
88.3501262651
 40
65.4589905768
100
AcDbArc
 50
154.3748244015
 51
154.6695435922
  0
ARC
  5
2F5
100
AcDbEntity
  8
0
100
AcDbCircle
 62
7
  6
CONTINUOUS
 10
187.3899516075
 20
88.4185756237
 40
65.2989879011
100
AcDbArc
 50
154.6695378382
 51
154.9622792216
  0
ARC
  5
2F6
100
AcDbEntity
  8
0
100
AcDbCircle
 62
7
  6
CONTINUOUS
 10
187.4101313616
 20
88.5912940815
 40
65.229904018
100
AcDbArc
 50
144.5142069654
 51
145.6262038416
  0
ARC
  5
2F7
100
AcDbEntity
  8
0
100
AcDbCircle
 62
7
  6
CONTINUOUS
 10
187.2347490706
 20
88.4910703202
 40
65.1276890146
100
AcDbArc
 50
154.9622777319
 51
155.255534722
  0
ARC
  5
2F8
100
AcDbEntity
  8
0
100
AcDbCircle
 62
7
  6
CONTINUOUS
 10
187.0718716365
 20
88.566133172
 40
64.9483471896
100
AcDbArc
 50
155.2555302378
 51
155.5493268662
  0
ARC
  5
2F9
100
AcDbEntity
  8
0
100
AcDbCircle
 62
7
  6
CONTINUOUS
 10
187.0647579379
 20
88.5710119338
 40
64.9398554097
100
AcDbArc
 50
154.376219342
 51
156.1399082845
  0
ARC
  5
2FA
100
AcDbEntity
  8
0
100
AcDbCircle
 62
7
  6
CONTINUOUS
 10
186.9014759599
 20
88.6436079393
 40
64.7611653898
100
AcDbArc
 50
155.5493253178
 51
155.8436851372
  0
ARC
  5
2FB
100
AcDbEntity
  8
0
100
AcDbCircle
 62
7
  6
CONTINUOUS
 10
186.9426128617
 20
88.924131456
 40
64.6560101945
100
AcDbArc
 50
143.7699054639
 51
144.5138711084
  0
ARC
  5
2FC
100
AcDbEntity
  8
0
100
AcDbCircle
 62
7
  6
CONTINUOUS
 10
186.7206498062
 20
88.7247020738
 40
64.5629878015
100
AcDbArc
 50
155.8436797116
 51
156.1361674472
  0
ARC
  5
2FD
100
AcDbEntity
  8
0
100
AcDbCircle
 62
7
  6
CONTINUOUS
 10
186.2891605016
 20
89.4053594721
 40
63.8444829625
100
AcDbArc
 50
142.5204971252
 51
143.7716760783
  0
ARC
  5
2FE
100
AcDbEntity
  8
0
100
AcDbCircle
 62
7
  6
CONTINUOUS
 10
185.7426691678
 20
89.8238956512
 40
63.1561333727
100
AcDbArc
 50
141.8903863908
 51
142.5201437513
  0
ARC
  5
2FF
100
AcDbEntity
  8
0
100
AcDbCircle
 62
7
  6
CONTINUOUS
 10
184.7235917976
 20
90.6321889508
 40
61.8554389371
100
AcDbArc
 50
139.9796259327
 51
141.8969155588
  0
ARC
  5
300
100
AcDbEntity
  8
0
100
AcDbCircle
 62
7
  6
CONTINUOUS
 10
177.9388029567
 20
93.4055038448
 40
2.0734182827
100
AcDbArc
 50
300.008590537
 51
301.7708195545
  0
SPLINE
  5
301
100
AcDbEntity
  8
0
100
AcDbSpline
 62
7
  6
CONTINUOUS
 70
0
 71
3
 72
15
 73
11
 74
0
 42
0.0000001
 43
0.0000001
 44
0.0000000001
 40
0.0
 40
0.0
 40
0.0
 40
0.0
 40
0.1141570501
 40
0.2373236064
 40
0.3669737018
 40
0.4999979306
 40
0.6330240816
 40
0.7626748931
 40
0.8858462905
 40
1.0
 40
1.0
 40
1.0
 40
1.0
 10
181.2385324318
 20
87.9766240933
 30
0.0
 10
181.4805737823
 20
88.116365898
 30
0.0
 10
181.9586376845
 20
88.451477497
 30
0.0
 10
182.6164117966
 20
89.0669054464
 30
0.0
 10
183.2226053659
 20
89.7943574437
 30
0.0
 10
183.7543624453
 20
90.6065969191
 30
0.0
 10
184.191898673
 20
91.4732357016
 30
0.0
 10
184.5188024411
 20
92.3619581758
 30
0.0
 10
184.7228602548
 20
93.2393342711
 30
0.0
 10
184.7740437612
 20
93.8209083007
 30
0.0
 10
184.7740413023
 20
94.1003849829
 30
0.0
  0
SPLINE
  5
302
100
AcDbEntity
  8
0
100
AcDbSpline
 62
7
  6
CONTINUOUS
 70
0
 71
3
 72
18
 73
14
 74
0
 42
0.0000001
 43
0.0000001
 44
0.0000000001
 40
0.0
 40
0.0
 40
0.0
 40
0.0
 40
0.1286547986
 40
0.2702044602
 40
0.4173200721
 40
0.5616304143
 40
0.6952669146
 40
0.7562727081
 40
0.8127634675
 40
0.8647144723
 40
0.91253546
 40
0.9571523106
 40
1.0
 40
1.0
 40
1.0
 40
1.0
 10
169.571210191
 20
106.1435953652
 30
0.0
 10
169.4231620904
 20
106.2290690423
 30
0.0
 10
169.0879550525
 20
106.3673656558
 30
0.0
 10
168.541670931
 20
106.4766819577
 30
0.0
 10
167.9637507091
 20
106.4926442814
 30
0.0
 10
167.4018858946
 20
106.4137515133
 30
0.0
 10
166.9712830612
 20
106.269939025
 30
0.0
 10
166.6774199695
 20
106.1101801948
 30
0.0
 10
166.4950042016
 20
105.9768648119
 30
0.0
 10
166.3477843616
 20
105.8290423829
 30
0.0
 10
166.2391635707
 20
105.6692818389
 30
0.0
 10
166.1722466646
 20
105.500752516
 30
0.0
 10
166.157004801
 20
105.3840409884
 30
0.0
 10
166.157010478
 20
105.3271070577
 30
0.0
  0
SPLINE
  5
303
100
AcDbEntity
  8
0
100
AcDbSpline
 62
7
  6
CONTINUOUS
 70
0
 71
3
 72
14
 73
10
 74
0
 42
0.0000001
 43
0.0000001
 44
0.0000000001
 40
0.0
 40
0.0
 40
0.0
 40
0.0
 40
0.2856754062
 40
0.4179672672
 40
0.5436381652
 40
0.6634503113
 40
0.7784830867
 40
0.8901239133
 40
1.0
 40
1.0
 40
1.0
 40
1.0
 10
170.9739490256
 20
105.3401001587
 30
0.0
 10
170.9527100959
 20
105.7249217784
 30
0.0
 10
170.8770854613
 20
106.2881037482
 30
0.0
 10
170.6673716334
 20
106.9921274046
 30
0.0
 10
170.4671182098
 20
107.4621552194
 30
0.0
 10
170.2213785826
 20
107.8834855924
 30
0.0
 10
169.9317779457
 20
108.2524701924
 30
0.0
 10
169.6007490946
 20
108.5656567344
 30
0.0
 10
169.3533044575
 20
108.7358010358
 30
0.0
 10
169.2249320366
 20
108.8099231291
 30
0.0
  0
SPLINE
  5
304
100
AcDbEntity
  8
0
100
AcDbSpline
 62
7
  6
CONTINUOUS
 70
0
 71
3
 72
25
 73
21
 74
0
 42
0.0000001
 43
0.0000001
 44
0.0000000001
 40
0.0
 40
0.0
 40
0.0
 40
0.0
 40
0.0213321565
 40
0.0428926271
 40
0.0648980767
 40
0.0875427622
 40
0.13531786
 40
0.1872187494
 40
0.2436563991
 40
0.3046042874
 40
0.3696920609
 40
0.4382893933
 40
0.5095759212
 40
0.5826002178
 40
0.6563317602
 40
0.7297088276
 40
0.8016851456
 40
0.8712776657
 40
0.9376167952
 40
1.0
 40
1.0
 40
1.0
 40
1.0
 10
160.0179757768
 20
94.4956647368
 30
0.0
 10
159.9135485456
 20
94.5559609164
 30
0.0
 10
159.7111071338
 20
94.6908016272
 30
0.0
 10
159.4332663647
 20
94.9317346287
 30
0.0
 10
159.1820180275
 20
95.2103846863
 30
0.0
 10
158.8790654155
 20
95.6372794425
 30
0.0
 10
158.5757938007
 20
96.264582112
 30
0.0
 10
158.344617689
 20
97.1204343044
 30
0.0
 10
158.2415933912
 20
98.0751630755
 30
0.0
 10
158.2679128863
 20
99.1088910138
 30
0.0
 10
158.4224037297
 20
100.2003654831
 30
0.0
 10
158.7016264452
 20
101.3267553723
 30
0.0
 10
159.099592892
 20
102.4643007924
 30
0.0
 10
159.6078274067
 20
103.5888464454
 30
0.0
 10
160.215495072
 20
104.6764321056
 30
0.0
 10
160.9096357101
 20
105.7038603335
 30
0.0
 10
161.6754377994
 20
106.6492115895
 30
0.0
 10
162.4966887593
 20
107.4924159992
 30
0.0
 10
163.3558264355
 20
108.2154365825
 30
0.0
 10
163.9625078427
 20
108.6208682023
 30
0.0
 10
164.2678990283
 20
108.797184833
 30
0.0
  0
SPLINE
  5
305
100
AcDbEntity
  8
0
100
AcDbSpline
 62
7
  6
CONTINUOUS
 70
0
 71
3
 72
14
 73
10
 74
0
 42
0.0000001
 43
0.0000001
 44
0.0000000001
 40
0.0
 40
0.0
 40
0.0
 40
0.0
 40
0.2892797488
 40
0.4225375223
 40
0.5484947303
 40
0.6678933235
 40
0.7818674376
 40
0.8919517738
 40
1.0
 40
1.0
 40
1.0
 40
1.0
 10
164.2678990283
 20
108.797184833
 30
0.0
 10
164.6410051305
 20
109.0125964557
 30
0.0
 10
165.2138122531
 20
109.2852239953
 30
0.0
 10
165.9993683711
 20
109.5142824995
 30
0.0
 10
166.556951728
 20
109.6078013867
 30
0.0
 10
167.0934686163
 20
109.6264793254
 30
0.0
 10
167.603835322
 20
109.5695686774
 30
0.0
 10
168.0825757965
 20
109.4371612194
 30
0.0
 10
168.3784674105
 20
109.2986272012
 30
0.0
 10
168.5178222797
 20
109.218163838
 30
0.0
  0
SPLINE
  5
306
100
AcDbEntity
  8
0
100
AcDbSpline
 62
7
  6
CONTINUOUS
 70
0
 71
3
 72
14
 73
10
 74
0
 42
0.0000001
 43
0.0000001
 44
0.0000000001
 40
0.0
 40
0.0
 40
0.0
 40
0.0
 40
0.1080476604
 40
0.21813156
 40
0.3321055142
 40
0.4515042481
 40
0.5774615515
 40
0.7107197142
 40
1.0
 40
1.0
 40
1.0
 40
1.0
 10
160.7250854702
 20
94.0874239366
 30
0.0
 10
160.8644396107
 20
94.0069610105
 30
0.0
 10
161.1603300015
 20
93.8684279556
 30
0.0
 10
161.639068555
 20
93.7360205089
 30
0.0
 10
162.1494344422
 20
93.6791084215
 30
0.0
 10
162.6859514172
 20
93.6977867244
 30
0.0
 10
163.2435358832
 20
93.7913042785
 30
0.0
 10
164.0290935318
 20
94.0203630948
 30
0.0
 10
164.6019019751
 20
94.2929909742
 30
0.0
 10
164.9750087534
 20
94.5084029873
 30
0.0
  0
SPLINE
  5
307
100
AcDbEntity
  8
0
100
AcDbSpline
 62
7
  6
CONTINUOUS
 70
0
 71
3
 72
11
 73
7
 74
0
 42
0.0000001
 43
0.0000001
 44
0.0000000001
 40
0.0
 40
0.0
 40
0.0
 40
0.0
 40
0.2177680974
 40
0.4509390898
 40
0.7102093394
 40
1.0
 40
1.0
 40
1.0
 40
1.0
 10
180.0565307072
 20
99.6117364939
 30
0.0
 10
180.0565231118
 20
99.6879096123
 30
0.0
 10
180.0284150415
 20
99.8467077282
 30
0.0
 10
179.9080087757
 20
100.0678885324
 30
0.0
 10
179.7177749401
 20
100.2679223672
 30
0.0
 10
179.5585322809
 20
100.3775427137
 30
0.0
 10
179.4707463431
 20
100.4282248019
 30
0.0
  0
SPLINE
  5
308
100
AcDbEntity
  8
0
100
AcDbSpline
 62
7
  6
CONTINUOUS
 70
0
 71
3
 72
16
 73
12
 74
0
 42
0.0000001
 43
0.0000001
 44
0.0000000001
 40
0.0
 40
0.0
 40
0.0
 40
0.0
 40
0.0992134394
 40
0.1542130364
 40
0.2126434323
 40
0.3384381301
 40
0.4731074031
 40
0.6117977927
 40
0.7491623358
 40
0.8800102148
 40
1.0
 40
1.0
 40
1.0
 40
1.0
 10
179.025686006
 20
89.8055236685
 30
0.0
 10
178.9528031587
 20
89.9837648845
 30
0.0
 10
178.8855043337
 20
90.2804269027
 30
0.0
 10
178.8640073257
 20
90.6928181556
 30
0.0
 10
178.8882247264
 20
91.1573719572
 30
0.0
 10
179.0082520835
 20
91.7678944881
 30
0.0
 10
179.2735697526
 20
92.4985587089
 30
0.0
 10
179.6490578953
 20
93.2046722502
 30
0.0
 10
180.1137398024
 20
93.8465788844
 30
0.0
 10
180.641291648
 20
94.3882992256
 30
0.0
 10
181.0368418165
 20
94.6779738403
 30
0.0
 10
181.2385324318
 20
94.7944192763
 30
0.0
  0
SPLINE
  5
309
100
AcDbEntity
  8
0
100
AcDbSpline
 62
7
  6
CONTINUOUS
 70
0
 71
3
 72
14
 73
10
 74
0
 42
0.0000001
 43
0.0000001
 44
0.0000000001
 40
0.0
 40
0.0
 40
0.0
 40
0.0
 40
0.2892715329
 40
0.4225370463
 40
0.548498274
 40
0.6678935883
 40
0.7818687989
 40
0.8919527891
 40
1.0
 40
1.0
 40
1.0
 40
1.0
 10
184.7740410535
 20
94.5086323971
 30
0.0
 10
184.7740390455
 20
94.7874013959
 30
0.0
 10
184.741493488
 20
95.1965999927
 30
0.0
 10
184.6156882435
 20
95.7109227407
 30
0.0
 10
184.4877164766
 20
96.0536590818
 30
0.0
 10
184.3245687458
 20
96.3603436552
 30
0.0
 10
184.1275681736
 20
96.6279391823
 30
0.0
 10
183.8984698742
 20
96.8533716793
 30
0.0
 10
183.7251059064
 20
96.9743621739
 30
0.0
 10
183.6349277199
 20
97.0264176898
 30
0.0
  0
SPLINE
  5
30A
100
AcDbEntity
  8
0
100
AcDbSpline
 62
7
  6
CONTINUOUS
 70
0
 71
3
 72
14
 73
10
 74
0
 42
0.0000001
 43
0.0000001
 44
0.0000000001
 40
0.0
 40
0.0
 40
0.0
 40
0.0
 40
0.1080480835
 40
0.2181324704
 40
0.3321070822
 40
0.4515078655
 40
0.5774586679
 40
0.710719895
 40
1.0
 40
1.0
 40
1.0
 40
1.0
 10
178.1350274186
 20
87.5000954226
 30
0.0
 10
178.225203851
 20
87.4480409193
 30
0.0
 10
178.4166495193
 20
87.3583729654
 30
0.0
 10
178.7264345356
 20
87.2727335051
 30
0.0
 10
179.0566694669
 20
87.2358779872
 30
0.0
 10
179.4038246975
 20
87.2479868487
 30
0.0
 10
179.7646139895
 20
87.3084852694
 30
0.0
 10
180.2729132572
 20
87.4567010997
 30
0.0
 10
180.6435556658
 20
87.633109093
 30
0.0
 10
180.8849775692
 20
87.772493262
 30
0.0
  0
SPLINE
  5
30B
100
AcDbEntity
  8
0
100
AcDbSpline
 62
7
  6
CONTINUOUS
 70
0
 71
3
 72
14
 73
10
 74
0
 42
0.0000001
 43
0.0000001
 44
0.0000000001
 40
0.0
 40
0.0
 40
0.0
 40
0.0
 40
0.1080476604
 40
0.21813156
 40
0.3321055142
 40
0.4515042481
 40
0.5774615515
 40
0.7107197142
 40
1.0
 40
1.0
 40
1.0
 40
1.0
 10
169.2249320366
 20
108.8099231291
 30
0.0
 10
169.0855778962
 20
108.8903860553
 30
0.0
 10
168.7896875054
 20
109.0289191101
 30
0.0
 10
168.3109489519
 20
109.1613265569
 30
0.0
 10
167.8005830647
 20
109.2182386443
 30
0.0
 10
167.2640660897
 20
109.1995603414
 30
0.0
 10
166.7064816236
 20
109.1060427873
 30
0.0
 10
165.9209239751
 20
108.876983971
 30
0.0
 10
165.3481155318
 20
108.6043560916
 30
0.0
 10
164.9750087534
 20
108.3889440785
 30
0.0
  0
SPLINE
  5
30C
100
AcDbEntity
  8
0
100
AcDbSpline
 62
7
  6
CONTINUOUS
 70
0
 71
3
 72
18
 73
14
 74
0
 42
0.0000001
 43
0.0000001
 44
0.0000000001
 40
0.0
 40
0.0
 40
0.0
 40
0.0
 40
0.1286547986
 40
0.2702044602
 40
0.4173200721
 40
0.5616304143
 40
0.6952669146
 40
0.7562727081
 40
0.8127634675
 40
0.8647144723
 40
0.91253546
 40
0.9571523106
 40
1.0
 40
1.0
 40
1.0
 40
1.0
 10
176.6423309942
 20
98.7952481864
 30
0.0
 10
176.7903790948
 20
98.7097745094
 30
0.0
 10
177.1255861327
 20
98.5714778959
 30
0.0
 10
177.6718702542
 20
98.4621615939
 30
0.0
 10
178.2497904761
 20
98.4461992702
 30
0.0
 10
178.8116552906
 20
98.5250920383
 30
0.0
 10
179.242258124
 20
98.6689045267
 30
0.0
 10
179.5361212158
 20
98.8286633568
 30
0.0
 10
179.7185369837
 20
98.9619787398
 30
0.0
 10
179.8657568236
 20
99.1098011687
 30
0.0
 10
179.9743776145
 20
99.2695617127
 30
0.0
 10
180.0412945207
 20
99.4380910356
 30
0.0
 10
180.0565363842
 20
99.5548025633
 30
0.0
 10
180.0565307072
 20
99.6117364939
 30
0.0
  0
SPLINE
  5
30D
100
AcDbEntity
  8
0
100
AcDbSpline
 62
7
  6
CONTINUOUS
 70
0
 71
3
 72
15
 73
11
 74
0
 42
0.0000001
 43
0.0000001
 44
0.0000000001
 40
0.0
 40
0.0
 40
0.0
 40
0.0
 40
0.1514586457
 40
0.2907220151
 40
0.4184570396
 40
0.5368511166
 40
0.649487032
 40
0.761073975
 40
0.8765316999
 40
1.0
 40
1.0
 40
1.0
 40
1.0
 10
181.2385324318
 20
89.3238530815
 30
0.0
 10
181.1241854601
 20
89.2578352207
 30
0.0
 10
180.8963855684
 20
89.1445766383
 30
0.0
 10
180.5473869039
 20
89.0329715366
 30
0.0
 10
180.2119927162
 20
88.9897545331
 30
0.0
 10
179.8976182968
 20
89.0172509958
 30
0.0
 10
179.612408152
 20
89.1166447857
 30
0.0
 10
179.365296995
 20
89.2860628657
 30
0.0
 10
179.1637505678
 20
89.5196872797
 30
0.0
 10
179.0664239847
 20
89.7058954687
 30
0.0
 10
179.025686006
 20
89.8055236685
 30
0.0
  0
SPLINE
  5
30E
100
AcDbEntity
  8
0
100
AcDbSpline
 62
7
  6
CONTINUOUS
 70
0
 71
3
 72
25
 73
21
 74
0
 42
0.0000001
 43
0.0000001
 44
0.0000000001
 40
0.0
 40
0.0
 40
0.0
 40
0.0
 40
0.0623830307
 40
0.128721784
 40
0.1983140462
 40
0.2702902405
 40
0.3436674847
 40
0.4173993175
 40
0.4904237818
 40
0.5617103523
 40
0.6303077228
 40
0.6953955635
 40
0.7563435137
 40
0.8127812115
 40
0.8646821599
 40
0.9124573208
 40
0.9351020144
 40
0.9571074584
 40
0.9786678926
 40
1.0
 40
1.0
 40
1.0
 40
1.0
 10
164.9750087534
 20
108.3889440785
 30
0.0
 10
164.6696184179
 20
108.2126279386
 30
0.0
 10
164.0629394154
 20
107.8071983283
 30
0.0
 10
163.2038050168
 20
107.0841809793
 30
0.0
 10
162.3825559203
 20
106.2409807504
 30
0.0
 10
161.6167536734
 20
105.2956310883
 30
0.0
 10
160.9226108592
 20
104.2682019685
 30
0.0
 10
160.3149407787
 20
103.1806135116
 30
0.0
 10
159.8067045784
 20
102.0560654984
 30
0.0
 10
159.4087372523
 20
100.9185188833
 30
0.0
 10
159.1295139558
 20
99.7921282662
 30
0.0
 10
158.9750226563
 20
98.7006528899
 30
0.0
 10
158.9487029042
 20
97.6669239528
 30
0.0
 10
159.0517271093
 20
96.7121941687
 30
0.0
 10
159.2829035891
 20
95.8563411257
 30
0.0
 10
159.5861753148
 20
95.2290375474
 30
0.0
 10
159.8891290468
 20
94.8021431795
 30
0.0
 10
160.1403767469
 20
94.5234927699
 30
0.0
 10
160.4182178812
 20
94.2825609859
 30
0.0
 10
160.6206584734
 20
94.1477199687
 30
0.0
 10
160.7250854702
 20
94.0874239366
 30
0.0
  0
SPLINE
  5
30F
100
AcDbEntity
  8
0
100
AcDbSpline
 62
7
  6
CONTINUOUS
 70
0
 71
3
 72
11
 73
7
 74
0
 42
0.0000001
 43
0.0000001
 44
0.0000000001
 40
0.0
 40
0.0
 40
0.0
 40
0.0
 40
0.2830068847
 40
0.5425713023
 40
0.7800194094
 40
1.0
 40
1.0
 40
1.0
 40
1.0
 10
179.7688324672
 20
91.1521684564
 30
0.0
 10
179.6932630064
 20
91.1085386682
 30
0.0
 10
179.542726178
 20
91.0340416208
 30
0.0
 10
179.3119955452
 20
90.9621158459
 30
0.0
 10
179.0908759288
 20
90.9369406022
 30
0.0
 10
178.9490951597
 20
90.9530073172
 30
0.0
 10
178.8832941247
 20
90.9694609323
 30
0.0
  0
SPLINE
  5
310
100
AcDbEntity
  8
0
100
AcDbSpline
 62
7
  6
CONTINUOUS
 70
0
 71
3
 72
11
 73
7
 74
0
 42
0.0000001
 43
0.0000001
 44
0.0000000001
 40
0.0
 40
0.0
 40
0.0
 40
0.0
 40
0.2840680128
 40
0.5436448699
 40
0.7805878088
 40
1.0
 40
1.0
 40
1.0
 40
1.0
 10
164.9750087534
 20
105.9394368271
 30
0.0
 10
165.1746435519
 20
106.0546953437
 30
0.0
 10
165.572112898
 20
106.2504603401
 30
0.0
 10
166.1816393702
 20
106.4348453413
 30
0.0
 10
166.764174036
 20
106.4912007167
 30
0.0
 10
167.1355152274
 20
106.4382235278
 30
0.0
 10
167.3066298009
 20
106.3890116289
 30
0.0
  0
SPLINE
  5
311
100
AcDbEntity
  8
0
100
AcDbSpline
 62
7
  6
CONTINUOUS
 70
0
 71
3
 72
23
 73
19
 74
0
 42
0.0000001
 43
0.0000001
 44
0.0000000001
 40
0.0
 40
0.0
 40
0.0
 40
0.0
 40
0.0623906377
 40
0.1287435921
 40
0.19834512
 40
0.2703337933
 40
0.3437223112
 40
0.4174657569
 40
0.4905019234
 40
0.5618001831
 40
0.6304088477
 40
0.6955072805
 40
0.7564650157
 40
0.8129117107
 40
0.8648209416
 40
0.912603778
 40
0.9571856711
 40
1.0
 40
1.0
 40
1.0
 40
1.0
 10
180.8849775692
 20
96.7540198504
 30
0.0
 10
180.687379769
 20
96.6399373882
 30
0.0
 10
180.294823757
 20
96.377592663
 30
0.0
 10
179.7389062395
 20
95.9097707321
 30
0.0
 10
179.2075146529
 20
95.3641528695
 30
0.0
 10
178.7119929519
 20
94.752466094
 30
0.0
 10
178.2628445709
 20
94.0876563436
 30
0.0
 10
177.8696445619
 20
93.3839273943
 30
0.0
 10
177.5407839925
 20
92.6562797811
 30
0.0
 10
177.2832719459
 20
91.9202201118
 30
0.0
 10
177.1025959418
 20
91.1913767857
 30
0.0
 10
177.0026287776
 20
90.4851292541
 30
0.0
 10
176.9856077311
 20
89.8162369624
 30
0.0
 10
177.0522477561
 20
89.198500709
 30
0.0
 10
177.201916312
 20
88.6446183401
 30
0.0
 10
177.4330599483
 20
88.1662638907
 30
0.0
 10
177.7423905801
 20
87.7751252736
 30
0.0
 10
177.999424293
 20
87.5783725639
 30
0.0
 10
178.1350274186
 20
87.5000954226
 30
0.0
  0
SPLINE
  5
312
100
AcDbEntity
  8
0
100
AcDbSpline
 62
7
  6
CONTINUOUS
 70
0
 71
3
 72
15
 73
11
 74
0
 42
0.0000001
 43
0.0000001
 44
0.0000000001
 40
0.0
 40
0.0
 40
0.0
 40
0.0
 40
0.1152700429
 40
0.2388369849
 40
0.3683123581
 40
0.5007993662
 40
0.6331766778
 40
0.7623355725
 40
0.8854040264
 40
1.0
 40
1.0
 40
1.0
 40
1.0
 10
179.0305051249
 20
91.6427645699
 30
0.0
 10
179.130276811
 20
91.7045345104
 30
0.0
 10
179.3267673908
 20
91.8494620126
 30
0.0
 10
179.5970027733
 20
92.1106544235
 30
0.0
 10
179.8456430718
 20
92.4154362543
 30
0.0
 10
180.0640066846
 20
92.7532276172
 30
0.0
 10
180.2445377686
 20
93.1123040696
 30
0.0
 10
180.380965509
 20
93.4802281756
 30
0.0
 10
180.46854726
 20
93.8441592459
 30
0.0
 10
180.4933438178
 20
94.0858737361
 30
0.0
 10
180.4956432877
 20
94.2025101474
 30
0.0
  0
SPLINE
  5
313
100
AcDbEntity
  8
0
100
AcDbSpline
 62
7
  6
CONTINUOUS
 70
0
 71
3
 72
11
 73
7
 74
0
 42
0.0000001
 43
0.0000001
 44
0.0000000001
 40
0.0
 40
0.0
 40
0.0
 40
0.0
 40
0.2177680974
 40
0.4509390898
 40
0.7102093394
 40
1.0
 40
1.0
 40
1.0
 40
1.0
 10
166.157010478
 20
105.3271070577
 30
0.0
 10
166.1570180734
 20
105.2509339394
 30
0.0
 10
166.1851261437
 20
105.0921358235
 30
0.0
 10
166.3055324096
 20
104.8709550193
 30
0.0
 10
166.4957662452
 20
104.6709211844
 30
0.0
 10
166.6550089043
 20
104.561300838
 30
0.0
 10
166.7427948422
 20
104.5106187497
 30
0.0
  0
SPLINE
  5
314
100
AcDbEntity
  8
0
100
AcDbSpline
 62
7
  6
CONTINUOUS
 70
0
 71
3
 72
11
 73
7
 74
0
 42
0.0000001
 43
0.0000001
 44
0.0000000001
 40
0.0
 40
0.0
 40
0.0
 40
0.0
 40
0.239898315
 40
0.4838531092
 40
0.7357179521
 40
1.0
 40
1.0
 40
1.0
 40
1.0
 10
166.1570025165
 20
103.9513611563
 30
0.0
 10
166.1570021181
 20
103.8564358903
 30
0.0
 10
166.182813478
 20
103.6640331028
 30
0.0
 10
166.2977294139
 20
103.3928959839
 30
0.0
 10
166.4863653889
 20
103.1541732819
 30
0.0
 10
166.6522308879
 20
103.0307178046
 30
0.0
 10
166.7427948422
 20
102.9784318641
 30
0.0
  0
SPLINE
  5
315
100
AcDbEntity
  8
0
100
AcDbSpline
 62
7
  6
CONTINUOUS
 70
0
 71
3
 72
23
 73
19
 74
0
 42
0.0000001
 43
0.0000001
 44
0.0000000001
 40
0.0
 40
0.0
 40
0.0
 40
0.0
 40
0.0490305593
 40
0.0946364726
 40
0.1391328035
 40
0.1851316588
 40
0.234846633
 40
0.289660685
 40
0.3500869025
 40
0.4159252916
 40
0.4864461139
 40
0.5605450702
 40
0.6368696167
 40
0.7139240381
 40
0.7901695991
 40
0.8641162594
 40
0.9344257254
 40
1.0
 40
1.0
 40
1.0
 40
1.0
 10
182.0837389833
 20
95.1023535475
 30
0.0
 10
182.205767252
 20
95.1189820396
 30
0.0
 10
182.4462053503
 20
95.1258793866
 30
0.0
 10
182.79008606
 20
95.0406744543
 30
0.0
 10
183.0866452793
 20
94.8599249874
 30
0.0
 10
183.322522568
 20
94.5919892965
 30
0.0
 10
183.4911210421
 20
94.2495003198
 30
0.0
 10
183.5901877383
 20
93.8444651872
 30
0.0
 10
183.6187930079
 20
93.3885737114
 30
0.0
 10
183.5769861319
 20
92.8945411783
 30
0.0
 10
183.4662844312
 20
92.3763688975
 30
0.0
 10
183.2899998004
 20
91.8490139569
 30
0.0
 10
183.0533111502
 20
91.3278842537
 30
0.0
 10
182.7631833141
 20
90.8282870508
 30
0.0
 10
182.4281559353
 20
90.364946648
 30
0.0
 10
182.0580385029
 20
89.9514285107
 30
0.0
 10
181.6637517539
 20
89.5999628499
 30
0.0
 10
181.3811764522
 20
89.4062081535
 30
0.0
 10
181.2385324318
 20
89.3238530815
 30
0.0
  0
SPLINE
  5
316
100
AcDbEntity
  8
0
100
AcDbSpline
 62
7
  6
CONTINUOUS
 70
0
 71
3
 72
26
 73
22
 74
0
 42
0.0000001
 43
0.0000001
 44
0.0000000001
 40
0.0
 40
0.0
 40
0.0
 40
0.0
 40
0.0664398582
 40
0.1379982217
 40
0.2133178437
 40
0.2907224169
 40
0.3683843231
 40
0.4444533009
 40
0.5171991307
 40
0.5851564519
 40
0.6472951179
 40
0.7032308283
 40
0.753482696
 40
0.7770139962
 40
0.7998441065
 40
0.822344933
 40
0.8449165479
 40
0.8679526335
 40
0.8918086159
 40
0.9429726071
 40
1.0
 40
1.0
 40
1.0
 40
1.0
 10
181.2385324318
 20
96.1416482646
 30
0.0
 10
181.00484557
 20
96.0067298974
 30
0.0
 10
180.5428781824
 20
95.6849379553
 30
0.0
 10
179.9046352402
 20
95.0959026915
 30
0.0
 10
179.3131707331
 20
94.4004059655
 30
0.0
 10
178.7893554705
 20
93.6228362856
 30
0.0
 10
178.3514343807
 20
92.7904056576
 30
0.0
 10
178.0147895037
 20
91.932296371
 30
0.0
 10
177.7912066004
 20
91.0784375109
 30
0.0
 10
177.6885263182
 20
90.2582963394
 30
0.0
 10
177.7109287201
 20
89.4994354563
 30
0.0
 10
177.8588677224
 20
88.8271937721
 30
0.0
 10
178.0921174423
 20
88.3471805785
 30
0.0
 10
178.3378803578
 20
88.0395092327
 30
0.0
 10
178.5451244413
 20
87.8499053053
 30
0.0
 10
178.7772588754
 20
87.6987094831
 30
0.0
 10
179.0318778541
 20
87.587471264
 30
0.0
 10
179.3063481611
 20
87.5173100898
 30
0.0
 10
179.7040212342
 20
87.4781529478
 30
0.0
 10
180.2429890728
 20
87.5412263679
 30
0.0
 10
180.6598169882
 20
87.6901545623
 30
0.0
 10
180.8705091474
 20
87.7863425931
 30
0.0
  0
SPLINE
  5
317
100
AcDbEntity
  8
0
100
AcDbSpline
 62
7
  6
CONTINUOUS
 70
0
 71
3
 72
9
 73
5
 74
0
 42
0.0000001
 43
0.0000001
 44
0.0000000001
 40
0.0
 40
0.0
 40
0.0
 40
0.0
 40
0.2450253433
 40
1.0
 40
1.0
 40
1.0
 40
1.0
 10
180.8705091474
 20
87.7863425931
 30
0.0
 10
180.9012979936
 20
87.8003987331
 30
0.0
 10
181.0262243299
 20
87.8593545382
 30
0.0
 10
181.148218339
 20
87.9244815387
 30
0.0
 10
181.2385324318
 20
87.9766240933
 30
0.0
  0
SPLINE
  5
318
100
AcDbEntity
  8
0
100
AcDbSpline
 62
7
  6
CONTINUOUS
 70
0
 71
3
 72
9
 73
5
 74
0
 42
0.0000001
 43
0.0000001
 44
0.0000000001
 40
0.0
 40
0.0
 40
0.0
 40
0.0
 40
0.2550702607
 40
1.0
 40
1.0
 40
1.0
 40
1.0
 10
184.7740413023
 20
94.1003849829
 30
0.0
 10
184.7740409966
 20
94.1351275399
 30
0.0
 10
184.7725358566
 20
94.2713287594
 30
0.0
 10
184.7649024373
 20
94.407481118
 30
0.0
 10
184.7553842554
 20
94.5084989288
 30
0.0
  0
SPLINE
  5
319
100
AcDbEntity
  8
0
100
AcDbSpline
 62
7
  6
CONTINUOUS
 70
0
 71
3
 72
18
 73
14
 74
0
 42
0.0000001
 43
0.0000001
 44
0.0000000001
 40
0.0
 40
0.0
 40
0.0
 40
0.0
 40
0.1389847385
 40
0.2641277506
 40
0.3225246506
 40
0.3788560645
 40
0.4339052404
 40
0.4885521774
 40
0.5437093279
 40
0.6002494779
 40
0.7201392317
 40
0.8528109906
 40
1.0
 40
1.0
 40
1.0
 40
1.0
 10
184.7553842554
 20
94.5084989288
 30
0.0
 10
184.7343272273
 20
94.7319801447
 30
0.0
 10
184.6589911527
 20
95.1548100131
 30
0.0
 10
184.4571739863
 20
95.6411110023
 30
0.0
 10
184.2384979094
 20
95.9623490894
 30
0.0
 10
184.0523105968
 20
96.1650661344
 30
0.0
 10
183.8418584271
 20
96.3330209647
 30
0.0
 10
183.6090084502
 20
96.4644583845
 30
0.0
 10
183.356037041
 20
96.5581862517
 30
0.0
 10
182.9883006524
 20
96.6332697721
 30
0.0
 10
182.4826201914
 20
96.6236403504
 30
0.0
 10
181.8540121498
 20
96.4578115168
 30
0.0
 10
181.4444056654
 20
96.2605085219
 30
0.0
 10
181.2385324318
 20
96.1416482646
 30
0.0
  0
SPLINE
  5
31A
100
AcDbEntity
  8
0
100
AcDbSpline
 62
7
  6
CONTINUOUS
 70
0
 71
3
 72
17
 73
13
 74
0
 42
0.0000001
 43
0.0000001
 44
0.0000000001
 40
0.0
 40
0.0
 40
0.0
 40
0.0
 40
0.0440024739
 40
0.0910530129
 40
0.1418682873
 40
0.1967688768
 40
0.3183358406
 40
0.4530209502
 40
0.5952639121
 40
0.7382822424
 40
0.8751635056
 40
1.0
 40
1.0
 40
1.0
 40
1.0
 10
181.0205695543
 20
94.6265814011
 30
0.0
 10
181.060651345
 20
94.5825796547
 30
0.0
 10
181.1333450313
 20
94.481813826
 30
0.0
 10
181.213267183
 20
94.3062511045
 30
0.0
 10
181.2661841078
 20
94.1056019222
 30
0.0
 10
181.3009951314
 20
93.7992757748
 30
0.0
 10
181.2683214827
 20
93.3758397098
 30
0.0
 10
181.1256170317
 20
92.8534828773
 30
0.0
 10
180.8880599214
 20
92.3348732968
 30
0.0
 10
180.5721453584
 20
91.8563817787
 30
0.0
 10
180.2002810911
 20
91.4514452255
 30
0.0
 10
179.9150714514
 20
91.2365990692
 30
0.0
 10
179.7688324672
 20
91.1521684564
 30
0.0
  0
SPLINE
  5
31B
100
AcDbEntity
  8
0
100
AcDbSpline
 62
7
  6
CONTINUOUS
 70
0
 71
3
 72
14
 73
10
 74
0
 42
0.0000001
 43
0.0000001
 44
0.0000000001
 40
0.0
 40
0.0
 40
0.0
 40
0.0
 40
0.1080480835
 40
0.2181324704
 40
0.3321070822
 40
0.4515078655
 40
0.5774586679
 40
0.710719895
 40
1.0
 40
1.0
 40
1.0
 40
1.0
 10
183.6349277199
 20
97.0264176898
 30
0.0
 10
183.5447512875
 20
97.078472193
 30
0.0
 10
183.3533056192
 20
97.1681401469
 30
0.0
 10
183.0435206028
 20
97.2537796072
 30
0.0
 10
182.7132856716
 20
97.2906351252
 30
0.0
 10
182.3661304409
 20
97.2785262637
 30
0.0
 10
182.005341149
 20
97.218027843
 30
0.0
 10
181.4970418812
 20
97.0698120127
 30
0.0
 10
181.1263994727
 20
96.8934040193
 30
0.0
 10
180.8849775692
 20
96.7540198504
 30
0.0
  0
SPLINE
  5
31C
100
AcDbEntity
  8
0
100
AcDbSpline
 62
7
  6
CONTINUOUS
 70
0
 71
3
 72
13
 73
9
 74
0
 42
0.0000001
 43
0.0000001
 44
0.0000000001
 40
0.0
 40
0.0
 40
0.0
 40
0.0
 40
0.3250553704
 40
0.5956547958
 40
0.7110048851
 40
0.8148497068
 40
0.9098810165
 40
1.0
 40
1.0
 40
1.0
 40
1.0
 10
179.4707581189
 20
97.5705013594
 30
0.0
 10
179.5573206499
 20
97.6204779616
 30
0.0
 10
179.7116233376
 20
97.7198675134
 30
0.0
 10
179.8775562225
 20
97.8645310877
 30
0.0
 10
179.9716609432
 20
97.9826696354
 30
0.0
 10
180.0201695343
 20
98.0667609276
 30
0.0
 10
180.0497922599
 20
98.1511595191
 30
0.0
 10
180.0565384681
 20
98.2082792072
 30
0.0
 10
180.0565386687
 20
98.2359905522
 30
0.0
  0
SPLINE
  5
31D
100
AcDbEntity
  8
0
100
AcDbSpline
 62
7
  6
CONTINUOUS
 70
0
 71
3
 72
15
 73
11
 74
0
 42
0.0000001
 43
0.0000001
 44
0.0000000001
 40
0.0
 40
0.0
 40
0.0
 40
0.0
 40
0.112718177
 40
0.2327024926
 40
0.3593573735
 40
0.4909337066
 40
0.6247314119
 40
0.7571626827
 40
0.8838316151
 40
1.0
 40
1.0
 40
1.0
 40
1.0
 10
176.6423309942
 20
97.2630613008
 30
0.0
 10
176.7384784946
 20
97.2075517714
 30
0.0
 10
176.9516495946
 20
97.1173270263
 30
0.0
 10
177.3006128083
 20
97.0479726043
 30
0.0
 10
177.6743217849
 20
97.0362117283
 30
0.0
 10
178.0593988438
 20
97.074709705
 30
0.0
 10
178.443542439
 20
97.1549295435
 30
0.0
 10
178.8141176952
 20
97.2680934149
 30
0.0
 10
179.1577324764
 20
97.4053342213
 30
0.0
 10
179.3716680375
 20
97.5132920157
 30
0.0
 10
179.4707581189
 20
97.5705013594
 30
0.0
  0
SPLINE
  5
31E
100
AcDbEntity
  8
0
100
AcDbSpline
 62
7
  6
CONTINUOUS
 70
0
 71
3
 72
23
 73
19
 74
0
 42
0.0000001
 43
0.0000001
 44
0.0000000001
 40
0.0
 40
0.0
 40
0.0
 40
0.0
 40
0.0428150011
 40
0.0873974034
 40
0.1351806441
 40
0.1870900979
 40
0.243536799
 40
0.3044943222
 40
0.3695923494
 40
0.4382004714
 40
0.5094982123
 40
0.5825340004
 40
0.6562776333
 40
0.7296655057
 40
0.801653181
 40
0.8712549418
 40
0.9376087809
 40
1.0
 40
1.0
 40
1.0
 40
1.0
 10
162.225060356
 20
96.6855155501
 30
0.0
 10
162.0894550688
 20
96.7637936843
 30
0.0
 10
161.8324187933
 20
96.9605503313
 30
0.0
 10
161.5230873858
 20
97.3516953468
 30
0.0
 10
161.2919447531
 20
97.8300545816
 30
0.0
 10
161.1422788744
 20
98.3839397333
 30
0.0
 10
161.0756417675
 20
99.0016759664
 30
0.0
 10
161.092665214
 20
99.6705655464
 30
0.0
 10
161.1926335235
 20
100.3768081676
 30
0.0
 10
161.3733088711
 20
101.1056456559
 30
0.0
 10
161.6308193561
 20
101.8416997677
 30
0.0
 10
161.9596778597
 20
102.5693449947
 30
0.0
 10
162.3528770105
 20
103.2730703296
 30
0.0
 10
162.8020197992
 20
103.9378768918
 30
0.0
 10
163.2975387676
 20
104.5495586165
 30
0.0
 10
163.8289278314
 20
105.0951788924
 30
0.0
 10
164.3848495522
 20
105.5630049289
 30
0.0
 10
164.7774092252
 20
105.8253533673
 30
0.0
 10
164.9750087534
 20
105.9394368271
 30
0.0
  0
SPLINE
  5
31F
100
AcDbEntity
  8
0
100
AcDbSpline
 62
7
  6
CONTINUOUS
 70
0
 71
3
 72
14
 73
10
 74
0
 42
0.0000001
 43
0.0000001
 44
0.0000000001
 40
0.0
 40
0.0
 40
0.0
 40
0.0
 40
0.2892793864
 40
0.4225409198
 40
0.5484922101
 40
0.6678928946
 40
0.7818662912
 40
0.8919502518
 40
1.0
 40
1.0
 40
1.0
 40
1.0
 10
54.4890273522
 20
237.6189724513
 30
0.0
 10
54.993817114
 20
237.9104112166
 30
0.0
 10
55.7687956644
 20
238.279263452
 30
0.0
 10
56.8316027628
 20
238.5891696348
 30
0.0
 10
57.5859817648
 20
238.715665053
 30
0.0
 10
58.3118495661
 20
238.7409823298
 30
0.0
 10
59.002337538
 20
238.6639250561
 30
0.0
 10
59.6500685765
 20
238.484856401
 30
0.0
 10
60.0503657739
 20
238.2973675985
 30
0.0
 10
60.2389194626
 20
238.1885249981
 30
0.0
  0
SPLINE
  5
320
100
AcDbEntity
  8
0
100
AcDbSpline
 62
7
  6
CONTINUOUS
 70
0
 71
3
 72
11
 73
7
 74
0
 42
0.0000001
 43
0.0000001
 44
0.0000000001
 40
0.0
 40
0.0
 40
0.0
 40
0.0
 40
0.2451117305
 40
0.4911314743
 40
0.741116646
 40
1.0
 40
1.0
 40
1.0
 40
1.0
 10
83.6128106497
 20
188.5885798708
 30
0.0
 10
83.6128106497
 20
188.6912483582
 30
0.0
 10
83.5791349507
 20
188.8983575576
 30
0.0
 10
83.4369784727
 20
189.1790048014
 30
0.0
 10
83.2224156043
 20
189.4154718633
 30
0.0
 10
83.0466614431
 20
189.5389192944
 30
0.0
 10
82.95275178
 20
189.5931368371
 30
0.0
  0
SPLINE
  5
321
100
AcDbEntity
  8
0
100
AcDbSpline
 62
7
  6
CONTINUOUS
 70
0
 71
3
 72
17
 73
13
 74
0
 42
0.0000001
 43
0.0000001
 44
0.0000000001
 40
0.0
 40
0.0
 40
0.0
 40
0.0
 40
0.1254955674
 40
0.258417738
 40
0.3945992581
 40
0.5282951351
 40
0.6549538745
 40
0.7734978397
 40
0.8307592498
 40
0.8873932741
 40
0.9435826996
 40
1.0
 40
1.0
 40
1.0
 40
1.0
 10
82.95275178
 20
189.5931368371
 30
0.0
 10
82.8138340223
 20
189.6733392274
 30
0.0
 10
82.5055749505
 20
189.8012369252
 30
0.0
 10
82.0077324266
 20
189.8973484685
 30
0.0
 10
81.4902075087
 20
189.9037866522
 30
0.0
 10
80.987375862
 20
189.8199407519
 30
0.0
 10
80.5311834307
 20
189.6472847855
 30
0.0
 10
80.2087222351
 20
189.4236659418
 30
0.0
 10
80.0119387531
 20
189.1992046884
 30
0.0
 10
79.900278945
 20
189.0110477649
 30
0.0
 10
79.8290422033
 20
188.8051528712
 30
0.0
 10
79.8128106497
 20
188.6606920453
 30
0.0
 10
79.8128106497
 20
188.5885798708
 30
0.0
  0
SPLINE
  5
322
100
AcDbEntity
  8
0
100
AcDbSpline
 62
7
  6
CONTINUOUS
 70
0
 71
3
 72
11
 73
7
 74
0
 42
0.0000001
 43
0.0000001
 44
0.0000000001
 40
0.0
 40
0.0
 40
0.0
 40
0.0
 40
0.2451117305
 40
0.4911314743
 40
0.741116646
 40
1.0
 40
1.0
 40
1.0
 40
1.0
 10
97.754887394
 20
196.7534629482
 30
0.0
 10
97.754887394
 20
196.8561314357
 30
0.0
 10
97.721211695
 20
197.063240635
 30
0.0
 10
97.5790552169
 20
197.3438878789
 30
0.0
 10
97.3644923486
 20
197.5803549408
 30
0.0
 10
97.1887381873
 20
197.7038023718
 30
0.0
 10
97.0948285243
 20
197.7580199145
 30
0.0
  0
SPLINE
  5
323
100
AcDbEntity
  8
0
100
AcDbSpline
 62
7
  6
CONTINUOUS
 70
0
 71
3
 72
13
 73
9
 74
0
 42
0.0000001
 43
0.0000001
 44
0.0000000001
 40
0.0
 40
0.0
 40
0.0
 40
0.0
 40
0.1142483233
 40
0.2375469957
 40
0.4999994774
 40
0.7624522452
 40
0.8857512516
 40
1.0
 40
1.0
 40
1.0
 40
1.0
 10
83.8341398251
 20
182.3831928627
 30
0.0
 10
83.6889294002
 20
182.2993560853
 30
0.0
 10
83.37134497
 20
182.1514613868
 30
0.0
 10
82.6675161866
 20
181.9376992843
 30
0.0
 10
81.7128228048
 20
181.8338583429
 30
0.0
 10
80.7581285049
 20
181.9376948701
 30
0.0
 10
80.054297084
 20
182.1514535104
 30
0.0
 10
79.7367107078
 20
182.2993466224
 30
0.0
 10
79.591499138
 20
182.3831826647
 30
0.0
  0
SPLINE
  5
324
100
AcDbEntity
  8
0
100
AcDbSpline
 62
7
  6
CONTINUOUS
 70
0
 71
3
 72
9
 73
5
 74
0
 42
0.0000001
 43
0.0000001
 44
0.0000000001
 40
0.0
 40
0.0
 40
0.0
 40
0.0
 40
0.4844455551
 40
1.0
 40
1.0
 40
1.0
 40
1.0
 10
97.0948285243
 20
197.7580199145
 30
0.0
 10
96.8855787384
 20
197.8788276017
 30
0.0
 10
96.4044152935
 20
198.0442299218
 30
0.0
 10
95.9005547512
 20
198.0727396644
 30
0.0
 10
95.6440945845
 20
198.0541202562
 30
0.0
  0
SPLINE
  5
325
100
AcDbEntity
  8
0
100
AcDbSpline
 62
7
  6
CONTINUOUS
 70
0
 71
3
 72
11
 73
7
 74
0
 42
0.0000001
 43
0.0000001
 44
0.0000000001
 40
0.0
 40
0.0
 40
0.0
 40
0.0
 40
0.2177723091
 40
0.4509273687
 40
0.7102218233
 40
1.0
 40
1.0
 40
1.0
 40
1.0
 10
98.8548653416
 20
195.5287093225
 30
0.0
 10
98.8548653401
 20
195.6429704527
 30
0.0
 10
98.8126676553
 20
195.8811545594
 30
0.0
 10
98.6320981414
 20
196.2129457523
 30
0.0
 10
98.3467267833
 20
196.512977331
 30
0.0
 10
98.1078712665
 20
196.6774224309
 30
0.0
 10
97.9761989056
 20
196.7534417841
 30
0.0
  0
SPLINE
  5
326
100
AcDbEntity
  8
0
100
AcDbSpline
 62
7
  6
CONTINUOUS
 70
0
 71
3
 72
11
 73
7
 74
0
 42
0.0000001
 43
0.0000001
 44
0.0000000001
 40
0.0
 40
0.0
 40
0.0
 40
0.0
 40
0.2177727701
 40
0.4509280213
 40
0.7102223029
 40
1.0
 40
1.0
 40
1.0
 40
1.0
 10
98.8548653416
 20
191.7727982037
 30
0.0
 10
98.8548653431
 20
191.6585383036
 30
0.0
 10
98.8126686218
 20
191.4203569451
 30
0.0
 10
98.6321030142
 20
191.0885689647
 30
0.0
 10
98.3467374518
 20
190.7885396099
 30
0.0
 10
98.107886468
 20
190.6240951378
 30
0.0
 10
97.9762165694
 20
190.5480759402
 30
0.0
  0
SPLINE
  5
327
100
AcDbEntity
  8
0
100
AcDbSpline
 62
7
  6
CONTINUOUS
 70
0
 71
3
 72
20
 73
16
 74
0
 42
0.0000001
 43
0.0000001
 44
0.0000000001
 40
0.0
 40
0.0
 40
0.0
 40
0.0
 40
0.0429190394
 40
0.0872419008
 40
0.1341585891
 40
0.1845174346
 40
0.2387981735
 40
0.2971470552
 40
0.3594334072
 40
0.4253062517
 40
0.4942443043
 40
0.5655979922
 40
0.7124175552
 40
0.8593908908
 40
1.0
 40
1.0
 40
1.0
 40
1.0
 10
95.7127453271
 20
198.4680840305
 30
0.0
 10
95.7127462442
 20
198.1155196093
 30
0.0
 10
95.6300993736
 20
197.3964046083
 30
0.0
 10
95.2644186178
 20
196.348483475
 30
0.0
 10
94.6668896954
 20
195.3424490977
 30
0.0
 10
93.851048955
 20
194.3948904354
 30
0.0
 10
92.8322398979
 20
193.5195487835
 30
0.0
 10
91.6279233717
 20
192.7295141126
 30
0.0
 10
90.2581112901
 20
192.0369376199
 30
0.0
 10
88.7455022343
 20
191.4528402813
 30
0.0
 10
87.115096926
 20
190.9866551454
 30
0.0
 10
84.7992894729
 20
190.5285791229
 30
0.0
 10
81.7958100355
 20
190.29611011
 30
0.0
 10
78.2244292663
 20
190.5478993273
 30
0.0
 10
75.9085804923
 20
191.0766648803
 30
0.0
 10
74.8107821626
 20
191.4358117515
 30
0.0
  0
SPLINE
  5
328
100
AcDbEntity
  8
0
100
AcDbSpline
 62
7
  6
CONTINUOUS
 70
0
 71
3
 72
15
 73
11
 74
0
 42
0.0000001
 43
0.0000001
 44
0.0000000001
 40
0.0
 40
0.0
 40
0.0
 40
0.0
 40
0.1068035957
 40
0.2254288029
 40
0.3534964247
 40
0.4874913189
 40
0.6232803346
 40
0.7565511683
 40
0.883240787
 40
1.0
 40
1.0
 40
1.0
 40
1.0
 10
46.491740451
 20
221.9119711338
 30
0.0
 10
46.3777459051
 20
222.5612668783
 30
0.0
 10
46.302689852
 20
223.9623737168
 30
0.0
 10
46.5783501562
 20
226.1353780053
 30
0.0
 10
47.2201529941
 20
228.4040394872
 30
0.0
 10
48.1986056566
 20
230.6636316471
 30
0.0
 10
49.4683294972
 20
232.8104992017
 30
0.0
 10
50.9709651187
 20
234.7452722332
 30
0.0
 10
52.6362714815
 20
236.3783007371
 30
0.0
 10
53.8649027637
 20
237.2586361031
 30
0.0
 10
54.4890273522
 20
237.6189724513
 30
0.0
  0
SPLINE
  5
329
100
AcDbEntity
  8
0
100
AcDbSpline
 62
7
  6
CONTINUOUS
 70
0
 71
3
 72
14
 73
10
 74
0
 42
0.0000001
 43
0.0000001
 44
0.0000000001
 40
0.0
 40
0.0
 40
0.0
 40
0.0
 40
0.4198448
 40
0.5840360543
 40
0.7191594594
 40
0.8265418279
 40
0.9076863151
 40
0.9644659903
 40
1.0
 40
1.0
 40
1.0
 40
1.0
 10
94.7454695737
 20
221.07234959
 30
0.0
 10
94.8743088026
 20
221.1362139552
 30
0.0
 10
95.0545216898
 20
221.2231899668
 30
0.0
 10
95.2799533507
 20
221.3224652385
 30
0.0
 10
95.4091407109
 20
221.3747369212
 30
0.0
 10
95.5135261248
 20
221.4118916057
 30
0.0
 10
95.5947208198
 20
221.4347944991
 30
0.0
 10
95.6529697385
 20
221.4444667769
 30
0.0
 10
95.6859296876
 20
221.4425626651
 30
0.0
 10
95.6969167953
 20
221.4373275079
 30
0.0
  0
SPLINE
  5
32A
100
AcDbEntity
  8
0
100
AcDbSpline
 62
7
  6
CONTINUOUS
 70
0
 71
3
 72
16
 73
12
 74
0
 42
0.0000001
 43
0.0000001
 44
0.0000000001
 40
0.0
 40
0.0
 40
0.0
 40
0.0
 40
0.1367485098
 40
0.2821369949
 40
0.4293129016
 40
0.5710691651
 40
0.7010693443
 40
0.8151037172
 40
0.9127696571
 40
0.9571482174
 40
1.0
 40
1.0
 40
1.0
 40
1.0
 10
94.762411701
 20
195.8560130399
 30
0.0
 10
94.9105186815
 20
195.7958936661
 30
0.0
 10
95.2294314359
 20
195.7035977457
 30
0.0
 10
95.7298225165
 20
195.6456351048
 30
0.0
 10
96.2391934326
 20
195.6656649292
 30
0.0
 10
96.7215186182
 20
195.7623607359
 30
0.0
 10
97.1435519388
 20
195.929497148
 30
0.0
 10
97.477046591
 20
196.1562875145
 30
0.0
 10
97.6677280772
 20
196.3965211858
 30
0.0
 10
97.7425170573
 20
196.6010370967
 30
0.0
 10
97.7548907272
 20
196.7033740032
 30
0.0
 10
97.7548873943
 20
196.7534629482
 30
0.0
  0
SPLINE
  5
32B
100
AcDbEntity
  8
0
100
AcDbSpline
 62
7
  6
CONTINUOUS
 70
0
 71
3
 72
19
 73
15
 74
0
 42
0.0000001
 43
0.0000001
 44
0.0000000001
 40
0.0
 40
0.0
 40
0.0
 40
0.0
 40
0.1485941008
 40
0.3045047848
 40
0.4557154086
 40
0.5913796618
 40
0.6513301392
 40
0.7056852917
 40
0.755159505
 40
0.8013332785
 40
0.8465567119
 40
0.8934209384
 40
0.9441025552
 40
1.0
 40
1.0
 40
1.0
 40
1.0
 10
95.1184666102
 20
196.4743014453
 30
0.0
 10
95.2616387404
 20
196.4231402093
 30
0.0
 10
95.5686645325
 20
196.3549300163
 30
0.0
 10
96.0375630445
 20
196.3450098903
 30
0.0
 10
96.4866830578
 20
196.4233800553
 30
0.0
 10
96.8186171939
 20
196.561381889
 30
0.0
 10
97.026633189
 20
196.7121472929
 30
0.0
 10
97.1426998612
 20
196.8346307702
 30
0.0
 10
97.2214599391
 20
196.9681989851
 30
0.0
 10
97.2591458877
 20
197.1094310291
 30
0.0
 10
97.253104413
 20
197.2529535144
 30
0.0
 10
97.2039349092
 20
197.3925534168
 30
0.0
 10
97.1146531161
 20
197.5234254749
 30
0.0
 10
97.0348564025
 20
197.5989011507
 30
0.0
 10
96.9901961315
 20
197.6346295626
 30
0.0
  0
SPLINE
  5
32C
100
AcDbEntity
  8
0
100
AcDbSpline
 62
7
  6
CONTINUOUS
 70
0
 71
3
 72
9
 73
5
 74
0
 42
0.0000001
 43
0.0000001
 44
0.0000000001
 40
0.0
 40
0.0
 40
0.0
 40
0.0
 40
0.2423406373
 40
1.0
 40
1.0
 40
1.0
 40
1.0
 10
96.9901961315
 20
197.6346295626
 30
0.0
 10
96.9791094924
 20
197.6434989223
 30
0.0
 10
96.9326038095
 20
197.6791462968
 30
0.0
 10
96.8832745556
 20
197.7110620967
 30
0.0
 10
96.8448327661
 20
197.7332559722
 30
0.0
  0
SPLINE
  5
32D
100
AcDbEntity
  8
0
100
AcDbSpline
 62
7
  6
CONTINUOUS
 70
0
 71
3
 72
10
 73
6
 74
0
 42
0.0000001
 43
0.0000001
 44
0.0000000001
 40
0.0
 40
0.0
 40
0.0
 40
0.0
 40
0.2279665322
 40
0.4763133019
 40
1.0
 40
1.0
 40
1.0
 40
1.0
 10
96.8448327661
 20
197.7332559722
 30
0.0
 10
96.7628621991
 20
197.7805806305
 30
0.0
 10
96.5808499183
 20
197.8614030815
 30
0.0
 10
96.1780907706
 20
197.9663101947
 30
0.0
 10
95.8523582973
 20
197.9798240844
 30
0.0
 10
95.6358285642
 20
197.9600263582
 30
0.0
  0
SPLINE
  5
32E
100
AcDbEntity
  8
0
100
AcDbSpline
 62
7
  6
CONTINUOUS
 70
0
 71
3
 72
17
 73
13
 74
0
 42
0.0000001
 43
0.0000001
 44
0.0000000001
 40
0.0
 40
0.0
 40
0.0
 40
0.0
 40
0.1286888688
 40
0.2702719422
 40
0.4174318501
 40
0.5617773054
 40
0.6954483126
 40
0.8127138313
 40
0.8646770028
 40
0.9125122438
 40
0.9571395731
 40
1.0
 40
1.0
 40
1.0
 40
1.0
 10
80.369313359
 20
187.8129159784
 30
0.0
 10
80.5099588035
 20
187.7317161302
 30
0.0
 10
80.828392376
 20
187.6003249526
 30
0.0
 10
81.3473899183
 20
187.4965047788
 30
0.0
 10
81.8963241257
 20
187.4812994571
 30
0.0
 10
82.4304031921
 20
187.556350317
 30
0.0
 10
82.9063145619
 20
187.715312901
 30
0.0
 10
83.2373158034
 20
187.9167851987
 30
0.0
 10
83.4315571944
 20
188.1117383834
 30
0.0
 10
83.5347632757
 20
188.2635092267
 30
0.0
 10
83.5983139726
 20
188.4236184795
 30
0.0
 10
83.6128142491
 20
188.5344909781
 30
0.0
 10
83.61281065
 20
188.5885798708
 30
0.0
  0
SPLINE
  5
32F
100
AcDbEntity
  8
0
100
AcDbSpline
 62
7
  6
CONTINUOUS
 70
0
 71
3
 72
19
 73
15
 74
0
 42
0.0000001
 43
0.0000001
 44
0.0000000001
 40
0.0
 40
0.0
 40
0.0
 40
0.0
 40
0.1375836963
 40
0.2899167886
 40
0.4437805641
 40
0.5854786553
 40
0.6486058176
 40
0.7056520357
 40
0.7569416396
 40
0.8038449932
 40
0.8488099759
 40
0.8948553567
 40
0.9446657068
 40
1.0
 40
1.0
 40
1.0
 40
1.0
 10
80.7228652776
 20
188.4252892639
 30
0.0
 10
80.8557959638
 20
188.3485434327
 30
0.0
 10
81.1634495511
 20
188.2340061238
 30
0.0
 10
81.6579602984
 20
188.1714307105
 30
0.0
 10
82.1594835664
 20
188.2120721617
 30
0.0
 10
82.5462500939
 20
188.3326524029
 30
0.0
 10
82.7998316898
 20
188.4801332407
 30
0.0
 10
82.9464782163
 20
188.6048976174
 30
0.0
 10
83.0516584687
 20
188.7446834398
 30
0.0
 10
83.1103489297
 20
188.8958135441
 30
0.0
 10
83.1180051753
 20
189.0523003789
 30
0.0
 10
83.0738597387
 20
189.2057732438
 30
0.0
 10
82.9817575528
 20
189.3493340813
 30
0.0
 10
82.8963248996
 20
189.4311818647
 30
0.0
 10
82.8481193873
 20
189.4697464852
 30
0.0
  0
SPLINE
  5
330
100
AcDbEntity
  8
0
100
AcDbSpline
 62
7
  6
CONTINUOUS
 70
0
 71
3
 72
9
 73
5
 74
0
 42
0.0000001
 43
0.0000001
 44
0.0000000001
 40
0.0
 40
0.0
 40
0.0
 40
0.0
 40
0.2423406373
 40
1.0
 40
1.0
 40
1.0
 40
1.0
 10
82.8481193873
 20
189.4697464852
 30
0.0
 10
82.8370327481
 20
189.4786158449
 30
0.0
 10
82.7905270652
 20
189.5142632193
 30
0.0
 10
82.7411978114
 20
189.5461790193
 30
0.0
 10
82.7027560218
 20
189.5683728948
 30
0.0
  0
SPLINE
  5
331
100
AcDbEntity
  8
0
100
AcDbSpline
 62
7
  6
CONTINUOUS
 70
0
 71
3
 72
19
 73
15
 74
0
 42
0.0000001
 43
0.0000001
 44
0.0000000001
 40
0.0
 40
0.0
 40
0.0
 40
0.0
 40
0.1382631925
 40
0.2913998958
 40
0.4445402274
 40
0.5827877966
 40
0.6432393188
 40
0.6973178778
 40
0.7459598308
 40
0.7913887291
 40
0.8368205906
 40
0.8854544311
 40
0.9395663131
 40
1.0
 40
1.0
 40
1.0
 40
1.0
 10
82.7027560218
 20
189.5683728948
 30
0.0
 10
82.5622101921
 20
189.6495152317
 30
0.0
 10
82.23536843
 20
189.7679133094
 30
0.0
 10
81.712818039
 20
189.8246897502
 30
0.0
 10
81.190166644
 20
189.7677769289
 30
0.0
 10
80.7958080483
 20
189.6252556744
 30
0.0
 10
80.549997774
 20
189.4562051675
 30
0.0
 10
80.4168192929
 20
189.316167375
 30
0.0
 10
80.3325215408
 20
189.1612405142
 30
0.0
 10
80.3033027334
 20
188.9968532914
 30
0.0
 10
80.3325135036
 20
188.8324852292
 30
0.0
 10
80.4167729032
 20
188.6774796204
 30
0.0
 10
80.5499793083
 20
188.5375323282
 30
0.0
 10
80.661433869
 20
188.4607559018
 30
0.0
 10
80.7228652776
 20
188.4252892639
 30
0.0
  0
SPLINE
  5
332
100
AcDbEntity
  8
0
100
AcDbSpline
 62
7
  6
CONTINUOUS
 70
0
 71
3
 72
12
 73
8
 74
0
 42
0.0000001
 43
0.0000001
 44
0.0000000001
 40
0.0
 40
0.0
 40
0.0
 40
0.0
 40
0.2855240763
 40
0.5494915843
 40
0.6721061525
 40
0.7880352494
 40
1.0
 40
1.0
 40
1.0
 40
1.0
 10
86.8263978783
 20
216.5002987064
 30
0.0
 10
87.6930749178
 20
216.6966291065
 30
0.0
 10
89.3397332904
 20
217.1796598746
 30
0.0
 10
91.2487026854
 20
218.0583879994
 30
0.0
 10
92.570310244
 20
218.8995141684
 30
0.0
 10
93.6739786802
 20
219.7657242642
 30
0.0
 10
94.3746641952
 20
220.526726516
 30
0.0
 10
94.7454695737
 20
221.07234959
 30
0.0
  0
SPLINE
  5
333
100
AcDbEntity
  8
0
100
AcDbSpline
 62
7
  6
CONTINUOUS
 70
0
 71
3
 72
17
 73
13
 74
0
 42
0.0000001
 43
0.0000001
 44
0.0000000001
 40
0.0
 40
0.0
 40
0.0
 40
0.0
 40
0.0428584554
 40
0.0874839031
 40
0.1353177481
 40
0.1872794187
 40
0.3045395902
 40
0.4382053041
 40
0.582547581
 40
0.729712444
 40
0.8713059798
 40
1.0
 40
1.0
 40
1.0
 40
1.0
 10
97.7548809174
 20
195.5287093189
 30
0.0
 10
97.754885007
 20
195.4746230844
 30
0.0
 10
97.740387175
 20
195.3637553273
 30
0.0
 10
97.6768364446
 20
195.2036540052
 30
0.0
 10
97.573638968
 20
195.0518857142
 30
0.0
 10
97.3794072381
 20
194.8569384865
 30
0.0
 10
97.0484258194
 20
194.6554669929
 30
0.0
 10
96.5725357169
 20
194.4965005119
 30
0.0
 10
96.038464998
 20
194.4214357423
 30
0.0
 10
95.4895164028
 20
194.4366300318
 30
0.0
 10
94.9704930867
 20
194.5404468017
 30
0.0
 10
94.6520407354
 20
194.6718425869
 30
0.0
 10
94.5113901033
 20
194.7530454302
 30
0.0
  0
SPLINE
  5
334
100
AcDbEntity
  8
0
100
AcDbSpline
 62
7
  6
CONTINUOUS
 70
0
 71
3
 72
13
 73
9
 74
0
 42
0.0000001
 43
0.0000001
 44
0.0000000001
 40
0.0
 40
0.0
 40
0.0
 40
0.0
 40
0.1142487484
 40
0.2375477548
 40
0.5000005226
 40
0.7624530043
 40
0.8857516767
 40
1.0
 40
1.0
 40
1.0
 40
1.0
 10
79.591499138
 20
186.1390937835
 30
0.0
 10
79.7367107078
 20
186.0552577412
 30
0.0
 10
80.054297084
 20
185.9073646292
 30
0.0
 10
80.7581285049
 20
185.6936059889
 30
0.0
 10
81.7128228048
 20
185.5897694617
 30
0.0
 10
82.6675161866
 20
185.6936104031
 30
0.0
 10
83.37134497
 20
185.9073725056
 30
0.0
 10
83.6889294002
 20
186.0552672041
 30
0.0
 10
83.8341398251
 20
186.1391039815
 30
0.0
  0
SPLINE
  5
335
100
AcDbEntity
  8
0
100
AcDbSpline
 62
7
  6
CONTINUOUS
 70
0
 71
3
 72
11
 73
7
 74
0
 42
0.0000001
 43
0.0000001
 44
0.0000000001
 40
0.0
 40
0.0
 40
0.0
 40
0.0
 40
0.2897776971
 40
0.5490719787
 40
0.7822272299
 40
1.0
 40
1.0
 40
1.0
 40
1.0
 10
97.9762165694
 20
194.303987059
 30
0.0
 10
98.107886468
 20
194.3800062566
 30
0.0
 10
98.3467374518
 20
194.5444507287
 30
0.0
 10
98.6321030142
 20
194.8444800835
 30
0.0
 10
98.8126686218
 20
195.1762680639
 30
0.0
 10
98.8548653431
 20
195.4144494224
 30
0.0
 10
98.8548653416
 20
195.5287093225
 30
0.0
  0
SPLINE
  5
336
100
AcDbEntity
  8
0
100
AcDbSpline
 62
7
  6
CONTINUOUS
 70
0
 71
3
 72
9
 73
5
 74
0
 42
0.0000001
 43
0.0000001
 44
0.0000000001
 40
0.0
 40
0.0
 40
0.0
 40
0.0
 40
0.2621744969
 40
1.0
 40
1.0
 40
1.0
 40
1.0
 10
94.5113901033
 20
194.7530454302
 30
0.0
 10
94.4848057429
 20
194.7683935706
 30
0.0
 10
94.3849746008
 20
194.829546829
 30
0.0
 10
94.291477147
 20
194.9015161559
 30
0.0
 10
94.2289785221
 20
194.9611559836
 30
0.0
  0
SPLINE
  5
337
100
AcDbEntity
  8
0
100
AcDbSpline
 62
7
  6
CONTINUOUS
 70
0
 71
3
 72
11
 73
7
 74
0
 42
0.0000001
 43
0.0000001
 44
0.0000000001
 40
0.0
 40
0.0
 40
0.0
 40
0.0
 40
0.2211971357
 40
0.4596522008
 40
0.7188871808
 40
1.0
 40
1.0
 40
1.0
 40
1.0
 10
93.4660745064
 20
194.1312125291
 30
0.0
 10
93.3451419481
 20
193.7921901612
 30
0.0
 10
93.0077500267
 20
193.1165537413
 30
0.0
 10
92.2789361957
 20
192.1932752534
 30
0.0
 10
91.3304771491
 20
191.3448106562
 30
0.0
 10
90.5942272881
 20
190.8585073086
 30
0.0
 10
90.1980684721
 20
190.6297862748
 30
0.0
  0
SPLINE
  5
338
100
AcDbEntity
  8
0
100
AcDbSpline
 62
7
  6
CONTINUOUS
 70
0
 71
3
 72
11
 73
7
 74
0
 42
0.0000001
 43
0.0000001
 44
0.0000000001
 40
0.0
 40
0.0
 40
0.0
 40
0.0
 40
0.2897036169
 40
0.5490920547
 40
0.7822205729
 40
1.0
 40
1.0
 40
1.0
 40
1.0
 10
80.369313359
 20
186.5881623527
 30
0.0
 10
80.2859427295
 20
186.6362953192
 30
0.0
 10
80.1346864849
 20
186.7404741586
 30
0.0
 10
79.9539105182
 20
186.9304528533
 30
0.0
 10
79.839559803
 20
187.1406213716
 30
0.0
 10
79.812822598
 20
187.2914588562
 30
0.0
 10
79.8128171262
 20
187.3638262487
 30
0.0
  0
SPLINE
  5
339
100
AcDbEntity
  8
0
100
AcDbSpline
 62
7
  6
CONTINUOUS
 70
0
 71
3
 72
11
 73
7
 74
0
 42
0.0000001
 43
0.0000001
 44
0.0000000001
 40
0.0
 40
0.0
 40
0.0
 40
0.0
 40
0.230132502
 40
0.4756531159
 40
0.7335209377
 40
1.0
 40
1.0
 40
1.0
 40
1.0
 10
90.1980684721
 20
190.6297862748
 30
0.0
 10
89.7367325781
 20
190.3634354621
 30
0.0
 10
88.7438759936
 20
189.8794704991
 30
0.0
 10
87.1382973951
 20
189.3174409996
 30
0.0
 10
85.4013251808
 20
188.9062502058
 30
0.0
 10
84.1967685876
 20
188.7411433494
 30
0.0
 10
83.5824735917
 20
188.6851903521
 30
0.0
  0
SPLINE
  5
33A
100
AcDbEntity
  8
0
100
AcDbSpline
 62
7
  6
CONTINUOUS
 70
0
 71
3
 72
9
 73
5
 74
0
 42
0.0000001
 43
0.0000001
 44
0.0000000001
 40
0.0
 40
0.0
 40
0.0
 40
0.0
 40
0.5147163309
 40
1.0
 40
1.0
 40
1.0
 40
1.0
 10
79.8114897815
 20
188.6880956014
 30
0.0
 10
78.9257493063
 20
188.7701375224
 30
0.0
 10
77.2131909283
 20
189.0421762581
 30
0.0
 10
75.5549705324
 20
189.5569986104
 30
0.0
 10
74.7786584626
 20
189.8743328153
 30
0.0
  0
SPLINE
  5
33B
100
AcDbEntity
  8
0
100
AcDbSpline
 62
7
  6
CONTINUOUS
 70
0
 71
3
 72
11
 73
7
 74
0
 42
0.0000001
 43
0.0000001
 44
0.0000000001
 40
0.0
 40
0.0
 40
0.0
 40
0.0
 40
0.2177836649
 40
0.4509127634
 40
0.7102976676
 40
1.0
 40
1.0
 40
1.0
 40
1.0
 10
79.8128106494
 20
188.5885798708
 30
0.0
 10
79.8128154648
 20
188.5162108459
 30
0.0
 10
79.8395573445
 20
188.3653715459
 30
0.0
 10
79.9539105093
 20
188.1552037635
 30
0.0
 10
80.1346867748
 20
187.9652260482
 30
0.0
 10
80.285942841
 20
187.8610488805
 30
0.0
 10
80.369313359
 20
187.8129159784
 30
0.0
  0
SPLINE
  5
33C
100
AcDbEntity
  8
0
100
AcDbSpline
 62
7
  6
CONTINUOUS
 70
0
 71
3
 72
17
 73
13
 74
0
 42
0.0000001
 43
0.0000001
 44
0.0000000001
 40
0.0
 40
0.0
 40
0.0
 40
0.0
 40
0.0428584554
 40
0.0874839031
 40
0.1353177481
 40
0.1872794187
 40
0.3045395902
 40
0.4382053041
 40
0.582547581
 40
0.729712444
 40
0.8713059798
 40
1.0
 40
1.0
 40
1.0
 40
1.0
 10
83.6128041732
 20
187.3638262415
 30
0.0
 10
83.6128082627
 20
187.309740007
 30
0.0
 10
83.5983104307
 20
187.1988722499
 30
0.0
 10
83.5347597003
 20
187.0387709277
 30
0.0
 10
83.4315622238
 20
186.8870026368
 30
0.0
 10
83.2373304938
 20
186.692055409
 30
0.0
 10
82.9063490751
 20
186.4905839155
 30
0.0
 10
82.4304589727
 20
186.3316174344
 30
0.0
 10
81.8963882538
 20
186.2565526649
 30
0.0
 10
81.3474396585
 20
186.2717469544
 30
0.0
 10
80.8284163424
 20
186.3755637243
 30
0.0
 10
80.5099639911
 20
186.5069595095
 30
0.0
 10
80.369313359
 20
186.5881623527
 30
0.0
  0
SPLINE
  5
33D
100
AcDbEntity
  8
0
100
AcDbSpline
 62
7
  6
CONTINUOUS
 70
0
 71
3
 72
14
 73
10
 74
0
 42
0.0000001
 43
0.0000001
 44
0.0000000001
 40
0.0
 40
0.0
 40
0.0
 40
0.0
 40
0.2892793711
 40
0.4225409047
 40
0.5484922149
 40
0.667892931
 40
0.7818663525
 40
0.8919503027
 40
1.0
 40
1.0
 40
1.0
 40
1.0
 10
32.5687995667
 20
226.1881310439
 30
0.0
 10
33.0735893015
 20
226.4795697936
 30
0.0
 10
33.8485678224
 20
226.8484220115
 30
0.0
 10
34.9113749219
 20
227.1583282296
 30
0.0
 10
35.6657540292
 20
227.2848236397
 30
0.0
 10
36.3916219881
 20
227.3101409399
 30
0.0
 10
37.0821100389
 20
227.2330835348
 30
0.0
 10
37.729841007
 20
227.0540149324
 30
0.0
 10
38.1301381069
 20
226.8665262041
 30
0.0
 10
38.3186916964
 20
226.757683637
 30
0.0
  0
SPLINE
  5
33E
100
AcDbEntity
  8
0
100
AcDbSpline
 62
7
  6
CONTINUOUS
 70
0
 71
3
 72
11
 73
7
 74
0
 42
0.0000001
 43
0.0000001
 44
0.0000000001
 40
0.0
 40
0.0
 40
0.0
 40
0.0
 40
0.2884463769
 40
0.5471938033
 40
0.7809049901
 40
1.0
 40
1.0
 40
1.0
 40
1.0
 10
44.5393481107
 20
184.6803640862
 30
0.0
 10
44.4147019199
 20
184.6048313666
 30
0.0
 10
44.1887738684
 20
184.4423532901
 30
0.0
 10
43.919977315
 20
184.1488279987
 30
0.0
 10
43.7505180576
 20
183.8264082017
 30
0.0
 10
43.7110749999
 20
183.596142899
 30
0.0
 10
43.7110750013
 20
183.4854387963
 30
0.0
  0
SPLINE
  5
33F
100
AcDbEntity
  8
0
100
AcDbSpline
 62
7
  6
CONTINUOUS
 70
0
 71
3
 72
11
 73
7
 74
0
 42
0.0000001
 43
0.0000001
 44
0.0000000001
 40
0.0
 40
0.0
 40
0.0
 40
0.0
 40
0.2451117305
 40
0.4911314743
 40
0.741116646
 40
1.0
 40
1.0
 40
1.0
 40
1.0
 10
62.7532474519
 20
176.5453773316
 30
0.0
 10
62.7532474519
 20
176.648045819
 30
0.0
 10
62.7195717529
 20
176.8551550184
 30
0.0
 10
62.5774152749
 20
177.1358022622
 30
0.0
 10
62.3628524065
 20
177.3722693241
 30
0.0
 10
62.1870982452
 20
177.4957167552
 30
0.0
 10
62.0931885822
 20
177.5499342979
 30
0.0
  0
SPLINE
  5
340
100
AcDbEntity
  8
0
100
AcDbSpline
 62
7
  6
CONTINUOUS
 70
0
 71
3
 72
17
 73
13
 74
0
 42
0.0000001
 43
0.0000001
 44
0.0000000001
 40
0.0
 40
0.0
 40
0.0
 40
0.0
 40
0.1254955674
 40
0.258417738
 40
0.3945992581
 40
0.5282951351
 40
0.6549538745
 40
0.7734978397
 40
0.8307592498
 40
0.8873932741
 40
0.9435826996
 40
1.0
 40
1.0
 40
1.0
 40
1.0
 10
62.0931885822
 20
177.5499342979
 30
0.0
 10
61.9542708245
 20
177.6301366882
 30
0.0
 10
61.6460117527
 20
177.758034386
 30
0.0
 10
61.1481692288
 20
177.8541459293
 30
0.0
 10
60.6306443109
 20
177.860584113
 30
0.0
 10
60.1278126642
 20
177.7767382127
 30
0.0
 10
59.6716202329
 20
177.6040822462
 30
0.0
 10
59.3491590373
 20
177.3804634026
 30
0.0
 10
59.1523755552
 20
177.1560021491
 30
0.0
 10
59.0407157472
 20
176.9678452257
 30
0.0
 10
58.9694790054
 20
176.761950332
 30
0.0
 10
58.9532474519
 20
176.6174895061
 30
0.0
 10
58.9532474519
 20
176.5453773316
 30
0.0
  0
SPLINE
  5
341
100
AcDbEntity
  8
0
100
AcDbSpline
 62
7
  6
CONTINUOUS
 70
0
 71
3
 72
11
 73
7
 74
0
 42
0.0000001
 43
0.0000001
 44
0.0000000001
 40
0.0
 40
0.0
 40
0.0
 40
0.0
 40
0.2897781767
 40
0.5490726313
 40
0.7822276909
 40
1.0
 40
1.0
 40
1.0
 40
1.0
 10
44.5897414373
 20
178.5047952159
 30
0.0
 10
44.4580690763
 20
178.5808145691
 30
0.0
 10
44.2192135596
 20
178.745259669
 30
0.0
 10
43.9338422015
 20
179.0452912478
 30
0.0
 10
43.7532726876
 20
179.3770824407
 30
0.0
 10
43.7110750028
 20
179.6152665474
 30
0.0
 10
43.7110750013
 20
179.7295276775
 30
0.0
  0
SPLINE
  5
342
100
AcDbEntity
  8
0
100
AcDbSpline
 62
7
  6
CONTINUOUS
 70
0
 71
3
 72
13
 73
9
 74
0
 42
0.0000001
 43
0.0000001
 44
0.0000000001
 40
0.0
 40
0.0
 40
0.0
 40
0.0
 40
0.1142483233
 40
0.2375469957
 40
0.4999994774
 40
0.7624522452
 40
0.8857512516
 40
1.0
 40
1.0
 40
1.0
 40
1.0
 10
62.9745766273
 20
170.3399903235
 30
0.0
 10
62.8293662024
 20
170.2561535461
 30
0.0
 10
62.5117817722
 20
170.1082588476
 30
0.0
 10
61.8079529888
 20
169.8944967451
 30
0.0
 10
60.853259607
 20
169.7906558037
 30
0.0
 10
59.8985653071
 20
169.8944923309
 30
0.0
 10
59.1947338862
 20
170.1082509712
 30
0.0
 10
58.87714751
 20
170.2561440832
 30
0.0
 10
58.7319359402
 20
170.3399801255
 30
0.0
  0
SPLINE
  5
343
100
AcDbEntity
  8
0
100
AcDbSpline
 62
7
  6
CONTINUOUS
 70
0
 71
3
 72
11
 73
7
 74
0
 42
0.0000001
 43
0.0000001
 44
0.0000000001
 40
0.0
 40
0.0
 40
0.0
 40
0.0
 40
0.2451117305
 40
0.4911314743
 40
0.741116646
 40
1.0
 40
1.0
 40
1.0
 40
1.0
 10
76.8953241962
 20
184.710260409
 30
0.0
 10
76.8953241962
 20
184.8129288965
 30
0.0
 10
76.8616484972
 20
185.0200380958
 30
0.0
 10
76.7194920191
 20
185.3006853396
 30
0.0
 10
76.5049291508
 20
185.5371524016
 30
0.0
 10
76.3291749895
 20
185.6605998326
 30
0.0
 10
76.2352653265
 20
185.7148173753
 30
0.0
  0
SPLINE
  5
344
100
AcDbEntity
  8
0
100
AcDbSpline
 62
7
  6
CONTINUOUS
 70
0
 71
3
 72
9
 73
5
 74
0
 42
0.0000001
 43
0.0000001
 44
0.0000000001
 40
0.0
 40
0.0
 40
0.0
 40
0.0
 40
0.4844455046
 40
1.0
 40
1.0
 40
1.0
 40
1.0
 10
76.2352653265
 20
185.7148173753
 30
0.0
 10
76.0260182237
 20
185.8356235134
 30
0.0
 10
75.5448614789
 20
186.0010247758
 30
0.0
 10
75.0410076122
 20
186.0295365719
 30
0.0
 10
74.784550558
 20
186.0109191088
 30
0.0
  0
SPLINE
  5
345
100
AcDbEntity
  8
0
100
AcDbSpline
 62
7
  6
CONTINUOUS
 70
0
 71
3
 72
11
 73
7
 74
0
 42
0.0000001
 43
0.0000001
 44
0.0000000001
 40
0.0
 40
0.0
 40
0.0
 40
0.0
 40
0.2177723091
 40
0.4509273687
 40
0.7102218233
 40
1.0
 40
1.0
 40
1.0
 40
1.0
 10
77.9953021438
 20
183.4855067833
 30
0.0
 10
77.9953021423
 20
183.5997679135
 30
0.0
 10
77.9531044575
 20
183.8379520202
 30
0.0
 10
77.7725349436
 20
184.169743213
 30
0.0
 10
77.4871635855
 20
184.4697747918
 30
0.0
 10
77.2483080687
 20
184.6342198917
 30
0.0
 10
77.1166357078
 20
184.7102392449
 30
0.0
  0
SPLINE
  5
346
100
AcDbEntity
  8
0
100
AcDbSpline
 62
7
  6
CONTINUOUS
 70
0
 71
3
 72
11
 73
7
 74
0
 42
0.0000001
 43
0.0000001
 44
0.0000000001
 40
0.0
 40
0.0
 40
0.0
 40
0.0
 40
0.2177727701
 40
0.4509280213
 40
0.7102223029
 40
1.0
 40
1.0
 40
1.0
 40
1.0
 10
77.9953021438
 20
179.7295956645
 30
0.0
 10
77.9953021453
 20
179.6153357644
 30
0.0
 10
77.953105424
 20
179.3771544059
 30
0.0
 10
77.7725398164
 20
179.0453664255
 30
0.0
 10
77.487174254
 20
178.7453370707
 30
0.0
 10
77.2483232702
 20
178.5808925986
 30
0.0
 10
77.1166533716
 20
178.504873401
 30
0.0
  0
SPLINE
  5
347
100
AcDbEntity
  8
0
100
AcDbSpline
 62
7
  6
CONTINUOUS
 70
0
 71
3
 72
23
 73
19
 74
0
 42
0.0000001
 43
0.0000001
 44
0.0000000001
 40
0.0
 40
0.0
 40
0.0
 40
0.0
 40
0.0428143767
 40
0.0873963266
 40
0.1351792644
 40
0.1870885817
 40
0.2435352511
 40
0.3044927548
 40
0.3695907094
 40
0.4381987331
 40
0.5094964487
 40
0.5825323633
 40
0.6562760996
 40
0.729664833
 40
0.8016523087
 40
0.8712553197
 40
0.9376070773
 40
1.0
 40
1.0
 40
1.0
 40
1.0
 10
74.8531821522
 20
186.4248814914
 30
0.0
 10
74.8531830722
 20
186.0263324842
 30
0.0
 10
74.7466212263
 20
185.2093156827
 30
0.0
 10
74.2780433068
 20
184.0296245571
 30
0.0
 10
73.5177112158
 20
182.9112992172
 30
0.0
 10
72.4871857472
 20
181.8764616296
 30
0.0
 10
71.2102375154
 20
180.9433913137
 30
0.0
 10
69.7140544932
 20
180.1296388446
 30
0.0
 10
68.0299712221
 20
179.4511867444
 30
0.0
 10
66.1933672162
 20
178.9218816308
 30
0.0
 10
64.2430659626
 20
178.5527624595
 30
0.0
 10
62.2204950324
 20
178.3516237557
 30
0.0
 10
60.1687580436
 20
178.3227531769
 30
0.0
 10
58.1316181628
 20
178.4667492538
 30
0.0
 10
56.1525488362
 20
178.7805666355
 30
0.0
 10
54.2734885978
 20
179.2575628448
 30
0.0
 10
52.5346622507
 20
179.8876029262
 30
0.0
 10
51.4567262088
 20
180.4190677114
 30
0.0
 10
50.9537348515
 20
180.7094633373
 30
0.0
  0
SPLINE
  5
348
100
AcDbEntity
  8
0
100
AcDbSpline
 62
7
  6
CONTINUOUS
 70
0
 71
3
 72
23
 73
19
 74
0
 42
0.0000001
 43
0.0000001
 44
0.0000000001
 40
0.0
 40
0.0
 40
0.0
 40
0.0
 40
0.0428149937
 40
0.0873974003
 40
0.1351806385
 40
0.1870900834
 40
0.2435367673
 40
0.3044942695
 40
0.3695922782
 40
0.4382003929
 40
0.5094981378
 40
0.5825339472
 40
0.6562775657
 40
0.729665436
 40
0.8016531585
 40
0.8712549523
 40
0.9376087922
 40
1.0
 40
1.0
 40
1.0
 40
1.0
 10
26.818907437
 20
206.8390228569
 30
0.0
 10
26.5353691788
 20
207.0026953279
 30
0.0
 10
25.9979297602
 20
207.4140956123
 30
0.0
 10
25.3511458328
 20
208.2319441695
 30
0.0
 10
24.8678476568
 20
209.2321498146
 30
0.0
 10
24.5549098987
 20
210.3902730764
 30
0.0
 10
24.41557775
 20
211.6819030182
 30
0.0
 10
24.4511720971
 20
213.0804898877
 30
0.0
 10
24.6601965216
 20
214.5571786757
 30
0.0
 10
25.0379720459
 20
216.0811114845
 30
0.0
 10
25.5764029273
 20
217.620133916
 30
0.0
 10
26.2640161694
 20
219.1415740226
 30
0.0
 10
27.0861596389
 20
220.6129998838
 30
0.0
 10
28.025276537
 20
222.0030501476
 30
0.0
 10
29.0613618958
 20
223.2820215979
 30
0.0
 10
30.1724485365
 20
224.4228644594
 30
0.0
 10
31.3348304501
 20
225.4010462831
 30
0.0
 10
32.1556369913
 20
225.9495929437
 30
0.0
 10
32.5687995667
 20
226.1881310439
 30
0.0
  0
SPLINE
  5
349
100
AcDbEntity
  8
0
100
AcDbSpline
 62
7
  6
CONTINUOUS
 70
0
 71
3
 72
11
 73
7
 74
0
 42
0.0000001
 43
0.0000001
 44
0.0000000001
 40
0.0
 40
0.0
 40
0.0
 40
0.0
 40
0.2448197203
 40
0.5075829757
 40
0.7662618223
 40
1.0
 40
1.0
 40
1.0
 40
1.0
 10
47.8685558665
 20
182.615574002
 30
0.0
 10
47.6762076576
 20
182.530256752
 30
0.0
 10
47.2515377681
 20
182.4101643655
 30
0.0
 10
46.5900741679
 20
182.3681612934
 30
0.0
 10
45.9429256662
 20
182.4573416021
 30
0.0
 10
45.5415378445
 20
182.6093285143
 30
0.0
 10
45.3675556582
 20
182.7097749039
 30
0.0
  0
SPLINE
  5
34A
100
AcDbEntity
  8
0
100
AcDbSpline
 62
7
  6
CONTINUOUS
 70
0
 71
3
 72
14
 73
10
 74
0
 42
0.0000001
 43
0.0000001
 44
0.0000000001
 40
0.0
 40
0.0
 40
0.0
 40
0.0
 40
0.4198448
 40
0.5840360543
 40
0.7191594594
 40
0.8265418279
 40
0.9076863151
 40
0.9644659903
 40
1.0
 40
1.0
 40
1.0
 40
1.0
 10
73.8859063759
 20
209.0291470508
 30
0.0
 10
74.0147456048
 20
209.093011416
 30
0.0
 10
74.194958492
 20
209.1799874276
 30
0.0
 10
74.4203901529
 20
209.2792626993
 30
0.0
 10
74.5495775131
 20
209.331534382
 30
0.0
 10
74.653962927
 20
209.3686890665
 30
0.0
 10
74.735157622
 20
209.3915919599
 30
0.0
 10
74.7934065407
 20
209.4012642377
 30
0.0
 10
74.8263664898
 20
209.3993601259
 30
0.0
 10
74.8373535975
 20
209.3941249687
 30
0.0
  0
SPLINE
  5
34B
100
AcDbEntity
  8
0
100
AcDbSpline
 62
7
  6
CONTINUOUS
 70
0
 71
3
 72
16
 73
12
 74
0
 42
0.0000001
 43
0.0000001
 44
0.0000000001
 40
0.0
 40
0.0
 40
0.0
 40
0.0
 40
0.1367484362
 40
0.2821368884
 40
0.4293127978
 40
0.5710690874
 40
0.7010693012
 40
0.8151037033
 40
0.9127696571
 40
0.9571482185
 40
1.0
 40
1.0
 40
1.0
 40
1.0
 10
73.9028458356
 20
183.8128115835
 30
0.0
 10
74.0509527814
 20
183.7526920056
 30
0.0
 10
74.3698655876
 20
183.6603957106
 30
0.0
 10
74.8702569137
 20
183.6024326364
 30
0.0
 10
75.3796282571
 20
183.6224621365
 30
0.0
 10
75.8619539686
 20
183.719157751
 30
0.0
 10
76.2839878259
 20
183.8862941051
 30
0.0
 10
76.6174829467
 20
184.113084532
 30
0.0
 10
76.8081647362
 20
184.3533183583
 30
0.0
 10
76.8829538393
 20
184.5578344336
 30
0.0
 10
76.8953275294
 20
184.6601714244
 30
0.0
 10
76.8953241965
 20
184.710260409
 30
0.0
  0
SPLINE
  5
34C
100
AcDbEntity
  8
0
100
AcDbSpline
 62
7
  6
CONTINUOUS
 70
0
 71
3
 72
19
 73
15
 74
0
 42
0.0000001
 43
0.0000001
 44
0.0000000001
 40
0.0
 40
0.0
 40
0.0
 40
0.0
 40
0.1488209978
 40
0.3047464555
 40
0.4559393371
 40
0.5917126449
 40
0.6517829177
 40
0.7062947806
 40
0.7559171753
 40
0.8021895
 40
0.8473984566
 40
0.8940974602
 40
0.9444851007
 40
1.0
 40
1.0
 40
1.0
 40
1.0
 10
74.2670296775
 20
184.4282304027
 30
0.0
 10
74.4096345304
 20
184.3780336825
 30
0.0
 10
74.714868355
 20
184.3112622851
 30
0.0
 10
75.1806240102
 20
184.3022043318
 30
0.0
 10
75.6265630568
 20
184.3802662391
 30
0.0
 10
75.9563945048
 20
184.5169856805
 30
0.0
 10
76.1637293587
 20
184.6661752643
 30
0.0
 10
76.2799656082
 20
184.787396958
 30
0.0
 10
76.359455539
 20
184.9196667389
 30
0.0
 10
76.3987081871
 20
185.0595831285
 30
0.0
 10
76.3948639271
 20
185.2020445846
 30
0.0
 10
76.348488419
 20
185.3409631217
 30
0.0
 10
76.2623441559
 20
185.4715601852
 30
0.0
 10
76.1846521823
 20
185.5471124949
 30
0.0
 10
76.1410889198
 20
185.5829271445
 30
0.0
  0
SPLINE
  5
34D
100
AcDbEntity
  8
0
100
AcDbSpline
 62
7
  6
CONTINUOUS
 70
0
 71
3
 72
9
 73
5
 74
0
 42
0.0000001
 43
0.0000001
 44
0.0000000001
 40
0.0
 40
0.0
 40
0.0
 40
0.0
 40
0.2417316218
 40
1.0
 40
1.0
 40
1.0
 40
1.0
 10
76.1410889198
 20
185.5829271445
 30
0.0
 10
76.1293117437
 20
185.5926095101
 30
0.0
 10
76.0796827153
 20
185.6315527834
 30
0.0
 10
76.0266874057
 20
185.6661413743
 30
0.0
 10
75.9852695682
 20
185.690053433
 30
0.0
  0
SPLINE
  5
34E
100
AcDbEntity
  8
0
100
AcDbSpline
 62
7
  6
CONTINUOUS
 70
0
 71
3
 72
10
 73
6
 74
0
 42
0.0000001
 43
0.0000001
 44
0.0000000001
 40
0.0
 40
0.0
 40
0.0
 40
0.0
 40
0.2279407193
 40
0.4763313067
 40
1.0
 40
1.0
 40
1.0
 40
1.0
 10
75.9852695682
 20
185.690053433
 30
0.0
 10
75.9033282329
 20
185.7373612148
 30
0.0
 10
75.7213484934
 20
185.8181546506
 30
0.0
 10
75.3187017421
 20
185.9230759723
 30
0.0
 10
74.993036065
 20
185.9366428194
 30
0.0
 10
74.7765662223
 20
185.9168534054
 30
0.0
  0
SPLINE
  5
34F
100
AcDbEntity
  8
0
100
AcDbSpline
 62
7
  6
CONTINUOUS
 70
0
 71
3
 72
17
 73
13
 74
0
 42
0.0000001
 43
0.0000001
 44
0.0000000001
 40
0.0
 40
0.0
 40
0.0
 40
0.0
 40
0.1286888688
 40
0.2702719422
 40
0.4174318501
 40
0.5617773054
 40
0.6954483126
 40
0.8127138313
 40
0.8646770028
 40
0.9125122438
 40
0.9571395731
 40
1.0
 40
1.0
 40
1.0
 40
1.0
 10
59.5097501612
 20
175.7697134392
 30
0.0
 10
59.6503956057
 20
175.688513591
 30
0.0
 10
59.9688291781
 20
175.5571224134
 30
0.0
 10
60.4878267205
 20
175.4533022395
 30
0.0
 10
61.0367609279
 20
175.4380969179
 30
0.0
 10
61.5708399943
 20
175.5131477777
 30
0.0
 10
62.0467513641
 20
175.6721103618
 30
0.0
 10
62.3777526056
 20
175.8735826595
 30
0.0
 10
62.5719939966
 20
176.0685358442
 30
0.0
 10
62.6752000779
 20
176.2203066875
 30
0.0
 10
62.7387507748
 20
176.3804159403
 30
0.0
 10
62.7532510512
 20
176.4912884389
 30
0.0
 10
62.7532474522
 20
176.5453773316
 30
0.0
  0
SPLINE
  5
350
100
AcDbEntity
  8
0
100
AcDbSpline
 62
7
  6
CONTINUOUS
 70
0
 71
3
 72
19
 73
15
 74
0
 42
0.0000001
 43
0.0000001
 44
0.0000000001
 40
0.0
 40
0.0
 40
0.0
 40
0.0
 40
0.1375031753
 40
0.2897301121
 40
0.4436111787
 40
0.5855383886
 40
0.6488660308
 40
0.7061397013
 40
0.7576539185
 40
0.804712273
 40
0.8496919727
 40
0.8955724926
 40
0.9450692869
 40
1.0
 40
1.0
 40
1.0
 40
1.0
 10
59.8633020798
 20
176.3820867247
 30
0.0
 10
59.9956244114
 20
176.3056921192
 30
0.0
 10
60.3017384495
 20
176.191474949
 30
0.0
 10
60.7939740225
 20
176.1285053285
 30
0.0
 10
61.2937214446
 20
176.1678284406
 30
0.0
 10
61.6797494774
 20
176.2867271891
 30
0.0
 10
61.9338019519
 20
176.4324674673
 30
0.0
 10
62.0813542572
 20
176.5560477827
 30
0.0
 10
62.1880578121
 20
176.6945818555
 30
0.0
 10
62.2489172606
 20
176.8445776417
 30
0.0
 10
62.2592974063
 20
177.0002497491
 30
0.0
 10
62.2183575206
 20
177.1534147247
 30
0.0
 10
62.1295291977
 20
177.2971098993
 30
0.0
 10
62.0461618702
 20
177.3792809052
 30
0.0
 10
61.9990121755
 20
177.418044067
 30
0.0
  0
SPLINE
  5
351
100
AcDbEntity
  8
0
100
AcDbSpline
 62
7
  6
CONTINUOUS
 70
0
 71
3
 72
9
 73
5
 74
0
 42
0.0000001
 43
0.0000001
 44
0.0000000001
 40
0.0
 40
0.0
 40
0.0
 40
0.0
 40
0.2417316218
 40
1.0
 40
1.0
 40
1.0
 40
1.0
 10
61.9990121755
 20
177.418044067
 30
0.0
 10
61.9872349994
 20
177.4277264327
 30
0.0
 10
61.937605971
 20
177.466669706
 30
0.0
 10
61.8846106615
 20
177.5012582969
 30
0.0
 10
61.843192824
 20
177.5251703556
 30
0.0
  0
SPLINE
  5
352
100
AcDbEntity
  8
0
100
AcDbSpline
 62
7
  6
CONTINUOUS
 70
0
 71
3
 72
19
 73
15
 74
0
 42
0.0000001
 43
0.0000001
 44
0.0000000001
 40
0.0
 40
0.0
 40
0.0
 40
0.0
 40
0.138268433
 40
0.291399633
 40
0.4445411314
 40
0.5827846438
 40
0.6432373716
 40
0.6973194311
 40
0.7459596107
 40
0.7913884449
 40
0.8368174529
 40
0.8854518571
 40
0.9395803522
 40
1.0
 40
1.0
 40
1.0
 40
1.0
 10
61.843192824
 20
177.5251703556
 30
0.0
 10
61.7026420328
 20
177.606315557
 30
0.0
 10
61.3757988882
 20
177.724714644
 30
0.0
 10
60.8532511312
 20
177.7814603947
 30
0.0
 10
60.3305995791
 20
177.7246079647
 30
0.0
 10
59.9362646823
 20
177.5820302432
 30
0.0
 10
59.6904435791
 20
177.4130041172
 30
0.0
 10
59.5572365324
 20
177.2729855056
 30
0.0
 10
59.4729619313
 20
177.1180383378
 30
0.0
 10
59.4437730527
 20
176.9536601379
 30
0.0
 10
59.4729252795
 20
176.7892859858
 30
0.0
 10
59.5572171563
 20
176.6342701221
 30
0.0
 10
59.6904438294
 20
176.4943441381
 30
0.0
 10
59.8018851018
 20
176.4175450313
 30
0.0
 10
59.8633020798
 20
176.3820867247
 30
0.0
  0
SPLINE
  5
353
100
AcDbEntity
  8
0
100
AcDbSpline
 62
7
  6
CONTINUOUS
 70
0
 71
3
 72
11
 73
7
 74
0
 42
0.0000001
 43
0.0000001
 44
0.0000000001
 40
0.0
 40
0.0
 40
0.0
 40
0.0
 40
0.2975552641
 40
0.5687949365
 40
0.804100065
 40
1.0
 40
1.0
 40
1.0
 40
1.0
 10
65.9668346805
 20
204.4570961672
 30
0.0
 10
64.4562639566
 20
203.5365758469
 30
0.0
 10
61.5817517582
 20
201.7555084396
 30
0.0
 10
57.5469216034
 20
199.1918128198
 30
0.0
 10
54.0467832404
 20
196.91396979
 30
0.0
 10
51.9155306307
 20
195.4892403229
 30
0.0
 10
50.9537348515
 20
194.8325251392
 30
0.0
  0
SPLINE
  5
354
100
AcDbEntity
  8
0
100
AcDbSpline
 62
7
  6
CONTINUOUS
 70
0
 71
3
 72
9
 73
5
 74
0
 42
0.0000001
 43
0.0000001
 44
0.0000000001
 40
0.0
 40
0.0
 40
0.0
 40
0.0
 40
0.4778425454
 40
1.0
 40
1.0
 40
1.0
 40
1.0
 10
45.3675556582
 20
183.9345285296
 30
0.0
 10
45.4866650406
 20
183.8657622513
 30
0.0
 10
45.7524740627
 20
183.7499765262
 30
0.0
 10
46.0333512772
 20
183.6815246965
 30
0.0
 10
46.1815758947
 20
183.6566954489
 30
0.0
  0
SPLINE
  5
355
100
AcDbEntity
  8
0
100
AcDbSpline
 62
7
  6
CONTINUOUS
 70
0
 71
3
 72
12
 73
8
 74
0
 42
0.0000001
 43
0.0000001
 44
0.0000000001
 40
0.0
 40
0.0
 40
0.0
 40
0.0
 40
0.2855240763
 40
0.5494915843
 40
0.6721061525
 40
0.7880352494
 40
1.0
 40
1.0
 40
1.0
 40
1.0
 10
65.9668346805
 20
204.4570961672
 30
0.0
 10
66.83351172
 20
204.6534265673
 30
0.0
 10
68.4801700926
 20
205.1364573353
 30
0.0
 10
70.3891394875
 20
206.0151854602
 30
0.0
 10
71.7107470461
 20
206.8563116292
 30
0.0
 10
72.8144154824
 20
207.722521725
 30
0.0
 10
73.5151009973
 20
208.4835239768
 30
0.0
 10
73.8859063759
 20
209.0291470508
 30
0.0
  0
SPLINE
  5
356
100
AcDbEntity
  8
0
100
AcDbSpline
 62
7
  6
CONTINUOUS
 70
0
 71
3
 72
17
 73
13
 74
0
 42
0.0000001
 43
0.0000001
 44
0.0000000001
 40
0.0
 40
0.0
 40
0.0
 40
0.0
 40
0.0428584554
 40
0.0874839031
 40
0.1353177481
 40
0.1872794187
 40
0.3045395902
 40
0.4382053041
 40
0.582547581
 40
0.729712444
 40
0.8713059798
 40
1.0
 40
1.0
 40
1.0
 40
1.0
 10
76.8953177196
 20
183.4855067797
 30
0.0
 10
76.8953218092
 20
183.4314205452
 30
0.0
 10
76.8808239772
 20
183.3205527881
 30
0.0
 10
76.8172732467
 20
183.160451466
 30
0.0
 10
76.7140757702
 20
183.008683175
 30
0.0
 10
76.5198440403
 20
182.8137359473
 30
0.0
 10
76.1888626216
 20
182.6122644537
 30
0.0
 10
75.7129725191
 20
182.4532979727
 30
0.0
 10
75.1789018002
 20
182.3782332031
 30
0.0
 10
74.629953205
 20
182.3934274926
 30
0.0
 10
74.1109298889
 20
182.4972442625
 30
0.0
 10
73.7924775376
 20
182.6286400477
 30
0.0
 10
73.6518269054
 20
182.709842891
 30
0.0
  0
SPLINE
  5
357
100
AcDbEntity
  8
0
100
AcDbSpline
 62
7
  6
CONTINUOUS
 70
0
 71
3
 72
13
 73
9
 74
0
 42
0.0000001
 43
0.0000001
 44
0.0000000001
 40
0.0
 40
0.0
 40
0.0
 40
0.0
 40
0.1142487484
 40
0.2375477548
 40
0.5000005226
 40
0.7624530043
 40
0.8857516767
 40
1.0
 40
1.0
 40
1.0
 40
1.0
 10
58.7319359402
 20
174.0958912443
 30
0.0
 10
58.87714751
 20
174.012055202
 30
0.0
 10
59.1947338862
 20
173.86416209
 30
0.0
 10
59.8985653071
 20
173.6504034497
 30
0.0
 10
60.853259607
 20
173.5465669225
 30
0.0
 10
61.8079529888
 20
173.6504078639
 30
0.0
 10
62.5117817722
 20
173.8641699664
 30
0.0
 10
62.8293662024
 20
174.0120646649
 30
0.0
 10
62.9745766273
 20
174.0959014423
 30
0.0
  0
SPLINE
  5
358
100
AcDbEntity
  8
0
100
AcDbSpline
 62
7
  6
CONTINUOUS
 70
0
 71
3
 72
11
 73
7
 74
0
 42
0.0000001
 43
0.0000001
 44
0.0000000001
 40
0.0
 40
0.0
 40
0.0
 40
0.0
 40
0.2177723091
 40
0.4509273687
 40
0.7102218233
 40
1.0
 40
1.0
 40
1.0
 40
1.0
 10
43.7110750013
 20
183.4854387963
 30
0.0
 10
43.7110750028
 20
183.3711776661
 30
0.0
 10
43.7532726876
 20
183.1329935595
 30
0.0
 10
43.9338422015
 20
182.8012023666
 30
0.0
 10
44.2192135596
 20
182.5011707878
 30
0.0
 10
44.4580690763
 20
182.3367256879
 30
0.0
 10
44.5897414373
 20
182.2607063347
 30
0.0
  0
SPLINE
  5
359
100
AcDbEntity
  8
0
100
AcDbSpline
 62
7
  6
CONTINUOUS
 70
0
 71
3
 72
11
 73
7
 74
0
 42
0.0000001
 43
0.0000001
 44
0.0000000001
 40
0.0
 40
0.0
 40
0.0
 40
0.0
 40
0.2897776971
 40
0.5490719787
 40
0.7822272299
 40
1.0
 40
1.0
 40
1.0
 40
1.0
 10
77.1166533716
 20
182.2607845198
 30
0.0
 10
77.2483232702
 20
182.3368037174
 30
0.0
 10
77.487174254
 20
182.5012481895
 30
0.0
 10
77.7725398164
 20
182.8012775443
 30
0.0
 10
77.953105424
 20
183.1330655247
 30
0.0
 10
77.9953021453
 20
183.3712468832
 30
0.0
 10
77.9953021438
 20
183.4855067833
 30
0.0
  0
SPLINE
  5
35A
100
AcDbEntity
  8
0
100
AcDbSpline
 62
7
  6
CONTINUOUS
 70
0
 71
3
 72
11
 73
7
 74
0
 42
0.0000001
 43
0.0000001
 44
0.0000000001
 40
0.0
 40
0.0
 40
0.0
 40
0.0
 40
0.2211968568
 40
0.4596517185
 40
0.7188867346
 40
1.0
 40
1.0
 40
1.0
 40
1.0
 10
72.6065370818
 20
182.0880824276
 30
0.0
 10
72.4856086028
 20
181.7490530999
 30
0.0
 10
72.14822096
 20
181.0734017611
 30
0.0
 10
71.4194035637
 20
180.1501031123
 30
0.0
 10
70.4709326031
 20
179.3016208937
 30
0.0
 10
69.734670925
 20
178.8153087153
 30
0.0
 10
69.3385052743
 20
178.5865837356
 30
0.0
  0
SPLINE
  5
35B
100
AcDbEntity
  8
0
100
AcDbSpline
 62
7
  6
CONTINUOUS
 70
0
 71
3
 72
9
 73
5
 74
0
 42
0.0000001
 43
0.0000001
 44
0.0000000001
 40
0.0
 40
0.0
 40
0.0
 40
0.0
 40
0.262171749
 40
1.0
 40
1.0
 40
1.0
 40
1.0
 10
73.6518269054
 20
182.709842891
 30
0.0
 10
73.6252477652
 20
182.7251880176
 30
0.0
 10
73.525434854
 20
182.7863294066
 30
0.0
 10
73.4319532296
 20
182.8582826447
 30
0.0
 10
73.3694627383
 20
182.9179082016
 30
0.0
  0
SPLINE
  5
35C
100
AcDbEntity
  8
0
100
AcDbSpline
 62
7
  6
CONTINUOUS
 70
0
 71
3
 72
11
 73
7
 74
0
 42
0.0000001
 43
0.0000001
 44
0.0000000001
 40
0.0
 40
0.0
 40
0.0
 40
0.0
 40
0.2897036169
 40
0.5490920547
 40
0.7822205729
 40
1.0
 40
1.0
 40
1.0
 40
1.0
 10
59.5097501612
 20
174.5449598135
 30
0.0
 10
59.4263795317
 20
174.59309278
 30
0.0
 10
59.275123287
 20
174.6972716194
 30
0.0
 10
59.0943473204
 20
174.8872503141
 30
0.0
 10
58.9799966052
 20
175.0974188324
 30
0.0
 10
58.9532594002
 20
175.248256317
 30
0.0
 10
58.9532539284
 20
175.3206237095
 30
0.0
  0
SPLINE
  5
35D
100
AcDbEntity
  8
0
100
AcDbSpline
 62
7
  6
CONTINUOUS
 70
0
 71
3
 72
9
 73
5
 74
0
 42
0.0000001
 43
0.0000001
 44
0.0000000001
 40
0.0
 40
0.0
 40
0.0
 40
0.0
 40
0.4595942789
 40
1.0
 40
1.0
 40
1.0
 40
1.0
 10
44.8538206063
 20
184.4788034606
 30
0.0
 10
44.8945194826
 20
184.3698129448
 30
0.0
 10
45.0420305643
 20
184.1543618629
 30
0.0
 10
45.2490844403
 20
184.0029263718
 30
0.0
 10
45.3675556582
 20
183.9345285296
 30
0.0
  0
SPLINE
  5
35E
100
AcDbEntity
  8
0
100
AcDbSpline
 62
7
  6
CONTINUOUS
 70
0
 71
3
 72
11
 73
7
 74
0
 42
0.0000001
 43
0.0000001
 44
0.0000000001
 40
0.0
 40
0.0
 40
0.0
 40
0.0
 40
0.2897036169
 40
0.5490920547
 40
0.7822205729
 40
1.0
 40
1.0
 40
1.0
 40
1.0
 10
45.3675556582
 20
182.7097749039
 30
0.0
 10
45.2841850288
 20
182.7579078704
 30
0.0
 10
45.1329287841
 20
182.8620867098
 30
0.0
 10
44.9521528174
 20
183.0520654045
 30
0.0
 10
44.8378021023
 20
183.2622339228
 30
0.0
 10
44.8110648973
 20
183.4130714074
 30
0.0
 10
44.8110594254
 20
183.4854387999
 30
0.0
  0
SPLINE
  5
35F
100
AcDbEntity
  8
0
100
AcDbSpline
 62
7
  6
CONTINUOUS
 70
0
 71
3
 72
11
 73
7
 74
0
 42
0.0000001
 43
0.0000001
 44
0.0000000001
 40
0.0
 40
0.0
 40
0.0
 40
0.0
 40
0.2301324488
 40
0.4756530228
 40
0.7335208867
 40
1.0
 40
1.0
 40
1.0
 40
1.0
 10
69.3385052743
 20
178.5865837356
 30
0.0
 10
68.8771694978
 20
178.3202329907
 30
0.0
 10
67.8843131487
 20
177.8362680995
 30
0.0
 10
66.2787347136
 20
177.274238615
 30
0.0
 10
64.5417624359
 20
176.8630477215
 30
0.0
 10
63.3372056523
 20
176.6979408757
 30
0.0
 10
62.7229105551
 20
176.6419878472
 30
0.0
  0
SPLINE
  5
360
100
AcDbEntity
  8
0
100
AcDbSpline
 62
7
  6
CONTINUOUS
 70
0
 71
3
 72
14
 73
10
 74
0
 42
0.0000001
 43
0.0000001
 44
0.0000000001
 40
0.0
 40
0.0
 40
0.0
 40
0.0
 40
0.2929107665
 40
0.4314464155
 40
0.5625524806
 40
0.6851510281
 40
0.798691698
 40
0.9033107111
 40
1.0
 40
1.0
 40
1.0
 40
1.0
 10
58.951924039
 20
176.6448933067
 30
0.0
 10
57.853017753
 20
176.7466798754
 30
0.0
 10
56.2405586269
 20
177.0279176116
 30
0.0
 10
54.2221307267
 20
177.6832286801
 30
0.0
 10
52.8679711095
 20
178.2827125693
 30
0.0
 10
51.673090804
 20
178.9873557297
 30
0.0
 10
50.6607955253
 20
179.7845436387
 30
0.0
 10
49.8518590786
 20
180.6595316129
 30
0.0
 10
49.4462012394
 20
181.3077300661
 30
0.0
 10
49.288615468
 20
181.6361824298
 30
0.0
  0
SPLINE
  5
361
100
AcDbEntity
  8
0
100
AcDbSpline
 62
7
  6
CONTINUOUS
 70
0
 71
3
 72
11
 73
7
 74
0
 42
0.0000001
 43
0.0000001
 44
0.0000000001
 40
0.0
 40
0.0
 40
0.0
 40
0.0
 40
0.2177836649
 40
0.4509127634
 40
0.7102976676
 40
1.0
 40
1.0
 40
1.0
 40
1.0
 10
58.9532474516
 20
176.5453773316
 30
0.0
 10
58.953252267
 20
176.4730083067
 30
0.0
 10
58.9799941467
 20
176.3221690067
 30
0.0
 10
59.0943473115
 20
176.1120012243
 30
0.0
 10
59.275123577
 20
175.922023509
 30
0.0
 10
59.4263796432
 20
175.8178463413
 30
0.0
 10
59.5097501612
 20
175.7697134392
 30
0.0
  0
SPLINE
  5
362
100
AcDbEntity
  8
0
100
AcDbSpline
 62
7
  6
CONTINUOUS
 70
0
 71
3
 72
17
 73
13
 74
0
 42
0.0000001
 43
0.0000001
 44
0.0000000001
 40
0.0
 40
0.0
 40
0.0
 40
0.0
 40
0.0428584554
 40
0.0874839031
 40
0.1353177481
 40
0.1872794187
 40
0.3045395902
 40
0.4382053041
 40
0.582547581
 40
0.729712444
 40
0.8713059798
 40
1.0
 40
1.0
 40
1.0
 40
1.0
 10
62.7532409754
 20
175.3206237023
 30
0.0
 10
62.7532450649
 20
175.2665374677
 30
0.0
 10
62.7387472329
 20
175.1556697106
 30
0.0
 10
62.6751965025
 20
174.9955683885
 30
0.0
 10
62.5719990259
 20
174.8438000976
 30
0.0
 10
62.377767296
 20
174.6488528698
 30
0.0
 10
62.0467858773
 20
174.4473813763
 30
0.0
 10
61.5708957749
 20
174.2884148952
 30
0.0
 10
61.036825056
 20
174.2133501257
 30
0.0
 10
60.4878764607
 20
174.2285444152
 30
0.0
 10
59.9688531446
 20
174.3323611851
 30
0.0
 10
59.6504007933
 20
174.4637569703
 30
0.0
 10
59.5097501612
 20
174.5449598135
 30
0.0
  0
SPLINE
  5
363
100
AcDbEntity
  8
0
100
AcDbSpline
 62
7
  6
CONTINUOUS
 70
0
 71
3
 72
11
 73
7
 74
0
 42
0.0000001
 43
0.0000001
 44
0.0000000001
 40
0.0
 40
0.0
 40
0.0
 40
0.0
 40
0.2375347386
 40
0.4973873292
 40
0.758741283
 40
1.0
 40
1.0
 40
1.0
 40
1.0
 10
36.862497561
 20
170.9666765087
 30
0.0
 10
36.5827890586
 20
170.8218865508
 30
0.0
 10
36.0535538084
 20
170.4080888938
 30
0.0
 10
35.4387647591
 20
169.601352179
 30
0.0
 10
35.0176444622
 20
168.6732518919
 30
0.0
 10
34.8983316602
 20
168.0059362596
 30
0.0
 10
34.8983316602
 20
167.6860365406
 30
0.0
  0
SPLINE
  5
364
100
AcDbEntity
  8
0
100
AcDbSpline
 62
7
  6
CONTINUOUS
 70
0
 71
3
 72
11
 73
7
 74
0
 42
0.0000001
 43
0.0000001
 44
0.0000000001
 40
0.0
 40
0.0
 40
0.0
 40
0.0
 40
0.2686418689
 40
0.5215931983
 40
0.7636604372
 40
1.0
 40
1.0
 40
1.0
 40
1.0
 10
34.8983316602
 20
167.6860365406
 30
0.0
 10
34.8983316602
 20
167.5449924523
 30
0.0
 10
34.9204117905
 20
167.2702965543
 30
0.0
 10
35.0328468567
 20
166.8819957564
 30
0.0
 10
35.2292810844
 20
166.5468354166
 30
0.0
 10
35.41697197
 20
166.3729213136
 30
0.0
 10
35.5202182172
 20
166.3040941295
 30
0.0
  0
SPLINE
  5
365
100
AcDbEntity
  8
0
100
AcDbSpline
 62
7
  6
CONTINUOUS
 70
0
 71
3
 72
15
 73
11
 74
0
 42
0.0000001
 43
0.0000001
 44
0.0000000001
 40
0.0
 40
0.0
 40
0.0
 40
0.0
 40
0.1141475829
 40
0.2373370756
 40
0.3669780685
 40
0.5000016033
 40
0.6330249151
 40
0.7626652568
 40
0.8858537231
 40
1.0
 40
1.0
 40
1.0
 40
1.0
 10
36.1044276795
 20
178.9129297303
 30
0.0
 10
36.1044276795
 20
179.1923899101
 30
0.0
 10
36.1556512383
 20
179.7739850581
 30
0.0
 10
36.3596689641
 20
180.6513721232
 30
0.0
 10
36.6866482816
 20
181.5400759078
 30
0.0
 10
37.1241238515
 20
182.4067021773
 30
0.0
 10
37.6559015802
 20
183.2188815504
 30
0.0
 10
38.2620460021
 20
183.9464048045
 30
0.0
 10
38.9198697763
 20
184.5617795768
 30
0.0
 10
39.3979296583
 20
184.8969347196
 30
0.0
 10
39.6399468656
 20
185.0366625853
 30
0.0
  0
SPLINE
  5
366
100
AcDbEntity
  8
0
100
AcDbSpline
 62
7
  6
CONTINUOUS
 70
0
 71
3
 72
9
 73
5
 74
0
 42
0.0000001
 43
0.0000001
 44
0.0000000001
 40
0.0
 40
0.0
 40
0.0
 40
0.0
 40
0.2470021932
 40
1.0
 40
1.0
 40
1.0
 40
1.0
 10
35.2023026366
 20
130.8044059165
 30
0.0
 10
35.07749204
 20
130.9336851235
 30
0.0
 10
34.5819969158
 20
131.4664839502
 30
0.0
 10
34.1261739017
 20
132.0359656522
 30
0.0
 10
33.8063578723
 20
132.4807315837
 30
0.0
  0
SPLINE
  5
367
100
AcDbEntity
  8
0
100
AcDbSpline
 62
7
  6
CONTINUOUS
 70
0
 71
3
 72
9
 73
5
 74
0
 42
0.0000001
 43
0.0000001
 44
0.0000000001
 40
0.0
 40
0.0
 40
0.0
 40
0.0
 40
0.2342030627
 40
1.0
 40
1.0
 40
1.0
 40
1.0
 10
36.9396312414
 20
170.0853759459
 30
0.0
 10
37.0477497609
 20
170.122856399
 30
0.0
 10
37.5020677665
 20
170.3039623436
 30
0.0
 10
37.9241858337
 20
170.5603994086
 30
0.0
 10
38.2257568549
 20
170.781882592
 30
0.0
  0
SPLINE
  5
368
100
AcDbEntity
  8
0
100
AcDbSpline
 62
7
  6
CONTINUOUS
 70
0
 71
3
 72
9
 73
5
 74
0
 42
0.0000001
 43
0.0000001
 44
0.0000000001
 40
0.0
 40
0.0
 40
0.0
 40
0.0
 40
0.5390737069
 40
1.0
 40
1.0
 40
1.0
 40
1.0
 10
36.5896961155
 20
169.7312575294
 30
0.0
 10
36.6290555876
 20
169.813314744
 30
0.0
 10
36.7254067679
 20
169.9547143068
 30
0.0
 10
36.8661083131
 20
170.0598884284
 30
0.0
 10
36.9396312414
 20
170.0853759459
 30
0.0
  0
SPLINE
  5
369
100
AcDbEntity
  8
0
100
AcDbSpline
 62
7
  6
CONTINUOUS
 70
0
 71
3
 72
9
 73
5
 74
0
 42
0.0000001
 43
0.0000001
 44
0.0000000001
 40
0.0
 40
0.0
 40
0.0
 40
0.0
 40
0.4787874828
 40
1.0
 40
1.0
 40
1.0
 40
1.0
 10
33.8063578723
 20
144.1953933936
 30
0.0
 10
33.5584545005
 20
145.7275896074
 30
0.0
 10
33.3345489076
 20
148.9780743359
 30
0.0
 10
33.5851200729
 20
152.2204654062
 30
0.0
 10
33.8162948569
 20
153.8942302752
 30
0.0
  0
SPLINE
  5
36A
100
AcDbEntity
  8
0
100
AcDbSpline
 62
7
  6
CONTINUOUS
 70
0
 71
3
 72
9
 73
5
 74
0
 42
0.0000001
 43
0.0000001
 44
0.0000000001
 40
0.0
 40
0.0
 40
0.0
 40
0.0
 40
0.488383991
 40
1.0
 40
1.0
 40
1.0
 40
1.0
 10
35.5235576776
 20
166.3026559787
 30
0.0
 10
35.462101141
 20
166.3449465703
 30
0.0
 10
35.3466151783
 20
166.4474018341
 30
0.0
 10
35.2574594901
 20
166.5730199653
 30
0.0
 10
35.2186260542
 20
166.6408391416
 30
0.0
  0
SPLINE
  5
36B
100
AcDbEntity
  8
0
100
AcDbSpline
 62
7
  6
CONTINUOUS
 70
0
 71
3
 72
9
 73
5
 74
0
 42
0.0000001
 43
0.0000001
 44
0.0000000001
 40
0.0
 40
0.0
 40
0.0
 40
0.0
 40
0.2269581367
 40
1.0
 40
1.0
 40
1.0
 40
1.0
 10
35.2186260542
 20
166.6408391416
 30
0.0
 10
35.1843784546
 20
166.7006495585
 30
0.0
 10
35.0560826065
 20
166.9772425371
 30
0.0
 10
35.0154901254
 20
167.2879851635
 30
0.0
 10
35.0154901254
 20
167.5227388791
 30
0.0
  0
SPLINE
  5
36C
100
AcDbEntity
  8
0
100
AcDbSpline
 62
7
  6
CONTINUOUS
 70
0
 71
3
 72
11
 73
7
 74
0
 42
0.0000001
 43
0.0000001
 44
0.0000000001
 40
0.0
 40
0.0
 40
0.0
 40
0.0
 40
0.2367452473
 40
0.4989694841
 40
0.7617664305
 40
1.0
 40
1.0
 40
1.0
 40
1.0
 10
35.0154901254
 20
167.5227388791
 30
0.0
 10
35.0154901254
 20
167.8379432895
 30
0.0
 10
35.1324713061
 20
168.5027277644
 30
0.0
 10
35.5414171348
 20
169.4389127658
 30
0.0
 10
36.1412188279
 20
170.2683621371
 30
0.0
 10
36.655474332
 20
170.7094477644
 30
0.0
 10
36.9278926274
 20
170.871913805
 30
0.0
  0
SPLINE
  5
36D
100
AcDbEntity
  8
0
100
AcDbSpline
 62
7
  6
CONTINUOUS
 70
0
 71
3
 72
9
 73
5
 74
0
 42
0.0000001
 43
0.0000001
 44
0.0000000001
 40
0.0
 40
0.0
 40
0.0
 40
0.0
 40
0.2319083353
 40
1.0
 40
1.0
 40
1.0
 40
1.0
 10
40.4751798671
 20
168.0441721733
 30
0.0
 10
40.4641797807
 20
168.0403588745
 30
0.0
 10
40.4176126514
 20
168.0214315657
 30
0.0
 10
40.3747668004
 20
167.9940478497
 30
0.0
 10
40.3443702219
 20
167.9703221037
 30
0.0
  0
SPLINE
  5
36E
100
AcDbEntity
  8
0
100
AcDbSpline
 62
7
  6
CONTINUOUS
 70
0
 71
3
 72
9
 73
5
 74
0
 42
0.0000001
 43
0.0000001
 44
0.0000000001
 40
0.0
 40
0.0
 40
0.0
 40
0.0
 40
0.2441103843
 40
1.0
 40
1.0
 40
1.0
 40
1.0
 10
40.3443702219
 20
167.9703221037
 30
0.0
 10
40.3389491823
 20
167.9660907654
 30
0.0
 10
40.3170458053
 20
167.9483694521
 30
0.0
 10
40.2963410853
 20
167.9291802062
 30
0.0
 10
40.2813733991
 20
167.9140335899
 30
0.0
  0
SPLINE
  5
36F
100
AcDbEntity
  8
0
100
AcDbSpline
 62
7
  6
CONTINUOUS
 70
0
 71
3
 72
9
 73
5
 74
0
 42
0.0000001
 43
0.0000001
 44
0.0000000001
 40
0.0
 40
0.0
 40
0.0
 40
0.0
 40
0.2459231619
 40
1.0
 40
1.0
 40
1.0
 40
1.0
 10
40.2813733991
 20
167.9140335899
 30
0.0
 10
40.2762421994
 20
167.9088410496
 30
0.0
 10
40.2556981329
 20
167.8874111128
 30
0.0
 10
40.2364272713
 20
167.8647658867
 30
0.0
 10
40.2226371102
 20
167.847133705
 30
0.0
  0
SPLINE
  5
370
100
AcDbEntity
  8
0
100
AcDbSpline
 62
7
  6
CONTINUOUS
 70
0
 71
3
 72
20
 73
16
 74
0
 42
0.0000001
 43
0.0000001
 44
0.0000000001
 40
0.0
 40
0.0
 40
0.0
 40
0.0
 40
0.1308180744
 40
0.2603271175
 40
0.3881397059
 40
0.5136846824
 40
0.6361019868
 40
0.6958027187
 40
0.7542894885
 40
0.8115773278
 40
0.8683966189
 40
0.8976005809
 40
0.9284014212
 40
0.9621249742
 40
1.0
 40
1.0
 40
1.0
 40
1.0
 10
41.5699123034
 20
179.8400141824
 30
0.0
 10
41.3082139877
 20
179.8765935102
 30
0.0
 10
40.786762739
 20
179.9447324948
 30
0.0
 10
40.0071056693
 20
180.0280377249
 30
0.0
 10
39.2356887143
 20
180.0857245249
 30
0.0
 10
38.4767101331
 20
180.107728159
 30
0.0
 10
37.8546747544
 20
180.082697878
 30
0.0
 10
37.372536247
 20
180.0184843685
 30
0.0
 10
37.0259672849
 20
179.9409444648
 30
0.0
 10
36.6972015188
 20
179.8214612153
 30
0.0
 10
36.4478603366
 20
179.6666833816
 30
0.0
 10
36.2837501324
 20
179.4952140901
 30
0.0
 10
36.1832016063
 20
179.3328938596
 30
0.0
 10
36.1176332499
 20
179.1347445502
 30
0.0
 10
36.1044276795
 20
178.9894343606
 30
0.0
 10
36.1044276795
 20
178.9129297303
 30
0.0
  0
SPLINE
  5
371
100
AcDbEntity
  8
0
100
AcDbSpline
 62
7
  6
CONTINUOUS
 70
0
 71
3
 72
20
 73
16
 74
0
 42
0.0000001
 43
0.0000001
 44
0.0000000001
 40
0.0
 40
0.0
 40
0.0
 40
0.0
 40
0.1308188468
 40
0.2603285652
 40
0.3881416973
 40
0.5136870341
 40
0.6361044204
 40
0.6958050417
 40
0.7542915602
 40
0.811578968
 40
0.868397625
 40
0.8976012393
 40
0.9284017486
 40
0.9621250571
 40
1.0
 40
1.0
 40
1.0
 40
1.0
 10
41.5699123034
 20
179.8400141824
 30
0.0
 10
41.4073804807
 20
180.0483557349
 30
0.0
 10
41.0876366983
 20
180.46586389
 30
0.0
 10
40.6256513463
 20
181.099395576
 30
0.0
 10
40.189972198
 20
181.7386002674
 30
0.0
 10
39.7914146418
 20
182.384874459
 30
0.0
 10
39.5020629169
 20
182.9360725934
 30
0.0
 10
39.316595238
 20
183.3857113894
 30
0.0
 10
39.2104556215
 20
183.7246095617
 30
0.0
 10
39.1495414121
 20
184.0690615035
 30
0.0
 10
39.158906568
 20
184.362379348
 30
0.0
 10
39.2253439608
 20
184.5902324678
 30
0.0
 10
39.3156401121
 20
184.7584665193
 30
0.0
 10
39.4544554672
 20
184.9143216576
 30
0.0
 10
39.5736929473
 20
184.9984110961
 30
0.0
 10
39.6399468656
 20
185.0366625853
 30
0.0
  0
SPLINE
  5
372
100
AcDbEntity
  8
0
100
AcDbSpline
 62
7
  6
CONTINUOUS
 70
0
 71
3
 72
9
 73
5
 74
0
 42
0.0000001
 43
0.0000001
 44
0.0000000001
 40
0.0
 40
0.0
 40
0.0
 40
0.0
 40
0.254665055
 40
1.0
 40
1.0
 40
1.0
 40
1.0
 10
41.7613054807
 20
168.7406788194
 30
0.0
 10
41.725948761
 20
168.7147117394
 30
0.0
 10
41.5860435096
 20
168.6142141255
 30
0.0
 10
41.4418286902
 20
168.5196820946
 30
0.0
 10
41.3320065407
 20
168.4531774399
 30
0.0
  0
SPLINE
  5
373
100
AcDbEntity
  8
0
100
AcDbSpline
 62
7
  6
CONTINUOUS
 70
0
 71
3
 72
9
 73
5
 74
0
 42
0.0000001
 43
0.0000001
 44
0.0000000001
 40
0.0
 40
0.0
 40
0.0
 40
0.0
 40
0.2553764961
 40
1.0
 40
1.0
 40
1.0
 40
1.0
 10
41.3320065407
 20
168.4531774399
 30
0.0
 10
41.2963517742
 20
168.4315860948
 30
0.0
 10
41.1557585567
 20
168.348669025
 30
0.0
 10
41.0112117412
 20
168.2724043525
 30
0.0
 10
40.9015281272
 20
168.2200500744
 30
0.0
  0
SPLINE
  5
374
100
AcDbEntity
  8
0
100
AcDbSpline
 62
7
  6
CONTINUOUS
 70
0
 71
3
 72
9
 73
5
 74
0
 42
0.0000001
 43
0.0000001
 44
0.0000000001
 40
0.0
 40
0.0
 40
0.0
 40
0.0
 40
0.2558776365
 40
1.0
 40
1.0
 40
1.0
 40
1.0
 10
40.9015281272
 20
168.2200500744
 30
0.0
 10
40.8660177388
 20
168.2031002249
 30
0.0
 10
40.7263849313
 20
168.1386726783
 30
0.0
 10
40.58329707
 20
168.08165217
 30
0.0
 10
40.4751798671
 20
168.0441721733
 30
0.0
  0
SPLINE
  5
375
100
AcDbEntity
  8
0
100
AcDbSpline
 62
7
  6
CONTINUOUS
 70
0
 71
3
 72
9
 73
5
 74
0
 42
0.0000001
 43
0.0000001
 44
0.0000000001
 40
0.0
 40
0.0
 40
0.0
 40
0.0
 40
0.5390737069
 40
1.0
 40
1.0
 40
1.0
 40
1.0
 10
40.1252447412
 20
167.6900537568
 30
0.0
 10
40.1646042133
 20
167.7721109714
 30
0.0
 10
40.2609553936
 20
167.9135105342
 30
0.0
 10
40.4016569388
 20
168.0186846558
 30
0.0
 10
40.4751798671
 20
168.0441721733
 30
0.0
  0
LINE
  5
376
100
AcDbEntity
  8
0
100
AcDbLine
 62
7
  6
CONTINUOUS
 10
106.6122506368
 20
179.2548630455
 11
99.631404126
 21
192.2053155305
  0
SPLINE
  5
377
100
AcDbEntity
  8
0
100
AcDbSpline
 62
7
  6
CONTINUOUS
 70
0
 71
3
 72
9
 73
5
 74
0
 42
0.0000001
 43
0.0000001
 44
0.0000000001
 40
0.0
 40
0.0
 40
0.0
 40
0.0
 40
0.4999217045
 40
1.0
 40
1.0
 40
1.0
 40
1.0
 10
59.8627944102
 20
116.7283212307
 30
0.0
 10
61.1485265831
 20
116.1820395777
 30
0.0
 10
63.721474396
 20
115.0918512731
 30
0.0
 10
66.2942384986
 20
114.0012292008
 30
0.0
 10
67.5813953336
 20
113.457187936
 30
0.0
  0
SPLINE
  5
378
100
AcDbEntity
  8
0
100
AcDbSpline
 62
7
  6
CONTINUOUS
 70
0
 71
3
 72
12
 73
8
 74
0
 42
0.0000001
 43
0.0000001
 44
0.0000000001
 40
0.0
 40
0.0
 40
0.0
 40
0.0
 40
0.2406301837
 40
0.4853046085
 40
0.736261212
 40
0.8656732218
 40
1.0
 40
1.0
 40
1.0
 40
1.0
 10
59.8627944102
 20
116.7283212307
 30
0.0
 10
59.7488664089
 20
116.7767269393
 30
0.0
 10
59.519373661
 20
116.8750166431
 30
0.0
 10
59.1725050652
 20
117.0270908684
 30
0.0
 10
58.8794273987
 20
117.1594563976
 30
0.0
 10
58.6406074236
 20
117.2736900206
 30
0.0
 10
58.5194226189
 20
117.3349589905
 30
0.0
 10
58.4595097371
 20
117.3693872255
 30
0.0
  0
SPLINE
  5
379
100
AcDbEntity
  8
0
100
AcDbSpline
 62
7
  6
CONTINUOUS
 70
0
 71
3
 72
9
 73
5
 74
0
 42
0.0000001
 43
0.0000001
 44
0.0000000001
 40
0.0
 40
0.0
 40
0.0
 40
0.0
 40
0.2342030627
 40
1.0
 40
1.0
 40
1.0
 40
1.0
 10
40.4751798671
 20
168.0441721733
 30
0.0
 10
40.5832983866
 20
168.0816526264
 30
0.0
 10
41.0376163922
 20
168.262758571
 30
0.0
 10
41.4597344595
 20
168.519195636
 30
0.0
 10
41.7613054807
 20
168.7406788194
 30
0.0
  0
SPLINE
  5
37A
100
AcDbEntity
  8
0
100
AcDbSpline
 62
7
  6
CONTINUOUS
 70
0
 71
3
 72
9
 73
5
 74
0
 42
0.0000001
 43
0.0000001
 44
0.0000000001
 40
0.0
 40
0.0
 40
0.0
 40
0.0
 40
0.2493262442
 40
1.0
 40
1.0
 40
1.0
 40
1.0
 10
67.5813953336
 20
113.457187936
 30
0.0
 10
67.631568473
 20
113.4359813064
 30
0.0
 10
67.8329038699
 20
113.3511648777
 30
0.0
 10
68.0347051455
 20
113.2674436654
 30
0.0
 10
68.1866628574
 20
113.2057572327
 30
0.0
  0
SPLINE
  5
37B
100
AcDbEntity
  8
0
100
AcDbSpline
 62
7
  6
CONTINUOUS
 70
0
 71
3
 72
11
 73
7
 74
0
 42
0.0000001
 43
0.0000001
 44
0.0000000001
 40
0.0
 40
0.0
 40
0.0
 40
0.0
 40
0.2372446848
 40
0.5000016179
 40
0.7627576706
 40
1.0
 40
1.0
 40
1.0
 40
1.0
 10
41.7613054807
 20
179.3212645712
 30
0.0
 10
41.7613054807
 20
179.379225181
 30
0.0
 10
41.7830507322
 20
179.5014572479
 30
0.0
 10
41.8588195022
 20
179.6732140536
 30
0.0
 10
41.9696797414
 20
179.8247102484
 30
0.0
 10
42.0646624622
 20
179.9046579693
 30
0.0
 10
42.1148573993
 20
179.9336378567
 30
0.0
  0
SPLINE
  5
37C
100
AcDbEntity
  8
0
100
AcDbSpline
 62
7
  6
CONTINUOUS
 70
0
 71
3
 72
9
 73
5
 74
0
 42
0.0000001
 43
0.0000001
 44
0.0000000001
 40
0.0
 40
0.0
 40
0.0
 40
0.0
 40
0.2470021932
 40
1.0
 40
1.0
 40
1.0
 40
1.0
 10
38.7378512623
 20
128.7632021439
 30
0.0
 10
38.6130406657
 20
128.8924813509
 30
0.0
 10
38.1175455415
 20
129.4252801776
 30
0.0
 10
37.6617225274
 20
129.9947618796
 30
0.0
 10
37.3419064981
 20
130.4395278111
 30
0.0
  0
SPLINE
  5
37D
100
AcDbEntity
  8
0
100
AcDbSpline
 62
7
  6
CONTINUOUS
 70
0
 71
3
 72
9
 73
5
 74
0
 42
0.0000001
 43
0.0000001
 44
0.0000000001
 40
0.0
 40
0.0
 40
0.0
 40
0.0
 40
0.4787874828
 40
1.0
 40
1.0
 40
1.0
 40
1.0
 10
37.3419064981
 20
142.154189621
 30
0.0
 10
37.0940031263
 20
143.6863858348
 30
0.0
 10
36.8700975334
 20
146.9368705633
 30
0.0
 10
37.1206686987
 20
150.1792616336
 30
0.0
 10
37.3518434826
 20
151.8530265026
 30
0.0
  0
SPLINE
  5
37E
100
AcDbEntity
  8
0
100
AcDbSpline
 62
7
  6
CONTINUOUS
 70
0
 71
3
 72
9
 73
5
 74
0
 42
0.0000001
 43
0.0000001
 44
0.0000000001
 40
0.0
 40
0.0
 40
0.0
 40
0.0
 40
0.5697649023
 40
1.0
 40
1.0
 40
1.0
 40
1.0
 10
99.5504200567
 20
192.0886742211
 30
0.0
 10
99.5484243181
 20
192.1117585711
 30
0.0
 10
99.5463033864
 20
192.1517974878
 30
0.0
 10
99.5651982836
 20
192.1941766092
 30
0.0
 10
99.5804259356
 20
192.2027927054
 30
0.0
  0
SPLINE
  5
37F
100
AcDbEntity
  8
0
100
AcDbSpline
 62
7
  6
CONTINUOUS
 70
0
 71
3
 72
9
 73
5
 74
0
 42
0.0000001
 43
0.0000001
 44
0.0000000001
 40
0.0
 40
0.0
 40
0.0
 40
0.0
 40
0.2150866958
 40
1.0
 40
1.0
 40
1.0
 40
1.0
 10
99.5804259356
 20
192.2027927054
 30
0.0
 10
99.5836619239
 20
192.2046236894
 30
0.0
 10
99.5998596719
 20
192.2111960314
 30
0.0
 10
99.6183643748
 20
192.209063783
 30
0.0
 10
99.6314046186
 20
192.2053151735
 30
0.0
  0
SPLINE
  5
380
100
AcDbEntity
  8
0
100
AcDbSpline
 62
7
  6
CONTINUOUS
 70
0
 71
3
 72
8
 73
4
 74
0
 42
0.0000001
 43
0.0000001
 44
0.0000000001
 40
0.0
 40
0.0
 40
0.0
 40
0.0
 40
1.0
 40
1.0
 40
1.0
 40
1.0
 10
68.4096337471
 20
113.1290198144
 30
0.0
 10
68.4200507643
 20
113.1193307252
 30
0.0
 10
68.4317643233
 20
113.1108630895
 30
0.0
 10
68.4442741746
 20
113.1040884073
 30
0.0
  0
SPLINE
  5
381
100
AcDbEntity
  8
0
100
AcDbSpline
 62
7
  6
CONTINUOUS
 70
0
 71
3
 72
9
 73
5
 74
0
 42
0.0000001
 43
0.0000001
 44
0.0000000001
 40
0.0
 40
0.0
 40
0.0
 40
0.0
 40
0.254578277
 40
1.0
 40
1.0
 40
1.0
 40
1.0
 10
65.6362324885
 20
135.5233963218
 30
0.0
 10
65.5963298739
 20
135.2344911338
 30
0.0
 10
65.4515446073
 20
134.0980502715
 30
0.0
 10
65.3551956357
 20
132.9553085296
 30
0.0
 10
65.3137820772
 20
132.1023496824
 30
0.0
  0
SPLINE
  5
382
100
AcDbEntity
  8
0
100
AcDbSpline
 62
7
  6
CONTINUOUS
 70
0
 71
3
 72
13
 73
9
 74
0
 42
0.0000001
 43
0.0000001
 44
0.0000000001
 40
0.0
 40
0.0
 40
0.0
 40
0.0
 40
0.1315063418
 40
0.2591673101
 40
0.3844116601
 40
0.5082762861
 40
0.7541810806
 40
1.0
 40
1.0
 40
1.0
 40
1.0
 10
97.54630503
 20
179.2772757239
 30
0.0
 10
97.8294316467
 20
179.7797715578
 30
0.0
 10
98.3262275152
 20
180.8058029635
 30
0.0
 10
98.8846357606
 20
182.3997493892
 30
0.0
 10
99.2756117652
 20
184.0076724593
 30
0.0
 10
99.6126487834
 20
186.1543792704
 30
0.0
 10
99.7512801749
 20
188.8579663548
 30
0.0
 10
99.6432824155
 20
191.0145520088
 30
0.0
 10
99.5504200567
 20
192.0886742211
 30
0.0
  0
SPLINE
  5
383
100
AcDbEntity
  8
0
100
AcDbSpline
 62
7
  6
CONTINUOUS
 70
0
 71
3
 72
8
 73
4
 74
0
 42
0.0000001
 43
0.0000001
 44
0.0000000001
 40
0.0
 40
0.0
 40
0.0
 40
0.0
 40
1.0
 40
1.0
 40
1.0
 40
1.0
 10
59.9621678312
 20
169.302407989
 30
0.0
 10
64.4450780273
 20
166.2142402349
 30
0.0
 10
68.9278923181
 20
163.1259332469
 30
0.0
 10
73.4105343423
 20
160.0373762397
 30
0.0
  0
SPLINE
  5
384
100
AcDbEntity
  8
0
100
AcDbSpline
 62
7
  6
CONTINUOUS
 70
0
 71
3
 72
11
 73
7
 74
0
 42
0.0000001
 43
0.0000001
 44
0.0000000001
 40
0.0
 40
0.0
 40
0.0
 40
0.0
 40
0.2467377961
 40
0.4970976394
 40
0.7485211801
 40
1.0
 40
1.0
 40
1.0
 40
1.0
 10
82.4964507457
 20
170.5882901678
 30
0.0
 10
80.6973336221
 20
170.250391646
 30
0.0
 10
77.0358269689
 20
169.7633707582
 30
0.0
 10
71.4914961044
 20
169.4104956053
 30
0.0
 10
65.902239961
 20
169.3156184847
 30
0.0
 10
62.1711303759
 20
169.3773892917
 30
0.0
 10
60.3061570914
 20
169.4311236812
 30
0.0
  0
SPLINE
  5
385
100
AcDbEntity
  8
0
100
AcDbSpline
 62
7
  6
CONTINUOUS
 70
0
 71
3
 72
10
 73
6
 74
0
 42
0.0000001
 43
0.0000001
 44
0.0000000001
 40
0.0
 40
0.0
 40
0.0
 40
0.0
 40
0.5165032546
 40
0.7645315954
 40
1.0
 40
1.0
 40
1.0
 40
1.0
 10
59.9621678312
 20
169.302407989
 30
0.0
 10
59.8750464121
 20
169.3104577098
 30
0.0
 10
59.7450248365
 20
169.3169338684
 30
0.0
 10
59.5762925682
 20
169.3019598337
 30
0.0
 10
59.4956918469
 20
169.2815715148
 30
0.0
 10
59.4596537129
 20
169.2644771003
 30
0.0
  0
SPLINE
  5
386
100
AcDbEntity
  8
0
100
AcDbSpline
 62
7
  6
CONTINUOUS
 70
0
 71
3
 72
11
 73
7
 74
0
 42
0.0000001
 43
0.0000001
 44
0.0000000001
 40
0.0
 40
0.0
 40
0.0
 40
0.0
 40
0.2494238594
 40
0.499712778
 40
0.7500960486
 40
1.0
 40
1.0
 40
1.0
 40
1.0
 10
59.9621688346
 20
169.3024079252
 30
0.0
 10
59.9804134692
 20
169.328343836
 30
0.0
 10
60.0282355007
 20
169.3728394678
 30
0.0
 10
60.1162793359
 20
169.4123210885
 30
0.0
 10
60.2106228007
 20
169.4301353587
 30
0.0
 10
60.2743990131
 20
169.4320387082
 30
0.0
 10
60.3061570914
 20
169.4311236812
 30
0.0
  0
SPLINE
  5
387
100
AcDbEntity
  8
0
100
AcDbSpline
 62
7
  6
CONTINUOUS
 70
0
 71
3
 72
9
 73
5
 74
0
 42
0.0000001
 43
0.0000001
 44
0.0000000001
 40
0.0
 40
0.0
 40
0.0
 40
0.0
 40
0.2627500549
 40
1.0
 40
1.0
 40
1.0
 40
1.0
 10
59.4596537129
 20
169.2644771003
 30
0.0
 10
59.4562990864
 20
169.2516964037
 30
0.0
 10
59.4448942549
 20
169.2027249981
 30
0.0
 10
59.4390486093
 20
169.1523217795
 30
0.0
 10
59.4390486093
 20
169.1152457082
 30
0.0
  0
SPLINE
  5
388
100
AcDbEntity
  8
0
100
AcDbSpline
 62
7
  6
CONTINUOUS
 70
0
 71
3
 72
9
 73
5
 74
0
 42
0.0000001
 43
0.0000001
 44
0.0000000001
 40
0.0
 40
0.0
 40
0.0
 40
0.0
 40
0.2608427578
 40
1.0
 40
1.0
 40
1.0
 40
1.0
 10
59.4390486093
 20
162.8130560908
 30
0.0
 10
59.4424194332
 20
162.8287503438
 30
0.0
 10
59.4539300638
 20
162.8892000902
 30
0.0
 10
59.4596537129
 20
162.9508465497
 30
0.0
 10
59.4596537129
 20
162.9963340103
 30
0.0
  0
SPLINE
  5
389
100
AcDbEntity
  8
0
100
AcDbSpline
 62
7
  6
CONTINUOUS
 70
0
 71
3
 72
23
 73
19
 74
0
 42
0.0000001
 43
0.0000001
 44
0.0000000001
 40
0.0
 40
0.0
 40
0.0
 40
0.0
 40
0.0166739577
 40
0.0331114563
 40
0.0654134731
 40
0.0972802216
 40
0.1289039266
 40
0.1603767024
 40
0.1917485089
 40
0.2542968716
 40
0.3166821745
 40
0.3789672819
 40
0.4411860996
 40
0.503358697
 40
0.6276115382
 40
0.7517851699
 40
0.87590918
 40
1.0
 40
1.0
 40
1.0
 40
1.0
 10
59.4390486093
 20
162.8130560908
 30
0.0
 10
59.4771401555
 20
162.7401550613
 30
0.0
 10
59.5679866129
 20
162.6035758403
 30
0.0
 10
59.7666148405
 20
162.3493384537
 30
0.0
 10
60.030042361
 20
162.0510545663
 30
0.0
 10
60.3535653948
 20
161.7066667311
 30
0.0
 10
60.6803305069
 20
161.3709524408
 30
0.0
 10
61.0088652422
 20
161.040447463
 30
0.0
 10
61.4480520992
 20
160.6048518822
 30
0.0
 10
61.9994583877
 20
160.06587989
 30
0.0
 10
62.663345974
 20
159.423847385
 30
0.0
 10
63.3282075812
 20
158.7851690592
 30
0.0
 10
63.993725463
 20
158.1486929038
 30
0.0
 10
64.8814850473
 20
157.3023211484
 30
0.0
 10
65.9922174743
 20
156.2469168582
 30
0.0
 10
67.3261100723
 20
154.9827079408
 30
0.0
 10
68.6604568666
 20
153.7201411356
 30
0.0
 10
69.5503263187
 20
152.8790693842
 30
0.0
 10
69.99528325
 20
152.4586762289
 30
0.0
  0
SPLINE
  5
38A
100
AcDbEntity
  8
0
100
AcDbSpline
 62
7
  6
CONTINUOUS
 70
0
 71
3
 72
9
 73
5
 74
0
 42
0.0000001
 43
0.0000001
 44
0.0000000001
 40
0.0
 40
0.0
 40
0.0
 40
0.0
 40
0.4999975816
 40
1.0
 40
1.0
 40
1.0
 40
1.0
 10
67.5728565033
 20
113.9781699435
 30
0.0
 10
65.9653384589
 20
114.6339556046
 30
0.0
 10
62.7507795765
 20
115.946740746
 30
0.0
 10
59.5357611273
 20
117.2583999925
 30
0.0
 10
57.9284866672
 20
117.9148268525
 30
0.0
  0
SPLINE
  5
38B
100
AcDbEntity
  8
0
100
AcDbSpline
 62
7
  6
CONTINUOUS
 70
0
 71
3
 72
9
 73
5
 74
0
 42
0.0000001
 43
0.0000001
 44
0.0000000001
 40
0.0
 40
0.0
 40
0.0
 40
0.0
 40
0.2558758255
 40
1.0
 40
1.0
 40
1.0
 40
1.0
 10
70.0456944865
 20
152.4110486386
 30
0.0
 10
70.0025919738
 20
152.3793928061
 30
0.0
 10
69.8325665337
 20
152.2578453682
 30
0.0
 10
69.6561497953
 20
152.1451607174
 30
0.0
 10
69.5214632377
 20
152.0673998613
 30
0.0
  0
SPLINE
  5
38C
100
AcDbEntity
  8
0
100
AcDbSpline
 62
7
  6
CONTINUOUS
 70
0
 71
3
 72
9
 73
5
 74
0
 42
0.0000001
 43
0.0000001
 44
0.0000000001
 40
0.0
 40
0.0
 40
0.0
 40
0.0
 40
0.2405324477
 40
1.0
 40
1.0
 40
1.0
 40
1.0
 10
73.4105343423
 20
158.8035060018
 30
0.0
 10
73.4105343423
 20
158.7187239186
 30
0.0
 10
73.401822341
 20
158.3662676363
 30
0.0
 10
73.3602548351
 20
158.0149027453
 30
0.0
 10
73.3136277264
 20
157.7513001655
 30
0.0
  0
SPLINE
  5
38D
100
AcDbEntity
  8
0
100
AcDbSpline
 62
7
  6
CONTINUOUS
 70
0
 71
3
 72
9
 73
5
 74
0
 42
0.0000001
 43
0.0000001
 44
0.0000000001
 40
0.0
 40
0.0
 40
0.0
 40
0.0
 40
0.2454361891
 40
1.0
 40
1.0
 40
1.0
 40
1.0
 10
73.3136277264
 20
157.7513001655
 30
0.0
 10
73.3026955307
 20
157.6894958835
 30
0.0
 10
73.2547361314
 20
157.4382938478
 30
0.0
 10
73.1935054077
 20
157.189661976
 30
0.0
 10
73.1406825415
 20
157.0040735304
 30
0.0
  0
SPLINE
  5
38E
100
AcDbEntity
  8
0
100
AcDbSpline
 62
7
  6
CONTINUOUS
 70
0
 71
3
 72
9
 73
5
 74
0
 42
0.0000001
 43
0.0000001
 44
0.0000000001
 40
0.0
 40
0.0
 40
0.0
 40
0.0
 40
0.2449236336
 40
1.0
 40
1.0
 40
1.0
 40
1.0
 10
73.1406825415
 20
157.0040735304
 30
0.0
 10
73.1065633254
 20
156.884198697
 30
0.0
 10
72.9558644648
 20
156.3980510645
 30
0.0
 10
72.7617507177
 20
155.9255651911
 30
0.0
 10
72.5943276058
 20
155.5797179789
 30
0.0
  0
SPLINE
  5
38F
100
AcDbEntity
  8
0
100
AcDbSpline
 62
7
  6
CONTINUOUS
 70
0
 71
3
 72
9
 73
5
 74
0
 42
0.0000001
 43
0.0000001
 44
0.0000000001
 40
0.0
 40
0.0
 40
0.0
 40
0.0
 40
0.2562044582
 40
1.0
 40
1.0
 40
1.0
 40
1.0
 10
71.5029977089
 20
153.8380664338
 30
0.0
 10
71.4280242058
 20
153.7435142809
 30
0.0
 10
71.1279658257
 20
153.3804631146
 30
0.0
 10
70.7980280894
 20
153.0417286047
 30
0.0
 10
70.536261074
 20
152.8089155983
 30
0.0
  0
SPLINE
  5
390
100
AcDbEntity
  8
0
100
AcDbSpline
 62
7
  6
CONTINUOUS
 70
0
 71
3
 72
9
 73
5
 74
0
 42
0.0000001
 43
0.0000001
 44
0.0000000001
 40
0.0
 40
0.0
 40
0.0
 40
0.0
 40
0.2446736887
 40
1.0
 40
1.0
 40
1.0
 40
1.0
 10
82.4964507457
 20
170.5882901678
 30
0.0
 10
82.0463147337
 20
170.1789075583
 30
0.0
 10
80.2362826791
 20
168.4732398999
 30
0.0
 10
78.5435114585
 20
166.6440519005
 30
0.0
 10
77.3325183636
 20
165.2081988564
 30
0.0
  0
LINE
  5
391
100
AcDbEntity
  8
0
100
AcDbLine
 62
7
  6
CONTINUOUS
 10
77.3325183636
 20
165.2081988564
 11
77.2574958681
 21
165.1190733306
  0
LINE
  5
392
100
AcDbEntity
  8
0
100
AcDbLine
 62
7
  6
CONTINUOUS
 10
106.5772873354
 20
179.2348196192
 11
106.5758739683
 21
179.2352538133
  0
SPLINE
  5
393
100
AcDbEntity
  8
0
100
AcDbSpline
 62
7
  6
CONTINUOUS
 70
0
 71
3
 72
9
 73
5
 74
0
 42
0.0000001
 43
0.0000001
 44
0.0000000001
 40
0.0
 40
0.0
 40
0.0
 40
0.0
 40
0.4859482147
 40
1.0
 40
1.0
 40
1.0
 40
1.0
 10
102.7102374121
 20
179.8599443214
 30
0.0
 10
101.8669280974
 20
179.8860773185
 30
0.0
 10
100.1256842901
 20
179.8051624136
 30
0.0
 10
98.4131294022
 20
179.4898465428
 30
0.0
 10
97.54630503
 20
179.2772757239
 30
0.0
  0
SPLINE
  5
394
100
AcDbEntity
  8
0
100
AcDbSpline
 62
7
  6
CONTINUOUS
 70
0
 71
3
 72
15
 73
11
 74
0
 42
0.0000001
 43
0.0000001
 44
0.0000000001
 40
0.0
 40
0.0
 40
0.0
 40
0.0
 40
0.1485853158
 40
0.2895082193
 40
0.4227231986
 40
0.5486425385
 40
0.6680013954
 40
0.7819384423
 40
0.8919874705
 40
1.0
 40
1.0
 40
1.0
 40
1.0
 10
187.9558981827
 20
112.6753962627
 30
0.0
 10
187.9558981827
 20
113.456696769
 30
0.0
 10
187.8928927329
 20
114.9800555551
 30
0.0
 10
187.5930525825
 20
117.1860598824
 30
0.0
 10
187.0921167242
 20
119.233615188
 30
0.0
 10
186.3940849736
 20
121.1028654216
 30
0.0
 10
185.5042741572
 20
122.77581264
 30
0.0
 10
184.4296291702
 20
124.2353679329
 30
0.0
 10
183.1800786408
 20
125.465110257
 30
0.0
 10
182.2343771855
 20
126.1249711591
 30
0.0
 10
181.7425078472
 20
126.4089448135
 30
0.0
  0
SPLINE
  5
395
100
AcDbEntity
  8
0
100
AcDbSpline
 62
7
  6
CONTINUOUS
 70
0
 71
3
 72
25
 73
21
 74
0
 42
0.0000001
 43
0.0000001
 44
0.0000000001
 40
0.0
 40
0.0
 40
0.0
 40
0.0
 40
0.0623842613
 40
0.1287225174
 40
0.198315607
 40
0.270291882
 40
0.3436692239
 40
0.4174009319
 40
0.4904252192
 40
0.5617115542
 40
0.6303086787
 40
0.6953962782
 40
0.7563439876
 40
0.8127814713
 40
0.8646822475
 40
0.9124572825
 40
0.9351021616
 40
0.9571074172
 40
0.9786679612
 40
1.0
 40
1.0
 40
1.0
 40
1.0
 10
148.3580832987
 20
89.8137236459
 30
0.0
 10
148.3580832987
 20
90.8923783055
 30
0.0
 10
148.5042033325
 20
93.1195411428
 30
0.0
 10
149.1055264751
 20
96.5011845198
 30
0.0
 10
150.0831055442
 20
99.9662697221
 30
0.0
 10
151.416104311
 20
103.4407091638
 30
0.0
 10
153.0760995675
 20
106.8508509419
 30
0.0
 10
155.0277110339
 20
110.1239320103
 30
0.0
 10
157.2292945674
 20
113.1901408584
 30
0.0
 10
159.6339568997
 20
115.9841299527
 30
0.0
 10
162.1906744916
 20
118.446508432
 30
0.0
 10
164.8456695484
 20
120.525075912
 30
0.0
 10
167.5437245228
 20
122.1758055715
 30
0.0
 10
170.2303343362
 20
123.3630788942
 30
0.0
 10
172.8510262063
 20
124.0596814432
 30
0.0
 10
174.9765592528
 20
124.2156939866
 30
0.0
 10
176.5707471767
 20
124.066178537
 30
0.0
 10
177.6931337986
 20
123.8267275037
 30
0.0
 10
178.7563173154
 20
123.4593050141
 30
0.0
 10
179.4231159682
 20
123.1292448235
 30
0.0
 10
179.7425443359
 20
122.9448280315
 30
0.0
  0
SPLINE
  5
396
100
AcDbEntity
  8
0
100
AcDbSpline
 62
7
  6
CONTINUOUS
 70
0
 71
3
 72
11
 73
7
 74
0
 42
0.0000001
 43
0.0000001
 44
0.0000000001
 40
0.0
 40
0.0
 40
0.0
 40
0.0
 40
0.289777178
 40
0.5490714024
 40
0.7822268829
 40
1.0
 40
1.0
 40
1.0
 40
1.0
 10
189.0165392187
 20
139.8240472784
 30
0.0
 10
189.0165392187
 20
140.026773211
 30
0.0
 10
188.9858865426
 20
140.4122180741
 30
0.0
 10
188.8296773823
 20
140.9417680135
 30
0.0
 10
188.5669254814
 20
141.3714735769
 30
0.0
 10
188.3200170554
 20
141.5789914762
 30
0.0
 10
188.1880752344
 20
141.6551664057
 30
0.0
  0
SPLINE
  5
397
100
AcDbEntity
  8
0
100
AcDbSpline
 62
7
  6
CONTINUOUS
 70
0
 71
3
 72
9
 73
5
 74
0
 42
0.0000001
 43
0.0000001
 44
0.0000000001
 40
0.0
 40
0.0
 40
0.0
 40
0.0
 40
0.5213658848
 40
1.0
 40
1.0
 40
1.0
 40
1.0
 10
189.3607730386
 20
110.6519534114
 30
0.0
 10
189.5930984384
 20
112.3353980845
 30
0.0
 10
189.8435640049
 20
115.595776351
 30
0.0
 10
189.6135089277
 20
118.863972866
 30
0.0
 10
189.3607730386
 20
120.4034807221
 30
0.0
  0
SPLINE
  5
398
100
AcDbEntity
  8
0
100
AcDbSpline
 62
7
  6
CONTINUOUS
 70
0
 71
3
 72
13
 73
9
 74
0
 42
0.0000001
 43
0.0000001
 44
0.0000000001
 40
0.0
 40
0.0
 40
0.0
 40
0.0
 40
0.1142481057
 40
0.2375464672
 40
0.499998393
 40
0.7624511984
 40
0.8857505872
 40
1.0
 40
1.0
 40
1.0
 40
1.0
 10
186.1881238698
 20
85.1184135495
 30
0.0
 10
186.3817376357
 20
85.2301958421
 30
0.0
 10
186.7642353419
 20
85.4983126639
 30
0.0
 10
187.480285704
 20
86.1685148855
 30
0.0
 10
188.2366503329
 20
87.2016751186
 30
0.0
 10
188.7532056297
 20
88.3732905487
 30
0.0
 10
188.975591586
 20
89.3285160882
 30
0.0
 10
189.0165392187
 20
89.7938316896
 30
0.0
 10
189.0165392187
 20
90.0173998335
 30
0.0
  0
SPLINE
  5
399
100
AcDbEntity
  8
0
100
AcDbSpline
 62
7
  6
CONTINUOUS
 70
0
 71
3
 72
14
 73
10
 74
0
 42
0.0000001
 43
0.0000001
 44
0.0000000001
 40
0.0
 40
0.0
 40
0.0
 40
0.0
 40
0.3061083981
 40
0.4498475487
 40
0.5830975942
 40
0.7039136347
 40
0.8119921403
 40
0.9092077857
 40
1.0
 40
1.0
 40
1.0
 40
1.0
 10
144.850092542
 20
69.7665518359
 30
0.0
 10
145.0266563811
 20
70.0723710737
 30
0.0
 10
145.3368160771
 20
70.4963409847
 30
0.0
 10
145.8291153705
 20
70.9568948209
 30
0.0
 10
146.2063791012
 20
71.2214252176
 30
0.0
 10
146.5857356344
 20
71.401948214
 30
0.0
 10
146.9547905256
 20
71.4909476711
 30
0.0
 10
147.3009055956
 20
71.4822863532
 30
0.0
 10
147.5093505801
 20
71.4066170691
 30
0.0
 10
147.6000554643
 20
71.3542452571
 30
0.0
  0
SPLINE
  5
39A
100
AcDbEntity
  8
0
100
AcDbSpline
 62
7
  6
CONTINUOUS
 70
0
 71
3
 72
21
 73
17
 74
0
 42
0.0000001
 43
0.0000001
 44
0.0000000001
 40
0.0
 40
0.0
 40
0.0
 40
0.0
 40
0.0453833678
 40
0.0940119665
 40
0.1480473643
 40
0.2084583137
 40
0.2750783996
 40
0.3469599258
 40
0.4999930821
 40
0.6530262388
 40
0.7249089579
 40
0.7915325658
 40
0.8519473537
 40
0.9059855708
 40
0.9546163426
 40
1.0
 40
1.0
 40
1.0
 40
1.0
 10
143.1000998279
 20
110.903070011
 30
0.0
 10
143.0094186953
 20
110.9554262842
 30
0.0
 10
142.8396963708
 20
111.0981619603
 30
0.0
 10
142.6590058825
 20
111.3935139778
 30
0.0
 10
142.5516614837
 20
111.7577182656
 30
0.0
 10
142.5182869192
 20
112.1764971763
 30
0.0
 10
142.5587102995
 20
112.6354721816
 30
0.0
 10
142.7116391361
 20
113.292309838
 30
0.0
 10
143.0666863016
 20
114.0977357412
 30
0.0
 10
143.5866603723
 20
114.8079487312
 30
0.0
 10
144.0790306649
 20
115.2688272675
 30
0.0
 10
144.4563093853
 20
115.5333473667
 30
0.0
 10
144.8356857097
 20
115.7138566014
 30
0.0
 10
145.2047880534
 20
115.8030027644
 30
0.0
 10
145.5509283992
 20
115.7941948877
 30
0.0
 10
145.7594066674
 20
115.718572949
 30
0.0
 10
145.8500883786
 20
115.6662163417
 30
0.0
  0
SPLINE
  5
39B
100
AcDbEntity
  8
0
100
AcDbSpline
 62
7
  6
CONTINUOUS
 70
0
 71
3
 72
14
 73
10
 74
0
 42
0.0000001
 43
0.0000001
 44
0.0000000001
 40
0.0
 40
0.0
 40
0.0
 40
0.0
 40
0.3061083981
 40
0.4498475487
 40
0.5830975942
 40
0.7039136347
 40
0.8119921403
 40
0.9092077857
 40
1.0
 40
1.0
 40
1.0
 40
1.0
 10
184.0999291283
 20
137.7496403747
 30
0.0
 10
184.2764929674
 20
138.0554596125
 30
0.0
 10
184.5866526634
 20
138.4794295235
 30
0.0
 10
185.0789519568
 20
138.9399833597
 30
0.0
 10
185.4562156875
 20
139.2045137564
 30
0.0
 10
185.8355722207
 20
139.3850367528
 30
0.0
 10
186.2046271119
 20
139.4740362099
 30
0.0
 10
186.5507421819
 20
139.465374892
 30
0.0
 10
186.7591871664
 20
139.3897056079
 30
0.0
 10
186.8498920507
 20
139.337333796
 30
0.0
  0
SPLINE
  5
39C
100
AcDbEntity
  8
0
100
AcDbSpline
 62
7
  6
CONTINUOUS
 70
0
 71
3
 72
9
 73
5
 74
0
 42
0.0000001
 43
0.0000001
 44
0.0000000001
 40
0.0
 40
0.0
 40
0.0
 40
0.0
 40
0.4904548529
 40
1.0
 40
1.0
 40
1.0
 40
1.0
 10
182.3499364142
 20
88.2415183766
 30
0.0
 10
182.2857276932
 20
88.2785903589
 30
0.0
 10
182.163791515
 20
88.3707361689
 30
0.0
 10
182.0667822502
 20
88.4884833622
 30
0.0
 10
182.0241636989
 20
88.5526473159
 30
0.0
  0
SPLINE
  5
39D
100
AcDbEntity
  8
0
100
AcDbSpline
 62
7
  6
CONTINUOUS
 70
0
 71
3
 72
9
 73
5
 74
0
 42
0.0000001
 43
0.0000001
 44
0.0000000001
 40
0.0
 40
0.0
 40
0.0
 40
0.0
 40
0.5099746022
 40
1.0
 40
1.0
 40
1.0
 40
1.0
 10
184.6556412734
 20
93.1319236896
 30
0.0
 10
184.7346496961
 20
93.1277992651
 30
0.0
 10
184.8893555903
 20
93.1033439683
 30
0.0
 10
185.0340891977
 20
93.042676092
 30
0.0
 10
185.0999249649
 20
93.0046647073
 30
0.0
  0
SPLINE
  5
39E
100
AcDbEntity
  8
0
100
AcDbSpline
 62
7
  6
CONTINUOUS
 70
0
 71
3
 72
14
 73
10
 74
0
 42
0.0000001
 43
0.0000001
 44
0.0000000001
 40
0.0
 40
0.0
 40
0.0
 40
0.0
 40
0.0907888917
 40
0.1880011957
 40
0.2960775683
 40
0.4168945032
 40
0.5501478666
 40
0.6938912952
 40
1.0
 40
1.0
 40
1.0
 40
1.0
 10
143.1001254562
 20
63.5600132698
 30
0.0
 10
143.0094220799
 20
63.6123842111
 30
0.0
 10
142.8396589095
 20
63.7550488395
 30
0.0
 10
142.6591012234
 20
64.0504629854
 30
0.0
 10
142.5516428272
 20
64.4145721734
 30
0.0
 10
142.5182889921
 20
64.833376221
 30
0.0
 10
142.5587394848
 20
65.2923814686
 30
0.0
 10
142.7114424727
 20
65.9490251385
 30
0.0
 10
142.9235322858
 20
66.4296330647
 30
0.0
 10
143.1000998279
 20
66.7354587164
 30
0.0
  0
SPLINE
  5
39F
100
AcDbEntity
  8
0
100
AcDbSpline
 62
7
  6
CONTINUOUS
 70
0
 71
3
 72
11
 73
7
 74
0
 42
0.0000001
 43
0.0000001
 44
0.0000000001
 40
0.0
 40
0.0
 40
0.0
 40
0.0
 40
0.2177731171
 40
0.4509285976
 40
0.710222822
 40
1.0
 40
1.0
 40
1.0
 40
1.0
 10
135.7515096087
 20
63.8957246564
 30
0.0
 10
135.6195677877
 20
63.9718995859
 30
0.0
 10
135.3726593617
 20
64.1794174852
 30
0.0
 10
135.1099074608
 20
64.6091230486
 30
0.0
 10
134.9536983005
 20
65.138672988
 30
0.0
 10
134.9230456244
 20
65.524117851
 30
0.0
 10
134.9230456244
 20
65.7268437837
 30
0.0
  0
SPLINE
  5
3A0
100
AcDbEntity
  8
0
100
AcDbSpline
 62
7
  6
CONTINUOUS
 70
0
 71
3
 72
11
 73
7
 74
0
 42
0.0000001
 43
0.0000001
 44
0.0000000001
 40
0.0
 40
0.0
 40
0.0
 40
0.0
 40
0.2177745347
 40
0.4509306045
 40
0.7102242968
 40
1.0
 40
1.0
 40
1.0
 40
1.0
 10
141.7619422724
 20
60.425678243
 30
0.0
 10
141.8938797254
 20
60.3495058353
 30
0.0
 10
142.1970401328
 20
60.2394439678
 30
0.0
 10
142.7005328497
 20
60.2267495081
 30
0.0
 10
143.2372188131
 20
60.3562378703
 30
0.0
 10
143.5863354159
 20
60.522406336
 30
0.0
 10
143.761893637
 20
60.6237643172
 30
0.0
  0
SPLINE
  5
3A1
100
AcDbEntity
  8
0
100
AcDbSpline
 62
7
  6
CONTINUOUS
 70
0
 71
3
 72
13
 73
9
 74
0
 42
0.0000001
 43
0.0000001
 44
0.0000000001
 40
0.0
 40
0.0
 40
0.0
 40
0.0
 40
0.1142494128
 40
0.2375488016
 40
0.500001607
 40
0.7624535328
 40
0.8857518943
 40
1.0
 40
1.0
 40
1.0
 40
1.0
 10
134.9230456244
 20
115.5334912286
 30
0.0
 10
134.9230456244
 20
115.7570593724
 30
0.0
 10
134.9639932571
 20
116.2223749739
 30
0.0
 10
135.1863792134
 20
117.1776005134
 30
0.0
 10
135.7029345102
 20
118.3492159434
 30
0.0
 10
136.4592991391
 20
119.3823761765
 30
0.0
 10
137.1753495012
 20
120.0525783982
 30
0.0
 10
137.5578472074
 20
120.32069522
 30
0.0
 10
137.7514609733
 20
120.4324775126
 30
0.0
  0
SPLINE
  5
3A2
100
AcDbEntity
  8
0
100
AcDbSpline
 62
7
  6
CONTINUOUS
 70
0
 71
3
 72
9
 73
5
 74
0
 42
0.0000001
 43
0.0000001
 44
0.0000000001
 40
0.0
 40
0.0
 40
0.0
 40
0.0
 40
0.507844654
 40
1.0
 40
1.0
 40
1.0
 40
1.0
 10
162.8976911246
 20
145.1566774453
 30
0.0
 10
163.5470130943
 20
145.1332426983
 30
0.0
 10
164.8243192067
 20
145.0102903216
 30
0.0
 10
166.0750718147
 20
144.7204984907
 30
0.0
 10
166.6770342622
 20
144.5357622023
 30
0.0
  0
SPLINE
  5
3A3
100
AcDbEntity
  8
0
100
AcDbSpline
 62
7
  6
CONTINUOUS
 70
0
 71
3
 72
9
 73
5
 74
0
 42
0.0000001
 43
0.0000001
 44
0.0000000001
 40
0.0
 40
0.0
 40
0.0
 40
0.0
 40
0.2521101897
 40
1.0
 40
1.0
 40
1.0
 40
1.0
 10
133.5743747885
 20
125.4240469258
 30
0.0
 10
133.8712903708
 20
125.8580139013
 30
0.0
 10
135.0696811411
 20
127.5650973924
 30
0.0
 10
136.3505846375
 20
129.2144298526
 30
0.0
 10
137.3537179261
 20
130.4089456751
 30
0.0
  0
SPLINE
  5
3A4
100
AcDbEntity
  8
0
100
AcDbSpline
 62
7
  6
CONTINUOUS
 70
0
 71
3
 72
14
 73
10
 74
0
 42
0.0000001
 43
0.0000001
 44
0.0000000001
 40
0.0
 40
0.0
 40
0.0
 40
0.0
 40
0.0907888917
 40
0.1880011957
 40
0.2960775683
 40
0.4168945032
 40
0.5501478666
 40
0.6938912952
 40
1.0
 40
1.0
 40
1.0
 40
1.0
 10
182.3499620425
 20
131.5431018086
 30
0.0
 10
182.2592586662
 20
131.5954727499
 30
0.0
 10
182.0894954958
 20
131.7381373783
 30
0.0
 10
181.9089378097
 20
132.0335515242
 30
0.0
 10
181.8014794136
 20
132.3976607122
 30
0.0
 10
181.7681255784
 20
132.8164647598
 30
0.0
 10
181.8085760711
 20
133.2754700074
 30
0.0
 10
181.9612790591
 20
133.9321136773
 30
0.0
 10
182.1733688721
 20
134.4127216035
 30
0.0
 10
182.3499364142
 20
134.7185472552
 30
0.0
  0
SPLINE
  5
3A5
100
AcDbEntity
  8
0
100
AcDbSpline
 62
7
  6
CONTINUOUS
 70
0
 71
3
 72
13
 73
9
 74
0
 42
0.0000001
 43
0.0000001
 44
0.0000000001
 40
0.0
 40
0.0
 40
0.0
 40
0.0
 40
0.3036258362
 40
0.5828973073
 40
0.7052735088
 40
0.8139615425
 40
0.9106849882
 40
1.0
 40
1.0
 40
1.0
 40
1.0
 10
128.5115352666
 20
116.6549029646
 30
0.0
 10
128.5419168062
 20
116.7182567539
 30
0.0
 10
128.6151485086
 20
116.8331732494
 30
0.0
 10
128.7356200655
 20
116.946989339
 30
0.0
 10
128.8398638502
 20
117.0038847293
 30
0.0
 10
128.9133308717
 20
117.0255533748
 30
0.0
 10
128.9825653775
 20
117.0264814641
 30
0.0
 10
129.024323721
 20
117.0120860307
 30
0.0
 10
129.0422325636
 20
117.0017683659
 30
0.0
  0
SPLINE
  5
3A6
100
AcDbEntity
  8
0
100
AcDbSpline
 62
7
  6
CONTINUOUS
 70
0
 71
3
 72
9
 73
5
 74
0
 42
0.0000001
 43
0.0000001
 44
0.0000000001
 40
0.0
 40
0.0
 40
0.0
 40
0.0
 40
0.4786341152
 40
1.0
 40
1.0
 40
1.0
 40
1.0
 10
125.7399402402
 20
91.0669221886
 30
0.0
 10
125.487204351
 20
92.6064300447
 30
0.0
 10
125.2571492739
 20
95.8746265597
 30
0.0
 10
125.5076148404
 20
99.1350048262
 30
0.0
 10
125.7399402402
 20
100.8184494993
 30
0.0
  0
SPLINE
  5
3A7
100
AcDbEntity
  8
0
100
AcDbSpline
 62
7
  6
CONTINUOUS
 70
0
 71
3
 72
23
 73
19
 74
0
 42
0.0000001
 43
0.0000001
 44
0.0000000001
 40
0.0
 40
0.0
 40
0.0
 40
0.0
 40
0.0452483478
 40
0.0936533697
 40
0.1473942477
 40
0.2073977127
 40
0.2735341863
 40
0.344907257
 40
0.4200949042
 40
0.4973491004
 40
0.5747595436
 40
0.6504037427
 40
0.7224971646
 40
0.789553285
 40
0.8505779922
 40
0.9052949568
 40
0.954453216
 40
1.0
 40
1.0
 40
1.0
 40
1.0
 10
129.1320099465
 20
116.9466426223
 30
0.0
 10
129.279226547
 20
116.8626407708
 30
0.0
 10
129.6164688068
 20
116.7410839873
 30
0.0
 10
130.1757878319
 20
116.7263571934
 30
0.0
 10
130.7720731641
 20
116.8678344298
 30
0.0
 10
131.3854076624
 20
117.1558300454
 30
0.0
 10
131.9960952867
 20
117.578516753
 30
0.0
 10
132.5832309011
 20
118.120440555
 30
0.0
 10
133.1259375923
 20
118.7620292078
 30
0.0
 10
133.6045359326
 20
119.4799267849
 30
0.0
 10
134.001527095
 20
120.247889948
 30
0.0
 10
134.3023901085
 20
121.0378330425
 30
0.0
 10
134.4961324303
 20
121.8210178045
 30
0.0
 10
134.5756387661
 20
122.5693655087
 30
0.0
 10
134.5374035167
 20
123.2566174832
 30
0.0
 10
134.3807991592
 20
123.8594589532
 30
0.0
 10
134.1070458814
 20
124.3556149767
 30
0.0
 10
133.8434534769
 20
124.6041570581
 30
0.0
 10
133.7009720205
 20
124.6980095407
 30
0.0
  0
SPLINE
  5
3A8
100
AcDbEntity
  8
0
100
AcDbSpline
 62
7
  6
CONTINUOUS
 70
0
 71
3
 72
13
 73
9
 74
0
 42
0.0000001
 43
0.0000001
 44
0.0000000001
 40
0.0
 40
0.0
 40
0.0
 40
0.0
 40
0.0893148173
 40
0.18603838
 40
0.2947267022
 40
0.4171032701
 40
0.6963752391
 40
1.0
 40
1.0
 40
1.0
 40
1.0
 10
133.5393344026
 20
124.791005686
 30
0.0
 10
133.5214441308
 20
124.8013561799
 30
0.0
 10
133.4880971148
 20
124.8303223043
 30
0.0
 10
133.4542821812
 20
124.8907459054
 30
0.0
 10
133.4363132272
 20
124.9652059248
 30
0.0
 10
133.4334630923
 20
125.0839337852
 30
0.0
 10
133.4717942624
 20
125.2451764867
 30
0.0
 10
133.5346992541
 20
125.3660578114
 30
0.0
 10
133.5743747885
 20
125.4240469258
 30
0.0
  0
SPLINE
  5
3A9
100
AcDbEntity
  8
0
100
AcDbSpline
 62
7
  6
CONTINUOUS
 70
0
 71
3
 72
18
 73
14
 74
0
 42
0.0000001
 43
0.0000001
 44
0.0000000001
 40
0.0
 40
0.0
 40
0.0
 40
0.0
 40
0.0465113814
 40
0.0937121618
 40
0.142241843
 40
0.1926518513
 40
0.2453823232
 40
0.3007514347
 40
0.419986361
 40
0.5509122602
 40
0.6925958984
 40
0.8431441651
 40
1.0
 40
1.0
 40
1.0
 40
1.0
 10
151.7430582854
 20
74.4471984796
 30
0.0
 10
152.177898575
 20
74.1961497224
 30
0.0
 10
153.0937823711
 20
73.7559775631
 30
0.0
 10
154.5662618645
 20
73.3023922939
 30
0.0
 10
156.1296735467
 20
73.0559127941
 30
0.0
 10
157.770978247
 20
73.0176948006
 30
0.0
 10
159.4776917657
 20
73.1870856985
 30
0.0
 10
161.8821290036
 20
73.6993172464
 30
0.0
 10
164.9842177793
 20
74.8791400817
 30
0.0
 10
168.653346429
 20
77.0132850099
 30
0.0
 10
172.261076266
 20
79.8361549293
 30
0.0
 10
175.7030272872
 20
83.2642708037
 30
0.0
 10
177.7926200549
 20
85.8514970639
 30
0.0
 10
178.7890436987
 20
87.2206049546
 30
0.0
  0
SPLINE
  5
3AA
100
AcDbEntity
  8
0
100
AcDbSpline
 62
7
  6
CONTINUOUS
 70
0
 71
3
 72
11
 73
7
 74
0
 42
0.0000001
 43
0.0000001
 44
0.0000000001
 40
0.0
 40
0.0
 40
0.0
 40
0.0
 40
0.2663877755
 40
0.5240386538
 40
0.7694984293
 40
1.0
 40
1.0
 40
1.0
 40
1.0
 10
184.1706001681
 20
96.5247738554
 30
0.0
 10
184.7747896085
 20
97.8788989088
 30
0.0
 10
185.8466998991
 20
100.5968407341
 30
0.0
 10
187.0410205392
 20
104.7171246609
 30
0.0
 10
187.7766571271
 20
108.7411663701
 30
0.0
 10
187.9558981827
 20
111.3923493364
 30
0.0
 10
187.9558981827
 20
112.6753962627
 30
0.0
  0
SPLINE
  5
3AB
100
AcDbEntity
  8
0
100
AcDbSpline
 62
7
  6
CONTINUOUS
 70
0
 71
3
 72
14
 73
10
 74
0
 42
0.0000001
 43
0.0000001
 44
0.0000000001
 40
0.0
 40
0.0
 40
0.0
 40
0.0
 40
0.1080467732
 40
0.2181307248
 40
0.3321041835
 40
0.4515015274
 40
0.5774615197
 40
0.7107196141
 40
1.0
 40
1.0
 40
1.0
 40
1.0
 10
153.7430217967
 20
77.9113152617
 30
0.0
 10
153.3167365269
 20
78.1574241547
 30
0.0
 10
152.4971331204
 20
78.7293036652
 30
0.0
 10
151.41419074
 20
79.7950709548
 30
0.0
 10
150.4828283682
 20
81.0600259063
 30
0.0
 10
149.7116736686
 20
82.5098770707
 30
0.0
 10
149.1066473008
 20
84.1300440811
 30
0.0
 10
148.5119412552
 20
86.561428221
 30
0.0
 10
148.3580832987
 20
88.4958499701
 30
0.0
 10
148.3580832987
 20
89.8137236459
 30
0.0
  0
SPLINE
  5
3AC
100
AcDbEntity
  8
0
100
AcDbSpline
 62
7
  6
CONTINUOUS
 70
0
 71
3
 72
11
 73
7
 74
0
 42
0.0000001
 43
0.0000001
 44
0.0000000001
 40
0.0
 40
0.0
 40
0.0
 40
0.0
 40
0.2897757032
 40
0.5490693955
 40
0.7822254653
 40
1.0
 40
1.0
 40
1.0
 40
1.0
 10
180.1776912061
 20
144.9271267449
 30
0.0
 10
180.3532494272
 20
145.028484726
 30
0.0
 10
180.70236603
 20
145.1946531918
 30
0.0
 10
181.2390519934
 20
145.324141554
 30
0.0
 10
181.7425447103
 20
145.3114470943
 30
0.0
 10
182.0457051177
 20
145.2013852268
 30
0.0
 10
182.1776425707
 20
145.1252128191
 30
0.0
  0
SPLINE
  5
3AD
100
AcDbEntity
  8
0
100
AcDbSpline
 62
7
  6
CONTINUOUS
 70
0
 71
3
 72
15
 73
11
 74
0
 42
0.0000001
 43
0.0000001
 44
0.0000000001
 40
0.0
 40
0.0
 40
0.0
 40
0.0
 40
0.1485853158
 40
0.2895082193
 40
0.4227231986
 40
0.5486425385
 40
0.6680013954
 40
0.7819384423
 40
0.8919874705
 40
1.0
 40
1.0
 40
1.0
 40
1.0
 10
145.5296679499
 20
88.1807470304
 30
0.0
 10
145.5296679499
 20
87.3994465241
 30
0.0
 10
145.5926733997
 20
85.876087738
 30
0.0
 10
145.8925135501
 20
83.6700834108
 30
0.0
 10
146.3934494084
 20
81.6225281051
 30
0.0
 10
147.091481159
 20
79.7532778716
 30
0.0
 10
147.9812919754
 20
78.0803306532
 30
0.0
 10
149.0559369623
 20
76.6207753603
 30
0.0
 10
150.3054874917
 20
75.3910330361
 30
0.0
 10
151.2511889471
 20
74.731172134
 30
0.0
 10
151.7430582854
 20
74.4471984796
 30
0.0
  0
SPLINE
  5
3AE
100
AcDbEntity
  8
0
100
AcDbSpline
 62
7
  6
CONTINUOUS
 70
0
 71
3
 72
11
 73
7
 74
0
 42
0.0000001
 43
0.0000001
 44
0.0000000001
 40
0.0
 40
0.0
 40
0.0
 40
0.0
 40
0.2177745347
 40
0.4509306045
 40
0.7102242968
 40
1.0
 40
1.0
 40
1.0
 40
1.0
 10
188.1880752344
 20
141.6551664057
 30
0.0
 10
188.0561377815
 20
141.7313388133
 30
0.0
 10
187.7529773741
 20
141.8414006809
 30
0.0
 10
187.2494846571
 20
141.8540951406
 30
0.0
 10
186.7127986937
 20
141.7246067784
 30
0.0
 10
186.3636820909
 20
141.5584383126
 30
0.0
 10
186.1881238698
 20
141.4570803314
 30
0.0
  0
SPLINE
  5
3AF
100
AcDbEntity
  8
0
100
AcDbSpline
 62
7
  6
CONTINUOUS
 70
0
 71
3
 72
21
 73
17
 74
0
 42
0.0000001
 43
0.0000001
 44
0.0000000001
 40
0.0
 40
0.0
 40
0.0
 40
0.0
 40
0.0453833678
 40
0.0940119665
 40
0.1480473643
 40
0.2084583137
 40
0.2750783996
 40
0.3469599258
 40
0.4999930821
 40
0.6530262388
 40
0.7249089579
 40
0.7915325658
 40
0.8519473537
 40
0.9059855708
 40
0.9546163426
 40
1.0
 40
1.0
 40
1.0
 40
1.0
 10
147.6000810926
 20
114.6558286892
 30
0.0
 10
147.6907622252
 20
114.6034724159
 30
0.0
 10
147.8604845497
 20
114.4607367398
 30
0.0
 10
148.041175038
 20
114.1653847224
 30
0.0
 10
148.1485194368
 20
113.8011804346
 30
0.0
 10
148.1818940013
 20
113.3824015239
 30
0.0
 10
148.141470621
 20
112.9234265185
 30
0.0
 10
147.9885417844
 20
112.2665888622
 30
0.0
 10
147.633494619
 20
111.4611629589
 30
0.0
 10
147.1135205483
 20
110.7509499689
 30
0.0
 10
146.6211502556
 20
110.2900714327
 30
0.0
 10
146.2438715352
 20
110.0255513335
 30
0.0
 10
145.8644952108
 20
109.8450420988
 30
0.0
 10
145.4953928671
 20
109.7558959358
 30
0.0
 10
145.1492525214
 20
109.7647038125
 30
0.0
 10
144.9407742532
 20
109.8403257512
 30
0.0
 10
144.850092542
 20
109.8926823585
 30
0.0
  0
SPLINE
  5
3B0
100
AcDbEntity
  8
0
100
AcDbSpline
 62
7
  6
CONTINUOUS
 70
0
 71
3
 72
14
 73
10
 74
0
 42
0.0000001
 43
0.0000001
 44
0.0000000001
 40
0.0
 40
0.0
 40
0.0
 40
0.0
 40
0.2861283628
 40
0.4192093737
 40
0.5457646989
 40
0.6662626528
 40
0.7814185121
 40
0.892241988
 40
1.0
 40
1.0
 40
1.0
 40
1.0
 10
182.6525987958
 20
112.4712622881
 30
0.0
 10
182.6525987958
 20
113.6493021807
 30
0.0
 10
182.5290685801
 20
115.3815651045
 30
0.0
 10
182.0599250238
 20
117.5819125168
 30
0.0
 10
181.5806300063
 20
119.0749686994
 30
0.0
 10
180.9689311317
 20
120.4386761252
 30
0.0
 10
180.2283313792
 20
121.6625104817
 30
0.0
 10
179.3643255755
 20
122.7362638525
 30
0.0
 10
178.7031005429
 20
123.3523472415
 30
0.0
 10
178.3566773846
 20
123.6295181736
 30
0.0
  0
SPLINE
  5
3B1
100
AcDbEntity
  8
0
100
AcDbSpline
 62
7
  6
CONTINUOUS
 70
0
 71
3
 72
14
 73
10
 74
0
 42
0.0000001
 43
0.0000001
 44
0.0000000001
 40
0.0
 40
0.0
 40
0.0
 40
0.0
 40
0.3061083981
 40
0.4498475487
 40
0.5830975942
 40
0.7039136347
 40
0.8119921403
 40
0.9092077857
 40
1.0
 40
1.0
 40
1.0
 40
1.0
 10
185.0999249649
 20
133.1307952298
 30
0.0
 10
184.9233611257
 20
132.824975992
 30
0.0
 10
184.6132014297
 20
132.4010060811
 30
0.0
 10
184.1209021364
 20
131.9404522449
 30
0.0
 10
183.7436384056
 20
131.6759218481
 30
0.0
 10
183.3642818725
 20
131.4953988518
 30
0.0
 10
182.9952269812
 20
131.4063993946
 30
0.0
 10
182.6491119112
 20
131.4150607126
 30
0.0
 10
182.4406669267
 20
131.4907299967
 30
0.0
 10
182.3499620425
 20
131.5431018086
 30
0.0
  0
SPLINE
  5
3B2
100
AcDbEntity
  8
0
100
AcDbSpline
 62
7
  6
CONTINUOUS
 70
0
 71
3
 72
25
 73
21
 74
0
 42
0.0000001
 43
0.0000001
 44
0.0000000001
 40
0.0
 40
0.0
 40
0.0
 40
0.0
 40
0.021332067
 40
0.0428926335
 40
0.0648978953
 40
0.0875427634
 40
0.1353178011
 40
0.1872186298
 40
0.2436561435
 40
0.3046038104
 40
0.3696913373
 40
0.4382884115
 40
0.5095746477
 40
0.582598745
 40
0.6563301579
 40
0.7297073454
 40
0.8016837145
 40
0.8712769659
 40
0.9376155407
 40
1.0
 40
1.0
 40
1.0
 40
1.0
 10
181.7425078472
 20
126.4089448135
 30
0.0
 10
181.3739364449
 20
126.6217341863
 30
0.0
 10
180.6045520317
 20
127.002572562
 30
0.0
 10
179.3778007732
 20
127.4265219591
 30
0.0
 10
178.0827387443
 20
127.7028108259
 30
0.0
 10
176.2432912397
 20
127.8753291555
 30
0.0
 10
173.790752212
 20
127.6953132629
 30
0.0
 10
170.766875536
 20
126.8915400492
 30
0.0
 10
167.6669407842
 20
125.5216079776
 30
0.0
 10
164.5538022502
 20
123.6169202207
 30
0.0
 10
161.4903492044
 20
121.2185749009
 30
0.0
 10
158.5402936761
 20
118.3773719783
 30
0.0
 10
155.7656872514
 20
115.1535439229
 30
0.0
 10
153.2254044786
 20
111.6156207383
 30
0.0
 10
150.9735495591
 20
107.8390009781
 30
0.0
 10
149.058170281
 20
103.90422994
 30
0.0
 10
147.5200909772
 20
99.8952606382
 30
0.0
 10
146.3921078452
 20
95.8970754689
 30
0.0
 10
145.6982697082
 20
91.9951660756
 30
0.0
 10
145.5296679499
 20
89.4253525184
 30
0.0
 10
145.5296679499
 20
88.1807470304
 30
0.0
  0
SPLINE
  5
3B3
100
AcDbEntity
  8
0
100
AcDbSpline
 62
7
  6
CONTINUOUS
 70
0
 71
3
 72
11
 73
7
 74
0
 42
0.0000001
 43
0.0000001
 44
0.0000000001
 40
0.0
 40
0.0
 40
0.0
 40
0.0
 40
0.2311066182
 40
0.4765223454
 40
0.7338240697
 40
1.0
 40
1.0
 40
1.0
 40
1.0
 10
185.1274828338
 20
111.0424196472
 30
0.0
 10
185.1274828338
 20
109.9955816078
 30
0.0
 10
184.98991221
 20
107.8357134785
 30
0.0
 10
184.4222452786
 20
104.5551403211
 30
0.0
 10
183.4984328659
 20
101.1919725151
 30
0.0
 10
182.6676996956
 20
98.9673590504
 30
0.0
 10
182.1990091619
 20
97.8564949134
 30
0.0
  0
SPLINE
  5
3B4
100
AcDbEntity
  8
0
100
AcDbSpline
 62
7
  6
CONTINUOUS
 70
0
 71
3
 72
17
 73
13
 74
0
 42
0.0000001
 43
0.0000001
 44
0.0000000001
 40
0.0
 40
0.0
 40
0.0
 40
0.0
 40
0.1570038351
 40
0.3073459325
 40
0.4486588958
 40
0.5792323083
 40
0.6982910964
 40
0.8063326448
 40
0.8569118031
 40
0.9056794533
 40
0.9531703632
 40
1.0
 40
1.0
 40
1.0
 40
1.0
 10
176.6643523902
 20
88.2839413061
 30
0.0
 10
175.8038890662
 20
87.1502451181
 30
0.0
 10
174.0082379812
 20
85.0123464982
 30
0.0
 10
171.068913295
 20
82.1894380268
 30
0.0
 10
168.0057454283
 20
79.8773858193
 30
0.0
 10
164.9010969933
 20
78.1411698477
 30
0.0
 10
161.8376191201
 20
77.0306714164
 30
0.0
 10
159.3260370405
 20
76.6518452197
 30
0.0
 10
157.4425727765
 20
76.7166148191
 30
0.0
 10
156.1254167016
 20
76.9358292845
 30
0.0
 10
154.883889374
 20
77.3256712374
 30
0.0
 10
154.1106662198
 20
77.6990617114
 30
0.0
 10
153.7430217967
 20
77.9113152617
 30
0.0
  0
SPLINE
  5
3B5
100
AcDbEntity
  8
0
100
AcDbSpline
 62
7
  6
CONTINUOUS
 70
0
 71
3
 72
15
 73
11
 74
0
 42
0.0000001
 43
0.0000001
 44
0.0000000001
 40
0.0
 40
0.0
 40
0.0
 40
0.0
 40
0.1080120518
 40
0.2180606873
 40
0.3319975806
 40
0.4513565231
 40
0.577275942
 40
0.7104912192
 40
0.851414677
 40
1.0
 40
1.0
 40
1.0
 40
1.0
 10
149.9752841293
 20
75.4678006399
 30
0.0
 10
149.4834166502
 20
75.7517724496
 30
0.0
 10
148.5377206033
 20
76.4116328782
 30
0.0
 10
147.2881703964
 20
77.6413673384
 30
0.0
 10
146.2135259371
 20
79.1009203111
 30
0.0
 10
145.3237148196
 20
80.7738671392
 30
0.0
 10
144.6256777894
 20
82.6431179296
 30
0.0
 10
144.1247405262
 20
84.690678037
 30
0.0
 10
143.8249001003
 20
86.8966867506
 30
0.0
 10
143.761893637
 20
88.420048401
 30
0.0
 10
143.761893637
 20
89.2013489167
 30
0.0
  0
SPLINE
  5
3B6
100
AcDbEntity
  8
0
100
AcDbSpline
 62
7
  6
CONTINUOUS
 70
0
 71
3
 72
16
 73
12
 74
0
 42
0.0000001
 43
0.0000001
 44
0.0000000001
 40
0.0
 40
0.0
 40
0.0
 40
0.0
 40
0.0467156401
 40
0.0946621795
 40
0.1957655163
 40
0.3060108858
 40
0.4265655892
 40
0.5574426784
 40
0.6977564907
 40
0.8459529504
 40
1.0
 40
1.0
 40
1.0
 40
1.0
 10
152.6788856704
 20
78.6859065655
 30
0.0
 10
153.0545311664
 20
78.5505826954
 30
0.0
 10
153.8350646302
 20
78.3272626865
 30
0.0
 10
155.4928986116
 20
78.0749501962
 30
0.0
 10
157.7285514177
 20
78.147026619
 30
0.0
 10
160.5013601005
 20
78.8153011084
 30
0.0
 10
163.3533164716
 20
80.03981522
 30
0.0
 10
166.2198474656
 20
81.7883652677
 30
0.0
 10
169.0362326452
 20
84.0183812945
 30
0.0
 10
171.7363721408
 20
86.6763564148
 30
0.0
 10
173.3934984194
 20
88.6640567599
 30
0.0
 10
174.1894981115
 20
89.7128234985
 30
0.0
  0
SPLINE
  5
3B7
100
AcDbEntity
  8
0
100
AcDbSpline
 62
7
  6
CONTINUOUS
 70
0
 71
3
 72
11
 73
7
 74
0
 42
0.0000001
 43
0.0000001
 44
0.0000000001
 40
0.0
 40
0.0
 40
0.0
 40
0.0
 40
0.2659436706
 40
0.5229606519
 40
0.768371453
 40
1.0
 40
1.0
 40
1.0
 40
1.0
 10
179.9902609774
 20
99.9307637486
 30
0.0
 10
180.4172480298
 20
100.9908119985
 30
0.0
 10
181.1735380951
 20
103.110228215
 30
0.0
 10
182.0132569891
 20
106.3079577321
 30
0.0
 10
182.5283048696
 20
109.424755255
 30
0.0
 10
182.6525987958
 20
111.4759087212
 30
0.0
 10
182.6525987958
 20
112.4712622881
 30
0.0
  0
SPLINE
  5
3B8
100
AcDbEntity
  8
0
100
AcDbSpline
 62
7
  6
CONTINUOUS
 70
0
 71
3
 72
14
 73
10
 74
0
 42
0.0000001
 43
0.0000001
 44
0.0000000001
 40
0.0
 40
0.0
 40
0.0
 40
0.0
 40
0.1080467732
 40
0.2181307248
 40
0.3321041835
 40
0.4515015274
 40
0.5774615197
 40
0.7107196141
 40
1.0
 40
1.0
 40
1.0
 40
1.0
 10
179.7425443359
 20
122.9448280315
 30
0.0
 10
180.1688296057
 20
122.6987191385
 30
0.0
 10
180.9884330122
 20
122.1268396279
 30
0.0
 10
182.0713753926
 20
121.0610723384
 30
0.0
 10
183.0027377644
 20
119.7961173869
 30
0.0
 10
183.773892464
 20
118.3462662225
 30
0.0
 10
184.3789188318
 20
116.7260992121
 30
0.0
 10
184.9736248774
 20
114.2947150722
 30
0.0
 10
185.1274828338
 20
112.3602933231
 30
0.0
 10
185.1274828338
 20
111.0424196472
 30
0.0
  0
SPLINE
  5
3B9
100
AcDbEntity
  8
0
100
AcDbSpline
 62
7
  6
CONTINUOUS
 70
0
 71
3
 72
21
 73
17
 74
0
 42
0.0000001
 43
0.0000001
 44
0.0000000001
 40
0.0
 40
0.0
 40
0.0
 40
0.0
 40
0.0453833678
 40
0.0940119665
 40
0.1480473643
 40
0.2084583137
 40
0.2750783996
 40
0.3469599258
 40
0.4999930821
 40
0.6530262388
 40
0.7249089579
 40
0.7915325658
 40
0.8519473537
 40
0.9059855708
 40
0.9546163426
 40
1.0
 40
1.0
 40
1.0
 40
1.0
 10
186.8499176789
 20
91.9942770548
 30
0.0
 10
186.9405988116
 20
91.9419207816
 30
0.0
 10
187.110321136
 20
91.7991851054
 30
0.0
 10
187.2910116243
 20
91.503833088
 30
0.0
 10
187.3983560231
 20
91.1396288002
 30
0.0
 10
187.4317305876
 20
90.7208498895
 30
0.0
 10
187.3913072073
 20
90.2618748841
 30
0.0
 10
187.2383783707
 20
89.6050372278
 30
0.0
 10
186.8833312053
 20
88.7996113245
 30
0.0
 10
186.3633571346
 20
88.0893983345
 30
0.0
 10
185.8709868419
 20
87.6285197983
 30
0.0
 10
185.4937081215
 20
87.3639996991
 30
0.0
 10
185.1143317971
 20
87.1834904644
 30
0.0
 10
184.7452294534
 20
87.0943443014
 30
0.0
 10
184.3990891077
 20
87.1031521781
 30
0.0
 10
184.1906108395
 20
87.1787741168
 30
0.0
 10
184.0999291283
 20
87.2311307241
 30
0.0
  0
SPLINE
  5
3BA
100
AcDbEntity
  8
0
100
AcDbSpline
 62
7
  6
CONTINUOUS
 70
0
 71
3
 72
11
 73
7
 74
0
 42
0.0000001
 43
0.0000001
 44
0.0000000001
 40
0.0
 40
0.0
 40
0.0
 40
0.0
 40
0.289777178
 40
0.5490714024
 40
0.7822268829
 40
1.0
 40
1.0
 40
1.0
 40
1.0
 10
140.9334782882
 20
62.2567973702
 30
0.0
 10
140.9334782882
 20
62.0540714376
 30
0.0
 10
140.9641309642
 20
61.6686265745
 30
0.0
 10
141.1203401245
 20
61.1390766352
 30
0.0
 10
141.3830920255
 20
60.7093710718
 30
0.0
 10
141.6300004514
 20
60.5018531725
 30
0.0
 10
141.7619422724
 20
60.425678243
 30
0.0
  0
SPLINE
  5
3BB
100
AcDbEntity
  8
0
100
AcDbSpline
 62
7
  6
CONTINUOUS
 70
0
 71
3
 72
14
 73
10
 74
0
 42
0.0000001
 43
0.0000001
 44
0.0000000001
 40
0.0
 40
0.0
 40
0.0
 40
0.0
 40
0.0907888917
 40
0.1880011957
 40
0.2960775683
 40
0.4168945032
 40
0.5501478666
 40
0.6938912952
 40
1.0
 40
1.0
 40
1.0
 40
1.0
 10
186.8498920507
 20
139.337333796
 30
0.0
 10
186.940595427
 20
139.2849628547
 30
0.0
 10
187.1103585973
 20
139.1422982263
 30
0.0
 10
187.2909162835
 20
138.8468840804
 30
0.0
 10
187.3983746796
 20
138.4827748923
 30
0.0
 10
187.4317285147
 20
138.0639708448
 30
0.0
 10
187.3912780221
 20
137.6049655972
 30
0.0
 10
187.2385750341
 20
136.9483219273
 30
0.0
 10
187.0264852211
 20
136.4677140011
 30
0.0
 10
186.8499176789
 20
136.1618883494
 30
0.0
  0
SPLINE
  5
3BC
100
AcDbEntity
  8
0
100
AcDbSpline
 62
7
  6
CONTINUOUS
 70
0
 71
3
 72
9
 73
5
 74
0
 42
0.0000001
 43
0.0000001
 44
0.0000000001
 40
0.0
 40
0.0
 40
0.0
 40
0.0
 40
0.5213658848
 40
1.0
 40
1.0
 40
1.0
 40
1.0
 10
140.5892444683
 20
92.2453936544
 30
0.0
 10
140.3569190685
 20
90.5619489813
 30
0.0
 10
140.106453502
 20
87.3015707147
 30
0.0
 10
140.3365085791
 20
84.0333741998
 30
0.0
 10
140.5892444683
 20
82.4938663437
 30
0.0
  0
SPLINE
  5
3BD
100
AcDbEntity
  8
0
100
AcDbSpline
 62
7
  6
CONTINUOUS
 70
0
 71
3
 72
14
 73
10
 74
0
 42
0.0000001
 43
0.0000001
 44
0.0000000001
 40
0.0
 40
0.0
 40
0.0
 40
0.0
 40
0.0907888917
 40
0.1880011957
 40
0.2960775683
 40
0.4168945032
 40
0.5501478666
 40
0.6938912952
 40
1.0
 40
1.0
 40
1.0
 40
1.0
 10
147.6000554643
 20
71.3542452571
 30
0.0
 10
147.6907588406
 20
71.3018743159
 30
0.0
 10
147.860522011
 20
71.1592096875
 30
0.0
 10
148.0410796972
 20
70.8637955416
 30
0.0
 10
148.1485380933
 20
70.4996863535
 30
0.0
 10
148.1818919284
 20
70.080882306
 30
0.0
 10
148.1414414358
 20
69.6218770584
 30
0.0
 10
147.9887384478
 20
68.9652333885
 30
0.0
 10
147.7766486348
 20
68.4846254623
 30
0.0
 10
147.6000810926
 20
68.1787998106
 30
0.0
  0
SPLINE
  5
3BE
100
AcDbEntity
  8
0
100
AcDbSpline
 62
7
  6
CONTINUOUS
 70
0
 71
3
 72
25
 73
21
 74
0
 42
0.0000001
 43
0.0000001
 44
0.0000000001
 40
0.0
 40
0.0
 40
0.0
 40
0.0
 40
0.0623842911
 40
0.128722567
 40
0.1983156101
 40
0.2702919116
 40
0.3436692619
 40
0.4174009174
 40
0.4904251877
 40
0.561711556
 40
0.6303087822
 40
0.695396441
 40
0.7563441461
 40
0.8127816033
 40
0.8646823585
 40
0.9124573531
 40
0.9351022052
 40
0.9571074442
 40
0.9786679761
 40
1.0
 40
1.0
 40
1.0
 40
1.0
 10
143.761893637
 20
89.2013489167
 30
0.0
 10
143.761893637
 20
90.4459510446
 30
0.0
 10
143.930493899
 20
93.0157553067
 30
0.0
 10
144.6243284031
 20
96.9176515672
 30
0.0
 10
145.7523045171
 20
100.9158267258
 30
0.0
 10
147.2903799838
 20
104.9247950878
 30
0.0
 10
149.2057590749
 20
108.8595737156
 30
0.0
 10
151.4576179888
 20
112.6362045759
 30
0.0
 10
153.9979060704
 20
116.174137423
 30
0.0
 10
156.7725180905
 20
119.3979727148
 30
0.0
 10
159.7225797784
 20
122.2391812434
 30
0.0
 10
162.7860385941
 20
124.6375296659
 30
0.0
 10
165.8991800314
 20
126.5422170782
 30
0.0
 10
168.9991140147
 20
127.912146299
 30
0.0
 10
172.0229878879
 20
128.7159166172
 30
0.0
 10
174.475524319
 20
128.8959304618
 30
0.0
 10
176.3149701527
 20
128.7234117534
 30
0.0
 10
177.6100305165
 20
128.4471222005
 30
0.0
 10
178.836779804
 20
128.0231731948
 30
0.0
 10
179.606162471
 20
127.6423349345
 30
0.0
 10
179.9747333776
 20
127.4295464258
 30
0.0
  0
SPLINE
  5
3BF
100
AcDbEntity
  8
0
100
AcDbSpline
 62
7
  6
CONTINUOUS
 70
0
 71
3
 72
13
 73
9
 74
0
 42
0.0000001
 43
0.0000001
 44
0.0000000001
 40
0.0
 40
0.0
 40
0.0
 40
0.0
 40
0.1142481057
 40
0.2375464672
 40
0.499998393
 40
0.7624511984
 40
0.8857505872
 40
1.0
 40
1.0
 40
1.0
 40
1.0
 10
143.761893637
 20
116.9624310991
 30
0.0
 10
143.5682798712
 20
116.8506488066
 30
0.0
 10
143.185782165
 20
116.5825319847
 30
0.0
 10
142.4697318028
 20
115.9123297631
 30
0.0
 10
141.713367174
 20
114.87916953
 30
0.0
 10
141.1968118772
 20
113.7075540999
 30
0.0
 10
140.9744259209
 20
112.7523285605
 30
0.0
 10
140.9334782882
 20
112.287012959
 30
0.0
 10
140.9334782882
 20
112.0634448151
 30
0.0
  0
SPLINE
  5
3C0
100
AcDbEntity
  8
0
100
AcDbSpline
 62
7
  6
CONTINUOUS
 70
0
 71
3
 72
14
 73
10
 74
0
 42
0.0000001
 43
0.0000001
 44
0.0000000001
 40
0.0
 40
0.0
 40
0.0
 40
0.0
 40
0.3061083981
 40
0.4498475487
 40
0.5830975942
 40
0.7039136347
 40
0.8119921403
 40
0.9092077857
 40
1.0
 40
1.0
 40
1.0
 40
1.0
 10
145.8500883786
 20
65.147706691
 30
0.0
 10
145.6735245394
 20
64.8418874532
 30
0.0
 10
145.3633648434
 20
64.4179175423
 30
0.0
 10
144.8710655501
 20
63.9573637061
 30
0.0
 10
144.4938018193
 20
63.6928333093
 30
0.0
 10
144.1144452862
 20
63.512310313
 30
0.0
 10
143.7453903949
 20
63.4233108558
 30
0.0
 10
143.3992753249
 20
63.4319721738
 30
0.0
 10
143.1908303404
 20
63.5076414579
 30
0.0
 10
143.1001254562
 20
63.5600132698
 30
0.0
  0
SPLINE
  5
3C1
100
AcDbEntity
  8
0
100
AcDbSpline
 62
7
  6
CONTINUOUS
 70
0
 71
3
 72
9
 73
5
 74
0
 42
0.0000001
 43
0.0000001
 44
0.0000000001
 40
0.0
 40
0.0
 40
0.0
 40
0.0
 40
0.4786159706
 40
1.0
 40
1.0
 40
1.0
 40
1.0
 10
65.6362324885
 20
125.763618258
 30
0.0
 10
65.3830561387
 20
127.3043389979
 30
0.0
 10
65.1526197757
 20
130.575335041
 30
0.0
 10
65.4035183202
 20
133.8384859142
 30
0.0
 10
65.6362324885
 20
135.5233963218
 30
0.0
  0
SPLINE
  5
3C2
100
AcDbEntity
  8
0
100
AcDbSpline
 62
7
  6
CONTINUOUS
 70
0
 71
3
 72
9
 73
5
 74
0
 42
0.0000001
 43
0.0000001
 44
0.0000000001
 40
0.0
 40
0.0
 40
0.0
 40
0.0
 40
0.5078494792
 40
1.0
 40
1.0
 40
1.0
 40
1.0
 10
102.7933644871
 20
179.8571415796
 30
0.0
 10
103.4432517123
 20
179.8336864318
 30
0.0
 10
104.7216581432
 20
179.7105609058
 30
0.0
 10
105.9734446006
 20
179.4202954695
 30
0.0
 10
106.5758740747
 20
179.2352541596
 30
0.0
  0
SPLINE
  5
3C3
100
AcDbEntity
  8
0
100
AcDbSpline
 62
7
  6
CONTINUOUS
 70
0
 71
3
 72
9
 73
5
 74
0
 42
0.0000001
 43
0.0000001
 44
0.0000000001
 40
0.0
 40
0.0
 40
0.0
 40
0.0
 40
0.252111208
 40
1.0
 40
1.0
 40
1.0
 40
1.0
 10
73.466881701
 20
160.1198826034
 30
0.0
 10
73.7640272892
 20
160.5542655075
 30
0.0
 10
74.9633631316
 20
162.2629684617
 30
0.0
 10
76.2453607656
 20
163.9138255737
 30
0.0
 10
77.2493912886
 20
165.1094098093
 30
0.0
  0
SPLINE
  5
3C4
100
AcDbEntity
  8
0
100
AcDbSpline
 62
7
  6
CONTINUOUS
 70
0
 71
3
 72
9
 73
5
 74
0
 42
0.0000001
 43
0.0000001
 44
0.0000000001
 40
0.0
 40
0.0
 40
0.0
 40
0.0
 40
0.4609276237
 40
1.0
 40
1.0
 40
1.0
 40
1.0
 10
73.3351741591
 20
159.6397668558
 30
0.0
 10
73.320485999
 20
159.7161841865
 30
0.0
 10
73.3412183999
 20
159.8906232006
 30
0.0
 10
73.415497936
 20
160.0447671383
 30
0.0
 10
73.466881701
 20
160.1198826034
 30
0.0
  0
SPLINE
  5
3C5
100
AcDbEntity
  8
0
100
AcDbSpline
 62
7
  6
CONTINUOUS
 70
0
 71
3
 72
15
 73
11
 74
0
 42
0.0000001
 43
0.0000001
 44
0.0000000001
 40
0.0
 40
0.0
 40
0.0
 40
0.0
 40
0.1085580957
 40
0.2304700153
 40
0.3625271683
 40
0.4999980455
 40
0.6374692149
 40
0.7695272081
 40
0.891440403
 40
1.0
 40
1.0
 40
1.0
 40
1.0
 10
68.759568873
 20
151.7145419925
 30
0.0
 10
69.0930525456
 20
151.8301477112
 30
0.0
 10
69.767775851
 20
152.174001456
 30
0.0
 10
70.6960692642
 20
152.909103477
 30
0.0
 10
71.5562216841
 20
153.8540624832
 30
0.0
 10
72.2984626865
 20
154.954817318
 30
0.0
 10
72.8806191567
 20
156.1479995961
 30
0.0
 10
73.2688992606
 20
157.3654017601
 30
0.0
 10
73.4413699392
 20
158.5368901301
 30
0.0
 10
73.4017967066
 20
159.2931533476
 30
0.0
 10
73.3351741591
 20
159.6397668558
 30
0.0
  0
SPLINE
  5
3C6
100
AcDbEntity
  8
0
100
AcDbSpline
 62
7
  6
CONTINUOUS
 70
0
 71
3
 72
9
 73
5
 74
0
 42
0.0000001
 43
0.0000001
 44
0.0000000001
 40
0.0
 40
0.0
 40
0.0
 40
0.0
 40
0.5390737069
 40
1.0
 40
1.0
 40
1.0
 40
1.0
 10
68.4096337471
 20
151.360423576
 30
0.0
 10
68.4489932192
 20
151.4424807906
 30
0.0
 10
68.5453443995
 20
151.5838803534
 30
0.0
 10
68.6860459447
 20
151.689054475
 30
0.0
 10
68.759568873
 20
151.7145419925
 30
0.0
  0
SPLINE
  5
3C7
100
AcDbEntity
  8
0
100
AcDbSpline
 62
7
  6
CONTINUOUS
 70
0
 71
3
 72
9
 73
5
 74
0
 42
0.0000001
 43
0.0000001
 44
0.0000000001
 40
0.0
 40
0.0
 40
0.0
 40
0.0
 40
0.2553818704
 40
1.0
 40
1.0
 40
1.0
 40
1.0
 10
125.4175162584
 20
97.3896295071
 30
0.0
 10
125.4041241838
 20
97.111847301
 30
0.0
 10
125.3643551147
 20
96.0235826538
 30
0.0
 10
125.3761728901
 20
94.9332581962
 30
0.0
 10
125.4175162584
 20
94.1234412578
 30
0.0
  0
SPLINE
  5
3C8
100
AcDbEntity
  8
0
100
AcDbSpline
 62
7
  6
CONTINUOUS
 70
0
 71
3
 72
9
 73
5
 74
0
 42
0.0000001
 43
0.0000001
 44
0.0000000001
 40
0.0
 40
0.0
 40
0.0
 40
0.0
 40
0.2545398449
 40
1.0
 40
1.0
 40
1.0
 40
1.0
 10
125.4680038828
 20
93.3384630869
 30
0.0
 10
125.4830876596
 20
93.1445839007
 30
0.0
 10
125.5500361863
 20
92.3835264798
 30
0.0
 10
125.6482119183
 20
91.6251389152
 30
0.0
 10
125.740559126
 20
91.0631541238
 30
0.0
  0
SPLINE
  5
3C9
100
AcDbEntity
  8
0
100
AcDbSpline
 62
7
  6
CONTINUOUS
 70
0
 71
3
 72
9
 73
5
 74
0
 42
0.0000001
 43
0.0000001
 44
0.0000000001
 40
0.0
 40
0.0
 40
0.0
 40
0.0
 40
0.2360151291
 40
1.0
 40
1.0
 40
1.0
 40
1.0
 10
128.8248936368
 20
116.9979381553
 30
0.0
 10
128.8151940182
 20
116.9932896055
 30
0.0
 10
128.7748655837
 20
116.9719984075
 30
0.0
 10
128.7376747223
 20
116.9450047217
 30
0.0
 10
128.7112412919
 20
116.9223436881
 30
0.0
  0
SPLINE
  5
3CA
100
AcDbEntity
  8
0
100
AcDbSpline
 62
7
  6
CONTINUOUS
 70
0
 71
3
 72
9
 73
5
 74
0
 42
0.0000001
 43
0.0000001
 44
0.0000000001
 40
0.0
 40
0.0
 40
0.0
 40
0.0
 40
0.2394747993
 40
1.0
 40
1.0
 40
1.0
 40
1.0
 10
128.7112412919
 20
116.9223436881
 30
0.0
 10
128.6912672858
 20
116.9052202343
 30
0.0
 10
128.6123075524
 20
116.8286204369
 30
0.0
 10
128.5500954143
 20
116.7352942907
 30
0.0
 10
128.5139603846
 20
116.6599594417
 30
0.0
  0
SPLINE
  5
3CB
100
AcDbEntity
  8
0
100
AcDbSpline
 62
7
  6
CONTINUOUS
 70
0
 71
3
 72
15
 73
11
 74
0
 42
0.0000001
 43
0.0000001
 44
0.0000000001
 40
0.0
 40
0.0
 40
0.0
 40
0.0
 40
0.1093904687
 40
0.2313282204
 40
0.3627553151
 40
0.4992741238
 40
0.6358993944
 40
0.7676337094
 40
0.8900409196
 40
1.0
 40
1.0
 40
1.0
 40
1.0
 10
133.4617060143
 20
124.8122081649
 30
0.0
 10
133.5154089461
 20
124.4715926883
 30
0.0
 10
133.5368441194
 20
123.7359372926
 30
0.0
 10
133.3556958608
 20
122.602020814
 30
0.0
 10
132.974877753
 20
121.4287252416
 30
0.0
 10
132.4143235711
 20
120.2788874496
 30
0.0
 10
131.7043079526
 20
119.2136709441
 30
0.0
 10
130.8823870303
 20
118.2901534048
 30
0.0
 10
129.9928411056
 20
117.5573936813
 30
0.0
 10
129.3453189187
 20
117.200982863
 30
0.0
 10
129.0230985462
 20
117.0732477196
 30
0.0
  0
SPLINE
  5
3CC
100
AcDbEntity
  8
0
100
AcDbSpline
 62
7
  6
CONTINUOUS
 70
0
 71
3
 72
9
 73
5
 74
0
 42
0.0000001
 43
0.0000001
 44
0.0000000001
 40
0.0
 40
0.0
 40
0.0
 40
0.0
 40
0.2569903553
 40
1.0
 40
1.0
 40
1.0
 40
1.0
 10
133.5712083385
 20
125.4194184692
 30
0.0
 10
133.554992347
 20
125.3957130879
 30
0.0
 10
133.4967431396
 20
125.3003548216
 30
0.0
 10
133.4561041977
 20
125.1933975328
 30
0.0
 10
133.4415717625
 20
125.1116406293
 30
0.0
  0
SPLINE
  5
3CD
100
AcDbEntity
  8
0
100
AcDbSpline
 62
7
  6
CONTINUOUS
 70
0
 71
3
 72
9
 73
5
 74
0
 42
0.0000001
 43
0.0000001
 44
0.0000000001
 40
0.0
 40
0.0
 40
0.0
 40
0.0
 40
0.2633007083
 40
1.0
 40
1.0
 40
1.0
 40
1.0
 10
133.4415717625
 20
125.1116406293
 30
0.0
 10
133.4395626783
 20
125.1003378777
 30
0.0
 10
133.4331195532
 20
125.057222515
 30
0.0
 10
133.4315168807
 20
125.0132748838
 30
0.0
 10
133.4339698786
 20
124.9812485673
 30
0.0
  0
ELLIPSE
  5
3CE
100
AcDbEntity
  8
0
100
AcDbEllipse
 62
7
  6
CONTINUOUS
 10
66.1563378171
 20
220.0008789168
 30
0.0
 11
6.9731426067
 21
12.1707374227
 31
0.0
 40
0.5773435439
 41
0.0437998013
 42
2.0195483275
  0
ELLIPSE
  5
3CF
100
AcDbEntity
  8
0
100
AcDbEllipse
 62
7
  6
CONTINUOUS
 10
194.8890217112
 20
158.6837379786
 30
0.0
 11
113.9089605082
 21
-65.2633770834
 31
0.0
 40
0.0753343482
 41
8.9694883847
 42
9.7924679295
  0
ELLIPSE
  5
3D0
100
AcDbEntity
  8
0
100
AcDbEllipse
 62
7
  6
CONTINUOUS
 10
-201.7728728634
 20
347.6192325142
 30
0.0
 11
273.5462731791
 21
-140.9189398968
 31
0.0
 40
0.0331551487
 41
0.3245296176
 42
0.3498992522
  0
ELLIPSE
  5
3D1
100
AcDbEntity
  8
0
100
AcDbEllipse
 62
7
  6
CONTINUOUS
 10
37.9878096658
 20
192.8194175587
 30
0.0
 11
-2.3730994875
 21
4.4026278786
 31
0.0
 40
0.5568670418
 41
0.8016832507
 42
2.3724795775
  0
ELLIPSE
  5
3D2
100
AcDbEntity
  8
0
100
AcDbEllipse
 62
7
  6
CONTINUOUS
 10
43.882555169
 20
208.6312884761
 30
0.0
 11
6.9731426067
 21
12.1707374227
 31
0.0
 40
0.5773435439
 41
0.0437998023
 42
2.0046014781
  0
ELLIPSE
  5
3D3
100
AcDbEntity
  8
0
100
AcDbEllipse
 62
7
  6
CONTINUOUS
 10
174.0294585134
 20
146.6405354394
 30
0.0
 11
113.9089605082
 21
-65.2633770834
 31
0.0
 40
0.0753343482
 41
8.9694883847
 42
9.7924679295
  0
ELLIPSE
  5
3D4
100
AcDbEntity
  8
0
100
AcDbEllipse
 62
7
  6
CONTINUOUS
 10
-222.6324360612
 20
335.576029975
 30
0.0
 11
273.5462731791
 21
-140.9189398968
 31
0.0
 40
0.0331551487
 41
0.0170784054
 42
0.3648461017
  0
ELLIPSE
  5
3D5
100
AcDbEntity
  8
0
100
AcDbEllipse
 62
7
  6
CONTINUOUS
 10
69.5508960354
 20
150.7773620026
 30
0.0
 11
1.1463525428
 21
-1.0355620121
 31
0.0
 40
0.2522977138
 41
2.8630670344
 42
3.756158382
  0
ELLIPSE
  5
3D6
100
AcDbEntity
  8
0
100
AcDbEllipse
 62
7
  6
CONTINUOUS
 10
57.1868028283
 20
163.6794215588
 30
0.0
 11
12.6098779713
 21
-11.3911821334
 31
0.0
 40
0.2522977138
 41
-0.2785256192
 42
-0.0813438267
  0
ELLIPSE
  5
3D7
100
AcDbEntity
  8
0
100
AcDbEllipse
 62
7
  6
CONTINUOUS
 10
291.5845076344
 20
28.352298933
 30
0.0
 11
258.0769414546
 21
-112.8333823661
 31
0.0
 40
0.0888900236
 41
-2.7250404204
 42
-2.6626052628
  0
ENDSEC
  0
SECTION
  2
OBJECTS
  0
DICTIONARY
  5
C
100
AcDbDictionary
280
0
281
1
  3
ACAD_GROUP
350
D
  3
ACAD_MLINESTYLE
350
17
  3
ACAD_LAYOUT
350
1A
  3
ACAD_PLOTSETTINGS
350
19
  3
ACAD_PLOTSTYLENAME
350
E
  0
DICTIONARY
  5
D
102
{ACAD_REACTORS
330
C
102
}
100
AcDbDictionary
280
0
281
1
  0
ACDBDICTIONARYWDFLT
  5
E
102
{ACAD_REACTORS
330
C
102
}
100
AcDbDictionary
281
1
  3
Normal
350
F
100
AcDbDictionaryWithDefault
340
F
  0
DICTIONARY
  5
17
102
{ACAD_REACTORS
330
C
102
}
100
AcDbDictionary
280
0
281
1
  3
Standard
350
18
  0
DICTIONARY
  5
19
102
{ACAD_REACTORS
330
C
102
}
100
AcDbDictionary
281
1
  0
DICTIONARY
  5
1A
102
{ACAD_REACTORS
330
C
102
}
100
AcDbDictionary
281
1
  3
Model
350
3D8
  3
Layout1
350
3D9
  0
ACDBPLACEHOLDER
  5
F
102
{ACAD_REACTORS
330
E
102
}
  0
MLINESTYLE
  5
18
102
{ACAD_REACTORS
330
17
102
}
100
AcDbMlineStyle
  2
STANDARD
 70
0
  3

 62
256
 51
90.0
 52
90.0
 71
2
 49
0.5
 62
256
  6
BYLAYER
 49
-0.5
 62
256
  6
BYLAYER
  0
LAYOUT
  5
3D8
102
{ACAD_REACTORS
330
1A
102
}
100
AcDbPlotSettings
  1

  2
none_device
  4

  6

 40
0.0
 41
0.0
 42
0.0
 43
0.0
 44
210.0
 45
297.0
 46
0.0
 47
0.0
 48
0.0
 49
0.0
140
0.0
141
0.0
142
1.0
143
1.0
 70
1024
 72
1
 73
0
 74
0
  7

 75
0
147
1.0
148
0.0
149
0.0
100
AcDbLayout
  1
Model
 70
0
 71
0
 10
0.0
 20
0.0
 11
210.0
 21
297.0
 12
0.0
 22
0.0
 32
0.0
 14
0.0
 24
0.0
 34
0.0
 15
0.0
 25
0.0
 35
0.0
146
0.0
 13
0.0
 23
0.0
 33
0.0
 16
1.0
 26
0.0
 36
0.0
 17
0.0
 27
1.0
 37
0.0
 76
0
330
210
345
0
346
0
  0
LAYOUT
  5
3D9
102
{ACAD_REACTORS
330
1A
102
}
100
AcDbPlotSettings
  1

  2
none_device
  4

  6

 40
0.0
 41
0.0
 42
0.0
 43
0.0
 44
210.0
 45
297.0
 46
0.0
 47
0.0
 48
0.0
 49
0.0
140
0.0
141
0.0
142
1.0
143
1.0
 70
0
 72
1
 73
0
 74
0
  7

 75
0
147
1.0
148
0.0
149
0.0
100
AcDbLayout
  1
Layout1
 70
0
 71
1
 10
0.0
 20
0.0
 11
210.0
 21
297.0
 12
0.0
 22
0.0
 32
0.0
 14
0.0
 24
0.0
 34
0.0
 15
0.0
 25
0.0
 35
0.0
146
0.0
 13
0.0
 23
0.0
 33
0.0
 16
1.0
 26
0.0
 36
0.0
 17
0.0
 27
1.0
 37
0.0
 76
0
330
211
345
0
346
0
  0
ENDSEC
  0
EOF
