999
DXF file: C:\Users\sesa63760\Dev\_Creo\CAD\MCADID0003805_3D-CAD\drw0001_7.dxf
999
Pro/ENGINEER 2019471 by Parametric Technology Corporation
  0
SECTION
  2
HEADER
  9
$ACADVER
  1
AC1024
  9
$DWGCODEPAGE
  3
ANSI_1252
  9
$EXTMAX
 10
81.7412626263
 20
115.6055
 30
0.0
  9
$EXTMIN
 10
0.0
 20
0.0
 30
0.0
  9
$LIMMIN
 10
0.0
 20
0.0
  9
$LIMMAX
 10
81.7412626263
 20
115.6055
  9
$VIEWCTR
 10
40.8706313131
 20
57.80275
  9
$VIEWSIZE
 40
115.6055
  9
$CLAYER
  8
0
  9
$LTSCALE
 40
7.5357659259
  9
$CELTYPE
  6
BYLAYER
  9
$DIMSCALE
 40
1.0
  9
$DIMASZ
 40
0.9731102694
  9
$DIMEXO
 40
1.0
  9
$DIMDLI
 40
5.2065291852
  9
$DIMEXE
 40
1.0
  9
$DIMCEN
 40
1.2331253333
  9
$DIMLFAC
 40
1.0
  9
$DIMBLK
  1
_FILLED
  9
$DIMALT
 70
0
  9
$DIMALTF
 40
0.0393700787
  9
$DIMTXT
 40
1.3623543771
  9
$DIMTOL
 70
1
  9
$DIMLIM
 70
0
  9
$DIMTFAC
 40
1.0
  9
$DIMTP
 40
0.01
  9
$DIMTM
 40
0.01
  9
$DIMGAP
 40
0.625
  9
$DIMDSEP
 70
46
  9
$AUNITS
 70
0
  9
$PDMODE
 70
3
  9
$PDSIZE
 40
0.3125
  9
$HANDSEED
  5
2D1
  9
$TILEMODE
 70
1
  9
$MEASUREMENT
 70
1
  9
$INSUNITS
 70
4
  0
ENDSEC
  0
SECTION
  2
CLASSES
  0
CLASS
  1
ACDBDICTIONARYWDFLT
  2
AcDbDictionaryWithDefault
  3
AutoCAD 2000
 90
0
 91
1
280
0
281
0
  0
CLASS
  1
ACDBPLACEHOLDER
  2
AcDbPlaceHolder
  3
AutoCAD 2000
 90
0
 91
1
280
0
281
0
  0
CLASS
  1
LAYOUT
  2
AcDbLayout
  3
AutoCAD 2000
 90
0
 91
0
280
0
281
0
  0
ENDSEC
  0
SECTION
  2
TABLES
  0
TABLE
  2
VPORT
  5
8
100
AcDbSymbolTable
 70
2
  0
VPORT
  5
1F4
100
AcDbSymbolTableRecord
100
AcDbViewportTableRecord
  2
*ACTIVE
 70
0
 10
0.0
 20
0.0
 11
1.0
 21
1.0
 12
40.8706313131
 22
57.80275
 13
0.0
 23
0.0
 14
1.0
 24
1.0
 15
0.0
 25
0.0
 16
0.0
 26
0.0
 36
1.0
 17
0.0
 27
0.0
 37
0.0
 40
115.6055
 41
0.7070707071
 42
50.0
 43
0.0
 44
0.0
 50
0.0
 51
0.0
 71
0
 72
100
 73
1
 74
1
 75
0
 76
0
 77
0
 78
0
  0
ENDTAB
  0
TABLE
  2
LTYPE
  5
5
100
AcDbSymbolTable
 70
6
  0
LTYPE
  5
14
100
AcDbSymbolTableRecord
100
AcDbLinetypeTableRecord
  2
BYBLOCK
 70
0
  3

 72
65
 73
0
 40
0.0
  0
LTYPE
  5
15
100
AcDbSymbolTableRecord
100
AcDbLinetypeTableRecord
  2
BYLAYER
 70
0
  3

 72
65
 73
0
 40
0.0
  0
LTYPE
  5
16
100
AcDbSymbolTableRecord
100
AcDbLinetypeTableRecord
  2
CONTINUOUS
 70
64
  3
Solid line
 72
65
 73
0
 40
0.0
  0
LTYPE
  5
1F5
100
AcDbSymbolTableRecord
100
AcDbLinetypeTableRecord
  2
CENTER
 70
64
  3
____ _ ____ _ ____ _ ____ _ ____ _ ____ _ ____
 72
65
 73
4
 40
0.6
 49
0.375
 74
0
 49
-0.075
 74
0
 49
0.075
 74
0
 49
-0.075
 74
0
  0
LTYPE
  5
1F6
100
AcDbSymbolTableRecord
100
AcDbLinetypeTableRecord
  2
HIDDEN
 70
64
  3
- - - - - - - - - - - - - - - - - - - -
 72
65
 73
2
 40
0.2
 49
0.1
 74
0
 49
-0.1
 74
0
  0
LTYPE
  5
1F7
100
AcDbSymbolTableRecord
100
AcDbLinetypeTableRecord
  2
PHANTOM
 70
64
  3
_____ _ _ _____ _ _ _____ _ _ _____
 72
65
 73
6
 40
0.8
 49
0.45
 74
0
 49
-0.05
 74
0
 49
0.1
 74
0
 49
-0.05
 74
0
 49
0.1
 74
0
 49
-0.05
 74
0
  0
LTYPE
  5
1F8
100
AcDbSymbolTableRecord
100
AcDbLinetypeTableRecord
  2
DOT
 70
64
  3
. . . . . . . . . . . . . . . . . . . .
 72
65
 73
2
 40
0.2
 49
0.1
 74
0
 49
-0.1
 74
0
  0
LTYPE
  5
1F9
100
AcDbSymbolTableRecord
100
AcDbLinetypeTableRecord
  2
DASHED
 70
64
  3
- - - - - - - - - - - - - - - - - - - -
 72
65
 73
2
 40
0.2
 49
0.1
 74
0
 49
-0.1
 74
0
  0
ENDTAB
  0
TABLE
  2
LAYER
  5
2
100
AcDbSymbolTable
 70
36
  0
LAYER
  5
10
100
AcDbSymbolTableRecord
100
AcDbLayerTableRecord
  2
0
 70
0
 62
7
  6
CONTINUOUS
370
-3
390
F
  0
LAYER
  5
1FA
100
AcDbSymbolTableRecord
100
AcDbLayerTableRecord
  2
DEFAULT_1
 70
0
 62
7
  6
CENTER
370
-3
390
F
  0
LAYER
  5
1FB
100
AcDbSymbolTableRecord
100
AcDbLayerTableRecord
  2
DEFAULT_2
 70
0
 62
7
  6
HIDDEN
370
-3
390
F
  0
LAYER
  5
1FC
100
AcDbSymbolTableRecord
100
AcDbLayerTableRecord
  2
DEFAULT_3
 70
0
 62
7
  6
PHANTOM
370
-3
390
F
  0
LAYER
  5
1FD
100
AcDbSymbolTableRecord
100
AcDbLayerTableRecord
  2
00_COMPONENTS
 70
0
 62
7
  6
CONTINUOUS
370
-3
390
F
  0
LAYER
  5
1FE
100
AcDbSymbolTableRecord
100
AcDbLayerTableRecord
  2
01_1_DEFAULT_DATUMS
 70
0
 62
7
  6
CONTINUOUS
370
-3
390
F
  0
LAYER
  5
1FF
100
AcDbSymbolTableRecord
100
AcDbLayerTableRecord
  2
01_PLANES
 70
0
 62
7
  6
CONTINUOUS
370
-3
390
F
  0
LAYER
  5
200
100
AcDbSymbolTableRecord
100
AcDbLayerTableRecord
  2
02_COORD_SYS
 70
0
 62
7
  6
CONTINUOUS
370
-3
390
F
  0
LAYER
  5
201
100
AcDbSymbolTableRecord
100
AcDbLayerTableRecord
  2
03_AXES
 70
0
 62
7
  6
CONTINUOUS
370
-3
390
F
  0
LAYER
  5
202
100
AcDbSymbolTableRecord
100
AcDbLayerTableRecord
  2
04_POINTS
 70
0
 62
7
  6
CONTINUOUS
370
-3
390
F
  0
LAYER
  5
203
100
AcDbSymbolTableRecord
100
AcDbLayerTableRecord
  2
05_CURVES
 70
0
 62
7
  6
CONTINUOUS
370
-3
390
F
  0
LAYER
  5
204
100
AcDbSymbolTableRecord
100
AcDbLayerTableRecord
  2
06_SURFS
 70
0
 62
7
  6
CONTINUOUS
370
-3
390
F
  0
LAYER
  5
205
100
AcDbSymbolTableRecord
100
AcDbLayerTableRecord
  2
07_COSMETICS
 70
0
 62
7
  6
CONTINUOUS
370
-3
390
F
  0
LAYER
  5
206
100
AcDbSymbolTableRecord
100
AcDbLayerTableRecord
  2
10_NOTES
 70
0
 62
7
  6
CONTINUOUS
370
-3
390
F
  0
LAYER
  5
207
100
AcDbSymbolTableRecord
100
AcDbLayerTableRecord
  2
11_NOTES_PUB
 70
0
 62
7
  6
CONTINUOUS
370
-3
390
F
  0
LAYER
  5
208
100
AcDbSymbolTableRecord
100
AcDbLayerTableRecord
  2
13_REF_GTOL
 70
0
 62
7
  6
CONTINUOUS
370
-3
390
F
  0
LAYER
  5
209
100
AcDbSymbolTableRecord
100
AcDbLayerTableRecord
  2
16_MISC
 70
0
 62
7
  6
CONTINUOUS
370
-3
390
F
  0
LAYER
  5
20A
100
AcDbSymbolTableRecord
100
AcDbLayerTableRecord
  2
17_NO_PRINT
 70
0
 62
7
  6
CONTINUOUS
370
-3
390
F
  0
LAYER
  5
20B
100
AcDbSymbolTableRecord
100
AcDbLayerTableRecord
  2
18_DATUM_CAMS_JOINTS
 70
0
 62
7
  6
CONTINUOUS
370
-3
390
F
  0
LAYER
  5
20C
100
AcDbSymbolTableRecord
100
AcDbLayerTableRecord
  2
19_DATUM_FUNCTIONAL
 70
0
 62
7
  6
CONTINUOUS
370
-3
390
F
  0
LAYER
  5
20D
100
AcDbSymbolTableRecord
100
AcDbLayerTableRecord
  2
20_DATUM_KINEMATIC_SCHEME
 70
0
 62
7
  6
CONTINUOUS
370
-3
390
F
  0
ENDTAB
  0
TABLE
  2
STYLE
  5
3
100
AcDbSymbolTable
 70
1
  0
STYLE
  5
11
100
AcDbSymbolTableRecord
100
AcDbTextStyleTableRecord
  2
STANDARD
 70
0
 40
0.0
 41
1.0
 50
0.0
 71
0
 42
0.2
  3
ARIAL.TTF
  4

  0
STYLE
  5
20E
100
AcDbSymbolTableRecord
100
AcDbTextStyleTableRecord
  2
TEXTSTYLE_1
 70
0
 40
0.0
 41
0.8
 50
0.0
 71
0
 42
0.2
  3
gdt
  4

  0
ENDTAB
  0
TABLE
  2
VIEW
  5
6
100
AcDbSymbolTable
 70
0
  0
ENDTAB
  0
TABLE
  2
UCS
  5
7
100
AcDbSymbolTable
 70
0
  0
ENDTAB
  0
TABLE
  2
APPID
  5
9
100
AcDbSymbolTable
 70
1
  0
APPID
  5
20F
100
AcDbSymbolTableRecord
100
AcDbRegAppTableRecord
  2
ACAD
 70
0
  0
ENDTAB
  0
TABLE
  2
BLOCK_RECORD
  5
1
100
AcDbSymbolTable
 70
0
  0
BLOCK_RECORD
  5
210
100
AcDbSymbolTableRecord
100
AcDbBlockTableRecord
  2
*Model_Space
  0
BLOCK_RECORD
  5
211
100
AcDbSymbolTableRecord
100
AcDbBlockTableRecord
  2
*Paper_Space
  0
BLOCK_RECORD
  5
212
100
AcDbSymbolTableRecord
100
AcDbBlockTableRecord
  2
_FILLED
  0
ENDTAB
  0
TABLE
  2
DIMSTYLE
  5
A
100
AcDbSymbolTable
 70
1
100
AcDbDimStyleTable
 71
0
  0
DIMSTYLE
105
213
100
AcDbSymbolTableRecord
100
AcDbDimStyleTableRecord
  2
STANDARD
 70
0
  3

  4

 40
1.0
 41
0.9731102694
 42
1.0
 43
0.38
 44
1.0
 45
0.0
 46
0.0
 47
0.01
 48
0.01
140
1.3623543771
141
0.09
142
0.0
143
25.4
144
1.0
145
0.0
146
1.0
147
0.625
 71
1
 72
0
 73
0
 74
0
 75
0
 76
0
 77
1
 78
8
 79
2
170
0
171
1
172
0
173
0
174
0
175
0
176
0
177
0
178
0
270
2
179
2
271
2
272
2
273
2
274
2
275
0
280
0
281
0
282
0
283
1
284
8
285
0
286
0
287
3
288
0
340
11
278
46
341
212
342
212
343
212
344
212
  0
ENDTAB
  0
ENDSEC
  0
SECTION
  2
BLOCKS
  0
BLOCK
  5
20
100
AcDbEntity
  8
0
100
AcDbBlockBegin
  2
*Model_Space
 70
0
 10
0.0
 20
0.0
 30
0.0
  3
*Model_Space
  1

  0
ENDBLK
  5
21
100
AcDbEntity
  8
0
100
AcDbBlockEnd
  0
BLOCK
  5
1C
100
AcDbEntity
  8
0
100
AcDbBlockBegin
  2
*Paper_Space
 70
0
 10
0.0
 20
0.0
 30
0.0
  3
*Paper_Space
  1

  0
ENDBLK
  5
1D
100
AcDbEntity
  8
0
100
AcDbBlockEnd
  0
BLOCK
  5
214
100
AcDbEntity
  8
0
100
AcDbBlockBegin
  2
_FILLED
 70
64
 10
0.0
 20
0.0
  3
_FILLED
  1

  0
SOLID
  5
215
100
AcDbEntity
  8
0
  6
BYBLOCK
 62
0
100
AcDbTrace
 10
0.0
 20
0.0
 11
-1.0
 21
0.25
 12
-1.0
 22
-0.25
 13
-1.0
 23
-0.25
  0
ENDBLK
  5
216
100
AcDbEntity
  8
0
  6
BYBLOCK
 62
0
100
AcDbBlockEnd
  0
ENDSEC
  0
SECTION
  2
ENTITIES
  0
LINE
  5
217
100
AcDbEntity
  8
0
100
AcDbLine
 62
7
  6
BYLAYER
 10
46.0123115954
 20
8.56075
 11
36.0119510308
 21
8.56075
  0
LINE
  5
218
100
AcDbEntity
  8
0
100
AcDbLine
 62
7
  6
BYLAYER
 10
46.2121313131
 20
9.56075
 11
35.8121313131
 21
9.56075
  0
LINE
  5
219
100
AcDbEntity
  8
0
100
AcDbLine
 62
7
  6
BYLAYER
 10
35.8121313131
 20
10.26075
 11
46.2121313131
 21
10.26075
  0
LINE
  5
21A
100
AcDbEntity
  8
0
100
AcDbLine
 62
7
  6
BYLAYER
 10
46.0121313131
 20
10.6071601615
 11
36.0121313131
 21
10.6071601615
  0
LINE
  5
21B
100
AcDbEntity
  8
0
100
AcDbLine
 62
7
  6
BYLAYER
 10
36.0121313131
 20
11.76075
 11
46.0121313131
 21
11.76075
  0
LINE
  5
21C
100
AcDbEntity
  8
0
100
AcDbLine
 62
7
  6
BYLAYER
 10
30.0121313131
 20
107.61075
 11
29.5121313131
 21
107.11075
  0
LINE
  5
21D
100
AcDbEntity
  8
0
100
AcDbLine
 62
7
  6
BYLAYER
 10
47.0121313131
 20
12.76075
 11
35.0121313131
 21
12.76075
  0
LINE
  5
21E
100
AcDbEntity
  8
0
100
AcDbLine
 62
7
  6
BYLAYER
 10
35.0121313131
 20
18.56075
 11
47.0121313131
 21
18.56075
  0
LINE
  5
21F
100
AcDbEntity
  8
0
100
AcDbLine
 62
7
  6
BYLAYER
 10
49.2106853345
 20
20.5102414488
 11
48.9768540435
 21
20.4855105596
  0
LINE
  5
220
100
AcDbEntity
  8
0
100
AcDbLine
 62
7
  6
BYLAYER
 10
33.0217584369
 20
20.2205693027
 11
33.0180368442
 21
20.2203007347
  0
LWPOLYLINE
  5
221
100
AcDbEntity
  8
0
100
AcDbPolyline
 62
7
  6
BYLAYER
 90
5
 70
0
 10
32.8247823293
 20
20.5283798687
 10
33.3845484351
 20
20.5648374662
 10
35.1806250304
 20
20.5796751772
 10
37.8504352844
 20
20.5639799924
 10
41.0121315815
 20
20.5197099692
  0
LINE
  5
222
100
AcDbEntity
  8
0
100
AcDbLine
 62
7
  6
BYLAYER
 10
49.0061949516
 20
20.2052423768
 11
60.5011346809
 21
20.4058873031
  0
LINE
  5
223
100
AcDbEntity
  8
0
100
AcDbLine
 62
7
  6
BYLAYER
 10
48.706225782
 20
19.56075
 11
33.3180368442
 21
19.56075
  0
LINE
  5
224
100
AcDbEntity
  8
0
100
AcDbLine
 62
7
  6
BYLAYER
 10
49.006225782
 20
19.86075
 11
33.0180368442
 21
19.86075
  0
LINE
  5
225
100
AcDbEntity
  8
0
100
AcDbLine
 62
7
  6
BYLAYER
 10
21.5231279454
 20
20.4058873031
 11
33.0219063781
 21
20.205175372
  0
LINE
  5
226
100
AcDbEntity
  8
0
100
AcDbLine
 62
7
  6
BYLAYER
 10
35.0121313131
 20
12.76075
 11
36.0121313131
 21
11.76075
  0
LINE
  5
227
100
AcDbEntity
  8
0
100
AcDbLine
 62
7
  6
BYLAYER
 10
61.0576317093
 20
23.06075
 11
61.4241089856
 21
23.06075
  0
LINE
  5
228
100
AcDbEntity
  8
0
100
AcDbLine
 62
7
  6
BYLAYER
 10
61.4174733763
 20
23.31075
 11
61.040697765
 21
23.31075
  0
LINE
  5
229
100
AcDbEntity
  8
0
100
AcDbLine
 62
7
  6
BYLAYER
 10
29.5121313131
 20
87.61075
 11
28.0121313131
 21
86.7447245962
  0
LINE
  5
22A
100
AcDbEntity
  8
0
100
AcDbLine
 62
7
  6
BYLAYER
 10
26.0121313131
 20
80.6166724516
 11
25.5811912055
 21
80.26075
  0
LINE
  5
22B
100
AcDbEntity
  8
0
100
AcDbLine
 62
7
  6
BYLAYER
 10
20.4397328831
 20
73.711994603
 11
20.4398348217
 21
73.7125948431
  0
LINE
  5
22C
100
AcDbEntity
  8
0
100
AcDbLine
 62
7
  6
BYLAYER
 10
24.8862982882
 20
79.0571601615
 11
24.756427739
 21
78.7436249201
  0
LINE
  5
22D
100
AcDbEntity
  8
0
100
AcDbLine
 62
7
  6
BYLAYER
 10
25.5811912055
 20
80.26075
 11
24.8862982882
 21
79.0571601615
  0
LINE
  5
22E
100
AcDbEntity
  8
0
100
AcDbLine
 62
7
  6
BYLAYER
 10
60.5011346809
 20
20.4058873031
 11
60.023082095
 21
20.7162353438
  0
LINE
  5
22F
100
AcDbEntity
  8
0
100
AcDbLine
 62
7
  6
BYLAYER
 10
20.4398348217
 20
73.7125948431
 11
20.5394517432
 21
21.4046145095
  0
LINE
  5
230
100
AcDbEntity
  8
0
100
AcDbLine
 62
7
  6
BYLAYER
 10
21.0189848138
 20
21.7159302985
 11
21.0189848187
 21
73.3365820664
  0
LINE
  5
231
100
AcDbEntity
  8
0
100
AcDbLine
 62
7
  6
BYLAYER
 10
24.756427739
 20
78.7436249201
 11
24.7121313131
 21
78.4071601615
  0
LINE
  5
232
100
AcDbEntity
  8
0
100
AcDbLine
 62
7
  6
BYLAYER
 10
61.0052778124
 20
21.7159302972
 11
61.484810883
 21
21.4046145096
  0
LINE
  5
233
100
AcDbEntity
  8
0
100
AcDbLine
 62
7
  6
BYLAYER
 10
46.2121313131
 20
10.26075
 11
46.0121313131
 21
10.6071601615
  0
LINE
  5
234
100
AcDbEntity
  8
0
100
AcDbLine
 62
7
  6
BYLAYER
 10
24.7121313131
 20
78.4071601615
 11
24.7121313131
 21
74.3401507531
  0
LINE
  5
235
100
AcDbEntity
  8
0
100
AcDbLine
 62
7
  6
BYLAYER
 10
26.0121313131
 20
80.6166724516
 11
26.0121313131
 21
80.66075
  0
LINE
  5
236
100
AcDbEntity
  8
0
100
AcDbLine
 62
7
  6
BYLAYER
 10
53.0121313131
 20
81.61075
 11
54.0121313131
 21
82.1881002692
  0
LINE
  5
237
100
AcDbEntity
  8
0
100
AcDbLine
 62
7
  6
BYLAYER
 10
35.8121313131
 20
9.56075
 11
36.0119510308
 21
8.56075
  0
LINE
  5
238
100
AcDbEntity
  8
0
100
AcDbLine
 62
7
  6
BYLAYER
 10
28.0121313131
 20
86.7447245962
 11
28.0121313131
 21
82.1881002692
  0
LINE
  5
239
100
AcDbEntity
  8
0
100
AcDbLine
 62
7
  6
BYLAYER
 10
28.1198264677
 20
82.1881002692
 11
28.1198264677
 21
86.7447245962
  0
LINE
  5
23A
100
AcDbEntity
  8
0
100
AcDbLine
 62
7
  6
BYLAYER
 10
29.0121313131
 20
81.61075
 11
29.0121313131
 21
80.66075
  0
LINE
  5
23B
100
AcDbEntity
  8
0
100
AcDbLine
 62
7
  6
BYLAYER
 10
29.5121313131
 20
107.11075
 11
29.5121313131
 21
87.61075
  0
LINE
  5
23C
100
AcDbEntity
  8
0
100
AcDbLine
 62
7
  6
BYLAYER
 10
61.0378866199
 20
45.6807650831
 11
61.0314562341
 21
45.6807650831
  0
LINE
  5
23D
100
AcDbEntity
  8
0
100
AcDbLine
 62
7
  6
BYLAYER
 10
33.0180368442
 20
20.2203007347
 11
33.0180368442
 21
19.86075
  0
LINE
  5
23E
100
AcDbEntity
  8
0
100
AcDbLine
 62
7
  6
BYLAYER
 10
33.1198264677
 20
86.7447245962
 11
33.1198264677
 21
82.1881002692
  0
LINE
  5
23F
100
AcDbEntity
  8
0
100
AcDbLine
 62
7
  6
BYLAYER
 10
35.0121313131
 20
18.56075
 11
35.0121313131
 21
12.76075
  0
LINE
  5
240
100
AcDbEntity
  8
0
100
AcDbLine
 62
7
  6
BYLAYER
 10
35.8121313131
 20
10.26075
 11
35.8121313131
 21
9.56075
  0
LINE
  5
241
100
AcDbEntity
  8
0
100
AcDbLine
 62
7
  6
BYLAYER
 10
36.0121313131
 20
11.76075
 11
36.0121313131
 21
10.6071601615
  0
LINE
  5
242
100
AcDbEntity
  8
0
100
AcDbLine
 62
7
  6
BYLAYER
 10
36.0121313131
 20
82.1881002692
 11
36.0121313131
 21
86.7447245962
  0
LINE
  5
243
100
AcDbEntity
  8
0
100
AcDbLine
 62
7
  6
BYLAYER
 10
33.0180588908
 20
20.2206404585
 11
33.0180368442
 21
20.2203007347
  0
LINE
  5
244
100
AcDbEntity
  8
0
100
AcDbLine
 62
7
  6
BYLAYER
 10
60.0230282451
 20
74.3362776245
 11
60.6033723052
 21
74.7130530094
  0
LINE
  5
245
100
AcDbEntity
  8
0
100
AcDbLine
 62
7
  6
BYLAYER
 10
41.0121510725
 20
20.7069906793
 11
41.0121576926
 21
20.5197105593
  0
LINE
  5
246
100
AcDbEntity
  8
0
100
AcDbLine
 62
7
  6
BYLAYER
 10
61.5844278045
 20
73.7125948431
 11
61.0052778076
 21
73.3365820679
  0
LINE
  5
247
100
AcDbEntity
  8
0
100
AcDbLine
 62
7
  6
BYLAYER
 10
61.0378619515
 20
61.6807650831
 11
61.0314547625
 21
61.6807650831
  0
LINE
  5
248
100
AcDbEntity
  8
0
100
AcDbLine
 62
7
  6
BYLAYER
 10
21.0189848187
 20
73.3365820664
 11
20.4398348217
 21
73.7125948431
  0
LINE
  5
249
100
AcDbEntity
  8
0
100
AcDbLine
 62
7
  6
BYLAYER
 10
21.420890321
 20
74.7130530094
 11
22.0012341108
 21
74.3362776197
  0
LINE
  5
24A
100
AcDbEntity
  8
0
100
AcDbLine
 62
7
  6
BYLAYER
 10
49.006225782
 20
20.2034773767
 11
49.0062225823
 21
20.2035895055
  0
LINE
  5
24B
100
AcDbEntity
  8
0
100
AcDbLine
 62
7
  6
BYLAYER
 10
46.0121313131
 20
86.7447245962
 11
46.0121313131
 21
82.1881002692
  0
LINE
  5
24C
100
AcDbEntity
  8
0
100
AcDbLine
 62
7
  6
BYLAYER
 10
46.0121313131
 20
11.76075
 11
46.0121313131
 21
10.6071601615
  0
LINE
  5
24D
100
AcDbEntity
  8
0
100
AcDbLine
 62
7
  6
BYLAYER
 10
46.2121313131
 20
10.26075
 11
46.2121313131
 21
9.56075
  0
LINE
  5
24E
100
AcDbEntity
  8
0
100
AcDbLine
 62
7
  6
BYLAYER
 10
47.0121313131
 20
18.56075
 11
47.0121313131
 21
12.76075
  0
LINE
  5
24F
100
AcDbEntity
  8
0
100
AcDbLine
 62
7
  6
BYLAYER
 10
48.9044361585
 20
82.1881002692
 11
48.9044361585
 21
86.7447245962
  0
LINE
  5
250
100
AcDbEntity
  8
0
100
AcDbLine
 62
7
  6
BYLAYER
 10
49.006225782
 20
20.203476103
 11
49.006225782
 21
19.86075
  0
LINE
  5
251
100
AcDbEntity
  8
0
100
AcDbLine
 62
7
  6
BYLAYER
 10
52.5121313131
 20
107.11075
 11
52.5121313131
 21
87.61075
  0
LINE
  5
252
100
AcDbEntity
  8
0
100
AcDbLine
 62
7
  6
BYLAYER
 10
53.0121313131
 20
81.61075
 11
53.0121313131
 21
80.66075
  0
LINE
  5
253
100
AcDbEntity
  8
0
100
AcDbLine
 62
7
  6
BYLAYER
 10
53.9044361585
 20
86.7447245962
 11
53.9044361585
 21
82.1881002692
  0
LINE
  5
254
100
AcDbEntity
  8
0
100
AcDbLine
 62
7
  6
BYLAYER
 10
54.0121313131
 20
86.7447245962
 11
54.0121313131
 21
82.1881002692
  0
LINE
  5
255
100
AcDbEntity
  8
0
100
AcDbLine
 62
7
  6
BYLAYER
 10
46.2121313131
 20
9.56075
 11
46.0123115954
 21
8.56075
  0
LINE
  5
256
100
AcDbEntity
  8
0
100
AcDbLine
 62
7
  6
BYLAYER
 10
61.0406979222
 20
71.81075
 11
61.4174733763
 21
71.81075
  0
LINE
  5
257
100
AcDbEntity
  8
0
100
AcDbLine
 62
7
  6
BYLAYER
 10
61.4241089856
 20
72.06075
 11
61.0576317093
 21
72.06075
  0
LINE
  5
258
100
AcDbEntity
  8
0
100
AcDbLine
 62
7
  6
BYLAYER
 10
22.0012341108
 20
74.3362776197
 11
23.0626486924
 21
74.253819366
  0
LINE
  5
259
100
AcDbEntity
  8
0
100
AcDbLine
 62
7
  6
BYLAYER
 10
29.0121313131
 20
81.61075
 11
28.0121313131
 21
82.1881002692
  0
LINE
  5
25A
100
AcDbEntity
  8
0
100
AcDbLine
 62
7
  6
BYLAYER
 10
56.0121313131
 20
80.6166724516
 11
56.0121313131
 21
80.66075
  0
LINE
  5
25B
100
AcDbEntity
  8
0
100
AcDbLine
 62
7
  6
BYLAYER
 10
57.3121313131
 20
78.4071601615
 11
57.3121313131
 21
74.3401500003
  0
LWPOLYLINE
  5
25C
100
AcDbEntity
  8
0
100
AcDbPolyline
 62
7
  6
BYLAYER
 90
4
 70
0
 10
49.0066694154
 20
20.2036053334
 10
49.0373574269
 20
20.3522069399
 10
49.174059695
 20
20.4865152145
 10
49.2117431629
 20
20.5002396491
  0
LINE
  5
25D
100
AcDbEntity
  8
0
100
AcDbLine
 62
7
  6
BYLAYER
 10
24.7121313131
 20
74.7705018347
 11
21.420890321
 21
74.7130530094
  0
LWPOLYLINE
  5
25E
100
AcDbEntity
  8
0
100
AcDbPolyline
 62
7
  6
BYLAYER
 90
3
 70
0
 10
56.355344459
 20
74.2143724158
 10
58.9616514163
 20
74.253820614
 10
60.0230282451
 20
74.3362776245
  0
LINE
  5
25F
100
AcDbEntity
  8
0
100
AcDbLine
 62
7
  6
BYLAYER
 10
56.3546425032
 20
74.26075
 11
46.4946017952
 21
74.26075
  0
LINE
  5
260
100
AcDbEntity
  8
0
100
AcDbLine
 62
7
  6
BYLAYER
 10
35.5289092322
 20
74.26075
 11
25.669620123
 21
74.26075
  0
LINE
  5
261
100
AcDbEntity
  8
0
100
AcDbLine
 62
7
  6
BYLAYER
 10
23.0626486924
 20
74.253819366
 11
25.6689182044
 21
74.2143731755
  0
LINE
  5
262
100
AcDbEntity
  8
0
100
AcDbLine
 62
7
  6
BYLAYER
 10
60.6033723052
 20
74.7130530094
 11
57.3121313131
 21
74.7705018347
  0
LINE
  5
263
100
AcDbEntity
  8
0
100
AcDbLine
 62
7
  6
BYLAYER
 10
61.0052778076
 20
73.3365820679
 11
61.0052778124
 21
21.7159302972
  0
LINE
  5
264
100
AcDbEntity
  8
0
100
AcDbLine
 62
7
  6
BYLAYER
 10
61.0314547609
 20
71.06075
 11
61.0314562341
 21
61.6807650831
  0
LINE
  5
265
100
AcDbEntity
  8
0
100
AcDbLine
 62
7
  6
BYLAYER
 10
61.0314562341
 20
45.6807650831
 11
61.0314547609
 21
24.06075
  0
LINE
  5
266
100
AcDbEntity
  8
0
100
AcDbLine
 62
7
  6
BYLAYER
 10
61.0379076259
 20
24.31075
 11
61.0378866199
 21
45.6807650831
  0
LINE
  5
267
100
AcDbEntity
  8
0
100
AcDbLine
 62
7
  6
BYLAYER
 10
61.0378866199
 20
61.6807650831
 11
61.0379076258
 21
70.81075
  0
LINE
  5
268
100
AcDbEntity
  8
0
100
AcDbLine
 62
7
  6
BYLAYER
 10
61.4436503246
 20
70.81075
 11
61.4436503246
 21
24.31075
  0
LINE
  5
269
100
AcDbEntity
  8
0
100
AcDbLine
 62
7
  6
BYLAYER
 10
61.4502859339
 20
24.06075
 11
61.4502859339
 21
71.06075
  0
LINE
  5
26A
100
AcDbEntity
  8
0
100
AcDbLine
 62
7
  6
BYLAYER
 10
61.484810883
 20
21.4046145096
 11
61.5844278045
 21
73.7125948431
  0
LINE
  5
26B
100
AcDbEntity
  8
0
100
AcDbLine
 62
7
  6
BYLAYER
 10
35.8121313131
 20
10.26075
 11
36.0121313131
 21
10.6071601615
  0
LINE
  5
26C
100
AcDbEntity
  8
0
100
AcDbLine
 62
7
  6
BYLAYER
 10
20.5394517432
 20
21.4046145095
 11
21.0189848138
 21
21.7159302985
  0
LINE
  5
26D
100
AcDbEntity
  8
0
100
AcDbLine
 62
7
  6
BYLAYER
 10
22.0011806367
 20
20.7162353416
 11
21.5231279454
 21
20.4058873031
  0
LINE
  5
26E
100
AcDbEntity
  8
0
100
AcDbLine
 62
7
  6
BYLAYER
 10
24.7121313131
 20
78.4071601615
 11
57.3121313131
 21
78.4071601615
  0
LINE
  5
26F
100
AcDbEntity
  8
0
100
AcDbLine
 62
7
  6
BYLAYER
 10
57.1379643381
 20
79.0571601615
 11
24.8862982882
 21
79.0571601615
  0
LINE
  5
270
100
AcDbEntity
  8
0
100
AcDbLine
 62
7
  6
BYLAYER
 10
57.2678348873
 20
78.7436249201
 11
57.3121313131
 21
78.4071601615
  0
LINE
  5
271
100
AcDbEntity
  8
0
100
AcDbLine
 62
7
  6
BYLAYER
 10
25.5811912055
 20
80.26075
 11
56.4430714208
 21
80.26075
  0
LINE
  5
272
100
AcDbEntity
  8
0
100
AcDbLine
 62
7
  6
BYLAYER
 10
56.0121313131
 20
80.6166724516
 11
26.0121313131
 21
80.6166724516
  0
LINE
  5
273
100
AcDbEntity
  8
0
100
AcDbLine
 62
7
  6
BYLAYER
 10
26.0121313131
 20
80.66075
 11
56.0121313131
 21
80.66075
  0
LINE
  5
274
100
AcDbEntity
  8
0
100
AcDbLine
 62
7
  6
BYLAYER
 10
29.0121313131
 20
81.61075
 11
53.0121313131
 21
81.61075
  0
LINE
  5
275
100
AcDbEntity
  8
0
100
AcDbLine
 62
7
  6
BYLAYER
 10
54.0121313131
 20
82.1881002692
 11
53.9044361585
 21
82.1881002692
  0
LINE
  5
276
100
AcDbEntity
  8
0
100
AcDbLine
 62
7
  6
BYLAYER
 10
48.9044361585
 20
82.1881002692
 11
46.0121313131
 21
82.1881002692
  0
LINE
  5
277
100
AcDbEntity
  8
0
100
AcDbLine
 62
7
  6
BYLAYER
 10
36.0121313131
 20
82.1881002692
 11
33.1198264677
 21
82.1881002692
  0
LINE
  5
278
100
AcDbEntity
  8
0
100
AcDbLine
 62
7
  6
BYLAYER
 10
28.1198264677
 20
82.1881002692
 11
28.0121313131
 21
82.1881002692
  0
LINE
  5
279
100
AcDbEntity
  8
0
100
AcDbLine
 62
7
  6
BYLAYER
 10
56.4430714208
 20
80.26075
 11
57.1379643381
 21
79.0571601615
  0
LINE
  5
27A
100
AcDbEntity
  8
0
100
AcDbLine
 62
7
  6
BYLAYER
 10
57.137964338
 20
79.0571601615
 11
57.2678348873
 21
78.7436249201
  0
LINE
  5
27B
100
AcDbEntity
  8
0
100
AcDbLine
 62
7
  6
BYLAYER
 10
61.5844278045
 20
73.7125948431
 11
61.584529811
 21
73.7119981592
  0
LINE
  5
27C
100
AcDbEntity
  8
0
100
AcDbLine
 62
7
  6
BYLAYER
 10
28.0121313131
 20
86.7447245962
 11
28.1198264677
 21
86.7447245962
  0
LINE
  5
27D
100
AcDbEntity
  8
0
100
AcDbLine
 62
7
  6
BYLAYER
 10
33.1198264677
 20
86.7447245962
 11
36.0121313131
 21
86.7447245962
  0
LINE
  5
27E
100
AcDbEntity
  8
0
100
AcDbLine
 62
7
  6
BYLAYER
 10
46.0121313131
 20
86.7447245962
 11
48.9044361585
 21
86.7447245962
  0
LINE
  5
27F
100
AcDbEntity
  8
0
100
AcDbLine
 62
7
  6
BYLAYER
 10
53.9044361585
 20
86.7447245962
 11
54.0121313131
 21
86.7447245962
  0
LINE
  5
280
100
AcDbEntity
  8
0
100
AcDbLine
 62
7
  6
BYLAYER
 10
56.0121313131
 20
80.6166724516
 11
56.4430714208
 21
80.26075
  0
LINE
  5
281
100
AcDbEntity
  8
0
100
AcDbLine
 62
7
  6
BYLAYER
 10
52.5121313131
 20
87.61075
 11
29.5121313131
 21
87.61075
  0
LINE
  5
282
100
AcDbEntity
  8
0
100
AcDbLine
 62
7
  6
BYLAYER
 10
52.5121313131
 20
87.61075
 11
54.0121313131
 21
86.7447245962
  0
LINE
  5
283
100
AcDbEntity
  8
0
100
AcDbLine
 62
7
  6
BYLAYER
 10
47.0121313131
 20
12.76075
 11
46.0121313131
 21
11.76075
  0
LINE
  5
284
100
AcDbEntity
  8
0
100
AcDbLine
 62
7
  6
BYLAYER
 10
52.0121313131
 20
107.61075
 11
52.5121313131
 21
107.11075
  0
LINE
  5
285
100
AcDbEntity
  8
0
100
AcDbLine
 62
7
  6
BYLAYER
 10
29.5121313131
 20
107.11075
 11
52.5121313131
 21
107.11075
  0
LINE
  5
286
100
AcDbEntity
  8
0
100
AcDbLine
 62
7
  6
BYLAYER
 10
30.0124168601
 20
107.61075
 11
52.0118457662
 21
107.61075
  0
ARC
  5
287
100
AcDbEntity
  8
0
100
AcDbCircle
 62
7
  6
BYLAYER
 10
26.9039218101
 20
863.5435902312
 40
789.3299651551
100
AcDbArc
 50
270.6260886439
 51
271.0241801453
  0
ARC
  5
288
100
AcDbEntity
  8
0
100
AcDbCircle
 62
7
  6
BYLAYER
 10
54.8333094673
 20
843.6312287181
 40
769.4156372409
100
AcDbArc
 50
268.9707700751
 51
269.3792322968
  0
ARC
  5
289
100
AcDbEntity
  8
0
100
AcDbCircle
 62
7
  6
BYLAYER
 10
48.7089486545
 20
-418.3230780425
 40
438.9102797827
100
AcDbArc
 50
90.4917529986
 51
91.0047981637
  0
ARC
  5
28A
100
AcDbEntity
  8
0
100
AcDbCircle
 62
7
  6
BYLAYER
 10
51.8359085748
 20
71.5333885381
 40
9.4096005297
100
AcDbArc
 50
1.7330033534
 51
2.0468996688
  0
ARC
  5
28B
100
AcDbEntity
  8
0
100
AcDbCircle
 62
7
  6
BYLAYER
 10
47.0217602951
 20
77.7702392509
 40
4.5094679514
100
AcDbArc
 50
265.7667964402
 51
269.3570503155
  0
ARC
  5
28C
100
AcDbEntity
  8
0
100
AcDbCircle
 62
7
  6
BYLAYER
 10
35.0042833341
 20
77.7285025281
 40
4.4677132851
100
AcDbArc
 50
270.6242651979
 51
274.2499356808
  0
CIRCLE
  5
28D
100
AcDbEntity
  8
0
100
AcDbCircle
 62
7
  6
BYLAYER
 10
41.0121313131
 20
27.36075
 40
2.5
  0
ARC
  5
28E
100
AcDbEntity
  8
0
100
AcDbCircle
 62
7
  6
BYLAYER
 10
21.5401951664
 20
21.4065277586
 40
1.0007707761
100
AcDbArc
 50
180.1095395288
 51
269.0228320322
  0
ARC
  5
28F
100
AcDbEntity
  8
0
100
AcDbCircle
 62
7
  6
BYLAYER
 10
60.4840677835
 20
21.4065280751
 40
1.000770771
100
AcDbArc
 50
270.9771492881
 51
359.8904423143
  0
ARC
  5
290
100
AcDbEntity
  8
0
100
AcDbCircle
 62
7
  6
BYLAYER
 10
22.0193397125
 20
21.7164129023
 40
1.0003541976
100
AcDbArc
 50
180.0276271142
 51
268.959256254
  0
ARC
  5
291
100
AcDbEntity
  8
0
100
AcDbCircle
 62
7
  6
BYLAYER
 10
60.0049230356
 20
21.7164127752
 40
1.0003540769
100
AcDbArc
 50
271.0407370568
 51
359.9723801613
  0
ARC
  5
292
100
AcDbEntity
  8
0
100
AcDbCircle
 62
7
  6
BYLAYER
 10
60.0049261322
 20
73.3361024504
 40
1.0003510106
100
AcDbArc
 50
0.0274361786
 51
88.9619837277
  0
ARC
  5
293
100
AcDbEntity
  8
0
100
AcDbCircle
 62
7
  6
BYLAYER
 10
22.0193365119
 20
73.3361027079
 40
1.0003508906
100
AcDbArc
 50
91.0380175714
 51
179.9725785673
  0
ARC
  5
294
100
AcDbEntity
  8
0
100
AcDbCircle
 62
7
  6
BYLAYER
 10
34.0121313131
 20
18.56075
 40
1.0
100
AcDbArc
 50
0.0
 51
90.0
  0
ARC
  5
295
100
AcDbEntity
  8
0
100
AcDbCircle
 62
7
  6
BYLAYER
 10
48.0121313131
 20
18.56075
 40
1.0
100
AcDbArc
 50
90.0
 51
180.0
  0
ARC
  5
296
100
AcDbEntity
  8
0
100
AcDbCircle
 62
7
  6
BYLAYER
 10
60.5856989237
 20
73.7143408616
 40
0.9988685112
100
AcDbArc
 50
359.939568726
 51
88.9861901024
  0
ARC
  5
297
100
AcDbEntity
  8
0
100
AcDbCircle
 62
7
  6
BYLAYER
 10
21.4387150032
 20
73.7143756714
 40
0.9988616276
100
AcDbArc
 50
91.0225228675
 51
180.1021482249
  0
ARC
  5
298
100
AcDbEntity
  8
0
100
AcDbCircle
 62
7
  6
BYLAYER
 10
48.706225782
 20
19.86075
 40
0.3
100
AcDbArc
 50
270.0
 51
360.0
  0
ARC
  5
299
100
AcDbEntity
  8
0
100
AcDbCircle
 62
7
  6
BYLAYER
 10
33.3180368442
 20
19.86075
 40
0.3
100
AcDbArc
 50
180.0
 51
270.0
  0
SPLINE
  5
29A
100
AcDbEntity
  8
0
100
AcDbSpline
 62
7
  6
BYLAYER
 70
0
 71
3
 72
21
 73
17
 74
0
 42
0.0000001
 43
0.0000001
 44
0.0000000001
 40
0.0
 40
0.0
 40
0.0
 40
0.0
 40
0.1946459084
 40
0.3821841758
 40
0.5547993149
 40
0.7061001728
 40
0.771955031
 40
0.8303735229
 40
0.8807847014
 40
0.9227557296
 40
0.955866897
 40
0.9797880967
 40
0.9882609628
 40
0.9944019967
 40
0.9982393833
 40
1.0
 40
1.0
 40
1.0
 40
1.0
 10
61.4436046503
 20
70.81075
 30
0.0
 10
61.4436046503
 20
70.8757262178
 30
0.0
 10
61.4432792091
 20
71.0033062205
 30
0.0
 10
61.4418430296
 20
71.1885033753
 30
0.0
 10
61.4395091616
 20
71.3592207148
 30
0.0
 10
61.4368018081
 20
71.48930707
 30
0.0
 10
61.4341773033
 20
71.5812609728
 30
0.0
 10
61.4321485676
 20
71.6395403962
 30
0.0
 10
61.4299911098
 20
71.689830312
 30
0.0
 10
61.4277310107
 20
71.7316750517
 30
0.0
 10
61.4254206106
 20
71.7646121386
 30
0.0
 10
61.4232780074
 20
71.7864486808
 30
0.0
 10
61.4214887917
 20
71.7990971681
 30
0.0
 10
61.4201911416
 20
71.8052866213
 30
0.0
 10
61.4192374071
 20
71.8087737853
 30
0.0
 10
61.4180154267
 20
71.81075
 30
0.0
 10
61.417427702
 20
71.81075
 30
0.0
  0
SPLINE
  5
29B
100
AcDbEntity
  8
0
100
AcDbSpline
 62
7
  6
BYLAYER
 70
0
 71
3
 72
21
 73
17
 74
0
 42
0.0000001
 43
0.0000001
 44
0.0000000001
 40
0.0
 40
0.0
 40
0.0
 40
0.0
 40
0.0017606207
 40
0.0055980212
 40
0.0117390752
 40
0.0202119641
 40
0.0441332039
 40
0.077244414
 40
0.1192155168
 40
0.1696267546
 40
0.2280452675
 40
0.2939001747
 40
0.4452010943
 40
0.6178161756
 40
0.8053542032
 40
1.0
 40
1.0
 40
1.0
 40
1.0
 10
61.417427702
 20
23.31075
 30
0.0
 10
61.418015428
 20
23.31075
 30
0.0
 10
61.4192374073
 20
23.3127262266
 30
0.0
 10
61.4201911424
 20
23.3162133997
 30
0.0
 10
61.421488793
 20
23.3224028741
 30
0.0
 10
61.4232780101
 20
23.335051388
 30
0.0
 10
61.425420617
 20
23.3568879658
 30
0.0
 10
61.4277310214
 20
23.3898251047
 30
0.0
 10
61.4299911196
 20
23.4316699036
 30
0.0
 10
61.4321485775
 20
23.4819598709
 30
0.0
 10
61.4341773146
 20
23.5402393373
 30
0.0
 10
61.4368018155
 20
23.632193284
 30
0.0
 10
61.4395091686
 20
23.7622796565
 30
0.0
 10
61.4418430316
 20
23.9329969168
 30
0.0
 10
61.4432792116
 20
24.1181939345
 30
0.0
 10
61.4436046503
 20
24.2457738196
 30
0.0
 10
61.4436046503
 20
24.31075
 30
0.0
  0
SPLINE
  5
29C
100
AcDbEntity
  8
0
100
AcDbSpline
 62
7
  6
BYLAYER
 70
0
 71
3
 72
16
 73
12
 74
0
 42
0.0000001
 43
0.0000001
 44
0.0000000001
 40
0.0
 40
0.0
 40
0.0
 40
0.0
 40
0.0063832163
 40
0.019881386
 40
0.0706273261
 40
0.1528530065
 40
0.2656120008
 40
0.4078265275
 40
0.578382488
 40
0.7761518186
 40
1.0
 40
1.0
 40
1.0
 40
1.0
 10
61.0576317093
 20
23.06075
 30
0.0
 10
61.0571133327
 20
23.06075
 30
0.0
 10
61.056000345
 20
23.0623887821
 30
0.0
 10
61.0544959454
 20
23.067563857
 30
0.0
 10
61.0524636125
 20
23.0796568962
 30
0.0
 10
61.0504225435
 20
23.0993110932
 30
0.0
 10
61.0482656916
 20
23.1266973823
 30
0.0
 10
61.0461899823
 20
23.1611607367
 30
0.0
 10
61.0441688605
 20
23.2025840467
 30
0.0
 10
61.0422474978
 20
23.2506322267
 30
0.0
 10
61.0411103051
 20
23.2848538364
 30
0.0
 10
61.0405544278
 20
23.303023889
 30
0.0
  0
SPLINE
  5
29D
100
AcDbEntity
  8
0
100
AcDbSpline
 62
7
  6
BYLAYER
 70
0
 71
3
 72
9
 73
5
 74
0
 42
0.0000001
 43
0.0000001
 44
0.0000000001
 40
0.0
 40
0.0
 40
0.0
 40
0.0
 40
0.449960722
 40
1.0
 40
1.0
 40
1.0
 40
1.0
 10
61.0405544278
 20
23.303023889
 30
0.0
 10
61.0370788512
 20
23.4166306147
 30
0.0
 10
61.0328927074
 20
23.6692130279
 30
0.0
 10
61.031454761
 20
23.9218103238
 30
0.0
 10
61.031454761
 20
24.06075
 30
0.0
  0
SPLINE
  5
29E
100
AcDbEntity
  8
0
100
AcDbSpline
 62
7
  6
BYLAYER
 70
0
 71
3
 72
9
 73
5
 74
0
 42
0.0000001
 43
0.0000001
 44
0.0000000001
 40
0.0
 40
0.0
 40
0.0
 40
0.0
 40
0.5613581154
 40
1.0
 40
1.0
 40
1.0
 40
1.0
 10
61.031454761
 20
71.06075
 30
0.0
 10
61.031454761
 20
71.2120321049
 30
0.0
 10
61.0331472181
 20
71.4815189928
 30
0.0
 10
61.037951433
 20
71.7509987853
 30
0.0
 10
61.0422421019
 20
71.8691318259
 30
0.0
  0
SPLINE
  5
29F
100
AcDbEntity
  8
0
100
AcDbSpline
 62
7
  6
BYLAYER
 70
0
 71
3
 72
15
 73
11
 74
0
 42
0.0000001
 43
0.0000001
 44
0.0000000001
 40
0.0
 40
0.0
 40
0.0
 40
0.0
 40
0.4228554959
 40
0.5933119479
 40
0.735145604
 40
0.8473954689
 40
0.9291462685
 40
0.9796471668
 40
0.9932225857
 40
1.0
 40
1.0
 40
1.0
 40
1.0
 10
61.0422421019
 20
71.8691318259
 30
0.0
 10
61.0432292946
 20
71.8963117549
 30
0.0
 10
61.0447940342
 20
71.9344392844
 30
0.0
 10
61.0474385231
 20
71.9816593524
 30
0.0
 10
61.0493106201
 20
72.0088830948
 30
0.0
 10
61.0512360424
 20
72.0304512096
 30
0.0
 10
61.0530618416
 20
72.0459542296
 30
0.0
 10
61.0548522366
 20
72.0553927818
 30
0.0
 10
61.056207555
 20
72.0595304191
 30
0.0
 10
61.0571957894
 20
72.06075
 30
0.0
 10
61.0576317093
 20
72.06075
 30
0.0
  0
SPLINE
  5
2A0
100
AcDbEntity
  8
0
100
AcDbSpline
 62
7
  6
BYLAYER
 70
0
 71
3
 72
17
 73
13
 74
0
 42
0.0000001
 43
0.0000001
 44
0.0000000001
 40
0.0
 40
0.0
 40
0.0
 40
0.0
 40
0.0161839918
 40
0.0351629999
 40
0.0552877108
 40
0.0851006177
 40
0.1298409848
 40
0.1965780368
 40
0.4028806669
 40
0.5394827536
 40
0.6893294
 40
1.0
 40
1.0
 40
1.0
 40
1.0
 10
32.826448178
 20
20.5025384358
 30
0.0
 10
32.8244386381
 20
20.5029008014
 30
0.0
 10
32.8164378337
 20
20.5046439288
 30
0.0
 10
32.8287954613
 20
20.5014109955
 30
0.0
 10
32.8351809591
 20
20.4990622776
 30
0.0
 10
32.8472336536
 20
20.4948162314
 30
0.0
 10
32.8630293066
 20
20.4873643077
 30
0.0
 10
32.8983191962
 20
20.4677832227
 30
0.0
 10
32.9388645889
 20
20.4346702057
 30
0.0
 10
32.9765449668
 20
20.3848135018
 30
0.0
 10
33.0121356293
 20
20.3182241351
 30
0.0
 10
33.0238857164
 20
20.2588361929
 30
0.0
 10
33.0222521573
 20
20.219672636
 30
0.0
  0
SPLINE
  5
2A1
100
AcDbEntity
  8
0
100
AcDbSpline
 62
7
  6
BYLAYER
 70
0
 71
3
 72
10
 73
6
 74
0
 42
0.0000001
 43
0.0000001
 44
0.0000000001
 40
0.0
 40
0.0
 40
0.0
 40
0.0
 40
0.244434715
 40
0.4914491423
 40
1.0
 40
1.0
 40
1.0
 40
1.0
 10
30.6198264677
 20
81.61075
 30
0.0
 10
30.4094244396
 20
81.61075
 30
0.0
 10
29.9859445521
 20
81.637062029
 30
0.0
 10
29.1375873259
 20
81.7911204912
 30
0.0
 10
28.5198919315
 20
82.010424959
 30
0.0
 10
28.1198264677
 20
82.1881002692
 30
0.0
  0
SPLINE
  5
2A2
100
AcDbEntity
  8
0
100
AcDbSpline
 62
7
  6
BYLAYER
 70
0
 71
3
 72
9
 73
5
 74
0
 42
0.0000001
 43
0.0000001
 44
0.0000000001
 40
0.0
 40
0.0
 40
0.0
 40
0.0
 40
0.4999721703
 40
1.0
 40
1.0
 40
1.0
 40
1.0
 10
41.0121313131
 20
81.61075
 30
0.0
 10
40.1720394026
 20
81.61075
 30
0.0
 10
38.4904085752
 20
81.7154440238
 30
0.0
 10
36.8323380109
 20
82.0059669778
 30
0.0
 10
36.0121313131
 20
82.1881002692
 30
0.0
  0
SPLINE
  5
2A3
100
AcDbEntity
  8
0
100
AcDbSpline
 62
7
  6
BYLAYER
 70
0
 71
3
 72
9
 73
5
 74
0
 42
0.0000001
 43
0.0000001
 44
0.0000000001
 40
0.0
 40
0.0
 40
0.0
 40
0.0
 40
0.2531729928
 40
1.0
 40
1.0
 40
1.0
 40
1.0
 10
33.1198264677
 20
82.1881002692
 30
0.0
 10
33.0494266555
 20
82.1568346149
 30
0.0
 10
32.7697235326
 20
82.037088541
 30
0.0
 10
32.483095752
 20
81.9332077609
 30
0.0
 10
32.2657628246
 20
81.8668783172
 30
0.0
  0
SPLINE
  5
2A4
100
AcDbEntity
  8
0
100
AcDbSpline
 62
7
  6
BYLAYER
 70
0
 71
3
 72
9
 73
5
 74
0
 42
0.0000001
 43
0.0000001
 44
0.0000000001
 40
0.0
 40
0.0
 40
0.0
 40
0.0
 40
0.5043128433
 40
1.0
 40
1.0
 40
1.0
 40
1.0
 10
32.2657628246
 20
81.8668783172
 30
0.0
 10
31.9971929425
 20
81.7849114884
 30
0.0
 10
31.4534414101
 20
81.6561018227
 30
0.0
 10
30.8958231887
 20
81.61075
 30
0.0
 10
30.6198264677
 20
81.61075
 30
0.0
  0
SPLINE
  5
2A5
100
AcDbEntity
  8
0
100
AcDbSpline
 62
7
  6
BYLAYER
 70
0
 71
3
 72
9
 73
5
 74
0
 42
0.0000001
 43
0.0000001
 44
0.0000000001
 40
0.0
 40
0.0
 40
0.0
 40
0.0
 40
0.4956833663
 40
1.0
 40
1.0
 40
1.0
 40
1.0
 10
51.4044361585
 20
81.61075
 30
0.0
 10
51.1281878888
 20
81.61075
 30
0.0
 10
50.5700700361
 20
81.6564209419
 30
0.0
 10
50.0258528513
 20
81.785426672
 30
0.0
 10
49.7570384056
 20
81.8674835132
 30
0.0
  0
SPLINE
  5
2A6
100
AcDbEntity
  8
0
100
AcDbSpline
 62
7
  6
BYLAYER
 70
0
 71
3
 72
9
 73
5
 74
0
 42
0.0000001
 43
0.0000001
 44
0.0000000001
 40
0.0
 40
0.0
 40
0.0
 40
0.0
 40
0.2470094921
 40
1.0
 40
1.0
 40
1.0
 40
1.0
 10
49.7570384056
 20
81.8674835132
 30
0.0
 10
49.6852805384
 20
81.8893879309
 30
0.0
 10
49.3962871117
 20
81.9829981529
 30
0.0
 10
49.1134624546
 20
82.095268432
 30
0.0
 10
48.9044361585
 20
82.1881002692
 30
0.0
  0
SPLINE
  5
2A7
100
AcDbEntity
  8
0
100
AcDbSpline
 62
7
  6
BYLAYER
 70
0
 71
3
 72
9
 73
5
 74
0
 42
0.0000001
 43
0.0000001
 44
0.0000000001
 40
0.0
 40
0.0
 40
0.0
 40
0.0
 40
0.500028196
 40
1.0
 40
1.0
 40
1.0
 40
1.0
 10
46.0121313131
 20
82.1881002692
 30
0.0
 10
45.1919192228
 20
82.0059657803
 30
0.0
 10
43.533914812
 20
81.7149123816
 30
0.0
 10
41.8522275158
 20
81.61075
 30
0.0
 10
41.0121313131
 20
81.61075
 30
0.0
  0
SPLINE
  5
2A8
100
AcDbEntity
  8
0
100
AcDbSpline
 62
7
  6
BYLAYER
 70
0
 71
3
 72
10
 73
6
 74
0
 42
0.0000001
 43
0.0000001
 44
0.0000000001
 40
0.0
 40
0.0
 40
0.0
 40
0.0
 40
0.5085633139
 40
0.7555702933
 40
1.0
 40
1.0
 40
1.0
 40
1.0
 10
53.9044361585
 20
82.1881002692
 30
0.0
 10
53.5043539999
 20
82.0104175446
 30
0.0
 10
52.8867301641
 20
81.7908543044
 30
0.0
 10
52.0383173073
 20
81.6369173756
 30
0.0
 10
51.6148375022
 20
81.61075
 30
0.0
 10
51.4044361585
 20
81.61075
 30
0.0
  0
SPLINE
  5
2A9
100
AcDbEntity
  8
0
100
AcDbSpline
 62
7
  6
BYLAYER
 70
0
 71
3
 72
9
 73
5
 74
0
 42
0.0000001
 43
0.0000001
 44
0.0000000001
 40
0.0
 40
0.0
 40
0.0
 40
0.0
 40
0.4999716689
 40
1.0
 40
1.0
 40
1.0
 40
1.0
 10
41.0121313131
 20
87.3220748271
 30
0.0
 10
41.8522315413
 20
87.3220748271
 30
0.0
 10
43.5339676792
 20
87.2183723337
 30
0.0
 10
45.1919148495
 20
86.9268600562
 30
0.0
 10
46.0121313131
 20
86.7447245962
 30
0.0
  0
SPLINE
  5
2AA
100
AcDbEntity
  8
0
100
AcDbSpline
 62
7
  6
BYLAYER
 70
0
 71
3
 72
13
 73
9
 74
0
 42
0.0000001
 43
0.0000001
 44
0.0000000001
 40
0.0
 40
0.0
 40
0.0
 40
0.0
 40
0.2542846119
 40
0.3777826447
 40
0.4999998149
 40
0.6222164404
 40
0.7457156587
 40
1.0
 40
1.0
 40
1.0
 40
1.0
 10
48.9044361585
 20
86.7447245962
 30
0.0
 10
49.304530071
 20
86.9224125409
 30
0.0
 10
49.9220316301
 20
87.1422130051
 30
0.0
 10
50.7705960907
 20
87.2961236032
 30
0.0
 10
51.4044345886
 20
87.3348393855
 30
0.0
 10
52.0382840856
 20
87.2961836121
 30
0.0
 10
52.8868308053
 20
87.1421678784
 30
0.0
 10
53.5043426718
 20
86.9224123518
 30
0.0
 10
53.9044361585
 20
86.7447245962
 30
0.0
  0
SPLINE
  5
2AB
100
AcDbEntity
  8
0
100
AcDbSpline
 62
7
  6
BYLAYER
 70
0
 71
3
 72
13
 73
9
 74
0
 42
0.0000001
 43
0.0000001
 44
0.0000000001
 40
0.0
 40
0.0
 40
0.0
 40
0.0
 40
0.2542846119
 40
0.3777826447
 40
0.4999998149
 40
0.6222164404
 40
0.7457156587
 40
1.0
 40
1.0
 40
1.0
 40
1.0
 10
28.1198264677
 20
86.7447245962
 30
0.0
 10
28.5199203802
 20
86.9224125409
 30
0.0
 10
29.1374219393
 20
87.1422130051
 30
0.0
 10
29.9859863998
 20
87.2961236032
 30
0.0
 10
30.6198248977
 20
87.3348393855
 30
0.0
 10
31.2536743948
 20
87.2961836121
 30
0.0
 10
32.1022211144
 20
87.1421678784
 30
0.0
 10
32.719732981
 20
86.9224123518
 30
0.0
 10
33.1198264677
 20
86.7447245962
 30
0.0
  0
SPLINE
  5
2AC
100
AcDbEntity
  8
0
100
AcDbSpline
 62
7
  6
BYLAYER
 70
0
 71
3
 72
9
 73
5
 74
0
 42
0.0000001
 43
0.0000001
 44
0.0000000001
 40
0.0
 40
0.0
 40
0.0
 40
0.0
 40
0.5000284294
 40
1.0
 40
1.0
 40
1.0
 40
1.0
 10
36.0121313131
 20
86.7447245962
 30
0.0
 10
36.832347777
 20
86.9268600563
 30
0.0
 10
38.4902971717
 20
87.2183545259
 30
0.0
 10
40.1720314152
 20
87.3220748271
 30
0.0
 10
41.0121313131
 20
87.3220748271
 30
0.0
  0
SPLINE
  5
2AD
100
AcDbEntity
  8
0
100
AcDbSpline
 62
7
  6
BYLAYER
 70
0
 71
3
 72
16
 73
12
 74
0
 42
0.0000001
 43
0.0000001
 44
0.0000000001
 40
0.0
 40
0.0
 40
0.0
 40
0.0
 40
0.2310035515
 40
0.432670729
 40
0.6040651552
 40
0.7445377717
 40
0.8538915136
 40
0.9320720445
 40
0.9796642782
 40
0.9926624969
 40
1.0
 40
1.0
 40
1.0
 40
1.0
 10
25.669620123
 20
74.26075
 30
0.0
 10
25.5952692645
 20
74.2630718404
 30
0.0
 10
25.4560203604
 20
74.2678324794
 30
0.0
 10
25.2616780905
 20
74.2760571989
 30
0.0
 10
25.0965255117
 20
74.2848831674
 30
0.0
 10
24.9612467507
 20
74.294232687
 30
0.0
 10
24.8559488422
 20
74.3041146202
 30
0.0
 10
24.7811389281
 20
74.3140664698
 30
0.0
 10
24.7369248117
 20
74.3238011497
 30
0.0
 10
24.7170179291
 20
74.3320888269
 30
0.0
 10
24.7121120494
 20
74.3377935563
 30
0.0
 10
24.7121120494
 20
74.3401563581
 30
0.0
  0
LINE
  5
2AE
100
AcDbEntity
  8
0
100
AcDbLine
 62
7
  6
BYLAYER
 10
25.6270968635
 20
74.213113392
 11
25.8369619071
 21
74.2118298146
  0
SPLINE
  5
2AF
100
AcDbEntity
  8
0
100
AcDbSpline
 62
7
  6
BYLAYER
 70
0
 71
3
 72
10
 73
6
 74
0
 42
0.0000001
 43
0.0000001
 44
0.0000000001
 40
0.0
 40
0.0
 40
0.0
 40
0.0
 40
0.2057481118
 40
0.4449435076
 40
1.0
 40
1.0
 40
1.0
 40
1.0
 10
25.8369619071
 20
74.2118298146
 30
0.0
 10
26.4882606205
 20
74.2081403409
 30
0.0
 10
27.8967674483
 20
74.2056720657
 30
0.0
 10
31.0623229588
 20
74.216106218
 30
0.0
 10
33.5764960561
 20
74.2397311617
 30
0.0
 10
35.3334381207
 20
74.2607499952
 30
0.0
  0
SPLINE
  5
2B0
100
AcDbEntity
  8
0
100
AcDbSpline
 62
7
  6
BYLAYER
 70
0
 71
3
 72
10
 73
6
 74
0
 42
0.0000001
 43
0.0000001
 44
0.0000000001
 40
0.0
 40
0.0
 40
0.0
 40
0.0
 40
0.5550576995
 40
0.7942528673
 40
1.0
 40
1.0
 40
1.0
 40
1.0
 10
46.6908254656
 20
74.2607499952
 30
0.0
 10
48.4477882145
 20
74.2397309484
 30
0.0
 10
50.961988543
 20
74.2161057754
 30
0.0
 10
54.1275744378
 20
74.2056719648
 30
0.0
 10
55.536090963
 20
74.2081406108
 30
0.0
 10
56.1873928265
 20
74.2118303555
 30
0.0
  0
LINE
  5
2B1
100
AcDbEntity
  8
0
100
AcDbLine
 62
7
  6
BYLAYER
 10
56.1873928265
 20
74.2118303555
 11
56.3971445028
 21
74.2131132718
  0
SPLINE
  5
2B2
100
AcDbEntity
  8
0
100
AcDbSpline
 62
7
  6
BYLAYER
 70
0
 71
3
 72
16
 73
12
 74
0
 42
0.0000001
 43
0.0000001
 44
0.0000000001
 40
0.0
 40
0.0
 40
0.0
 40
0.0
 40
0.0073375046
 40
0.0203357869
 40
0.0679282683
 40
0.1461091037
 40
0.2554630965
 40
0.3959358235
 40
0.5673301424
 40
0.7689969816
 40
1.0
 40
1.0
 40
1.0
 40
1.0
 10
57.3121493422
 20
74.3401559988
 30
0.0
 10
57.3121493422
 20
74.3377931998
 30
0.0
 10
57.3072434058
 20
74.3320884853
 30
0.0
 10
57.287336446
 20
74.3238008703
 30
0.0
 10
57.2431221665
 20
74.3140662241
 30
0.0
 10
57.168312098
 20
74.3041144324
 30
0.0
 10
57.0630141125
 20
74.2942325432
 30
0.0
 10
56.9277354544
 20
74.28488307
 30
0.0
 10
56.7625832089
 20
74.2760571396
 30
0.0
 10
56.5682415205
 20
74.2678324536
 30
0.0
 10
56.428993088
 20
74.2630718318
 30
0.0
 10
56.3546425032
 20
74.26075
 30
0.0
  0
SPLINE
  5
2B3
100
AcDbEntity
  8
0
100
AcDbSpline
 62
7
  6
BYLAYER
 70
0
 71
3
 72
18
 73
14
 74
0
 42
0.0000001
 43
0.0000001
 44
0.0000000001
 40
0.0
 40
0.0
 40
0.0
 40
0.0
 40
0.1924092877
 40
0.3787101662
 40
0.5505204015
 40
0.7016399766
 40
0.8265413315
 40
0.8776048137
 40
0.9202757517
 40
0.9540295587
 40
0.978650957
 40
0.994007694
 40
1.0
 40
1.0
 40
1.0
 40
1.0
 10
41.0121686958
 20
20.2182488104
 30
0.0
 10
41.0122511975
 20
20.237773019
 30
0.0
 10
41.0124379709
 20
20.2762015503
 30
0.0
 10
41.0127019571
 20
20.3320637454
 30
0.0
 10
41.0128607474
 20
20.3837375899
 30
0.0
 10
41.0129452041
 20
20.4291779036
 30
0.0
 10
41.0130243318
 20
20.4623741857
 30
0.0
 10
41.012998939
 20
20.4845501845
 30
0.0
 10
41.0129878972
 20
20.4975079657
 30
0.0
 10
41.0127927513
 20
20.5077049529
 30
0.0
 10
41.0128685023
 20
20.5153163388
 30
0.0
 10
41.0122754966
 20
20.519735725
 30
0.0
 10
41.0125642608
 20
20.5221724732
 30
0.0
 10
41.0121736646
 20
20.5226384877
 30
0.0
  0
SPLINE
  5
2B4
100
AcDbEntity
  8
0
100
AcDbSpline
 62
7
  6
BYLAYER
 70
0
 71
3
 72
9
 73
5
 74
0
 42
0.0000001
 43
0.0000001
 44
0.0000000001
 40
0.0
 40
0.0
 40
0.0
 40
0.0
 40
0.5613581154
 40
1.0
 40
1.0
 40
1.0
 40
1.0
 10
61.4502859339
 20
24.06075
 30
0.0
 10
61.4502859339
 20
23.9094678951
 30
0.0
 10
61.4485934767
 20
23.6399810072
 30
0.0
 10
61.4437892618
 20
23.3705012147
 30
0.0
 10
61.4394985929
 20
23.2523681741
 30
0.0
  0
SPLINE
  5
2B5
100
AcDbEntity
  8
0
100
AcDbSpline
 62
7
  6
BYLAYER
 70
0
 71
3
 72
15
 73
11
 74
0
 42
0.0000001
 43
0.0000001
 44
0.0000000001
 40
0.0
 40
0.0
 40
0.0
 40
0.0
 40
0.4228554959
 40
0.5933119479
 40
0.735145604
 40
0.8473954689
 40
0.9291462685
 40
0.9796471668
 40
0.9932225857
 40
1.0
 40
1.0
 40
1.0
 40
1.0
 10
61.4394985929
 20
23.2523681741
 30
0.0
 10
61.4385114002
 20
23.2251882451
 30
0.0
 10
61.4369466606
 20
23.1870607156
 30
0.0
 10
61.4343021718
 20
23.1398406476
 30
0.0
 10
61.4324300747
 20
23.1126169052
 30
0.0
 10
61.4305046524
 20
23.0910487904
 30
0.0
 10
61.4286788532
 20
23.0755457704
 30
0.0
 10
61.4268884583
 20
23.0661072182
 30
0.0
 10
61.4255331399
 20
23.0619695809
 30
0.0
 10
61.4245449054
 20
23.06075
 30
0.0
 10
61.4241089856
 20
23.06075
 30
0.0
  0
SPLINE
  5
2B6
100
AcDbEntity
  8
0
100
AcDbSpline
 62
7
  6
BYLAYER
 70
0
 71
3
 72
16
 73
12
 74
0
 42
0.0000001
 43
0.0000001
 44
0.0000000001
 40
0.0
 40
0.0
 40
0.0
 40
0.0
 40
0.0063832441
 40
0.0198814174
 40
0.0706273345
 40
0.1528529744
 40
0.2656119265
 40
0.4078264228
 40
0.5783823772
 40
0.7761517385
 40
1.0
 40
1.0
 40
1.0
 40
1.0
 10
61.4241089856
 20
72.06075
 30
0.0
 10
61.4246273549
 20
72.06075
 30
0.0
 10
61.4257403329
 20
72.0591112554
 30
0.0
 10
61.4272447196
 20
72.0539362704
 30
0.0
 10
61.429277033
 20
72.0418434655
 30
0.0
 10
61.431318084
 20
72.022189632
 30
0.0
 10
61.4334749172
 20
71.9948038529
 30
0.0
 10
61.43555061
 20
71.9603411314
 30
0.0
 10
61.4375717176
 20
71.9189185756
 30
0.0
 10
61.4394930688
 20
71.8708712606
 30
0.0
 10
61.4406302564
 20
71.8366502641
 30
0.0
 10
61.4411861317
 20
71.8184805352
 30
0.0
  0
SPLINE
  5
2B7
100
AcDbEntity
  8
0
100
AcDbSpline
 62
7
  6
BYLAYER
 70
0
 71
3
 72
9
 73
5
 74
0
 42
0.0000001
 43
0.0000001
 44
0.0000000001
 40
0.0
 40
0.0
 40
0.0
 40
0.0
 40
0.4499598395
 40
1.0
 40
1.0
 40
1.0
 40
1.0
 10
61.4411861317
 20
71.8184805352
 30
0.0
 10
61.4446617709
 20
71.7048733703
 30
0.0
 10
61.4488479673
 20
71.4522894817
 30
0.0
 10
61.4502859339
 20
71.1996907106
 30
0.0
 10
61.4502859339
 20
71.06075
 30
0.0
  0
SPLINE
  5
2B8
100
AcDbEntity
  8
0
100
AcDbSpline
 62
7
  6
BYLAYER
 70
0
 71
3
 72
28
 73
24
 74
0
 42
0.0000001
 43
0.0000001
 44
0.0000000001
 40
0.0
 40
0.0
 40
0.0
 40
0.0
 40
0.1918497343
 40
0.3765808199
 40
0.4641232722
 40
0.5473440234
 40
0.6254694252
 40
0.6977735161
 40
0.763578728
 40
0.8222758744
 40
0.8733168543
 40
0.8958134293
 40
0.9162234773
 40
0.9345037528
 40
0.9506114584
 40
0.9645075516
 40
0.9761578733
 40
0.9855296969
 40
0.9926065755
 40
0.995290341
 40
0.9974100307
 40
0.9989737174
 40
1.0
 40
1.0
 40
1.0
 40
1.0
 10
41.0121121392
 20
20.7069906728
 30
0.0
 10
39.7961241454
 20
20.7282377856
 30
0.0
 10
37.409198236
 20
20.7660700103
 30
0.0
 10
34.4672472002
 20
20.8025160411
 30
0.0
 10
32.2137972652
 20
20.8237926101
 30
0.0
 10
30.6360836206
 20
20.8353128871
 30
0.0
 10
29.1549445896
 20
20.8425974832
 30
0.0
 10
27.7841911286
 20
20.8455889505
 30
0.0
 10
26.5365938374
 20
20.8442745393
 30
0.0
 10
25.423800614
 20
20.8386880601
 30
0.0
 10
24.585575085
 20
20.8302605538
 30
0.0
 10
23.9900923824
 20
20.8210516073
 30
0.0
 10
23.6022901987
 20
20.8134145079
 30
0.0
 10
23.2550200772
 20
20.8047873609
 30
0.0
 10
22.9490844505
 20
20.795202117
 30
0.0
 10
22.6852378647
 20
20.7846893191
 30
0.0
 10
22.4641633618
 20
20.7733346366
 30
0.0
 10
22.286457011
 20
20.7611503342
 30
0.0
 10
22.1656596036
 20
20.7497315913
 30
0.0
 10
22.0910473321
 20
20.7395458267
 30
0.0
 10
22.0512460734
 20
20.7325226748
 30
0.0
 10
22.0223108383
 20
20.7253889456
 30
0.0
 10
22.0067080875
 20
20.7196664991
 30
0.0
 10
22.0011806367
 20
20.7162353416
 30
0.0
  0
SPLINE
  5
2B9
100
AcDbEntity
  8
0
100
AcDbSpline
 62
7
  6
BYLAYER
 70
0
 71
3
 72
29
 73
25
 74
0
 42
0.0000001
 43
0.0000001
 44
0.0000000001
 40
0.0
 40
0.0
 40
0.0
 40
0.0
 40
0.1919045991
 40
0.3766646417
 40
0.4642140552
 40
0.5474377715
 40
0.6255626729
 40
0.697863541
 40
0.7636634025
 40
0.8223529471
 40
0.8733856585
 40
0.8958791066
 40
0.9162860081
 40
0.9345614459
 40
0.9506609942
 40
0.9645473561
 40
0.9761925872
 40
0.985570198
 40
0.9894018397
 40
0.9926606048
 40
0.9953464542
 40
0.9974605556
 40
0.9990070712
 40
1.0
 40
1.0
 40
1.0
 40
1.0
 10
41.0120313903
 20
21.7069899637
 30
0.0
 10
42.2911706955
 20
21.727317547
 30
0.0
 10
44.8018961378
 20
21.7629469137
 30
0.0
 10
47.8963144517
 20
21.7976768612
 30
0.0
 10
50.2663339734
 20
21.8178519695
 30
0.0
 10
51.9255372659
 20
21.8287976296
 30
0.0
 10
53.4831095716
 20
21.8357208393
 30
0.0
 10
54.9245414382
 20
21.8385698083
 30
0.0
 10
56.2364136013
 20
21.8373351681
 30
0.0
 10
57.4064940015
 20
21.8320459007
 30
0.0
 10
58.2878572591
 20
21.824057694
 30
0.0
 10
58.9139871589
 20
21.8153324861
 30
0.0
 10
59.321742542
 20
21.8080956235
 30
0.0
 10
59.686847258
 20
21.7999180729
 30
0.0
 10
60.0084470194
 20
21.7908187182
 30
0.0
 10
60.2857994607
 20
21.7808435539
 30
0.0
 10
60.5182682087
 20
21.7700398836
 30
0.0
 10
60.6836608808
 20
21.7598999276
 30
0.0
 10
60.7930841222
 20
21.7510285004
 30
0.0
 10
60.8579542867
 20
21.7446552264
 30
0.0
 10
60.9112654707
 20
21.7381086242
 30
0.0
 10
60.9531099487
 20
21.7314790404
 30
0.0
 10
60.983311715
 20
21.7247070074
 30
0.0
 10
60.9995754059
 20
21.7192911089
 30
0.0
 10
61.00527781
 20
21.7159301013
 30
0.0
  0
SPLINE
  5
2BA
100
AcDbEntity
  8
0
100
AcDbSpline
 62
7
  6
BYLAYER
 70
0
 71
3
 72
29
 73
25
 74
0
 42
0.0000001
 43
0.0000001
 44
0.0000000001
 40
0.0
 40
0.0
 40
0.0
 40
0.0
 40
0.0009929292
 40
0.0025394441
 40
0.0046535432
 40
0.0073393889
 40
0.0105981486
 40
0.0144297834
 40
0.0238073756
 40
0.0354525825
 40
0.0493389146
 40
0.0654384278
 40
0.0837138264
 40
0.1041206848
 40
0.1266140863
 40
0.177646699
 40
0.2363361418
 40
0.3021359073
 40
0.3744366935
 40
0.4525615367
 40
0.5357852283
 40
0.6233346599
 40
0.8080949154
 40
1.0
 40
1.0
 40
1.0
 40
1.0
 10
21.0189848162
 20
21.715930922
 30
0.0
 10
21.0246871805
 20
21.7192918728
 30
0.0
 10
21.0409507137
 20
21.7247076818
 30
0.0
 10
21.0711521719
 20
21.7314796051
 30
0.0
 10
21.1129961911
 20
21.7381090806
 30
0.0
 10
21.1663067711
 20
21.7446555751
 30
0.0
 10
21.2311761829
 20
21.7510287432
 30
0.0
 10
21.3405981288
 20
21.7599000208
 30
0.0
 10
21.5059888195
 20
21.7700398024
 30
0.0
 10
21.7384547627
 20
21.7808432836
 30
0.0
 10
22.0158038394
 20
21.7908182704
 30
0.0
 10
22.3373996929
 20
21.7999174612
 30
0.0
 10
22.7024999769
 20
21.8080948605
 30
0.0
 10
23.1102504243
 20
21.815331586
 30
0.0
 10
23.736372808
 20
21.8240566239
 30
0.0
 10
24.6177256058
 20
21.8320446624
 30
0.0
 10
25.7877923301
 20
21.837333799
 30
0.0
 10
27.099649512
 20
21.8385683723
 30
0.0
 10
28.5410653917
 20
21.8357194025
 30
0.0
 10
30.098621025
 20
21.8287962579
 30
0.0
 10
31.757807295
 20
21.8178507228
 30
0.0
 10
34.1278044948
 20
21.7976758809
 30
0.0
 10
37.2221966435
 20
21.7629462953
 30
0.0
 10
39.7329016428
 20
21.7273176324
 30
0.0
 10
41.0120313903
 20
21.7069899637
 30
0.0
  0
SPLINE
  5
2BB
100
AcDbEntity
  8
0
100
AcDbSpline
 62
7
  6
BYLAYER
 70
0
 71
3
 72
9
 73
5
 74
0
 42
0.0000001
 43
0.0000001
 44
0.0000000001
 40
0.0
 40
0.0
 40
0.0
 40
0.0
 40
0.2519049082
 40
1.0
 40
1.0
 40
1.0
 40
1.0
 10
41.012131128
 20
73.3856705374
 30
0.0
 10
40.5354375896
 20
73.3776189531
 30
0.0
 10
38.6431385067
 20
73.3423502304
 30
0.0
 10
36.7509907166
 20
73.2995394414
 30
0.0
 10
35.3353743893
 20
73.2730852643
 30
0.0
  0
SPLINE
  5
2BC
100
AcDbEntity
  8
0
100
AcDbSpline
 62
7
  6
BYLAYER
 70
0
 71
3
 72
9
 73
5
 74
0
 42
0.0000001
 43
0.0000001
 44
0.0000000001
 40
0.0
 40
0.0
 40
0.0
 40
0.0
 40
0.245199426
 40
1.0
 40
1.0
 40
1.0
 40
1.0
 10
46.6888879383
 20
73.2730850359
 30
0.0
 10
46.2248985777
 20
73.2817563836
 30
0.0
 10
44.3326546717
 20
73.319688286
 30
0.0
 10
42.4404816384
 20
73.3615447721
 30
0.0
 10
41.0121314937
 20
73.3856702875
 30
0.0
  0
SPLINE
  5
2BD
100
AcDbEntity
  8
0
100
AcDbSpline
 62
7
  6
BYLAYER
 70
0
 71
3
 72
28
 73
24
 74
0
 42
0.0000001
 43
0.0000001
 44
0.0000000001
 40
0.0
 40
0.0
 40
0.0
 40
0.0
 40
0.1947833473
 40
0.3820635515
 40
0.4706265266
 40
0.5546747438
 40
0.6333853265
 40
0.7060138858
 40
0.7718566539
 40
0.8302946776
 40
0.8807560071
 40
0.9028475799
 40
0.9227730055
 40
0.9404806948
 40
0.9559334882
 40
0.9690984702
 40
0.9799434828
 40
0.9884413854
 40
0.9945844177
 40
0.9967757482
 40
0.9983865615
 40
0.9994348182
 40
1.0
 40
1.0
 40
1.0
 40
1.0
 10
40.9993928964
 20
20.2189792631
 30
0.0
 10
40.4809673974
 20
20.2282942907
 30
0.0
 10
39.4640496595
 20
20.2445233926
 30
0.0
 10
38.2113552726
 20
20.2608409541
 30
0.0
 10
37.2533769697
 20
20.2702139283
 30
0.0
 10
36.5843818586
 20
20.2752286125
 30
0.0
 10
35.9577927115
 20
20.2783568174
 30
0.0
 10
35.3796593705
 20
20.2795698007
 30
0.0
 10
34.8554899528
 20
20.2788448388
 30
0.0
 10
34.3903360474
 20
20.276211978
 30
0.0
 10
34.0416596499
 20
20.272323963
 30
0.0
 10
33.7955198655
 20
20.2681000768
 30
0.0
 10
33.6365712611
 20
20.2646172926
 30
0.0
 10
33.495311823
 20
20.2606870523
 30
0.0
 10
33.3720683861
 20
20.2563310594
 30
0.0
 10
33.2671290077
 20
20.2515762244
 30
0.0
 10
33.1807289035
 20
20.2464600882
 30
0.0
 10
33.1131275383
 20
20.2410321081
 30
0.0
 10
33.0685346939
 20
20.2358928462
 30
0.0
 10
33.0425202325
 20
20.2313463305
 30
0.0
 10
33.0298653576
 20
20.2280898753
 30
0.0
 10
33.0220358166
 20
20.2252947488
 30
0.0
 10
33.0182527921
 20
20.2221324131
 30
0.0
 10
33.0180588908
 20
20.2206404585
 30
0.0
  0
SPLINE
  5
2BE
100
AcDbEntity
  8
0
100
AcDbSpline
 62
7
  6
BYLAYER
 70
0
 71
3
 72
14
 73
10
 74
0
 42
0.0000001
 43
0.0000001
 44
0.0000000001
 40
0.0
 40
0.0
 40
0.0
 40
0.0
 40
0.1637921164
 40
0.2803030752
 40
0.3558881672
 40
0.4130204086
 40
0.4920665875
 40
0.6131669062
 40
1.0
 40
1.0
 40
1.0
 40
1.0
 10
32.7356665802
 20
20.5116221513
 30
0.0
 10
32.7335785994
 20
20.5123254529
 30
0.0
 10
32.7300071188
 20
20.5136565837
 30
0.0
 10
32.7258691575
 20
20.5159033341
 30
0.0
 10
32.7231806123
 20
20.5183322552
 30
0.0
 10
32.7234133355
 20
20.5215264736
 30
0.0
 10
32.7263430107
 20
20.5237658651
 30
0.0
 10
32.7333808586
 20
20.5271303447
 30
0.0
 10
32.7401492171
 20
20.528743106
 30
0.0
 10
32.7452289759
 20
20.5298710442
 30
0.0
  0
SPLINE
  5
2BF
100
AcDbEntity
  8
0
100
AcDbSpline
 62
7
  6
BYLAYER
 70
0
 71
3
 72
21
 73
17
 74
0
 42
0.0000001
 43
0.0000001
 44
0.0000000001
 40
0.0
 40
0.0
 40
0.0
 40
0.0
 40
0.0036639447
 40
0.0090908669
 40
0.0163329304
 40
0.0254085333
 40
0.0490824668
 40
0.0801260683
 40
0.1185161842
 40
0.1641877814
 40
0.2170637532
 40
0.2770650912
 40
0.4180762368
 40
0.5863429625
 40
0.7808200816
 40
1.0
 40
1.0
 40
1.0
 40
1.0
 10
21.0189848162
 20
73.3365821314
 30
0.0
 10
21.023532828
 20
73.3338345527
 30
0.0
 10
21.0359955804
 20
73.3291360095
 30
0.0
 10
21.0589123499
 20
73.323256879
 30
0.0
 10
21.0899435234
 20
73.3174514946
 30
0.0
 10
21.1473273453
 20
73.3090549325
 30
0.0
 10
21.2393870419
 20
73.2995216783
 30
0.0
 10
21.374017638
 20
73.2891823652
 30
0.0
 10
21.5406660609
 20
73.2793625944
 30
0.0
 10
21.7390407265
 20
73.2700735174
 30
0.0
 10
21.9688099432
 20
73.2613770143
 30
0.0
 10
22.3368304366
 20
73.2499959644
 30
0.0
 10
22.8722408025
 20
73.2379839797
 30
0.0
 10
23.6027152854
 20
73.2268270563
 30
0.0
 10
24.446595186
 20
73.2184633973
 30
0.0
 10
25.0464803151
 20
73.2149329164
 30
0.0
 10
25.3643366198
 20
73.2135446951
 30
0.0
  0
SPLINE
  5
2C0
100
AcDbEntity
  8
0
100
AcDbSpline
 62
7
  6
BYLAYER
 70
0
 71
3
 72
16
 73
12
 74
0
 42
0.0000001
 43
0.0000001
 44
0.0000000001
 40
0.0
 40
0.0
 40
0.0
 40
0.0
 40
0.1658758287
 40
0.3355618808
 40
0.5003042457
 40
0.6502287349
 40
0.7766348398
 40
0.8756044929
 40
0.9145751227
 40
0.947448265
 40
1.0
 40
1.0
 40
1.0
 40
1.0
 10
35.0529783128
 20
73.2610538262
 30
0.0
 10
35.0523231558
 20
73.3210501878
 30
0.0
 10
35.054278592
 20
73.4424773704
 30
0.0
 10
35.0672009886
 20
73.6230999828
 30
0.0
 10
35.0913963463
 20
73.7967454834
 30
0.0
 10
35.1253873406
 20
73.9528995075
 30
0.0
 10
35.1687371646
 20
74.0817842334
 30
0.0
 10
35.212175424
 20
74.1677920822
 30
0.0
 10
35.2509299946
 20
74.216315864
 30
0.0
 10
35.2845092845
 20
74.2462978673
 30
0.0
 10
35.3145618031
 20
74.2593615969
 30
0.0
 10
35.3335197721
 20
74.2607508366
 30
0.0
  0
SPLINE
  5
2C1
100
AcDbEntity
  8
0
100
AcDbSpline
 62
7
  6
BYLAYER
 70
0
 71
3
 72
10
 73
6
 74
0
 42
0.0000001
 43
0.0000001
 44
0.0000000001
 40
0.0
 40
0.0
 40
0.0
 40
0.0
 40
0.2087195762
 40
0.448598075
 40
1.0
 40
1.0
 40
1.0
 40
1.0
 10
25.3643366198
 20
73.2135446951
 30
0.0
 10
26.03841199
 20
73.2106346508
 30
0.0
 10
27.4872136645
 20
73.2090863082
 30
0.0
 10
30.7168057793
 20
73.2197168031
 30
0.0
 10
33.272257449
 20
73.2415111833
 30
0.0
 10
35.0529602726
 20
73.2610537606
 30
0.0
  0
SPLINE
  5
2C2
100
AcDbEntity
  8
0
100
AcDbSpline
 62
7
  6
BYLAYER
 70
0
 71
3
 72
20
 73
16
 74
0
 42
0.0000001
 43
0.0000001
 44
0.0000000001
 40
0.0
 40
0.0
 40
0.0
 40
0.0
 40
0.2066544314
 40
0.3951552455
 40
0.5624402336
 40
0.7057987112
 40
0.7677473984
 40
0.8228775566
 40
0.8709563152
 40
0.911782988
 40
0.945211815
 40
0.9711059749
 40
0.9893669326
 40
0.9956319923
 40
1.0
 40
1.0
 40
1.0
 40
1.0
 10
44.9419557242
 20
20.571036139
 30
0.0
 10
45.241509
 20
20.5734515707
 30
0.0
 10
45.8143080048
 20
20.5772856525
 30
0.0
 10
46.6296097716
 20
20.5800339706
 30
0.0
 10
47.3531634145
 20
20.5795184567
 30
0.0
 10
47.8932618262
 20
20.5763083496
 30
0.0
 10
48.2707623487
 20
20.5718291486
 30
0.0
 10
48.5101398846
 20
20.5678491797
 30
0.0
 10
48.7188807606
 20
20.5631178825
 30
0.0
 10
48.8961296222
 20
20.5576466824
 30
0.0
 10
49.0411896786
 20
20.5515474432
 30
0.0
 10
49.1534386124
 20
20.5447756177
 30
0.0
 10
49.2263028739
 20
20.5383943455
 30
0.0
 10
49.2677399644
 20
20.5323326477
 30
0.0
 10
49.2828680262
 20
20.5291726172
 30
0.0
 10
49.2889226394
 20
20.527319703
 30
0.0
  0
SPLINE
  5
2C3
100
AcDbEntity
  8
0
100
AcDbSpline
 62
7
  6
BYLAYER
 70
0
 71
3
 72
13
 73
9
 74
0
 42
0.0000001
 43
0.0000001
 44
0.0000000001
 40
0.0
 40
0.0
 40
0.0
 40
0.0
 40
0.1860058543
 40
0.325584924
 40
0.423106316
 40
0.4916857861
 40
0.6615185574
 40
1.0
 40
1.0
 40
1.0
 40
1.0
 10
49.2889226394
 20
20.527319703
 30
0.0
 10
49.2907222588
 20
20.5267689592
 30
0.0
 10
49.2938561148
 20
20.5257177744
 30
0.0
 10
49.2977049416
 20
20.5238451688
 30
0.0
 10
49.3002720418
 20
20.5220256968
 30
0.0
 10
49.3016583108
 20
20.5185327413
 30
0.0
 10
49.2960112651
 20
20.5140340812
 30
0.0
 10
49.2915526082
 20
20.5126045254
 30
0.0
 10
49.2883032422
 20
20.5115226008
 30
0.0
  0
SPLINE
  5
2C4
100
AcDbEntity
  8
0
100
AcDbSpline
 62
7
  6
BYLAYER
 70
0
 71
3
 72
28
 73
24
 74
0
 42
0.0000001
 43
0.0000001
 44
0.0000000001
 40
0.0
 40
0.0
 40
0.0
 40
0.0
 40
0.0004982982
 40
0.0014951542
 40
0.0030634682
 40
0.0052177013
 40
0.0112974623
 40
0.0197425981
 40
0.03054363
 40
0.0436727788
 40
0.0590972395
 40
0.0767835305
 40
0.0966935239
 40
0.1187756012
 40
0.1692388238
 40
0.2277028584
 40
0.293588706
 40
0.3662713759
 40
0.4450435454
 40
0.5291568919
 40
0.617785254
 40
0.8051829438
 40
1.0
 40
1.0
 40
1.0
 40
1.0
 10
49.0062225615
 20
20.2035895078
 30
0.0
 10
49.0061462209
 20
20.204917874
 30
0.0
 10
49.0023423409
 20
20.2077665118
 30
0.0
 10
48.9949172127
 20
20.2100731709
 30
0.0
 10
48.9824268404
 20
20.2129798108
 30
0.0
 10
48.9566683915
 20
20.2169666145
 30
0.0
 10
48.9122625634
 20
20.2215545252
 30
0.0
 10
48.8448486129
 20
20.2263834649
 30
0.0
 10
48.7585006492
 20
20.2309567986
 30
0.0
 10
48.6535082908
 20
20.2352566184
 30
0.0
 10
48.5301013806
 20
20.239297678
 30
0.0
 10
48.3885763073
 20
20.2430989501
 30
0.0
 10
48.2292624947
 20
20.2466799967
 30
0.0
 10
47.9824314444
 20
20.2513316199
 30
0.0
 10
47.6326427639
 20
20.2562766154
 30
0.0
 10
47.1658760402
 20
20.2607305395
 30
0.0
 10
46.639765149
 20
20.26358582
 30
0.0
 10
46.0594208364
 20
20.2645608795
 30
0.0
 10
45.4304054279
 20
20.2637959415
 30
0.0
 10
44.7588156728
 20
20.2613802764
 30
0.0
 10
43.7971857186
 20
20.2557773085
 30
0.0
 10
42.5399853209
 20
20.2442369118
 30
0.0
 10
41.5195058309
 20
20.2285705064
 30
0.0
 10
40.9993928964
 20
20.2189792631
 30
0.0
  0
SPLINE
  5
2C5
100
AcDbEntity
  8
0
100
AcDbSpline
 62
7
  6
BYLAYER
 70
0
 71
3
 72
12
 73
8
 74
0
 42
0.0000001
 43
0.0000001
 44
0.0000000001
 40
0.0
 40
0.0
 40
0.0
 40
0.0
 40
0.1476138359
 40
0.2544851855
 40
0.3798764917
 40
0.67373079
 40
1.0
 40
1.0
 40
1.0
 40
1.0
 10
41.0118891244
 20
74.3397492928
 30
0.0
 10
41.0119234919
 20
74.2928036605
 30
0.0
 10
41.0138184439
 20
74.2118813664
 30
0.0
 10
41.0137834062
 20
74.091066228
 30
0.0
 10
41.0135009574
 20
73.9237464961
 30
0.0
 10
41.0132061701
 20
73.6866498427
 30
0.0
 10
41.012133137
 20
73.4894337239
 30
0.0
 10
41.0121313393
 20
73.3856702901
 30
0.0
  0
SPLINE
  5
2C6
100
AcDbEntity
  8
0
100
AcDbSpline
 62
7
  6
BYLAYER
 70
0
 71
3
 72
14
 73
10
 74
0
 42
0.0000001
 43
0.0000001
 44
0.0000000001
 40
0.0
 40
0.0
 40
0.0
 40
0.0
 40
0.0597505961
 40
0.0968893661
 40
0.139753851
 40
0.2423958617
 40
0.3659160577
 40
0.6630985403
 40
1.0
 40
1.0
 40
1.0
 40
1.0
 10
35.5290064413
 20
74.260742499
 30
0.0
 10
35.5110666159
 20
74.2507862951
 30
0.0
 10
35.487317715
 20
74.2255877306
 30
0.0
 10
35.4622168612
 20
74.1848595038
 30
0.0
 10
35.4344878442
 20
74.1284361663
 30
0.0
 10
35.4035184042
 20
74.0411440926
 30
0.0
 10
35.3618564808
 20
73.8660813695
 30
0.0
 10
35.3328287458
 20
73.6067656997
 30
0.0
 10
35.330164104
 20
73.3886544091
 30
0.0
 10
35.335374104
 20
73.273085259
 30
0.0
  0
SPLINE
  5
2C7
100
AcDbEntity
  8
0
100
AcDbSpline
 62
7
  6
BYLAYER
 70
0
 71
3
 72
14
 73
10
 74
0
 42
0.0000001
 43
0.0000001
 44
0.0000000001
 40
0.0
 40
0.0
 40
0.0
 40
0.0
 40
0.061835586
 40
0.143432061
 40
0.245904627
 40
0.3687777638
 40
0.5095043508
 40
0.6645338508
 40
1.0
 40
1.0
 40
1.0
 40
1.0
 10
46.4945975553
 20
74.2607520026
 30
0.0
 10
46.5132306281
 20
74.2504050398
 30
0.0
 10
46.5497250784
 20
74.2149480033
 30
0.0
 10
46.5921011463
 20
74.1410356532
 30
0.0
 10
46.6275546689
 20
74.040900772
 30
0.0
 10
46.6561744681
 20
73.9178697193
 30
0.0
 10
46.6772681161
 20
73.774983134
 30
0.0
 10
46.6947495109
 20
73.5580149212
 30
0.0
 10
46.6940906312
 20
73.3885823328
 30
0.0
 10
46.6888887065
 20
73.2730726911
 30
0.0
  0
SPLINE
  5
2C8
100
AcDbEntity
  8
0
100
AcDbSpline
 62
7
  6
BYLAYER
 70
0
 71
3
 72
28
 73
24
 74
0
 42
0.0000001
 43
0.0000001
 44
0.0000000001
 40
0.0
 40
0.0
 40
0.0
 40
0.0
 40
0.0010262818
 40
0.0025899678
 40
0.0047096569
 40
0.0073934218
 40
0.0144702998
 40
0.0238421235
 40
0.0354924457
 40
0.0493885395
 40
0.0654962457
 40
0.0837765216
 40
0.1041865698
 40
0.126683145
 40
0.1777241254
 40
0.2364212721
 40
0.3022264841
 40
0.3745305749
 40
0.4526559767
 40
0.5358767278
 40
0.6234191799
 40
0.8081502653
 40
1.0
 40
1.0
 40
1.0
 40
1.0
 10
60.023082095
 20
20.7162353438
 30
0.0
 10
60.0175546508
 20
20.7196665022
 30
0.0
 10
60.0019519103
 20
20.7253889489
 30
0.0
 10
59.9730166902
 20
20.7325226779
 30
0.0
 10
59.9332154444
 20
20.7395458297
 30
0.0
 10
59.8586031859
 20
20.7497315946
 30
0.0
 10
59.7378057883
 20
20.7611503373
 30
0.0
 10
59.5600994424
 20
20.7733346391
 30
0.0
 10
59.3390249376
 20
20.7846893209
 30
0.0
 10
59.0751783477
 20
20.7952021183
 30
0.0
 10
58.7692427187
 20
20.8047873618
 30
0.0
 10
58.4219725984
 20
20.8134145085
 30
0.0
 10
58.0341704192
 20
20.8210516077
 30
0.0
 10
57.4386877258
 20
20.8302605539
 30
0.0
 10
56.600462212
 20
20.8386880599
 30
0.0
 10
55.4876690112
 20
20.8442745389
 30
0.0
 10
54.2400717485
 20
20.8455889501
 30
0.0
 10
52.8693183215
 20
20.8425974831
 30
0.0
 10
51.3881793288
 20
20.8353128874
 30
0.0
 10
49.810465726
 20
20.823792611
 30
0.0
 10
47.5570158503
 20
20.8025160431
 30
0.0
 10
44.6150648882
 20
20.766070014
 30
0.0
 10
42.2281390377
 20
20.7282377911
 30
0.0
 10
41.0121510725
 20
20.7069906793
 30
0.0
  0
SPLINE
  5
2C9
100
AcDbEntity
  8
0
100
AcDbSpline
 62
7
  6
BYLAYER
 70
0
 71
3
 72
10
 73
6
 74
0
 42
0.0000001
 43
0.0000001
 44
0.0000000001
 40
0.0
 40
0.0
 40
0.0
 40
0.0
 40
0.55143265
 40
0.7913054474
 40
1.0
 40
1.0
 40
1.0
 40
1.0
 10
46.9711579684
 20
73.2610558822
 30
0.0
 10
48.7524745074
 20
73.2415072414
 30
0.0
 10
51.3087453276
 20
73.2197069625
 30
0.0
 10
54.5392705314
 20
73.209084166
 30
0.0
 10
55.9883915193
 20
73.2106411639
 30
0.0
 10
56.6625807686
 20
73.2135578667
 30
0.0
  0
SPLINE
  5
2CA
100
AcDbEntity
  8
0
100
AcDbSpline
 62
7
  6
BYLAYER
 70
0
 71
3
 72
16
 73
12
 74
0
 42
0.0000001
 43
0.0000001
 44
0.0000000001
 40
0.0
 40
0.0
 40
0.0
 40
0.0
 40
0.1658759026
 40
0.3355619916
 40
0.50030436
 40
0.6502288512
 40
0.7766349013
 40
0.8756045235
 40
0.914575152
 40
0.9474482708
 40
1.0
 40
1.0
 40
1.0
 40
1.0
 10
46.9712848768
 20
73.2610544445
 30
0.0
 10
46.971940015
 20
73.3210508073
 30
0.0
 10
46.9699845405
 20
73.4424779771
 30
0.0
 10
46.957062096
 20
73.6231005501
 30
0.0
 10
46.932866671
 20
73.7967459812
 30
0.0
 10
46.8988756451
 20
73.9528999087
 30
0.0
 10
46.8555257902
 20
74.0817845351
 30
0.0
 10
46.8120874857
 20
74.1677922761
 30
0.0
 10
46.773332934
 20
74.2163160116
 30
0.0
 10
46.7397536264
 20
74.2462979604
 30
0.0
 10
46.709701109
 20
74.2593616043
 30
0.0
 10
46.6907431501
 20
74.2607508403
 30
0.0
  0
SPLINE
  5
2CB
100
AcDbEntity
  8
0
100
AcDbSpline
 62
7
  6
BYLAYER
 70
0
 71
3
 72
16
 73
12
 74
0
 42
0.0000001
 43
0.0000001
 44
0.0000000001
 40
0.0
 40
0.0
 40
0.0
 40
0.0
 40
0.0062657115
 40
0.0193546629
 40
0.0687763035
 40
0.1495949884
 40
0.2615395817
 40
0.4038268704
 40
0.5752086475
 40
0.7743982045
 40
1.0
 40
1.0
 40
1.0
 40
1.0
 10
61.2241089856
 20
23.06075
 30
0.0
 10
61.2246177818
 20
23.06075
 30
0.0
 10
61.2257335162
 20
23.0623058829
 30
0.0
 10
61.2272477298
 20
23.0673594806
 30
0.0
 10
61.2292863523
 20
23.0791587197
 30
0.0
 10
61.231334722
 20
23.0985387984
 30
0.0
 10
61.233492099
 20
23.1257417044
 30
0.0
 10
61.2355631531
 20
23.1602118115
 30
0.0
 10
61.2375800336
 20
23.2018200831
 30
0.0
 10
61.2394967377
 20
23.2501901395
 30
0.0
 10
61.2406316842
 20
23.2846670784
 30
0.0
 10
61.2411879683
 20
23.3029782319
 30
0.0
  0
SPLINE
  5
2CC
100
AcDbEntity
  8
0
100
AcDbSpline
 62
7
  6
BYLAYER
 70
0
 71
3
 72
21
 73
17
 74
0
 42
0.0000001
 43
0.0000001
 44
0.0000000001
 40
0.0
 40
0.0
 40
0.0
 40
0.0
 40
0.2191816615
 40
0.4136585675
 40
0.5819240566
 40
0.7229336278
 40
0.782934257
 40
0.8358096536
 40
0.8814808745
 40
0.9198708794
 40
0.9509146847
 40
0.974589164
 40
0.9836651807
 40
0.9909077602
 40
0.9963353095
 40
1.0
 40
1.0
 40
1.0
 40
1.0
 10
56.6625807686
 20
73.2135578667
 30
0.0
 10
56.9802456311
 20
73.2149482339
 30
0.0
 10
57.5797668955
 20
73.2184822002
 30
0.0
 10
58.4231322049
 20
73.2268491591
 30
0.0
 10
59.1531564457
 20
73.2380075209
 30
0.0
 10
59.6882348492
 20
73.250019179
 30
0.0
 10
60.0560264619
 20
73.2613988275
 30
0.0
 10
60.2856529211
 20
73.2700938719
 30
0.0
 10
60.4839048227
 20
73.2793810412
 30
0.0
 10
60.650450931
 20
73.2891984925
 30
0.0
 10
60.7850000358
 20
73.2995350593
 30
0.0
 10
60.8770049379
 20
73.3090655841
 30
0.0
 10
60.9343555504
 20
73.3174595352
 30
0.0
 10
60.9653697372
 20
73.3232631665
 30
0.0
 10
60.9882749348
 20
73.3291404827
 30
0.0
 10
61.0007316511
 20
73.3338375296
 30
0.0
 10
61.00527781
 20
73.3365839954
 30
0.0
  0
SPLINE
  5
2CD
100
AcDbEntity
  8
0
100
AcDbSpline
 62
7
  6
BYLAYER
 70
0
 71
3
 72
14
 73
10
 74
0
 42
0.0000001
 43
0.0000001
 44
0.0000000001
 40
0.0
 40
0.0
 40
0.0
 40
0.0
 40
0.4267379787
 40
0.5980529354
 40
0.7398350328
 40
0.8511103208
 40
0.9314420588
 40
0.9806821904
 40
1.0
 40
1.0
 40
1.0
 40
1.0
 10
61.2395050746
 20
71.8694763206
 30
0.0
 10
61.2385204605
 20
71.8968456251
 30
0.0
 10
61.2369605902
 20
71.9352256678
 30
0.0
 10
61.2343212532
 20
71.9825714528
 30
0.0
 10
61.2324397969
 20
72.0098743286
 30
0.0
 10
61.2305396181
 20
72.0308441197
 30
0.0
 10
61.2286386589
 20
72.0469792151
 30
0.0
 10
61.2268905315
 20
72.0549415451
 30
0.0
 10
61.2253487558
 20
72.06075
 30
0.0
 10
61.2241089856
 20
72.06075
 30
0.0
  0
SPLINE
  5
2CE
100
AcDbEntity
  8
0
100
AcDbSpline
 62
7
  6
BYLAYER
 70
0
 71
3
 72
16
 73
12
 74
0
 42
0.0000001
 43
0.0000001
 44
0.0000000001
 40
0.0
 40
0.0
 40
0.0
 40
0.0
 40
0.3788328504
 40
0.5502278666
 40
0.7008967369
 40
0.8253693661
 40
0.9189037978
 40
0.9528975738
 40
0.9778621054
 40
0.9936175678
 40
1.0
 40
1.0
 40
1.0
 40
1.0
 10
41.012131325
 20
21.7069905054
 30
0.0
 10
41.012271311
 20
21.5809841187
 30
0.0
 10
41.0137982715
 20
21.3979728753
 30
0.0
 10
41.014834167
 20
21.1648447517
 30
0.0
 10
41.015289649
 20
21.0163194049
 30
0.0
 10
41.0154668966
 20
20.8936915672
 30
0.0
 10
41.0154291206
 20
20.8098711962
 30
0.0
 10
41.0146714102
 20
20.7591515079
 30
0.0
 10
41.0136070253
 20
20.7343200221
 30
0.0
 10
41.0128884447
 20
20.7186727284
 30
0.0
 10
41.0121271592
 20
20.7113355416
 30
0.0
 10
41.0121120482
 20
20.7092126863
 30
0.0
  0
ENDSEC
  0
SECTION
  2
OBJECTS
  0
DICTIONARY
  5
C
100
AcDbDictionary
280
0
281
1
  3
ACAD_GROUP
350
D
  3
ACAD_MLINESTYLE
350
17
  3
ACAD_LAYOUT
350
1A
  3
ACAD_PLOTSETTINGS
350
19
  3
ACAD_PLOTSTYLENAME
350
E
  0
DICTIONARY
  5
D
102
{ACAD_REACTORS
330
C
102
}
100
AcDbDictionary
280
0
281
1
  0
ACDBDICTIONARYWDFLT
  5
E
102
{ACAD_REACTORS
330
C
102
}
100
AcDbDictionary
281
1
  3
Normal
350
F
100
AcDbDictionaryWithDefault
340
F
  0
DICTIONARY
  5
17
102
{ACAD_REACTORS
330
C
102
}
100
AcDbDictionary
280
0
281
1
  3
Standard
350
18
  0
DICTIONARY
  5
19
102
{ACAD_REACTORS
330
C
102
}
100
AcDbDictionary
281
1
  0
DICTIONARY
  5
1A
102
{ACAD_REACTORS
330
C
102
}
100
AcDbDictionary
281
1
  3
Model
350
2CF
  3
Layout1
350
2D0
  0
ACDBPLACEHOLDER
  5
F
102
{ACAD_REACTORS
330
E
102
}
  0
MLINESTYLE
  5
18
102
{ACAD_REACTORS
330
17
102
}
100
AcDbMlineStyle
  2
STANDARD
 70
0
  3

 62
256
 51
90.0
 52
90.0
 71
2
 49
0.5
 62
256
  6
BYLAYER
 49
-0.5
 62
256
  6
BYLAYER
  0
LAYOUT
  5
2CF
102
{ACAD_REACTORS
330
1A
102
}
100
AcDbPlotSettings
  1

  2
none_device
  4

  6

 40
0.0
 41
0.0
 42
0.0
 43
0.0
 44
210.0
 45
297.0
 46
0.0
 47
0.0
 48
0.0
 49
0.0
140
0.0
141
0.0
142
1.0
143
1.0
 70
1024
 72
1
 73
0
 74
0
  7

 75
0
147
1.0
148
0.0
149
0.0
100
AcDbLayout
  1
Model
 70
0
 71
0
 10
0.0
 20
0.0
 11
210.0
 21
297.0
 12
0.0
 22
0.0
 32
0.0
 14
0.0
 24
0.0
 34
0.0
 15
0.0
 25
0.0
 35
0.0
146
0.0
 13
0.0
 23
0.0
 33
0.0
 16
1.0
 26
0.0
 36
0.0
 17
0.0
 27
1.0
 37
0.0
 76
0
330
210
345
0
346
0
  0
LAYOUT
  5
2D0
102
{ACAD_REACTORS
330
1A
102
}
100
AcDbPlotSettings
  1

  2
none_device
  4

  6

 40
0.0
 41
0.0
 42
0.0
 43
0.0
 44
210.0
 45
297.0
 46
0.0
 47
0.0
 48
0.0
 49
0.0
140
0.0
141
0.0
142
1.0
143
1.0
 70
0
 72
1
 73
0
 74
0
  7

 75
0
147
1.0
148
0.0
149
0.0
100
AcDbLayout
  1
Layout1
 70
0
 71
1
 10
0.0
 20
0.0
 11
210.0
 21
297.0
 12
0.0
 22
0.0
 32
0.0
 14
0.0
 24
0.0
 34
0.0
 15
0.0
 25
0.0
 35
0.0
146
0.0
 13
0.0
 23
0.0
 33
0.0
 16
1.0
 26
0.0
 36
0.0
 17
0.0
 27
1.0
 37
0.0
 76
0
330
211
345
0
346
0
  0
ENDSEC
  0
EOF
