999
DXF file: C:\2D\Gen2D\CAD\NSYS3D6425_3D-Simplified\drw0001_5.dxf
999
Pro/ENGINEER 2019471 by Parametric Technology Corporation
  0
SECTION
  2
HEADER
  9
$ACADVER
  1
AC1024
  9
$DWGCODEPAGE
  3
ANSI_1252
  9
$EXTMAX
 10
505.7025338863
 20
715.2078693535
 30
0.0
  9
$EXTMIN
 10
0.0
 20
0.0
 30
0.0
  9
$LIMMIN
 10
0.0
 20
0.0
  9
$LIMMAX
 10
505.7025338863
 20
715.2078693535
  9
$VIEWCTR
 10
252.8512669431
 20
357.6039346767
  9
$VIEWSIZE
 40
715.2078693535
  9
$CLAYER
  8
0
  9
$LTSCALE
 40
46.6209574097
  9
$CELTYPE
  6
BYLAYER
  9
$DIMSCALE
 40
1.0
  9
$DIMASZ
 40
6.0202682606
  9
$DIMEXO
 40
1.0
  9
$DIMDLI
 40
32.2108433013
  9
$DIMEXE
 40
1.0
  9
$DIMCEN
 40
7.6288839398
  9
$DIMLFAC
 40
1.0
  9
$DIMBLK
  1
_FILLED
  9
$DIMALT
 70
0
  9
$DIMALTF
 40
0.0393700787
  9
$DIMTXT
 40
8.4283755648
  9
$DIMTOL
 70
1
  9
$DIMLIM
 70
0
  9
$DIMTFAC
 40
1.0
  9
$DIMTP
 40
0.01
  9
$DIMTM
 40
0.01
  9
$DIMGAP
 40
0.625
  9
$DIMDSEP
 70
46
  9
$AUNITS
 70
0
  9
$PDMODE
 70
3
  9
$PDSIZE
 40
0.3125
  9
$HANDSEED
  5
381
  9
$TILEMODE
 70
1
  9
$MEASUREMENT
 70
1
  9
$INSUNITS
 70
4
  0
ENDSEC
  0
SECTION
  2
CLASSES
  0
CLASS
  1
ACDBDICTIONARYWDFLT
  2
AcDbDictionaryWithDefault
  3
AutoCAD 2000
 90
0
 91
1
280
0
281
0
  0
CLASS
  1
ACDBPLACEHOLDER
  2
AcDbPlaceHolder
  3
AutoCAD 2000
 90
0
 91
1
280
0
281
0
  0
CLASS
  1
LAYOUT
  2
AcDbLayout
  3
AutoCAD 2000
 90
0
 91
0
280
0
281
0
  0
ENDSEC
  0
SECTION
  2
TABLES
  0
TABLE
  2
VPORT
  5
8
100
AcDbSymbolTable
 70
2
  0
VPORT
  5
1F4
100
AcDbSymbolTableRecord
100
AcDbViewportTableRecord
  2
*ACTIVE
 70
0
 10
0.0
 20
0.0
 11
1.0
 21
1.0
 12
252.8512669431
 22
357.6039346767
 13
0.0
 23
0.0
 14
1.0
 24
1.0
 15
0.0
 25
0.0
 16
0.0
 26
0.0
 36
1.0
 17
0.0
 27
0.0
 37
0.0
 40
715.2078693535
 41
0.7070707071
 42
50.0
 43
0.0
 44
0.0
 50
0.0
 51
0.0
 71
0
 72
100
 73
1
 74
1
 75
0
 76
0
 77
0
 78
0
  0
ENDTAB
  0
TABLE
  2
LTYPE
  5
5
100
AcDbSymbolTable
 70
6
  0
LTYPE
  5
14
100
AcDbSymbolTableRecord
100
AcDbLinetypeTableRecord
  2
BYBLOCK
 70
0
  3

 72
65
 73
0
 40
0.0
  0
LTYPE
  5
15
100
AcDbSymbolTableRecord
100
AcDbLinetypeTableRecord
  2
BYLAYER
 70
0
  3

 72
65
 73
0
 40
0.0
  0
LTYPE
  5
16
100
AcDbSymbolTableRecord
100
AcDbLinetypeTableRecord
  2
CONTINUOUS
 70
64
  3
Solid line
 72
65
 73
0
 40
0.0
  0
LTYPE
  5
1F5
100
AcDbSymbolTableRecord
100
AcDbLinetypeTableRecord
  2
CENTER
 70
64
  3
____ _ ____ _ ____ _ ____ _ ____ _ ____ _ ____
 72
65
 73
4
 40
0.6
 49
0.375
 74
0
 49
-0.075
 74
0
 49
0.075
 74
0
 49
-0.075
 74
0
  0
LTYPE
  5
1F6
100
AcDbSymbolTableRecord
100
AcDbLinetypeTableRecord
  2
HIDDEN
 70
64
  3
- - - - - - - - - - - - - - - - - - - -
 72
65
 73
2
 40
0.2
 49
0.1
 74
0
 49
-0.1
 74
0
  0
LTYPE
  5
1F7
100
AcDbSymbolTableRecord
100
AcDbLinetypeTableRecord
  2
PHANTOM
 70
64
  3
_____ _ _ _____ _ _ _____ _ _ _____
 72
65
 73
6
 40
0.8
 49
0.45
 74
0
 49
-0.05
 74
0
 49
0.1
 74
0
 49
-0.05
 74
0
 49
0.1
 74
0
 49
-0.05
 74
0
  0
LTYPE
  5
1F8
100
AcDbSymbolTableRecord
100
AcDbLinetypeTableRecord
  2
DOT
 70
64
  3
. . . . . . . . . . . . . . . . . . . .
 72
65
 73
2
 40
0.2
 49
0.1
 74
0
 49
-0.1
 74
0
  0
LTYPE
  5
1F9
100
AcDbSymbolTableRecord
100
AcDbLinetypeTableRecord
  2
DASHED
 70
64
  3
- - - - - - - - - - - - - - - - - - - -
 72
65
 73
2
 40
0.2
 49
0.1
 74
0
 49
-0.1
 74
0
  0
ENDTAB
  0
TABLE
  2
LAYER
  5
2
100
AcDbSymbolTable
 70
36
  0
LAYER
  5
10
100
AcDbSymbolTableRecord
100
AcDbLayerTableRecord
  2
0
 70
0
 62
7
  6
CONTINUOUS
370
-3
390
F
  0
LAYER
  5
1FA
100
AcDbSymbolTableRecord
100
AcDbLayerTableRecord
  2
DEFAULT_1
 70
0
 62
7
  6
CENTER
370
-3
390
F
  0
LAYER
  5
1FB
100
AcDbSymbolTableRecord
100
AcDbLayerTableRecord
  2
DEFAULT_2
 70
0
 62
8
  6
HIDDEN
370
-3
390
F
  0
LAYER
  5
1FC
100
AcDbSymbolTableRecord
100
AcDbLayerTableRecord
  2
DEFAULT_3
 70
0
 62
7
  6
PHANTOM
370
-3
390
F
  0
LAYER
  5
1FD
100
AcDbSymbolTableRecord
100
AcDbLayerTableRecord
  2
00_COMPONENTS
 70
0
 62
7
  6
CONTINUOUS
370
-3
390
F
  0
LAYER
  5
1FE
100
AcDbSymbolTableRecord
100
AcDbLayerTableRecord
  2
00_COMPONENTS_1
 70
0
 62
7
  6
CONTINUOUS
370
-3
390
F
  0
LAYER
  5
1FF
100
AcDbSymbolTableRecord
100
AcDbLayerTableRecord
  2
00_COMPONENTS_11
 70
0
 62
7
  6
CONTINUOUS
370
-3
390
F
  0
LAYER
  5
200
100
AcDbSymbolTableRecord
100
AcDbLayerTableRecord
  2
00_COMPONENTS_12
 70
0
 62
7
  6
CONTINUOUS
370
-3
390
F
  0
LAYER
  5
201
100
AcDbSymbolTableRecord
100
AcDbLayerTableRecord
  2
00_COMPONENTS_13
 70
0
 62
7
  6
CONTINUOUS
370
-3
390
F
  0
LAYER
  5
202
100
AcDbSymbolTableRecord
100
AcDbLayerTableRecord
  2
00_COMPONENTS_14
 70
0
 62
7
  6
CONTINUOUS
370
-3
390
F
  0
LAYER
  5
203
100
AcDbSymbolTableRecord
100
AcDbLayerTableRecord
  2
00_COMPONENTS_17
 70
0
 62
7
  6
CONTINUOUS
370
-3
390
F
  0
LAYER
  5
204
100
AcDbSymbolTableRecord
100
AcDbLayerTableRecord
  2
00_COMPONENTS_18
 70
0
 62
7
  6
CONTINUOUS
370
-3
390
F
  0
LAYER
  5
205
100
AcDbSymbolTableRecord
100
AcDbLayerTableRecord
  2
00_COMPONENTS_19
 70
0
 62
7
  6
CONTINUOUS
370
-3
390
F
  0
LAYER
  5
206
100
AcDbSymbolTableRecord
100
AcDbLayerTableRecord
  2
00_COMPONENTS_2
 70
0
 62
7
  6
CONTINUOUS
370
-3
390
F
  0
LAYER
  5
207
100
AcDbSymbolTableRecord
100
AcDbLayerTableRecord
  2
00_COMPONENTS_21
 70
0
 62
7
  6
CONTINUOUS
370
-3
390
F
  0
LAYER
  5
208
100
AcDbSymbolTableRecord
100
AcDbLayerTableRecord
  2
00_COMPONENTS_22
 70
0
 62
7
  6
CONTINUOUS
370
-3
390
F
  0
LAYER
  5
209
100
AcDbSymbolTableRecord
100
AcDbLayerTableRecord
  2
00_COMPONENTS_23
 70
0
 62
7
  6
CONTINUOUS
370
-3
390
F
  0
LAYER
  5
20A
100
AcDbSymbolTableRecord
100
AcDbLayerTableRecord
  2
00_COMPONENTS_24
 70
0
 62
7
  6
CONTINUOUS
370
-3
390
F
  0
LAYER
  5
20B
100
AcDbSymbolTableRecord
100
AcDbLayerTableRecord
  2
00_COMPONENTS_25
 70
0
 62
7
  6
CONTINUOUS
370
-3
390
F
  0
LAYER
  5
20C
100
AcDbSymbolTableRecord
100
AcDbLayerTableRecord
  2
00_COMPONENTS_26
 70
0
 62
7
  6
CONTINUOUS
370
-3
390
F
  0
LAYER
  5
20D
100
AcDbSymbolTableRecord
100
AcDbLayerTableRecord
  2
00_COMPONENTS_27
 70
0
 62
7
  6
CONTINUOUS
370
-3
390
F
  0
LAYER
  5
20E
100
AcDbSymbolTableRecord
100
AcDbLayerTableRecord
  2
00_COMPONENTS_28
 70
0
 62
7
  6
CONTINUOUS
370
-3
390
F
  0
LAYER
  5
20F
100
AcDbSymbolTableRecord
100
AcDbLayerTableRecord
  2
00_COMPONENTS_32
 70
0
 62
7
  6
CONTINUOUS
370
-3
390
F
  0
LAYER
  5
210
100
AcDbSymbolTableRecord
100
AcDbLayerTableRecord
  2
00_COMPONENTS_33
 70
0
 62
7
  6
CONTINUOUS
370
-3
390
F
  0
LAYER
  5
211
100
AcDbSymbolTableRecord
100
AcDbLayerTableRecord
  2
00_COMPONENTS_34
 70
0
 62
7
  6
CONTINUOUS
370
-3
390
F
  0
LAYER
  5
212
100
AcDbSymbolTableRecord
100
AcDbLayerTableRecord
  2
00_COMPONENTS_35
 70
0
 62
7
  6
CONTINUOUS
370
-3
390
F
  0
LAYER
  5
213
100
AcDbSymbolTableRecord
100
AcDbLayerTableRecord
  2
00_COMPONENTS_36
 70
0
 62
7
  6
CONTINUOUS
370
-3
390
F
  0
LAYER
  5
214
100
AcDbSymbolTableRecord
100
AcDbLayerTableRecord
  2
00_COMPONENTS_4
 70
0
 62
7
  6
CONTINUOUS
370
-3
390
F
  0
LAYER
  5
215
100
AcDbSymbolTableRecord
100
AcDbLayerTableRecord
  2
00_COMPONENTS_5
 70
0
 62
7
  6
CONTINUOUS
370
-3
390
F
  0
LAYER
  5
216
100
AcDbSymbolTableRecord
100
AcDbLayerTableRecord
  2
00_COMPONENTS_8
 70
0
 62
7
  6
CONTINUOUS
370
-3
390
F
  0
LAYER
  5
217
100
AcDbSymbolTableRecord
100
AcDbLayerTableRecord
  2
00_COMPONENTS_9
 70
0
 62
7
  6
CONTINUOUS
370
-3
390
F
  0
LAYER
  5
218
100
AcDbSymbolTableRecord
100
AcDbLayerTableRecord
  2
01_1_DEFAULT_DATUMS
 70
0
 62
7
  6
CONTINUOUS
370
-3
390
F
  0
LAYER
  5
219
100
AcDbSymbolTableRecord
100
AcDbLayerTableRecord
  2
01_PLANES
 70
0
 62
7
  6
CONTINUOUS
370
-3
390
F
  0
LAYER
  5
21A
100
AcDbSymbolTableRecord
100
AcDbLayerTableRecord
  2
02_COORD_SYS
 70
0
 62
7
  6
CONTINUOUS
370
-3
390
F
  0
LAYER
  5
21B
100
AcDbSymbolTableRecord
100
AcDbLayerTableRecord
  2
03_AXES
 70
0
 62
7
  6
CONTINUOUS
370
-3
390
F
  0
LAYER
  5
21C
100
AcDbSymbolTableRecord
100
AcDbLayerTableRecord
  2
04_POINTS
 70
0
 62
7
  6
CONTINUOUS
370
-3
390
F
  0
LAYER
  5
21D
100
AcDbSymbolTableRecord
100
AcDbLayerTableRecord
  2
05_CURVES
 70
0
 62
7
  6
CONTINUOUS
370
-3
390
F
  0
LAYER
  5
21E
100
AcDbSymbolTableRecord
100
AcDbLayerTableRecord
  2
06_SURFS
 70
0
 62
7
  6
CONTINUOUS
370
-3
390
F
  0
LAYER
  5
21F
100
AcDbSymbolTableRecord
100
AcDbLayerTableRecord
  2
07_COSMETICS
 70
0
 62
7
  6
CONTINUOUS
370
-3
390
F
  0
LAYER
  5
220
100
AcDbSymbolTableRecord
100
AcDbLayerTableRecord
  2
10_NOTES
 70
0
 62
7
  6
CONTINUOUS
370
-3
390
F
  0
LAYER
  5
221
100
AcDbSymbolTableRecord
100
AcDbLayerTableRecord
  2
11_NOTES_PUB
 70
0
 62
7
  6
CONTINUOUS
370
-3
390
F
  0
LAYER
  5
222
100
AcDbSymbolTableRecord
100
AcDbLayerTableRecord
  2
13_REF_GTOL
 70
0
 62
7
  6
CONTINUOUS
370
-3
390
F
  0
LAYER
  5
223
100
AcDbSymbolTableRecord
100
AcDbLayerTableRecord
  2
16_MISC
 70
0
 62
7
  6
CONTINUOUS
370
-3
390
F
  0
LAYER
  5
224
100
AcDbSymbolTableRecord
100
AcDbLayerTableRecord
  2
17_NO_PRINT
 70
0
 62
7
  6
CONTINUOUS
370
-3
390
F
  0
LAYER
  5
225
100
AcDbSymbolTableRecord
100
AcDbLayerTableRecord
  2
18_DATUM_CAMS_JOINTS
 70
0
 62
7
  6
CONTINUOUS
370
-3
390
F
  0
LAYER
  5
226
100
AcDbSymbolTableRecord
100
AcDbLayerTableRecord
  2
19_DATUM_FUNCTIONAL
 70
0
 62
7
  6
CONTINUOUS
370
-3
390
F
  0
LAYER
  5
227
100
AcDbSymbolTableRecord
100
AcDbLayerTableRecord
  2
20_DATUM_KINEMATIC_SCHEME
 70
0
 62
7
  6
CONTINUOUS
370
-3
390
F
  0
LAYER
  5
228
100
AcDbSymbolTableRecord
100
AcDbLayerTableRecord
  2
INTFCLR_10
 70
0
 62
7
  6
CONTINUOUS
370
-3
390
F
  0
ENDTAB
  0
TABLE
  2
STYLE
  5
3
100
AcDbSymbolTable
 70
1
  0
STYLE
  5
11
100
AcDbSymbolTableRecord
100
AcDbTextStyleTableRecord
  2
STANDARD
 70
0
 40
0.0
 41
0.8
 50
0.0
 71
0
 42
0.2
  3
txt
  4

  0
STYLE
  5
229
100
AcDbSymbolTableRecord
100
AcDbTextStyleTableRecord
  2
TEXTSTYLE_1
 70
0
 40
0.0
 41
0.8
 50
0.0
 71
0
 42
0.2
  3
gdt
  4

  0
ENDTAB
  0
TABLE
  2
VIEW
  5
6
100
AcDbSymbolTable
 70
0
  0
ENDTAB
  0
TABLE
  2
UCS
  5
7
100
AcDbSymbolTable
 70
0
  0
ENDTAB
  0
TABLE
  2
APPID
  5
9
100
AcDbSymbolTable
 70
1
  0
APPID
  5
22A
100
AcDbSymbolTableRecord
100
AcDbRegAppTableRecord
  2
ACAD
 70
0
  0
ENDTAB
  0
TABLE
  2
BLOCK_RECORD
  5
1
100
AcDbSymbolTable
 70
0
  0
BLOCK_RECORD
  5
22B
100
AcDbSymbolTableRecord
100
AcDbBlockTableRecord
  2
*Model_Space
  0
BLOCK_RECORD
  5
22C
100
AcDbSymbolTableRecord
100
AcDbBlockTableRecord
  2
*Paper_Space
  0
BLOCK_RECORD
  5
22D
100
AcDbSymbolTableRecord
100
AcDbBlockTableRecord
  2
_FILLED
  0
ENDTAB
  0
TABLE
  2
DIMSTYLE
  5
A
100
AcDbSymbolTable
 70
1
100
AcDbDimStyleTable
 71
0
  0
DIMSTYLE
105
22E
100
AcDbSymbolTableRecord
100
AcDbDimStyleTableRecord
  2
STANDARD
 70
0
  3

  4

 40
1.0
 41
6.0202682606
 42
1.0
 43
0.38
 44
1.0
 45
0.0
 46
0.0
 47
0.01
 48
0.01
140
8.4283755648
141
0.09
142
0.0
143
25.4
144
1.0
145
0.0
146
1.0
147
0.625
 71
1
 72
0
 73
0
 74
0
 75
0
 76
0
 77
1
 78
8
 79
2
170
0
171
1
172
0
173
0
174
0
175
0
176
0
177
0
178
0
270
2
179
2
271
2
272
2
273
2
274
2
275
0
280
0
281
0
282
0
283
1
284
8
285
0
286
0
287
3
288
0
340
11
278
46
341
22D
342
22D
343
22D
344
22D
  0
ENDTAB
  0
ENDSEC
  0
SECTION
  2
BLOCKS
  0
BLOCK
  5
20
100
AcDbEntity
  8
0
100
AcDbBlockBegin
  2
*Model_Space
 70
0
 10
0.0
 20
0.0
 30
0.0
  3
*Model_Space
  1

  0
ENDBLK
  5
21
100
AcDbEntity
  8
0
100
AcDbBlockEnd
  0
BLOCK
  5
1C
100
AcDbEntity
  8
0
100
AcDbBlockBegin
  2
*Paper_Space
 70
0
 10
0.0
 20
0.0
 30
0.0
  3
*Paper_Space
  1

  0
ENDBLK
  5
1D
100
AcDbEntity
  8
0
100
AcDbBlockEnd
  0
BLOCK
  5
22F
100
AcDbEntity
  8
0
100
AcDbBlockBegin
  2
_FILLED
 70
64
 10
0.0
 20
0.0
  3
_FILLED
  1

  0
SOLID
  5
230
100
AcDbEntity
  8
0
  6
BYBLOCK
 62
0
100
AcDbTrace
 10
0.0
 20
0.0
 11
-1.0
 21
0.25
 12
-1.0
 22
-0.25
 13
-1.0
 23
-0.25
  0
ENDBLK
  5
231
100
AcDbEntity
  8
0
  6
BYBLOCK
 62
0
100
AcDbBlockEnd
  0
ENDSEC
  0
SECTION
  2
ENTITIES
  0
LINE
  5
232
100
AcDbEntity
  8
00_COMPONENTS_28
100
AcDbLine
 62
7
  6
CONTINUOUS
 10
382.8861379943
 20
62.5405014468
 11
380.2648514526
 21
61.9440901598
  0
LINE
  5
233
100
AcDbEntity
  8
00_COMPONENTS_17
100
AcDbLine
 62
7
  6
CONTINUOUS
 10
151.1019627657
 20
58.2145940171
 11
151.0932860968
 21
58.2153247226
  0
LINE
  5
234
100
AcDbEntity
  8
00_COMPONENTS_17
100
AcDbLine
 62
7
  6
CONTINUOUS
 10
209.6019627657
 20
58.2145940171
 11
209.5932860968
 21
58.2153247226
  0
LINE
  5
235
100
AcDbEntity
  8
00_COMPONENTS_17
100
AcDbLine
 62
7
  6
CONTINUOUS
 10
150.9330921977
 20
58.241642276
 11
150.9366027988
 21
58.2409482593
  0
LINE
  5
236
100
AcDbEntity
  8
00_COMPONENTS_17
100
AcDbLine
 62
7
  6
CONTINUOUS
 10
209.4330921977
 20
58.241642276
 11
209.4366027988
 21
58.2409482593
  0
LINE
  5
237
100
AcDbEntity
  8
00_COMPONENTS_17
100
AcDbLine
 62
7
  6
CONTINUOUS
 10
150.9333188639
 20
58.2408712914
 11
150.9368346615
 21
58.2401611955
  0
LINE
  5
238
100
AcDbEntity
  8
00_COMPONENTS_17
100
AcDbLine
 62
7
  6
CONTINUOUS
 10
209.4333188639
 20
58.2408712914
 11
209.4368346615
 21
58.2401611955
  0
LINE
  5
239
100
AcDbEntity
  8
00_COMPONENTS_17
100
AcDbLine
 62
7
  6
CONTINUOUS
 10
269.5758099442
 20
58.2489657239
 11
269.5700168968
 21
58.247747835
  0
LINE
  5
23A
100
AcDbEntity
  8
00_COMPONENTS_17
100
AcDbLine
 62
7
  6
CONTINUOUS
 10
211.0758099442
 20
58.2489657239
 11
211.0700168968
 21
58.247747835
  0
LINE
  5
23B
100
AcDbEntity
  8
00_COMPONENTS_17
100
AcDbLine
 62
7
  6
CONTINUOUS
 10
269.5748232446
 20
58.2455721486
 11
269.5690350776
 21
58.2443823895
  0
LINE
  5
23C
100
AcDbEntity
  8
00_COMPONENTS_17
100
AcDbLine
 62
7
  6
CONTINUOUS
 10
211.0748232446
 20
58.2455721486
 11
211.0690350776
 21
58.2443823895
  0
LINE
  5
23D
100
AcDbEntity
  8
00_COMPONENTS_17
100
AcDbLine
 62
7
  6
CONTINUOUS
 10
269.5758061636
 20
58.2408743961
 11
269.5715627711
 21
58.2400176405
  0
LINE
  5
23E
100
AcDbEntity
  8
00_COMPONENTS_17
100
AcDbLine
 62
7
  6
CONTINUOUS
 10
211.0758061636
 20
58.2408743961
 11
211.0715627711
 21
58.2400176405
  0
LINE
  5
23F
100
AcDbEntity
  8
00_COMPONENTS_17
100
AcDbLine
 62
7
  6
CONTINUOUS
 10
269.5760328055
 20
58.2416453048
 11
269.5717955951
 21
58.2408076435
  0
LINE
  5
240
100
AcDbEntity
  8
00_COMPONENTS_17
100
AcDbLine
 62
7
  6
CONTINUOUS
 10
211.0760328055
 20
58.2416453048
 11
211.0717955951
 21
58.2408076435
  0
LINE
  5
241
100
AcDbEntity
  8
00_COMPONENTS_17
100
AcDbLine
 62
7
  6
CONTINUOUS
 10
270.8166612794
 20
58.4197487525
 11
270.7513167104
 21
58.4197487525
  0
LINE
  5
242
100
AcDbEntity
  8
00_COMPONENTS_17
100
AcDbLine
 62
7
  6
CONTINUOUS
 10
269.2695548411
 20
58.4197487525
 11
268.2395548411
 21
58.4197487525
  0
LINE
  5
243
100
AcDbEntity
  8
00_COMPONENTS_17
100
AcDbLine
 62
7
  6
CONTINUOUS
 10
266.7577929718
 20
58.4197487525
 11
266.6924484036
 21
58.4197487525
  0
LINE
  5
244
100
AcDbEntity
  8
00_COMPONENTS_17
100
AcDbLine
 62
7
  6
CONTINUOUS
 10
212.3166612794
 20
58.4197487525
 11
212.2513167104
 21
58.4197487525
  0
LINE
  5
245
100
AcDbEntity
  8
00_COMPONENTS_17
100
AcDbLine
 62
7
  6
CONTINUOUS
 10
210.7695548411
 20
58.4197487525
 11
209.7395548411
 21
58.4197487525
  0
LINE
  5
246
100
AcDbEntity
  8
00_COMPONENTS_17
100
AcDbLine
 62
7
  6
CONTINUOUS
 10
208.2577929718
 20
58.4197487525
 11
208.1924484036
 21
58.4197487525
  0
LINE
  5
247
100
AcDbEntity
  8
00_COMPONENTS_17
100
AcDbLine
 62
7
  6
CONTINUOUS
 10
153.8166612794
 20
58.4197487525
 11
153.7513167104
 21
58.4197487525
  0
LINE
  5
248
100
AcDbEntity
  8
00_COMPONENTS_17
100
AcDbLine
 62
7
  6
CONTINUOUS
 10
152.2695548411
 20
58.4197487525
 11
151.2395548411
 21
58.4197487525
  0
LINE
  5
249
100
AcDbEntity
  8
00_COMPONENTS_17
100
AcDbLine
 62
7
  6
CONTINUOUS
 10
149.7577929718
 20
58.4197487525
 11
149.6924484036
 21
58.4197487525
  0
LINE
  5
24A
100
AcDbEntity
  8
00_COMPONENTS_32
100
AcDbLine
 62
7
  6
CONTINUOUS
 10
132.6545548411
 20
58.7440901598
 11
354.0545548411
 21
58.7440901598
  0
LINE
  5
24B
100
AcDbEntity
  8
00_COMPONENTS_32
100
AcDbLine
 62
7
  6
CONTINUOUS
 10
132.6545548411
 20
59.9440901598
 11
354.0545548411
 21
59.9440901598
  0
LINE
  5
24C
100
AcDbEntity
  8
00_COMPONENTS_28
100
AcDbLine
 62
7
  6
CONTINUOUS
 10
364.7648514525
 20
60.7440901598
 11
380.2648514526
 21
60.7440901598
  0
LINE
  5
24D
100
AcDbEntity
  8
00_COMPONENTS_28
100
AcDbLine
 62
7
  6
CONTINUOUS
 10
364.7648514525
 20
61.9440901598
 11
380.2648514526
 21
61.9440901598
  0
LINE
  5
24E
100
AcDbEntity
  8
00_COMPONENTS_17
100
AcDbLine
 62
7
  6
CONTINUOUS
 10
268.1019627657
 20
58.2145940171
 11
268.0932860968
 21
58.2153247226
  0
LINE
  5
24F
100
AcDbEntity
  8
00_COMPONENTS_17
100
AcDbLine
 62
7
  6
CONTINUOUS
 10
267.9330921977
 20
58.241642276
 11
267.9366027988
 21
58.2409482593
  0
LINE
  5
250
100
AcDbEntity
  8
00_COMPONENTS_17
100
AcDbLine
 62
7
  6
CONTINUOUS
 10
267.9333188639
 20
58.2408712914
 11
267.9368346615
 21
58.2401611955
  0
LINE
  5
251
100
AcDbEntity
  8
00_COMPONENTS_17
100
AcDbLine
 62
7
  6
CONTINUOUS
 10
152.5758099442
 20
58.2489657239
 11
152.5700168968
 21
58.247747835
  0
LINE
  5
252
100
AcDbEntity
  8
00_COMPONENTS_17
100
AcDbLine
 62
7
  6
CONTINUOUS
 10
152.5748232446
 20
58.2455721486
 11
152.5690350776
 21
58.2443823895
  0
LINE
  5
253
100
AcDbEntity
  8
00_COMPONENTS_17
100
AcDbLine
 62
7
  6
CONTINUOUS
 10
152.5758061636
 20
58.2408743961
 11
152.5715627711
 21
58.2400176405
  0
LINE
  5
254
100
AcDbEntity
  8
00_COMPONENTS_17
100
AcDbLine
 62
7
  6
CONTINUOUS
 10
152.5760328055
 20
58.2416453048
 11
152.5717955951
 21
58.2408076435
  0
LINE
  5
255
100
AcDbEntity
  8
00_COMPONENTS_32
100
AcDbLine
 62
7
  6
CONTINUOUS
 10
359.6361728319
 20
78.2811505185
 11
363.4648514525
 21
77.5369307846
  0
LINE
  5
256
100
AcDbEntity
  8
00_COMPONENTS_32
100
AcDbLine
 62
7
  6
CONTINUOUS
 10
363.4648514525
 20
78.7149016923
 11
359.6361728319
 21
79.4591031386
  0
LINE
  5
257
100
AcDbEntity
  8
00_COMPONENTS_28
100
AcDbLine
 62
7
  6
CONTINUOUS
 10
382.8861379941
 20
655.379534756
 11
382.4206424759
 21
655.0535912852
  0
LINE
  5
258
100
AcDbEntity
  8
00_COMPONENTS_28
100
AcDbLine
 62
7
  6
CONTINUOUS
 10
382.8861379943
 20
62.1086455635
 11
382.4206424759
 21
62.4345890344
  0
LINE
  5
259
100
AcDbEntity
  8
00_COMPONENTS_32
100
AcDbLine
 62
7
  6
CONTINUOUS
 10
130.2545548411
 20
61.1440901598
 11
130.2545548411
 21
656.3440901598
  0
LINE
  5
25A
100
AcDbEntity
  8
00_COMPONENTS_17
100
AcDbLine
 62
7
  6
CONTINUOUS
 10
152.5768342397
 20
58.2153202551
 11
152.5760328055
 21
58.2416453048
  0
LINE
  5
25B
100
AcDbEntity
  8
00_COMPONENTS_17
100
AcDbLine
 62
7
  6
CONTINUOUS
 10
152.5768525441
 20
58.2145940171
 11
152.5768342397
 21
58.2153202551
  0
LINE
  5
25C
100
AcDbEntity
  8
00_COMPONENTS_32
100
AcDbLine
 62
7
  6
CONTINUOUS
 10
132.6545548411
 20
658.7440901598
 11
132.6545548411
 21
58.7440901598
  0
LINE
  5
25D
100
AcDbEntity
  8
00_COMPONENTS_17
100
AcDbLine
 62
7
  6
CONTINUOUS
 10
151.2395548411
 20
58.4197487525
 11
151.2395548411
 21
58.2199892703
  0
LINE
  5
25E
100
AcDbEntity
  8
00_COMPONENTS_17
100
AcDbLine
 62
7
  6
CONTINUOUS
 10
152.2695548411
 20
58.2199892703
 11
152.2695548411
 21
58.4197487525
  0
LINE
  5
25F
100
AcDbEntity
  8
00_COMPONENTS_17
100
AcDbLine
 62
7
  6
CONTINUOUS
 10
150.932384613
 20
58.2196110647
 11
150.9322571382
 21
58.2145940171
  0
LINE
  5
260
100
AcDbEntity
  8
00_COMPONENTS_17
100
AcDbLine
 62
7
  6
CONTINUOUS
 10
150.932384613
 20
58.2196110647
 11
150.933055547
 21
58.2416495215
  0
LINE
  5
261
100
AcDbEntity
  8
00_COMPONENTS_17
100
AcDbLine
 62
7
  6
CONTINUOUS
 10
211.0768342397
 20
58.2153202551
 11
211.0760328055
 21
58.2416453048
  0
LINE
  5
262
100
AcDbEntity
  8
00_COMPONENTS_17
100
AcDbLine
 62
7
  6
CONTINUOUS
 10
211.0768525441
 20
58.2145940171
 11
211.0768342397
 21
58.2153202551
  0
LINE
  5
263
100
AcDbEntity
  8
00_COMPONENTS_17
100
AcDbLine
 62
7
  6
CONTINUOUS
 10
209.7395548411
 20
58.4197487525
 11
209.7395548411
 21
58.2199892703
  0
LINE
  5
264
100
AcDbEntity
  8
00_COMPONENTS_17
100
AcDbLine
 62
7
  6
CONTINUOUS
 10
210.7695548411
 20
58.2199892703
 11
210.7695548411
 21
58.4197487525
  0
LINE
  5
265
100
AcDbEntity
  8
00_COMPONENTS_17
100
AcDbLine
 62
7
  6
CONTINUOUS
 10
209.432384613
 20
58.2196110647
 11
209.4322571382
 21
58.2145940171
  0
LINE
  5
266
100
AcDbEntity
  8
00_COMPONENTS_17
100
AcDbLine
 62
7
  6
CONTINUOUS
 10
209.432384613
 20
58.2196110647
 11
209.433055547
 21
58.2416495215
  0
LINE
  5
267
100
AcDbEntity
  8
00_COMPONENTS_36
100
AcDbLine
 62
7
  6
CONTINUOUS
 10
384.3034667364
 20
328.9733752508
 11
385.0459130287
 21
329.1445201843
  0
LINE
  5
268
100
AcDbEntity
  8
00_COMPONENTS_36
100
AcDbLine
 62
7
  6
CONTINUOUS
 10
384.3034656582
 20
328.9733752131
 11
383.4648514525
 21
328.9440901598
  0
LINE
  5
269
100
AcDbEntity
  8
00_COMPONENTS_36
100
AcDbLine
 62
7
  6
CONTINUOUS
 10
389.4451218777
 20
335.7300386911
 11
389.4546181546
 21
335.730041768
  0
LINE
  5
26A
100
AcDbEntity
  8
00_COMPONENTS_17
100
AcDbLine
 62
7
  6
CONTINUOUS
 10
269.5768342397
 20
58.2153202551
 11
269.5760328055
 21
58.2416453048
  0
LINE
  5
26B
100
AcDbEntity
  8
00_COMPONENTS_17
100
AcDbLine
 62
7
  6
CONTINUOUS
 10
269.5768525441
 20
58.2145940171
 11
269.5768342397
 21
58.2153202551
  0
LINE
  5
26C
100
AcDbEntity
  8
00_COMPONENTS_17
100
AcDbLine
 62
7
  6
CONTINUOUS
 10
268.2395548411
 20
58.4197487525
 11
268.2395548411
 21
58.2199892703
  0
LINE
  5
26D
100
AcDbEntity
  8
00_COMPONENTS_17
100
AcDbLine
 62
7
  6
CONTINUOUS
 10
269.2695548411
 20
58.2199892703
 11
269.2695548411
 21
58.4197487525
  0
LINE
  5
26E
100
AcDbEntity
  8
00_COMPONENTS_17
100
AcDbLine
 62
7
  6
CONTINUOUS
 10
267.932384613
 20
58.2196110647
 11
267.9322571382
 21
58.2145940171
  0
LINE
  5
26F
100
AcDbEntity
  8
00_COMPONENTS_17
100
AcDbLine
 62
7
  6
CONTINUOUS
 10
267.932384613
 20
58.2196110647
 11
267.933055547
 21
58.2416495215
  0
LINE
  5
270
100
AcDbEntity
  8
00_COMPONENTS_36
100
AcDbLine
 62
7
  6
CONTINUOUS
 10
389.4546181546
 20
370.7295541158
 11
389.4451243278
 21
370.7295541158
  0
LINE
  5
271
100
AcDbEntity
  8
00_COMPONENTS_36
100
AcDbLine
 62
7
  6
CONTINUOUS
 10
389.4546181546
 20
372.1581451783
 11
389.4451230092
 21
372.1581451783
  0
LINE
  5
272
100
AcDbEntity
  8
00_COMPONENTS_36
100
AcDbLine
 62
7
  6
CONTINUOUS
 10
384.3034656582
 20
378.9148051064
 11
383.4648514525
 21
378.9440901598
  0
LINE
  5
273
100
AcDbEntity
  8
00_COMPONENTS_36
100
AcDbLine
 62
7
  6
CONTINUOUS
 10
384.3034667364
 20
378.9148050687
 11
385.0459130287
 21
378.7436601352
  0
LINE
  5
274
100
AcDbEntity
  8
00_COMPONENTS_32
100
AcDbLine
 62
7
  6
CONTINUOUS
 10
354.0545548411
 20
58.7440901598
 11
354.0545548411
 21
657.5440901598
  0
LINE
  5
275
100
AcDbEntity
  8
00_COMPONENTS_32
100
AcDbLine
 62
7
  6
CONTINUOUS
 10
354.0545548411
 20
657.5440901598
 11
354.0545525182
 21
658.7440901598
  0
LINE
  5
276
100
AcDbEntity
  8
00_COMPONENTS_32
100
AcDbLine
 62
7
  6
CONTINUOUS
 10
357.2545548411
 20
655.5440901598
 11
357.2545548411
 21
61.9440901598
  0
LINE
  5
277
100
AcDbEntity
  8
00_COMPONENTS_32
100
AcDbLine
 62
7
  6
CONTINUOUS
 10
359.6361746642
 20
638.0290738548
 11
359.6361728319
 21
79.4591031386
  0
LINE
  5
278
100
AcDbEntity
  8
00_COMPONENTS_28
100
AcDbLine
 62
7
  6
CONTINUOUS
 10
363.4648514525
 20
654.652580714
 11
363.4648514525
 21
62.8355996055
  0
LINE
  5
279
100
AcDbEntity
  8
00_COMPONENTS_28
100
AcDbLine
 62
7
  6
CONTINUOUS
 10
364.7648514525
 20
656.7440901598
 11
364.7648514525
 21
60.7440901598
  0
LWPOLYLINE
  5
27A
100
AcDbEntity
  8
00_COMPONENTS_36
100
AcDbPolyline
 62
7
  6
CONTINUOUS
 90
3
 70
0
 10
389.1236974662
 20
370.9050544326
 10
389.0788213814
 20
371.3758465722
 10
389.0648517624
 20
371.6956570781
  0
LWPOLYLINE
  5
27B
100
AcDbEntity
  8
00_COMPONENTS_36
100
AcDbPolyline
 62
7
  6
CONTINUOUS
 90
7
 70
0
 10
389.4544115049
 20
370.7386434693
 10
389.3678503053
 20
371.7310424211
 10
389.2562724164
 20
372.4904997465
 10
389.1642129627
 20
373.0204875167
 10
389.1042522313
 20
373.3675500249
 10
389.0739669565
 20
373.5765027924
 10
389.0648610484
 20
373.6942077954
  0
LWPOLYLINE
  5
27C
100
AcDbEntity
  8
00_COMPONENTS_36
100
AcDbPolyline
 62
7
  6
CONTINUOUS
 90
3
 70
0
 10
389.4543478521
 20
372.1684143208
 10
389.4216312378
 20
372.5911355384
 10
389.2708234481
 20
373.545055413
  0
LWPOLYLINE
  5
27D
100
AcDbEntity
  8
00_COMPONENTS_36
100
AcDbPolyline
 62
7
  6
CONTINUOUS
 90
4
 70
0
 10
389.2687935143
 20
368.6854526684
 10
389.225809546
 20
369.6908009364
 10
389.1915988483
 20
370.1794539782
 10
389.1236947647
 20
370.9051409178
  0
LINE
  5
27E
100
AcDbEntity
  8
00_COMPONENTS_36
100
AcDbLine
 62
7
  6
CONTINUOUS
 10
389.2586923858
 20
368.6852670524
 11
389.2585180018
 21
368.6918356661
  0
LINE
  5
27F
100
AcDbEntity
  8
00_COMPONENTS_36
100
AcDbLine
 62
7
  6
CONTINUOUS
 10
389.2586509958
 20
368.6852483854
 11
389.2585180018
 21
368.6918356661
  0
LINE
  5
280
100
AcDbEntity
  8
00_COMPONENTS_36
100
AcDbLine
 62
7
  6
CONTINUOUS
 10
389.0648517508
 20
336.1923900935
 11
389.0648514528
 21
336.1936863916
  0
LINE
  5
281
100
AcDbEntity
  8
00_COMPONENTS_28
100
AcDbLine
 62
7
  6
CONTINUOUS
 10
374.7969615087
 20
60.7440901598
 11
374.7969615087
 21
656.7440901598
  0
LINE
  5
282
100
AcDbEntity
  8
00_COMPONENTS_28
100
AcDbLine
 62
7
  6
CONTINUOUS
 10
376.4352655973
 20
656.7440901598
 11
376.4352655973
 21
655.5440901598
  0
LINE
  5
283
100
AcDbEntity
  8
00_COMPONENTS_28
100
AcDbLine
 62
7
  6
CONTINUOUS
 10
376.4352655973
 20
61.9440901598
 11
376.4352655973
 21
60.7440901598
  0
LINE
  5
284
100
AcDbEntity
  8
00_COMPONENTS_28
100
AcDbLine
 62
7
  6
CONTINUOUS
 10
377.4182480504
 20
655.5440901598
 11
377.4182480504
 21
61.9440901598
  0
LINE
  5
285
100
AcDbEntity
  8
00_COMPONENTS_28
100
AcDbLine
 62
7
  6
CONTINUOUS
 10
380.2648514526
 20
60.7440901598
 11
380.2648514526
 21
61.9440901598
  0
LINE
  5
286
100
AcDbEntity
  8
00_COMPONENTS_28
100
AcDbLine
 62
7
  6
CONTINUOUS
 10
380.2648514526
 20
655.5440901598
 11
380.2648514526
 21
656.7440901598
  0
LINE
  5
287
100
AcDbEntity
  8
00_COMPONENTS_28
100
AcDbLine
 62
7
  6
CONTINUOUS
 10
382.8861379943
 20
62.5405014468
 11
382.8861379943
 21
654.9476788728
  0
LINE
  5
288
100
AcDbEntity
  8
00_COMPONENTS_28
100
AcDbLine
 62
7
  6
CONTINUOUS
 10
383.4648514525
 20
653.5440901598
 11
383.4648514525
 21
63.9440901598
  0
LINE
  5
289
100
AcDbEntity
  8
00_COMPONENTS_36
100
AcDbLine
 62
7
  6
CONTINUOUS
 10
384.3034667364
 20
328.9733752508
 11
384.3034667364
 21
331.8422378105
  0
LINE
  5
28A
100
AcDbEntity
  8
00_COMPONENTS_36
100
AcDbLine
 62
7
  6
CONTINUOUS
 10
384.3034667364
 20
376.045944015
 11
384.3034667364
 21
378.9148050687
  0
LINE
  5
28B
100
AcDbEntity
  8
00_COMPONENTS_36
100
AcDbLine
 62
7
  6
CONTINUOUS
 10
385.0459186445
 20
378.7436576393
 11
385.0459186445
 21
375.8944213382
  0
LINE
  5
28C
100
AcDbEntity
  8
00_COMPONENTS_36
100
AcDbLine
 62
7
  6
CONTINUOUS
 10
385.0459186445
 20
331.9937546029
 11
385.0459186445
 21
329.1445226802
  0
LINE
  5
28D
100
AcDbEntity
  8
00_COMPONENTS_36
100
AcDbLine
 62
7
  6
CONTINUOUS
 10
385.6044496174
 20
338.7136689696
 11
385.6044496174
 21
369.1745103489
  0
LINE
  5
28E
100
AcDbEntity
  8
00_COMPONENTS_36
100
AcDbLine
 62
7
  6
CONTINUOUS
 10
389.4279933705
 20
353.57189423
 11
389.4280192304
 21
354.3012059492
  0
LINE
  5
28F
100
AcDbEntity
  8
00_COMPONENTS_36
100
AcDbLine
 62
7
  6
CONTINUOUS
 10
389.4299706027
 20
353.5718865872
 11
389.4299762823
 21
354.3012132088
  0
LINE
  5
290
100
AcDbEntity
  8
00_COMPONENTS_36
100
AcDbLine
 62
7
  6
CONTINUOUS
 10
389.4451230094
 20
372.1581136409
 11
389.4451230094
 21
370.8451333656
  0
LINE
  5
291
100
AcDbEntity
  8
00_COMPONENTS_36
100
AcDbLine
 62
7
  6
CONTINUOUS
 10
389.4451243279
 20
370.7295329326
 11
389.4451243279
 21
362.3050580464
  0
LINE
  5
292
100
AcDbEntity
  8
00_COMPONENTS_36
100
AcDbLine
 62
7
  6
CONTINUOUS
 10
389.4451201127
 20
336.9998030705
 11
389.4451199148
 21
335.7300459043
  0
LINE
  5
293
100
AcDbEntity
  8
00_COMPONENTS_36
100
AcDbLine
 62
7
  6
CONTINUOUS
 10
389.4451300724
 20
355.1831040123
 11
389.4451371003
 21
337.1591346648
  0
LINE
  5
294
100
AcDbEntity
  8
00_COMPONENTS_36
100
AcDbLine
 62
7
  6
CONTINUOUS
 10
389.4546181546
 20
372.1581451783
 11
389.4546181546
 21
370.7386434693
  0
LINE
  5
295
100
AcDbEntity
  8
00_COMPONENTS_36
100
AcDbLine
 62
7
  6
CONTINUOUS
 10
389.4546181546
 20
370.7295541158
 11
389.4546181546
 21
362.431950922
  0
LINE
  5
296
100
AcDbEntity
  8
00_COMPONENTS_36
100
AcDbLine
 62
7
  6
CONTINUOUS
 10
389.4546181546
 20
355.0562293975
 11
389.4546181546
 21
335.7300386911
  0
LINE
  5
297
100
AcDbEntity
  8
00_COMPONENTS_36
100
AcDbLine
 62
7
  6
CONTINUOUS
 10
389.0648514527
 20
371.6944717262
 11
389.0648517201
 21
371.695698287
  0
LINE
  5
298
100
AcDbEntity
  8
00_COMPONENTS_36
100
AcDbLine
 62
7
  6
CONTINUOUS
 10
389.0648514525
 20
334.1936426902
 11
389.0648517137
 21
334.1941728295
  0
LWPOLYLINE
  5
299
100
AcDbEntity
  8
00_COMPONENTS_36
100
AcDbPolyline
 62
7
  6
CONTINUOUS
 90
3
 70
0
 10
389.2687834787
 20
339.2027359776
 10
389.4320448911
 20
353.9375558082
 10
389.2687835905
 20
368.6854443887
  0
LINE
  5
29A
100
AcDbEntity
  8
00_COMPONENTS_36
100
AcDbLine
 62
7
  6
CONTINUOUS
 10
389.2585179749
 20
339.1963429761
 11
389.258651478
 21
339.2029409868
  0
LINE
  5
29B
100
AcDbEntity
  8
00_COMPONENTS_36
100
AcDbLine
 62
7
  6
CONTINUOUS
 10
389.2585179749
 20
339.1963429761
 11
389.2586925622
 21
339.2029223996
  0
LWPOLYLINE
  5
29C
100
AcDbEntity
  8
00_COMPONENTS_36
100
AcDbPolyline
 62
7
  6
CONTINUOUS
 90
3
 70
0
 10
389.0648490703
 20
336.1924519347
 10
389.0785783741
 20
336.5090461124
 10
389.1236959033
 20
336.983106355
  0
LWPOLYLINE
  5
29D
100
AcDbEntity
  8
00_COMPONENTS_36
100
AcDbPolyline
 62
7
  6
CONTINUOUS
 90
9
 70
0
 10
389.064863545
 20
334.194220583
 10
389.0672787148
 20
334.2452000084
 10
389.0900516691
 20
334.4299652286
 10
389.1417997173
 20
334.740930166
 10
389.1788585405
 20
334.9501710203
 10
389.268151125
 20
335.4698748362
 10
389.3621897277
 20
336.112214742
 10
389.4366098236
 20
336.8521912615
 10
389.4534808927
 20
337.1448216295
  0
LINE
  5
29E
100
AcDbEntity
  8
00_COMPONENTS_36
100
AcDbLine
 62
7
  6
CONTINUOUS
 10
389.4536831874
 20
337.1367567826
 11
389.4531394226
 21
337.1269231704
  0
LWPOLYLINE
  5
29F
100
AcDbEntity
  8
00_COMPONENTS_36
100
AcDbPolyline
 62
7
  6
CONTINUOUS
 90
4
 70
0
 10
389.1236927389
 20
336.9830210931
 10
389.1909735976
 20
337.7008296658
 10
389.2253025767
 20
338.189098421
 10
389.2687935397
 20
339.2027270316
  0
LINE
  5
2A0
100
AcDbEntity
  8
00_COMPONENTS_36
100
AcDbLine
 62
7
  6
CONTINUOUS
 10
389.1236857515
 20
336.9830147005
 11
389.1236959033
 21
336.983106355
  0
LINE
  5
2A1
100
AcDbEntity
  8
00_COMPONENTS_36
100
AcDbLine
 62
7
  6
CONTINUOUS
 10
389.4536831874
 20
337.1367567826
 11
389.4524759447
 21
337.1273907067
  0
LWPOLYLINE
  5
2A2
100
AcDbEntity
  8
00_COMPONENTS_36
100
AcDbPolyline
 62
7
  6
CONTINUOUS
 90
4
 70
0
 10
389.186574666
 20
333.980715435
 10
389.2703452559
 20
334.3408699015
 10
389.4210007195
 20
335.2908924533
 10
389.4543306567
 20
335.7198069174
  0
LINE
  5
2A3
100
AcDbEntity
  8
00_COMPONENTS_36
100
AcDbLine
 62
7
  6
CONTINUOUS
 10
389.0719867675
 20
333.564902089
 11
389.186574666
 21
333.980715435
  0
LINE
  5
2A4
100
AcDbEntity
  8
00_COMPONENTS_36
100
AcDbLine
 62
7
  6
CONTINUOUS
 10
389.0596222785
 20
333.5243402358
 11
389.072181253
 21
333.5687820108
  0
LINE
  5
2A5
100
AcDbEntity
  8
00_COMPONENTS_36
100
AcDbLine
 62
7
  6
CONTINUOUS
 10
389.0562989625
 20
333.5128596477
 11
389.0719867675
 21
333.564902089
  0
LINE
  5
2A6
100
AcDbEntity
  8
00_COMPONENTS_36
100
AcDbLine
 62
7
  6
CONTINUOUS
 10
389.0538280297
 20
333.5052484161
 11
389.0654867799
 21
333.5437351593
  0
LINE
  5
2A7
100
AcDbEntity
  8
00_COMPONENTS_17
100
AcDbLine
 62
7
  6
CONTINUOUS
 10
152.464575205
 20
58.2196110647
 11
152.4709357141
 21
58.2269177147
  0
LINE
  5
2A8
100
AcDbEntity
  8
00_COMPONENTS_36
100
AcDbLine
 62
7
  6
CONTINUOUS
 10
389.0642224935
 20
374.3486478654
 11
389.0537704808
 21
374.3830617522
  0
LINE
  5
2A9
100
AcDbEntity
  8
00_COMPONENTS_36
100
AcDbLine
 62
7
  6
CONTINUOUS
 10
389.0716188086
 20
374.324457648
 11
389.0559943151
 21
374.3762733356
  0
LINE
  5
2AA
100
AcDbEntity
  8
00_COMPONENTS_36
100
AcDbLine
 62
7
  6
CONTINUOUS
 10
389.0721665786
 20
374.3193760786
 11
389.0578281803
 21
374.3697496416
  0
LINE
  5
2AB
100
AcDbEntity
  8
00_COMPONENTS_36
100
AcDbLine
 62
7
  6
CONTINUOUS
 10
389.1869546755
 20
373.9059785555
 11
389.0716188086
 21
374.324457648
  0
LINE
  5
2AC
100
AcDbEntity
  8
00_COMPONENTS_36
100
AcDbLine
 62
7
  6
CONTINUOUS
 10
389.2708234481
 20
373.545055413
 11
389.1869546755
 21
373.9059785555
  0
LINE
  5
2AD
100
AcDbEntity
  8
00_COMPONENTS_36
100
AcDbLine
 62
7
  6
CONTINUOUS
 10
389.4543341332
 20
370.7392792572
 11
389.4544106357
 21
370.7386626003
  0
LINE
  5
2AE
100
AcDbEntity
  8
00_COMPONENTS_36
100
AcDbLine
 62
7
  6
CONTINUOUS
 10
389.1236947647
 20
370.9051409178
 11
389.1237041949
 21
370.9050552149
  0
LINE
  5
2AF
100
AcDbEntity
  8
00_COMPONENTS_32
100
AcDbLine
 62
7
  6
CONTINUOUS
 10
359.8651436264
 20
79.4591031386
 11
359.636172832
 21
78.2811505185
  0
LINE
  5
2B0
100
AcDbEntity
  8
00_COMPONENTS_32
100
AcDbLine
 62
7
  6
CONTINUOUS
 10
359.6361742993
 20
639.2070300863
 11
359.8651436263
 21
638.0290771809
  0
LINE
  5
2B1
100
AcDbEntity
  8
00_COMPONENTS_17
100
AcDbLine
 62
7
  6
CONTINUOUS
 10
210.964575205
 20
58.2196110647
 11
210.9709357141
 21
58.2269177147
  0
LINE
  5
2B2
100
AcDbEntity
  8
00_COMPONENTS_17
100
AcDbLine
 62
7
  6
CONTINUOUS
 10
269.464575205
 20
58.2196110647
 11
269.4709357141
 21
58.2269177147
  0
LINE
  5
2B3
100
AcDbEntity
  8
00_COMPONENTS_32
100
AcDbLine
 62
7
  6
CONTINUOUS
 10
359.6361746642
 20
638.0290738548
 11
363.4648514525
 21
638.7733863228
  0
LINE
  5
2B4
100
AcDbEntity
  8
00_COMPONENTS_32
100
AcDbLine
 62
7
  6
CONTINUOUS
 10
363.4648514525
 20
639.9512495349
 11
359.6361746643
 21
639.2070301572
  0
LINE
  5
2B5
100
AcDbEntity
  8
00_COMPONENTS_28
100
AcDbLine
 62
7
  6
CONTINUOUS
 10
364.7648514525
 20
655.5440901598
 11
380.2648514527
 21
655.5440901598
  0
LINE
  5
2B6
100
AcDbEntity
  8
00_COMPONENTS_28
100
AcDbLine
 62
7
  6
CONTINUOUS
 10
380.2648514526
 20
656.7440901598
 11
364.7648514525
 21
656.7440901598
  0
LINE
  5
2B7
100
AcDbEntity
  8
00_COMPONENTS_32
100
AcDbLine
 62
7
  6
CONTINUOUS
 10
132.6545548411
 20
657.5440901598
 11
354.0545548411
 21
657.5440901598
  0
LINE
  5
2B8
100
AcDbEntity
  8
00_COMPONENTS_32
100
AcDbLine
 62
7
  6
CONTINUOUS
 10
132.6545548411
 20
658.7440901598
 11
354.0545525182
 21
658.7440901598
  0
LINE
  5
2B9
100
AcDbEntity
  8
00_COMPONENTS_28
100
AcDbLine
 62
7
  6
CONTINUOUS
 10
380.2648514527
 20
655.5440901598
 11
382.8861379943
 21
654.9476788728
  0
ARC
  5
2BA
100
AcDbEntity
  8
00_COMPONENTS_36
100
AcDbCircle
 62
7
  6
CONTINUOUS
 10
38.4162641278
 20
348.4853260375
 40
350.9652014189
100
AcDbArc
 50
358.4844520931
 51
358.6648659418
  0
ARC
  5
2BB
100
AcDbEntity
  8
00_COMPONENTS_17
100
AcDbCircle
 62
7
  6
CONTINUOUS
 10
151.7545548411
 20
65.9948714098
 40
7.85078125
100
AcDbArc
 50
247.7705779234
 51
254.7718910933
  0
ARC
  5
2BC
100
AcDbEntity
  8
00_COMPONENTS_17
100
AcDbCircle
 62
7
  6
CONTINUOUS
 10
210.2545548411
 20
65.9948714098
 40
7.85078125
100
AcDbArc
 50
247.7705779234
 51
254.7718910933
  0
ARC
  5
2BD
100
AcDbEntity
  8
00_COMPONENTS_17
100
AcDbCircle
 62
7
  6
CONTINUOUS
 10
151.7545548411
 20
65.9948714098
 40
7.8338714079
100
AcDbArc
 50
255.2330357366
 51
262.964275686
  0
ARC
  5
2BE
100
AcDbEntity
  8
00_COMPONENTS_17
100
AcDbCircle
 62
7
  6
CONTINUOUS
 10
151.7545548411
 20
65.9948714098
 40
7.8338714079
100
AcDbArc
 50
277.035724314
 51
284.7669642634
  0
ARC
  5
2BF
100
AcDbEntity
  8
00_COMPONENTS_17
100
AcDbCircle
 62
7
  6
CONTINUOUS
 10
210.2545548411
 20
65.9948714098
 40
7.8338714079
100
AcDbArc
 50
255.2330357366
 51
262.964275686
  0
ARC
  5
2C0
100
AcDbEntity
  8
00_COMPONENTS_17
100
AcDbCircle
 62
7
  6
CONTINUOUS
 10
210.2545548411
 20
65.9948714098
 40
7.8338714079
100
AcDbArc
 50
277.035724314
 51
284.7669642634
  0
ARC
  5
2C1
100
AcDbEntity
  8
00_COMPONENTS_17
100
AcDbCircle
 62
7
  6
CONTINUOUS
 10
151.7549465668
 20
66.0202468813
 40
7.8329180055
100
AcDbArc
 50
264.7963677527
 51
265.154349564
  0
ARC
  5
2C2
100
AcDbEntity
  8
00_COMPONENTS_17
100
AcDbCircle
 62
7
  6
CONTINUOUS
 10
210.2549465666
 20
66.0202468788
 40
7.832918003
100
AcDbArc
 50
264.7963677526
 51
265.1543495641
  0
ARC
  5
2C3
100
AcDbEntity
  8
00_COMPONENTS_17
100
AcDbCircle
 62
7
  6
CONTINUOUS
 10
151.754165081
 20
66.0202243357
 40
7.8328953745
100
AcDbArc
 50
274.8452631691
 51
275.2036328862
  0
ARC
  5
2C4
100
AcDbEntity
  8
00_COMPONENTS_17
100
AcDbCircle
 62
7
  6
CONTINUOUS
 10
210.254165081
 20
66.0202243361
 40
7.832895375
100
AcDbArc
 50
274.8452631691
 51
275.2036328862
  0
ARC
  5
2C5
100
AcDbEntity
  8
00_COMPONENTS_17
100
AcDbCircle
 62
7
  6
CONTINUOUS
 10
151.5130896179
 20
63.3944297059
 40
5.2571863363
100
AcDbArc
 50
279.8869228933
 51
281.5871094962
  0
ARC
  5
2C6
100
AcDbEntity
  8
00_COMPONENTS_17
100
AcDbCircle
 62
7
  6
CONTINUOUS
 10
210.0130896179
 20
63.3944297058
 40
5.2571863362
100
AcDbArc
 50
279.8869228933
 51
281.5871094962
  0
ARC
  5
2C7
100
AcDbEntity
  8
00_COMPONENTS_17
100
AcDbCircle
 62
7
  6
CONTINUOUS
 10
151.9720318888
 20
63.3729641253
 40
5.2361530932
100
AcDbArc
 50
258.5973976249
 51
259.7971693229
  0
ARC
  5
2C8
100
AcDbEntity
  8
00_COMPONENTS_17
100
AcDbCircle
 62
7
  6
CONTINUOUS
 10
210.4720318887
 20
63.3729641251
 40
5.2361530931
100
AcDbArc
 50
258.5973976249
 51
259.797169323
  0
ARC
  5
2C9
100
AcDbEntity
  8
00_COMPONENTS_17
100
AcDbCircle
 62
7
  6
CONTINUOUS
 10
151.5371830372
 20
63.3724017824
 40
5.2355810006
100
AcDbArc
 50
280.2027872341
 51
281.3947387574
  0
ARC
  5
2CA
100
AcDbEntity
  8
00_COMPONENTS_17
100
AcDbCircle
 62
7
  6
CONTINUOUS
 10
210.0371830373
 20
63.372401782
 40
5.2355810002
100
AcDbArc
 50
280.2027872341
 51
281.3947387574
  0
ARC
  5
2CB
100
AcDbEntity
  8
00_COMPONENTS_17
100
AcDbCircle
 62
7
  6
CONTINUOUS
 10
151.0166913191
 20
62.1463871683
 40
3.9327177122
100
AcDbArc
 50
271.2424173978
 51
273.2486398697
  0
ARC
  5
2CC
100
AcDbEntity
  8
00_COMPONENTS_17
100
AcDbCircle
 62
7
  6
CONTINUOUS
 10
152.4924183632
 20
62.1463871683
 40
3.9327177122
100
AcDbArc
 50
266.7513601303
 51
268.7575826022
  0
ARC
  5
2CD
100
AcDbEntity
  8
00_COMPONENTS_17
100
AcDbCircle
 62
7
  6
CONTINUOUS
 10
209.5166913191
 20
62.1463871684
 40
3.9327177122
100
AcDbArc
 50
271.2424173978
 51
273.2486398697
  0
ARC
  5
2CE
100
AcDbEntity
  8
00_COMPONENTS_17
100
AcDbCircle
 62
7
  6
CONTINUOUS
 10
210.9924183632
 20
62.1463871684
 40
3.9327177122
100
AcDbArc
 50
266.7513601303
 51
268.7575826022
  0
ARC
  5
2CF
100
AcDbEntity
  8
00_COMPONENTS_17
100
AcDbCircle
 62
7
  6
CONTINUOUS
 10
151.0169513779
 20
62.1179520067
 40
3.9042767203
100
AcDbArc
 50
266.7410506153
 51
268.7570032812
  0
ARC
  5
2D0
100
AcDbEntity
  8
00_COMPONENTS_17
100
AcDbCircle
 62
7
  6
CONTINUOUS
 10
152.4921583044
 20
62.1179520067
 40
3.9042767204
100
AcDbArc
 50
271.2429967188
 51
273.2589493847
  0
ARC
  5
2D1
100
AcDbEntity
  8
00_COMPONENTS_17
100
AcDbCircle
 62
7
  6
CONTINUOUS
 10
209.5169513779
 20
62.1179520067
 40
3.9042767203
100
AcDbArc
 50
266.7410506153
 51
268.7570032812
  0
ARC
  5
2D2
100
AcDbEntity
  8
00_COMPONENTS_17
100
AcDbCircle
 62
7
  6
CONTINUOUS
 10
210.9921583044
 20
62.1179520067
 40
3.9042767204
100
AcDbArc
 50
271.2429967188
 51
273.2589493847
  0
ARC
  5
2D3
100
AcDbEntity
  8
00_COMPONENTS_17
100
AcDbCircle
 62
7
  6
CONTINUOUS
 10
151.9616841049
 20
61.1976935527
 40
3.0451535552
100
AcDbArc
 50
281.6544973822
 51
284.195477626
  0
ARC
  5
2D4
100
AcDbEntity
  8
00_COMPONENTS_17
100
AcDbCircle
 62
7
  6
CONTINUOUS
 10
210.4616841049
 20
61.1976935527
 40
3.0451535552
100
AcDbArc
 50
281.6544973822
 51
284.195477626
  0
ARC
  5
2D5
100
AcDbEntity
  8
00_COMPONENTS_32
100
AcDbCircle
 62
7
  6
CONTINUOUS
 10
132.6545548411
 20
61.1440901598
 40
2.4
100
AcDbArc
 50
180.0
 51
270.0
  0
ARC
  5
2D6
100
AcDbEntity
  8
00_COMPONENTS_36
100
AcDbCircle
 62
7
  6
CONTINUOUS
 10
39.0425659525
 20
359.4149488351
 40
350.3387988988
100
AcDbArc
 50
1.3348548418
 51
1.5162811361
  0
ARC
  5
2D7
100
AcDbEntity
  8
00_COMPONENTS_32
100
AcDbCircle
 62
7
  6
CONTINUOUS
 10
132.6545548411
 20
656.3440901598
 40
2.4
100
AcDbArc
 50
90.0
 51
180.0
  0
ARC
  5
2D8
100
AcDbEntity
  8
00_COMPONENTS_32
100
AcDbCircle
 62
7
  6
CONTINUOUS
 10
310.6632695166
 20
133.7619428205
 40
73.1244027001
100
AcDbArc
 50
311.6440874252
 51
311.9510290612
  0
ARC
  5
2D9
100
AcDbEntity
  8
00_COMPONENTS_32
100
AcDbCircle
 62
7
  6
CONTINUOUS
 10
338.9901711783
 20
102.2099175321
 40
30.7222547976
100
AcDbArc
 50
311.9980151242
 51
312.2232420061
  0
ARC
  5
2DA
100
AcDbEntity
  8
00_COMPONENTS_17
100
AcDbCircle
 62
7
  6
CONTINUOUS
 10
268.7545548411
 20
65.9948714098
 40
7.85078125
100
AcDbArc
 50
247.7705779234
 51
254.7718910933
  0
ARC
  5
2DB
100
AcDbEntity
  8
00_COMPONENTS_17
100
AcDbCircle
 62
7
  6
CONTINUOUS
 10
268.7545548411
 20
65.9948714098
 40
7.8338714079
100
AcDbArc
 50
255.2330357366
 51
262.964275686
  0
ARC
  5
2DC
100
AcDbEntity
  8
00_COMPONENTS_17
100
AcDbCircle
 62
7
  6
CONTINUOUS
 10
268.7545548411
 20
65.9948714098
 40
7.8338714079
100
AcDbArc
 50
277.035724314
 51
284.7669642634
  0
ARC
  5
2DD
100
AcDbEntity
  8
00_COMPONENTS_17
100
AcDbCircle
 62
7
  6
CONTINUOUS
 10
268.7549465668
 20
66.020246881
 40
7.8329180052
100
AcDbArc
 50
264.7963677527
 51
265.154349564
  0
ARC
  5
2DE
100
AcDbEntity
  8
00_COMPONENTS_17
100
AcDbCircle
 62
7
  6
CONTINUOUS
 10
268.7541650811
 20
66.0202243345
 40
7.8328953734
100
AcDbArc
 50
274.8452631691
 51
275.2036328863
  0
ARC
  5
2DF
100
AcDbEntity
  8
00_COMPONENTS_17
100
AcDbCircle
 62
7
  6
CONTINUOUS
 10
268.5130896179
 20
63.3944297059
 40
5.2571863363
100
AcDbArc
 50
279.8869228933
 51
281.5871094962
  0
ARC
  5
2E0
100
AcDbEntity
  8
00_COMPONENTS_17
100
AcDbCircle
 62
7
  6
CONTINUOUS
 10
268.9720318887
 20
63.3729641249
 40
5.2361530928
100
AcDbArc
 50
258.5973976249
 51
259.797169323
  0
ARC
  5
2E1
100
AcDbEntity
  8
00_COMPONENTS_17
100
AcDbCircle
 62
7
  6
CONTINUOUS
 10
268.5371830372
 20
63.3724017822
 40
5.2355810004
100
AcDbArc
 50
280.2027872341
 51
281.3947387574
  0
ARC
  5
2E2
100
AcDbEntity
  8
00_COMPONENTS_17
100
AcDbCircle
 62
7
  6
CONTINUOUS
 10
268.0166913191
 20
62.1463871683
 40
3.9327177121
100
AcDbArc
 50
271.2424173978
 51
273.2486398697
  0
ARC
  5
2E3
100
AcDbEntity
  8
00_COMPONENTS_17
100
AcDbCircle
 62
7
  6
CONTINUOUS
 10
269.4924183632
 20
62.1463871683
 40
3.9327177121
100
AcDbArc
 50
266.7513601303
 51
268.7575826022
  0
ARC
  5
2E4
100
AcDbEntity
  8
00_COMPONENTS_17
100
AcDbCircle
 62
7
  6
CONTINUOUS
 10
268.0169513779
 20
62.1179520067
 40
3.9042767203
100
AcDbArc
 50
266.7410506153
 51
268.7570032812
  0
ARC
  5
2E5
100
AcDbEntity
  8
00_COMPONENTS_17
100
AcDbCircle
 62
7
  6
CONTINUOUS
 10
269.4921583044
 20
62.1179520067
 40
3.9042767203
100
AcDbArc
 50
271.2429967188
 51
273.2589493847
  0
ARC
  5
2E6
100
AcDbEntity
  8
00_COMPONENTS_17
100
AcDbCircle
 62
7
  6
CONTINUOUS
 10
268.9616841049
 20
61.1976935529
 40
3.0451535554
100
AcDbArc
 50
281.6544973823
 51
284.1954776259
  0
ARC
  5
2E7
100
AcDbEntity
  8
00_COMPONENTS_32
100
AcDbCircle
 62
7
  6
CONTINUOUS
 10
419.4645968765
 20
11.4531591897
 40
90.5740034846
100
AcDbArc
 50
131.6639861841
 51
131.8610597596
  0
ARC
  5
2E8
100
AcDbEntity
  8
00_COMPONENTS_28
100
AcDbCircle
 62
7
  6
CONTINUOUS
 10
367.535047116
 20
69.0810820554
 40
7.6475405024
100
AcDbArc
 50
244.1631895015
 51
244.9442985028
  0
ARC
  5
2E9
100
AcDbEntity
  8
00_COMPONENTS_28
100
AcDbCircle
 62
7
  6
CONTINUOUS
 10
380.2648514525
 20
63.9440901598
 40
3.2
100
AcDbArc
 50
270.0000000002
 51
360.0
  0
ARC
  5
2EA
100
AcDbEntity
  8
00_COMPONENTS_32
100
AcDbCircle
 62
7
  6
CONTINUOUS
 10
354.0545548411
 20
61.9440901598
 40
3.2
100
AcDbArc
 50
270.0
 51
360.0
  0
ARC
  5
2EB
100
AcDbEntity
  8
00_COMPONENTS_32
100
AcDbCircle
 62
7
  6
CONTINUOUS
 10
359.2545548411
 20
76.3178961516
 40
2.0
100
AcDbArc
 50
79.0
 51
180.0
  0
ARC
  5
2EC
100
AcDbEntity
  8
00_COMPONENTS_32
100
AcDbCircle
 62
7
  6
CONTINUOUS
 10
354.0545548411
 20
61.9440901598
 40
2.0
100
AcDbArc
 50
270.0
 51
316.5325774632
  0
ARC
  5
2ED
100
AcDbEntity
  8
00_COMPONENTS_28
100
AcDbCircle
 62
7
  6
CONTINUOUS
 10
364.7648514525
 20
62.0440901598
 40
1.3
100
AcDbArc
 50
154.1472554366
 51
270.0
  0
ARC
  5
2EE
100
AcDbEntity
  8
00_COMPONENTS_36
100
AcDbCircle
 62
7
  6
CONTINUOUS
 10
370.2828436441
 20
338.6024954804
 40
19.2409833902
100
AcDbArc
 50
351.2127760531
 51
351.6400944143
  0
ARC
  5
2EF
100
AcDbEntity
  8
00_COMPONENTS_36
100
AcDbCircle
 62
7
  6
CONTINUOUS
 10
379.3518505211
 20
336.4685740744
 40
10.1444218581
100
AcDbArc
 50
343.7761599989
 51
345.4245876859
  0
ARC
  5
2F0
100
AcDbEntity
  8
00_COMPONENTS_36
100
AcDbCircle
 62
7
  6
CONTINUOUS
 10
379.5956542371
 20
336.404069781
 40
9.8922317066
100
AcDbArc
 50
345.4308092993
 51
346.65394152
  0
ARC
  5
2F1
100
AcDbEntity
  8
00_COMPONENTS_36
100
AcDbCircle
 62
7
  6
CONTINUOUS
 10
379.8528619196
 20
336.3427039042
 40
9.6278050699
100
AcDbArc
 50
346.6559461388
 51
348.6350803467
  0
ARC
  5
2F2
100
AcDbEntity
  8
00_COMPONENTS_36
100
AcDbCircle
 62
7
  6
CONTINUOUS
 10
379.9682827331
 20
336.2854823784
 40
9.501384072
100
AcDbArc
 50
343.2280597637
 51
343.7977189828
  0
ARC
  5
2F3
100
AcDbEntity
  8
00_COMPONENTS_36
100
AcDbCircle
 62
7
  6
CONTINUOUS
 10
380.2275886127
 20
336.2675218718
 40
9.2456108606
100
AcDbArc
 50
348.6342456176
 51
351.4997091765
  0
ARC
  5
2F4
100
AcDbEntity
  8
00_COMPONENTS_36
100
AcDbCircle
 62
7
  6
CONTINUOUS
 10
382.0240181192
 20
335.9440901598
 40
7.4408333333
100
AcDbArc
 50
293.9615779879
 51
340.8667596862
  0
ARC
  5
2F5
100
AcDbEntity
  8
00_COMPONENTS_36
100
AcDbCircle
 62
7
  6
CONTINUOUS
 10
391.9628537099
 20
336.1367905416
 40
2.9090597254
100
AcDbArc
 50
179.0915693292
 51
179.8067202618
  0
ARC
  5
2F6
100
AcDbEntity
  8
00_COMPONENTS_36
100
AcDbCircle
 62
7
  6
CONTINUOUS
 10
390.1319953818
 20
334.1086300484
 40
1.0787006394
100
AcDbArc
 50
175.9253760209
 51
176.8308505009
  0
ARC
  5
2F7
100
AcDbEntity
  8
00_COMPONENTS_36
100
AcDbCircle
 62
7
  6
CONTINUOUS
 10
388.5957910616
 20
355.0557561976
 40
0.8588295049
100
AcDbArc
 50
0.0315802027
 51
8.5241047206
  0
ARC
  5
2F8
100
AcDbEntity
  8
00_COMPONENTS_36
100
AcDbCircle
 62
7
  6
CONTINUOUS
 10
389.2546181546
 20
337.1586262038
 40
0.2
100
AcDbArc
 50
355.9929755443
 51
0.1788296323
  0
ARC
  5
2F9
100
AcDbEntity
  8
00_COMPONENTS_36
100
AcDbCircle
 62
7
  6
CONTINUOUS
 10
389.2546181546
 20
335.7300351412
 40
0.2
100
AcDbArc
 50
357.0682251473
 51
360.0
  0
ARC
  5
2FA
100
AcDbEntity
  8
00_COMPONENTS_32
100
AcDbCircle
 62
7
  6
CONTINUOUS
 10
420.0484999263
 20
706.6850736084
 40
91.447761731
100
AcDbArc
 50
228.1382221117
 51
228.3334581826
  0
ARC
  5
2FB
100
AcDbEntity
  8
00_COMPONENTS_32
100
AcDbCircle
 62
7
  6
CONTINUOUS
 10
310.6612976508
 20
583.7303034236
 40
73.1226982016
100
AcDbArc
 50
48.0458147901
 51
48.3526409825
  0
ARC
  5
2FC
100
AcDbEntity
  8
00_COMPONENTS_32
100
AcDbCircle
 62
7
  6
CONTINUOUS
 10
338.7582776133
 20
615.0230917402
 40
31.0670518754
100
AcDbArc
 50
47.7763087116
 51
47.9993234092
  0
ARC
  5
2FD
100
AcDbEntity
  8
00_COMPONENTS_36
100
AcDbCircle
 62
7
  6
CONTINUOUS
 10
369.7065919413
 20
369.19884873
 40
19.8237510779
100
AcDbArc
 50
8.1863131564
 51
9.1505761091
  0
ARC
  5
2FE
100
AcDbEntity
  8
00_COMPONENTS_36
100
AcDbCircle
 62
7
  6
CONTINUOUS
 10
373.2690241896
 20
369.716146242
 40
16.2239604559
100
AcDbArc
 50
6.7989438809
 51
8.1694931142
  0
ARC
  5
2FF
100
AcDbEntity
  8
00_COMPONENTS_36
100
AcDbCircle
 62
7
  6
CONTINUOUS
 10
379.4382876878
 20
371.4435913015
 40
10.054732087
100
AcDbArc
 50
14.7171074419
 51
16.3741632464
  0
ARC
  5
300
100
AcDbEntity
  8
00_COMPONENTS_36
100
AcDbCircle
 62
7
  6
CONTINUOUS
 10
379.6349818234
 20
371.4940439732
 40
9.8516738369
100
AcDbArc
 50
13.3815719041
 51
14.7239241128
  0
ARC
  5
301
100
AcDbEntity
  8
00_COMPONENTS_36
100
AcDbCircle
 62
7
  6
CONTINUOUS
 10
379.8778741633
 20
371.5510738942
 40
9.6021772426
100
AcDbArc
 50
11.3193381124
 51
13.3859409891
  0
ARC
  5
302
100
AcDbEntity
  8
00_COMPONENTS_36
100
AcDbCircle
 62
7
  6
CONTINUOUS
 10
379.8717875693
 20
371.5750034008
 40
9.6017687668
100
AcDbArc
 50
16.3676492473
 51
16.7902014857
  0
ARC
  5
303
100
AcDbEntity
  8
00_COMPONENTS_36
100
AcDbCircle
 62
7
  6
CONTINUOUS
 10
380.3116322982
 20
371.6352681166
 40
9.160331333
100
AcDbArc
 50
8.4296436476
 51
11.3354771413
  0
ARC
  5
304
100
AcDbEntity
  8
00_COMPONENTS_36
100
AcDbCircle
 62
7
  6
CONTINUOUS
 10
382.0240181192
 20
371.9440901598
 40
7.4408333333
100
AcDbArc
 50
19.1334460692
 51
66.0384220121
  0
ARC
  5
305
100
AcDbEntity
  8
00_COMPONENTS_36
100
AcDbCircle
 62
7
  6
CONTINUOUS
 10
382.437073155
 20
370.3725487301
 40
7.0268373384
100
AcDbArc
 50
2.9918339819
 51
3.5956312558
  0
ARC
  5
306
100
AcDbEntity
  8
00_COMPONENTS_28
100
AcDbCircle
 62
7
  6
CONTINUOUS
 10
380.2648514525
 20
653.5440901598
 40
3.2
100
AcDbArc
 50
0.0
 51
89.9999999998
  0
ARC
  5
307
100
AcDbEntity
  8
00_COMPONENTS_32
100
AcDbCircle
 62
7
  6
CONTINUOUS
 10
354.0545548411
 20
655.5440901598
 40
3.2
100
AcDbArc
 50
8.4350686968
 51
90.0000207955
  0
ARC
  5
308
100
AcDbEntity
  8
00_COMPONENTS_32
100
AcDbCircle
 62
7
  6
CONTINUOUS
 10
359.2545548411
 20
641.170284168
 40
2.0
100
AcDbArc
 50
180.0
 51
281.0000267386
  0
ARC
  5
309
100
AcDbEntity
  8
00_COMPONENTS_32
100
AcDbCircle
 62
7
  6
CONTINUOUS
 10
354.0545548411
 20
655.5440901598
 40
2.0
100
AcDbArc
 50
43.4779820151
 51
90.0
  0
ARC
  5
30A
100
AcDbEntity
  8
00_COMPONENTS_28
100
AcDbCircle
 62
7
  6
CONTINUOUS
 10
364.7648514525
 20
655.4440901598
 40
1.3
100
AcDbArc
 50
90.0
 51
204.788595342
  0
ARC
  5
30B
100
AcDbEntity
  8
00_COMPONENTS_28
100
AcDbCircle
 62
7
  6
CONTINUOUS
 10
364.2104121167
 20
654.2956183991
 40
0.8684247592
100
AcDbArc
 50
131.3679771333
 51
134.9403782044
  0
ARC
  5
30C
100
AcDbEntity
  8
00_COMPONENTS_36
100
AcDbCircle
 62
7
  6
CONTINUOUS
 10
388.5958026634
 20
362.4324221323
 40
0.8588178697
100
AcDbArc
 50
351.4716869662
 51
359.9685527422
  0
ARC
  5
30D
100
AcDbEntity
  8
00_COMPONENTS_36
100
AcDbCircle
 62
7
  6
CONTINUOUS
 10
389.2546181546
 20
372.1581451783
 40
0.2
100
AcDbArc
 50
0.0
 51
2.9438011919
  0
ARC
  5
30E
100
AcDbEntity
  8
00_COMPONENTS_36
100
AcDbCircle
 62
7
  6
CONTINUOUS
 10
389.2546181546
 20
370.7295541158
 40
0.2
100
AcDbArc
 50
0.0
 51
2.6051944181
  0
SPLINE
  5
30F
100
AcDbEntity
  8
00_COMPONENTS_17
100
AcDbSpline
 62
7
  6
CONTINUOUS
 70
0
 71
3
 72
9
 73
5
 74
0
 42
0.0000001
 43
0.0000001
 44
0.0000000001
 40
0.0
 40
0.0
 40
0.0
 40
0.0
 40
0.255106682
 40
1.0
 40
1.0
 40
1.0
 40
1.0
 10
270.1443193221
 20
58.3940901598
 30
0.0
 10
270.0965591039
 20
58.379094961
 30
0.0
 10
269.9086555528
 20
58.3225384731
 30
0.0
 10
269.7179821172
 20
58.2750806513
 30
0.0
 10
269.5748232446
 20
58.2455721486
 30
0.0
  0
LINE
  5
310
100
AcDbEntity
  8
00_COMPONENTS_17
100
AcDbLine
 62
7
  6
CONTINUOUS
 10
269.4157708857
 20
58.2153202551
 11
269.411404702
 21
58.2149565883
  0
LINE
  5
311
100
AcDbEntity
  8
00_COMPONENTS_17
100
AcDbLine
 62
7
  6
CONTINUOUS
 10
269.411404702
 20
58.2149565883
 11
269.4071469166
 21
58.2145940171
  0
SPLINE
  5
312
100
AcDbEntity
  8
00_COMPONENTS_17
100
AcDbSpline
 62
7
  6
CONTINUOUS
 70
0
 71
3
 72
9
 73
5
 74
0
 42
0.0000001
 43
0.0000001
 44
0.0000000001
 40
0.0
 40
0.0
 40
0.0
 40
0.0
 40
0.2538726973
 40
1.0
 40
1.0
 40
1.0
 40
1.0
 10
267.5095021314
 20
58.3440901598
 30
0.0
 10
267.5450176346
 20
58.3340089756
 30
0.0
 10
267.6852731662
 20
58.295585646
 30
0.0
 10
267.8269706684
 20
58.2623880119
 30
0.0
 10
267.9333188639
 20
58.2408712914
 30
0.0
  0
SPLINE
  5
313
100
AcDbEntity
  8
00_COMPONENTS_17
100
AcDbSpline
 62
7
  6
CONTINUOUS
 70
0
 71
3
 72
9
 73
5
 74
0
 42
0.0000001
 43
0.0000001
 44
0.0000000001
 40
0.0
 40
0.0
 40
0.0
 40
0.0
 40
0.2542764768
 40
1.0
 40
1.0
 40
1.0
 40
1.0
 10
267.932384613
 20
58.2196110647
 30
0.0
 10
267.8958338705
 20
58.2274594555
 30
0.0
 10
267.7526656314
 20
58.2609253706
 30
0.0
 10
267.611941403
 20
58.3050209673
 30
0.0
 10
267.5095021314
 20
58.3440901598
 30
0.0
  0
SPLINE
  5
314
100
AcDbEntity
  8
00_COMPONENTS_17
100
AcDbSpline
 62
7
  6
CONTINUOUS
 70
0
 71
3
 72
9
 73
5
 74
0
 42
0.0000001
 43
0.0000001
 44
0.0000000001
 40
0.0
 40
0.0
 40
0.0
 40
0.0
 40
0.2462187459
 40
1.0
 40
1.0
 40
1.0
 40
1.0
 10
270.1443193221
 20
58.3940901598
 30
0.0
 10
270.1096757133
 20
58.3789227403
 30
0.0
 10
269.9676579617
 20
58.3203532772
 30
0.0
 10
269.82069052
 20
58.2739258089
 30
0.0
 10
269.7084497499
 20
58.2455246473
 30
0.0
  0
SPLINE
  5
315
100
AcDbEntity
  8
00_COMPONENTS_17
100
AcDbSpline
 62
7
  6
CONTINUOUS
 70
0
 71
3
 72
9
 73
5
 74
0
 42
0.0000001
 43
0.0000001
 44
0.0000000001
 40
0.0
 40
0.0
 40
0.0
 40
0.0
 40
0.255106682
 40
1.0
 40
1.0
 40
1.0
 40
1.0
 10
153.1443193221
 20
58.3940901598
 30
0.0
 10
153.0965591039
 20
58.379094961
 30
0.0
 10
152.9086555528
 20
58.3225384731
 30
0.0
 10
152.7179821172
 20
58.2750806513
 30
0.0
 10
152.5748232446
 20
58.2455721486
 30
0.0
  0
LINE
  5
316
100
AcDbEntity
  8
00_COMPONENTS_17
100
AcDbLine
 62
7
  6
CONTINUOUS
 10
152.4157708857
 20
58.2153202551
 11
152.411404702
 21
58.2149565883
  0
LINE
  5
317
100
AcDbEntity
  8
00_COMPONENTS_17
100
AcDbLine
 62
7
  6
CONTINUOUS
 10
152.411404702
 20
58.2149565883
 11
152.4071469166
 21
58.2145940171
  0
SPLINE
  5
318
100
AcDbEntity
  8
00_COMPONENTS_17
100
AcDbSpline
 62
7
  6
CONTINUOUS
 70
0
 71
3
 72
9
 73
5
 74
0
 42
0.0000001
 43
0.0000001
 44
0.0000000001
 40
0.0
 40
0.0
 40
0.0
 40
0.0
 40
0.2538726973
 40
1.0
 40
1.0
 40
1.0
 40
1.0
 10
150.5095021314
 20
58.3440901598
 30
0.0
 10
150.5450176346
 20
58.3340089756
 30
0.0
 10
150.6852731662
 20
58.295585646
 30
0.0
 10
150.8269706684
 20
58.2623880119
 30
0.0
 10
150.9333188639
 20
58.2408712914
 30
0.0
  0
SPLINE
  5
319
100
AcDbEntity
  8
00_COMPONENTS_17
100
AcDbSpline
 62
7
  6
CONTINUOUS
 70
0
 71
3
 72
9
 73
5
 74
0
 42
0.0000001
 43
0.0000001
 44
0.0000000001
 40
0.0
 40
0.0
 40
0.0
 40
0.0
 40
0.2542764768
 40
1.0
 40
1.0
 40
1.0
 40
1.0
 10
150.932384613
 20
58.2196110647
 30
0.0
 10
150.8958338705
 20
58.2274594555
 30
0.0
 10
150.7526656314
 20
58.2609253706
 30
0.0
 10
150.611941403
 20
58.3050209673
 30
0.0
 10
150.5095021314
 20
58.3440901598
 30
0.0
  0
SPLINE
  5
31A
100
AcDbEntity
  8
00_COMPONENTS_17
100
AcDbSpline
 62
7
  6
CONTINUOUS
 70
0
 71
3
 72
9
 73
5
 74
0
 42
0.0000001
 43
0.0000001
 44
0.0000000001
 40
0.0
 40
0.0
 40
0.0
 40
0.0
 40
0.2462187459
 40
1.0
 40
1.0
 40
1.0
 40
1.0
 10
153.1443193221
 20
58.3940901598
 30
0.0
 10
153.1096757133
 20
58.3789227403
 30
0.0
 10
152.9676579617
 20
58.3203532772
 30
0.0
 10
152.82069052
 20
58.2739258089
 30
0.0
 10
152.7084497499
 20
58.2455246473
 30
0.0
  0
SPLINE
  5
31B
100
AcDbEntity
  8
00_COMPONENTS_17
100
AcDbSpline
 62
7
  6
CONTINUOUS
 70
0
 71
3
 72
9
 73
5
 74
0
 42
0.0000001
 43
0.0000001
 44
0.0000000001
 40
0.0
 40
0.0
 40
0.0
 40
0.0
 40
0.255106682
 40
1.0
 40
1.0
 40
1.0
 40
1.0
 10
211.6443193221
 20
58.3940901598
 30
0.0
 10
211.5965591039
 20
58.379094961
 30
0.0
 10
211.4086555528
 20
58.3225384731
 30
0.0
 10
211.2179821172
 20
58.2750806513
 30
0.0
 10
211.0748232446
 20
58.2455721486
 30
0.0
  0
LINE
  5
31C
100
AcDbEntity
  8
00_COMPONENTS_17
100
AcDbLine
 62
7
  6
CONTINUOUS
 10
210.9157708857
 20
58.2153202551
 11
210.911404702
 21
58.2149565883
  0
LINE
  5
31D
100
AcDbEntity
  8
00_COMPONENTS_17
100
AcDbLine
 62
7
  6
CONTINUOUS
 10
210.911404702
 20
58.2149565883
 11
210.9071469166
 21
58.2145940171
  0
SPLINE
  5
31E
100
AcDbEntity
  8
00_COMPONENTS_17
100
AcDbSpline
 62
7
  6
CONTINUOUS
 70
0
 71
3
 72
9
 73
5
 74
0
 42
0.0000001
 43
0.0000001
 44
0.0000000001
 40
0.0
 40
0.0
 40
0.0
 40
0.0
 40
0.2538726973
 40
1.0
 40
1.0
 40
1.0
 40
1.0
 10
209.0095021314
 20
58.3440901598
 30
0.0
 10
209.0450176346
 20
58.3340089756
 30
0.0
 10
209.1852731662
 20
58.295585646
 30
0.0
 10
209.3269706684
 20
58.2623880119
 30
0.0
 10
209.4333188639
 20
58.2408712914
 30
0.0
  0
SPLINE
  5
31F
100
AcDbEntity
  8
00_COMPONENTS_17
100
AcDbSpline
 62
7
  6
CONTINUOUS
 70
0
 71
3
 72
9
 73
5
 74
0
 42
0.0000001
 43
0.0000001
 44
0.0000000001
 40
0.0
 40
0.0
 40
0.0
 40
0.0
 40
0.2542764768
 40
1.0
 40
1.0
 40
1.0
 40
1.0
 10
209.432384613
 20
58.2196110647
 30
0.0
 10
209.3958338705
 20
58.2274594555
 30
0.0
 10
209.2526656314
 20
58.2609253706
 30
0.0
 10
209.111941403
 20
58.3050209673
 30
0.0
 10
209.0095021314
 20
58.3440901598
 30
0.0
  0
SPLINE
  5
320
100
AcDbEntity
  8
00_COMPONENTS_17
100
AcDbSpline
 62
7
  6
CONTINUOUS
 70
0
 71
3
 72
9
 73
5
 74
0
 42
0.0000001
 43
0.0000001
 44
0.0000000001
 40
0.0
 40
0.0
 40
0.0
 40
0.0
 40
0.2462187459
 40
1.0
 40
1.0
 40
1.0
 40
1.0
 10
211.6443193221
 20
58.3940901598
 30
0.0
 10
211.6096757133
 20
58.3789227403
 30
0.0
 10
211.4676579617
 20
58.3203532772
 30
0.0
 10
211.32069052
 20
58.2739258089
 30
0.0
 10
211.2084497499
 20
58.2455246473
 30
0.0
  0
LINE
  5
321
100
AcDbEntity
  8
00_COMPONENTS_36
100
AcDbLine
 62
7
  6
CONTINUOUS
 10
389.4451199148
 20
335.7300459043
 11
389.4446015344
 21
335.7204968413
  0
SPLINE
  5
322
100
AcDbEntity
  8
00_COMPONENTS_36
100
AcDbSpline
 62
7
  6
CONTINUOUS
 70
0
 71
3
 72
24
 73
20
 74
0
 42
0.0000001
 43
0.0000001
 44
0.0000000001
 40
0.0
 40
0.0
 40
0.0
 40
0.0
 40
0.2274612205
 40
0.438955907
 40
0.5355395922
 40
0.6242485271
 40
0.7040227037
 40
0.7738543576
 40
0.8325303456
 40
0.879152077
 40
0.9138754356
 40
0.9373268848
 40
0.9450569246
 40
0.9504737033
 40
0.9546223033
 40
0.9594148374
 40
0.9661343278
 40
0.9751246219
 40
1.0
 40
1.0
 40
1.0
 40
1.0
 10
389.4446015344
 20
335.7204968413
 30
0.0
 10
389.4373387453
 20
335.5882469323
 30
0.0
 10
389.416458977
 20
335.3333404082
 30
0.0
 10
389.3725555768
 20
335.024391496
 30
0.0
 10
389.3290348666
 20
334.7974443489
 30
0.0
 10
389.2949672957
 20
334.6468732199
 30
0.0
 10
389.2598552892
 20
334.5125962895
 30
0.0
 10
389.225114989
 20
334.3963584915
 30
0.0
 10
389.1918361652
 20
334.299951407
 30
0.0
 10
389.1609744637
 20
334.2243509886
 30
0.0
 10
389.133656444
 20
334.1698739977
 30
0.0
 10
389.1130253271
 20
334.1370659688
 30
0.0
 10
389.0980743798
 20
334.1219087517
 30
0.0
 10
389.0891564467
 20
334.1164611547
 30
0.0
 10
389.0800928951
 20
334.1174202772
 30
0.0
 10
389.0739726484
 20
334.1249563077
 30
0.0
 10
389.0698676659
 20
334.1361451511
 30
0.0
 10
389.0654120507
 20
334.1594706116
 30
0.0
 10
389.064852434
 20
334.1792599705
 30
0.0
 10
389.0648517732
 20
334.1937447409
 30
0.0
  0
SPLINE
  5
323
100
AcDbEntity
  8
00_COMPONENTS_36
100
AcDbSpline
 62
7
  6
CONTINUOUS
 70
0
 71
3
 72
12
 73
8
 74
0
 42
0.0000001
 43
0.0000001
 44
0.0000000001
 40
0.0
 40
0.0
 40
0.0
 40
0.0
 40
0.0795102477
 40
0.1720586757
 40
0.4016237913
 40
0.6839574644
 40
1.0
 40
1.0
 40
1.0
 40
1.0
 10
385.0459652585
 20
331.9937766698
 30
0.0
 10
385.0374748072
 20
332.0451008921
 30
0.0
 10
384.9943145573
 20
332.1519457793
 30
0.0
 10
384.8344450511
 20
332.3623259671
 30
0.0
 10
384.5164432367
 20
332.6066740997
 30
0.0
 10
384.0331434772
 20
332.8537993868
 30
0.0
 10
383.6627607425
 20
332.9843367864
 30
0.0
 10
383.4648503683
 20
333.0442470892
 30
0.0
  0
SPLINE
  5
324
100
AcDbEntity
  8
00_COMPONENTS_36
100
AcDbSpline
 62
7
  6
CONTINUOUS
 70
0
 71
3
 72
21
 73
17
 74
0
 42
0.0000001
 43
0.0000001
 44
0.0000000001
 40
0.0
 40
0.0
 40
0.0
 40
0.0
 40
0.0556899306
 40
0.1036732893
 40
0.1430639388
 40
0.1729599434
 40
0.193479516
 40
0.2015004714
 40
0.2096167297
 40
0.2316776683
 40
0.2673510628
 40
0.3187506428
 40
0.3852923372
 40
0.5586169691
 40
0.7696399465
 40
1.0
 40
1.0
 40
1.0
 40
1.0
 10
389.0648640526
 20
371.6955694347
 30
0.0
 10
389.0648805505
 20
371.7271727748
 30
0.0
 10
389.0659293912
 20
371.7860359412
 30
0.0
 10
389.0715945253
 20
371.8670072961
 30
0.0
 10
389.0816734755
 20
371.933096694
 30
0.0
 10
389.0957881401
 20
371.9817999816
 30
0.0
 10
389.1139083042
 20
372.0116454135
 30
0.0
 10
389.1334674221
 20
372.020755259
 30
0.0
 10
389.1559120507
 20
372.0188365794
 30
0.0
 10
389.1858714585
 20
371.9928544144
 30
0.0
 10
389.2190218851
 20
371.9409853852
 30
0.0
 10
389.2555482497
 20
371.8613063013
 30
0.0
 10
389.3100896632
 20
371.7052628624
 30
0.0
 10
389.3681124981
 20
371.4553118367
 30
0.0
 10
389.4191305481
 20
371.1100504834
 30
0.0
 10
389.4384864575
 20
370.8600931343
 30
0.0
 10
389.4451285619
 20
370.729535512
 30
0.0
  0
SPLINE
  5
325
100
AcDbEntity
  8
00_COMPONENTS_36
100
AcDbSpline
 62
7
  6
CONTINUOUS
 70
0
 71
3
 72
13
 73
9
 74
0
 42
0.0000001
 43
0.0000001
 44
0.0000000001
 40
0.0
 40
0.0
 40
0.0
 40
0.0
 40
0.309304586
 40
0.6049378199
 40
0.7338520164
 40
0.8442574766
 40
0.9331252227
 40
1.0
 40
1.0
 40
1.0
 40
1.0
 10
385.6044495336
 20
338.7136675651
 30
0.0
 10
385.9865545025
 20
338.7160267475
 30
0.0
 10
386.7338352641
 20
338.7394279322
 30
0.0
 10
387.6378715202
 20
338.817895178
 30
0.0
 10
388.2915572875
 20
338.9163350466
 30
0.0
 10
388.6891598601
 20
338.9973145575
 30
0.0
 10
389.0058734868
 20
339.0863517715
 30
0.0
 10
389.1855151596
 20
339.1577064647
 30
0.0
 10
389.2585423266
 20
339.1963396627
 30
0.0
  0
SPLINE
  5
326
100
AcDbEntity
  8
00_COMPONENTS_36
100
AcDbSpline
 62
7
  6
CONTINUOUS
 70
0
 71
3
 72
9
 73
5
 74
0
 42
0.0000001
 43
0.0000001
 44
0.0000000001
 40
0.0
 40
0.0
 40
0.0
 40
0.0
 40
0.6155655126
 40
1.0
 40
1.0
 40
1.0
 40
1.0
 10
389.454035265
 20
337.1446577786
 30
0.0
 10
389.4541425964
 20
337.147978925
 30
0.0
 10
389.4545187981
 20
337.1541982268
 30
0.0
 10
389.4496825612
 20
337.1574914965
 30
0.0
 10
389.4479450486
 20
337.1586262038
 30
0.0
  0
SPLINE
  5
327
100
AcDbEntity
  8
00_COMPONENTS_36
100
AcDbSpline
 62
7
  6
CONTINUOUS
 70
0
 71
3
 72
8
 73
4
 74
0
 42
0.0000001
 43
0.0000001
 44
0.0000000001
 40
0.0
 40
0.0
 40
0.0
 40
0.0
 40
1.0
 40
1.0
 40
1.0
 40
1.0
 10
385.0459117689
 20
331.9937779885
 30
0.0
 10
384.8108657054
 20
331.901304511
 30
0.0
 10
384.5559285464
 20
331.8500731429
 30
0.0
 10
384.3034667271
 20
331.842261244
 30
0.0
  0
SPLINE
  5
328
100
AcDbEntity
  8
00_COMPONENTS_36
100
AcDbSpline
 62
7
  6
CONTINUOUS
 70
0
 71
3
 72
24
 73
20
 74
0
 42
0.0000001
 43
0.0000001
 44
0.0000000001
 40
0.0
 40
0.0
 40
0.0
 40
0.0
 40
0.0248512273
 40
0.0337381536
 40
0.0403620375
 40
0.0451319531
 40
0.0492657524
 40
0.0545594298
 40
0.0620658344
 40
0.085161607
 40
0.1199430148
 40
0.1665556054
 40
0.2248567214
 40
0.2942171753
 40
0.373826875
 40
0.4625940715
 40
0.5592516988
 40
0.7712501084
 40
1.0
 40
1.0
 40
1.0
 40
1.0
 10
389.0650725917
 20
373.6942197636
 30
0.0
 10
389.0650869472
 20
373.7086879291
 30
0.0
 10
389.065633826
 20
373.7283990676
 30
0.0
 10
389.0699963472
 20
373.7515966706
 30
0.0
 10
389.0740581928
 20
373.7626807038
 30
0.0
 10
389.0800533133
 20
373.7701394228
 30
0.0
 10
389.0889289869
 20
373.7714507087
 30
0.0
 10
389.0978971381
 20
373.7664973186
 30
0.0
 10
389.1129463655
 20
373.75198983
 30
0.0
 10
389.1335374542
 20
373.7194597519
 30
0.0
 10
389.1604709412
 20
373.6650216931
 30
0.0
 10
389.1910694549
 20
373.5895367523
 30
0.0
 10
389.2243886832
 20
373.493696924
 30
0.0
 10
389.2592525523
 20
373.3781293387
 30
0.0
 10
389.294351385
 20
373.2442194975
 30
0.0
 10
389.3284234717
 20
373.0936964343
 30
0.0
 10
389.3719806297
 20
372.8664180698
 30
0.0
 10
389.4159165074
 20
372.5564456521
 30
0.0
 10
389.4374383284
 20
372.3005828362
 30
0.0
 10
389.4446220122
 20
372.1676004893
 30
0.0
  0
LINE
  5
329
100
AcDbEntity
  8
00_COMPONENTS_36
100
AcDbLine
 62
7
  6
CONTINUOUS
 10
389.4446220122
 20
372.1676004893
 11
389.445127508
 21
372.1581162918
  0
SPLINE
  5
32A
100
AcDbEntity
  8
00_COMPONENTS_36
100
AcDbSpline
 62
7
  6
CONTINUOUS
 70
0
 71
3
 72
9
 73
5
 74
0
 42
0.0000001
 43
0.0000001
 44
0.0000000001
 40
0.0
 40
0.0
 40
0.0
 40
0.0
 40
0.2397363997
 40
1.0
 40
1.0
 40
1.0
 40
1.0
 10
389.3716374836
 20
334.9008871613
 30
0.0
 10
389.3813393229
 20
334.9659299727
 30
0.0
 10
389.4188321234
 20
335.2376695332
 30
0.0
 10
389.4436191282
 20
335.5112097103
 30
0.0
 10
389.454334265
 20
335.7194831388
 30
0.0
  0
SPLINE
  5
32B
100
AcDbEntity
  8
00_COMPONENTS_36
100
AcDbSpline
 62
7
  6
CONTINUOUS
 70
0
 71
3
 72
22
 73
18
 74
0
 42
0.0000001
 43
0.0000001
 44
0.0000000001
 40
0.0
 40
0.0
 40
0.0
 40
0.0
 40
0.2303634661
 40
0.4410394079
 40
0.6138874424
 40
0.6803656544
 40
0.7315173253
 40
0.7671999749
 40
0.7798674296
 40
0.7897960221
 40
0.7980380764
 40
0.8061597626
 40
0.8268722001
 40
0.8568072737
 40
0.8961770075
 40
0.9442219386
 40
1.0
 40
1.0
 40
1.0
 40
1.0
 10
389.4531394226
 20
337.1269231704
 30
0.0
 10
389.4456814305
 20
336.9937246364
 30
0.0
 10
389.4245353181
 20
336.7389770106
 30
0.0
 10
389.3703034131
 20
336.3873410167
 30
0.0
 10
389.3084554641
 20
336.1335839033
 30
0.0
 10
389.2512594324
 20
335.9751029697
 30
0.0
 10
389.2131501227
 20
335.8948886342
 30
0.0
 10
389.1809103063
 20
335.846345333
 30
0.0
 10
389.1555977128
 20
335.8237169638
 30
0.0
 10
389.139480247
 20
335.8153501894
 30
0.0
 10
389.123722291
 20
335.8141631198
 30
0.0
 10
389.1035676608
 20
335.8235819542
 30
0.0
 10
389.0848259433
 20
335.8540980765
 30
0.0
 10
389.0702563617
 20
335.9039086486
 30
0.0
 10
389.0600920456
 20
335.9714175548
 30
0.0
 10
389.0545591823
 20
336.0541424625
 30
0.0
 10
389.0537062645
 20
336.1143020534
 30
0.0
 10
389.0538105365
 20
336.1466038514
 30
0.0
  0
SPLINE
  5
32C
100
AcDbEntity
  8
00_COMPONENTS_36
100
AcDbSpline
 62
7
  6
CONTINUOUS
 70
0
 71
3
 72
9
 73
5
 74
0
 42
0.0000001
 43
0.0000001
 44
0.0000000001
 40
0.0
 40
0.0
 40
0.0
 40
0.0
 40
0.2350953926
 40
1.0
 40
1.0
 40
1.0
 40
1.0
 10
389.0541596229
 20
336.1829120601
 30
0.0
 10
389.0544069732
 20
336.1986556302
 30
0.0
 10
389.0559676332
 20
336.2656143727
 30
0.0
 10
389.059321278
 20
336.3325230235
 30
0.0
 10
389.062544558
 20
336.3836510042
 30
0.0
  0
SPLINE
  5
32D
100
AcDbEntity
  8
00_COMPONENTS_36
100
AcDbSpline
 62
7
  6
CONTINUOUS
 70
0
 71
3
 72
9
 73
5
 74
0
 42
0.0000001
 43
0.0000001
 44
0.0000000001
 40
0.0
 40
0.0
 40
0.0
 40
0.0
 40
0.2383443423
 40
1.0
 40
1.0
 40
1.0
 40
1.0
 10
389.062544558
 20
336.3836510042
 30
0.0
 10
389.0637925138
 20
336.403446201
 30
0.0
 10
389.0694569797
 20
336.4864723402
 30
0.0
 10
389.0766589078
 20
336.5693870354
 30
0.0
 10
389.0825882342
 20
336.6324924102
 30
0.0
  0
SPLINE
  5
32E
100
AcDbEntity
  8
00_COMPONENTS_36
100
AcDbSpline
 62
7
  6
CONTINUOUS
 70
0
 71
3
 72
9
 73
5
 74
0
 42
0.0000001
 43
0.0000001
 44
0.0000000001
 40
0.0
 40
0.0
 40
0.0
 40
0.0
 40
0.2422337279
 40
1.0
 40
1.0
 40
1.0
 40
1.0
 10
389.0825882342
 20
336.6324924102
 30
0.0
 10
389.0850310444
 20
336.6584910547
 30
0.0
 10
389.0954420923
 20
336.7657892542
 30
0.0
 10
389.1068131317
 20
336.8729911486
 30
0.0
 10
389.115505713
 20
336.9542156622
 30
0.0
  0
SPLINE
  5
32F
100
AcDbEntity
  8
00_COMPONENTS_36
100
AcDbSpline
 62
7
  6
CONTINUOUS
 70
0
 71
3
 72
9
 73
5
 74
0
 42
0.0000001
 43
0.0000001
 44
0.0000000001
 40
0.0
 40
0.0
 40
0.0
 40
0.0
 40
0.255074433
 40
1.0
 40
1.0
 40
1.0
 40
1.0
 10
389.4500782571
 20
370.8132327641
 30
0.0
 10
389.4480626618
 20
370.8452914187
 30
0.0
 10
389.4392810504
 20
370.9709163712
 30
0.0
 10
389.4268610779
 20
371.0963005138
 30
0.0
 10
389.4151492393
 20
371.1893762857
 30
0.0
  0
SPLINE
  5
330
100
AcDbEntity
  8
00_COMPONENTS_36
100
AcDbSpline
 62
7
  6
CONTINUOUS
 70
0
 71
3
 72
20
 73
16
 74
0
 42
0.0000001
 43
0.0000001
 44
0.0000000001
 40
0.0
 40
0.0
 40
0.0
 40
0.0
 40
0.241131207
 40
0.3488320526
 40
0.4450262774
 40
0.5275553921
 40
0.59495184
 40
0.6465315423
 40
0.6828612563
 40
0.7065948141
 40
0.7248921265
 40
0.747997089
 40
0.7803290703
 40
0.8734754855
 40
1.0
 40
1.0
 40
1.0
 40
1.0
 10
389.4151492393
 20
371.1893762857
 30
0.0
 10
389.4017235296
 20
371.2960724527
 30
0.0
 10
389.3777234841
 20
371.4499637145
 30
0.0
 10
389.33502728
 20
371.6438449537
 30
0.0
 10
389.3017330858
 20
371.7672103962
 30
0.0
 10
389.2670936985
 20
371.8714894543
 30
0.0
 10
389.232657933
 20
371.95447008
 30
0.0
 10
389.1993912646
 20
372.015799297
 30
0.0
 10
389.1690769108
 20
372.0547898829
 30
0.0
 10
389.138488862
 20
372.0764529684
 30
0.0
 10
389.1071217616
 20
372.0691514709
 30
0.0
 10
389.0881587922
 20
372.0401744361
 30
0.0
 10
389.0666666222
 20
371.9778252464
 30
0.0
 10
389.0546230814
 20
371.8646857757
 30
0.0
 10
389.0532810291
 20
371.7670280614
 30
0.0
 10
389.0541064609
 20
371.7106078291
 30
0.0
  0
SPLINE
  5
331
100
AcDbEntity
  8
00_COMPONENTS_36
100
AcDbSpline
 62
7
  6
CONTINUOUS
 70
0
 71
3
 72
9
 73
5
 74
0
 42
0.0000001
 43
0.0000001
 44
0.0000000001
 40
0.0
 40
0.0
 40
0.0
 40
0.0
 40
0.4549021244
 40
1.0
 40
1.0
 40
1.0
 40
1.0
 10
389.0541064609
 20
371.7106078291
 30
0.0
 10
389.0558351456
 20
371.5924481045
 30
0.0
 10
389.0729755041
 20
371.3329895311
 30
0.0
 10
389.0997608943
 20
371.0746226071
 30
0.0
 10
389.1155165832
 20
370.9338988738
 30
0.0
  0
SPLINE
  5
332
100
AcDbEntity
  8
00_COMPONENTS_36
100
AcDbSpline
 62
7
  6
CONTINUOUS
 70
0
 71
3
 72
10
 73
6
 74
0
 42
0.0000001
 43
0.0000001
 44
0.0000000001
 40
0.0
 40
0.0
 40
0.0
 40
0.0
 40
0.5878716633
 40
0.8242891996
 40
1.0
 40
1.0
 40
1.0
 40
1.0
 10
389.4543351843
 20
372.1686819355
 30
0.0
 10
389.438329591
 20
372.4655349034
 30
0.0
 10
389.3903683404
 20
372.8815753463
 30
0.0
 10
389.2758305586
 20
373.3743814563
 30
0.0
 10
389.2130788367
 20
373.5735577909
 30
0.0
 10
389.1807018075
 20
373.6563052996
 30
0.0
  0
SPLINE
  5
333
100
AcDbEntity
  8
00_COMPONENTS_36
100
AcDbSpline
 62
7
  6
CONTINUOUS
 70
0
 71
3
 72
18
 73
14
 74
0
 42
0.0000001
 43
0.0000001
 44
0.0000000001
 40
0.0
 40
0.0
 40
0.0
 40
0.0
 40
0.2354486996
 40
0.4130052843
 40
0.5333467688
 40
0.573483232
 40
0.6022791892
 40
0.6240113587
 40
0.6467782117
 40
0.6774895428
 40
0.7189159295
 40
0.8364120485
 40
1.0
 40
1.0
 40
1.0
 40
1.0
 10
389.1807018075
 20
373.6563052996
 30
0.0
 10
389.1708980133
 20
373.6813613211
 30
0.0
 10
389.1527279276
 20
373.7249972583
 30
0.0
 10
389.1253177392
 20
373.7793714512
 30
0.0
 10
389.1043685556
 20
373.8122245388
 30
0.0
 10
389.0890149643
 20
373.8275346986
 30
0.0
 10
389.0800300208
 20
373.833133493
 30
0.0
 10
389.0710193967
 20
373.83333938
 30
0.0
 10
389.064208964
 20
373.8272006031
 30
0.0
 10
389.0597547905
 20
373.8172194602
 30
0.0
 10
389.054805766
 20
373.7960357214
 30
0.0
 10
389.0531304577
 20
373.7590239823
 30
0.0
 10
389.0544091796
 20
373.7269454931
 30
0.0
 10
389.0556284167
 20
373.7082913968
 30
0.0
  0
SPLINE
  5
334
100
AcDbEntity
  8
00_COMPONENTS_36
100
AcDbSpline
 62
7
  6
CONTINUOUS
 70
0
 71
3
 72
9
 73
5
 74
0
 42
0.0000001
 43
0.0000001
 44
0.0000000001
 40
0.0
 40
0.0
 40
0.0
 40
0.0
 40
0.2303016383
 40
1.0
 40
1.0
 40
1.0
 40
1.0
 10
389.0556284167
 20
373.7082913968
 30
0.0
 10
389.0559946536
 20
373.7026880421
 30
0.0
 10
389.0577701594
 20
373.6783696345
 30
0.0
 10
389.0601865573
 20
373.6541012504
 30
0.0
 10
389.0622648559
 20
373.6354495758
 30
0.0
  0
SPLINE
  5
335
100
AcDbEntity
  8
00_COMPONENTS_36
100
AcDbSpline
 62
7
  6
CONTINUOUS
 70
0
 71
3
 72
8
 73
4
 74
0
 42
0.0000001
 43
0.0000001
 44
0.0000000001
 40
0.0
 40
0.0
 40
0.0
 40
0.0
 40
1.0
 40
1.0
 40
1.0
 40
1.0
 10
389.4451233513
 20
370.729535308
 30
0.0
 10
389.4481269882
 20
370.7312265524
 30
0.0
 10
389.4512218836
 20
370.7332104759
 30
0.0
 10
389.4531277785
 20
370.7360827062
 30
0.0
  0
SPLINE
  5
336
100
AcDbEntity
  8
00_COMPONENTS_36
100
AcDbSpline
 62
7
  6
CONTINUOUS
 70
0
 71
3
 72
9
 73
5
 74
0
 42
0.0000001
 43
0.0000001
 44
0.0000000001
 40
0.0
 40
0.0
 40
0.0
 40
0.0
 40
0.5268994655
 40
1.0
 40
1.0
 40
1.0
 40
1.0
 10
389.4531277785
 20
370.7360827062
 30
0.0
 10
389.4534622126
 20
370.7365867066
 30
0.0
 10
389.4540127595
 20
370.7376058082
 30
0.0
 10
389.454288533
 20
370.7387380689
 30
0.0
 10
389.4543341332
 20
370.7392792572
 30
0.0
  0
SPLINE
  5
337
100
AcDbEntity
  8
00_COMPONENTS_36
100
AcDbSpline
 62
7
  6
CONTINUOUS
 70
0
 71
3
 72
9
 73
5
 74
0
 42
0.0000001
 43
0.0000001
 44
0.0000000001
 40
0.0
 40
0.0
 40
0.0
 40
0.0
 40
0.3046438746
 40
1.0
 40
1.0
 40
1.0
 40
1.0
 10
389.4451142708
 20
372.1581445524
 30
0.0
 10
389.4460701811
 20
372.158700742
 30
0.0
 10
389.4491217549
 20
372.1606266491
 30
0.0
 10
389.4520329926
 20
372.1630573049
 30
0.0
 10
389.4533152266
 20
372.1652317399
 30
0.0
  0
SPLINE
  5
338
100
AcDbEntity
  8
00_COMPONENTS_36
100
AcDbSpline
 62
7
  6
CONTINUOUS
 70
0
 71
3
 72
9
 73
5
 74
0
 42
0.0000001
 43
0.0000001
 44
0.0000000001
 40
0.0
 40
0.0
 40
0.0
 40
0.0
 40
0.5236607667
 40
1.0
 40
1.0
 40
1.0
 40
1.0
 10
389.4533152266
 20
372.1652317399
 30
0.0
 10
389.4536372187
 20
372.1657777799
 30
0.0
 10
389.454152185
 20
372.1668878976
 30
0.0
 10
389.4543403069
 20
372.1681053004
 30
0.0
 10
389.4543346129
 20
372.1686818955
 30
0.0
  0
SPLINE
  5
339
100
AcDbEntity
  8
00_COMPONENTS_36
100
AcDbSpline
 62
7
  6
CONTINUOUS
 70
0
 71
3
 72
9
 73
5
 74
0
 42
0.0000001
 43
0.0000001
 44
0.0000000001
 40
0.0
 40
0.0
 40
0.0
 40
0.0
 40
0.2584217134
 40
1.0
 40
1.0
 40
1.0
 40
1.0
 10
389.4543351843
 20
372.1686819355
 30
0.0
 10
389.4507270404
 20
372.2386815528
 30
0.0
 10
389.4331863191
 20
372.5093635505
 30
0.0
 10
389.4024695293
 20
372.7791551266
 30
0.0
 10
389.3730010931
 20
372.9781254041
 30
0.0
  0
LINE
  5
33A
100
AcDbEntity
  8
00_COMPONENTS_36
100
AcDbLine
 62
7
  6
CONTINUOUS
 10
389.0852118573
 20
374.278109146
 11
389.0844277507
 21
374.2807795075
  0
SPLINE
  5
33B
100
AcDbEntity
  8
00_COMPONENTS_36
100
AcDbSpline
 62
7
  6
CONTINUOUS
 70
0
 71
3
 72
8
 73
4
 74
0
 42
0.0000001
 43
0.0000001
 44
0.0000000001
 40
0.0
 40
0.0
 40
0.0
 40
0.0
 40
1.0
 40
1.0
 40
1.0
 40
1.0
 10
389.115505094
 20
336.9542166361
 30
0.0
 10
389.1197341325
 20
336.9632554673
 30
0.0
 10
389.1225822576
 20
336.9730969024
 30
0.0
 10
389.123685899
 20
336.983014927
 30
0.0
  0
SPLINE
  5
33C
100
AcDbEntity
  8
00_COMPONENTS_36
100
AcDbSpline
 62
7
  6
CONTINUOUS
 70
0
 71
3
 72
8
 73
4
 74
0
 42
0.0000001
 43
0.0000001
 44
0.0000000001
 40
0.0
 40
0.0
 40
0.0
 40
0.0
 40
1.0
 40
1.0
 40
1.0
 40
1.0
 10
389.4543187077
 20
335.7195036043
 30
0.0
 10
389.454346927
 20
335.722201404
 30
0.0
 10
389.4522567388
 20
335.7247154238
 30
0.0
 10
389.4502167185
 20
335.7264809937
 30
0.0
  0
SPLINE
  5
33D
100
AcDbEntity
  8
00_COMPONENTS_36
100
AcDbSpline
 62
7
  6
CONTINUOUS
 70
0
 71
3
 72
8
 73
4
 74
0
 42
0.0000001
 43
0.0000001
 44
0.0000000001
 40
0.0
 40
0.0
 40
0.0
 40
0.0
 40
1.0
 40
1.0
 40
1.0
 40
1.0
 10
389.4502167185
 20
335.7264809937
 30
0.0
 10
389.4486503313
 20
335.7278366499
 30
0.0
 10
389.4469075001
 20
335.7289907929
 30
0.0
 10
389.4451174534
 20
335.7300334363
 30
0.0
  0
SPLINE
  5
33E
100
AcDbEntity
  8
00_COMPONENTS_36
100
AcDbSpline
 62
7
  6
CONTINUOUS
 70
0
 71
3
 72
10
 73
6
 74
0
 42
0.0000001
 43
0.0000001
 44
0.0000000001
 40
0.0
 40
0.0
 40
0.0
 40
0.0
 40
0.5889702365
 40
0.8249500214
 40
1.0
 40
1.0
 40
1.0
 40
1.0
 10
389.454334265
 20
335.7194831388
 30
0.0
 10
389.4381788994
 20
335.421072476
 30
0.0
 10
389.3900138822
 20
335.0032605387
 30
0.0
 10
389.2744919579
 20
334.5089285917
 30
0.0
 10
389.2114442453
 20
334.3096776335
 30
0.0
 10
389.1788454736
 20
334.2270544186
 30
0.0
  0
SPLINE
  5
33F
100
AcDbEntity
  8
00_COMPONENTS_36
100
AcDbSpline
 62
7
  6
CONTINUOUS
 70
0
 71
3
 72
15
 73
11
 74
0
 42
0.0000001
 43
0.0000001
 44
0.0000000001
 40
0.0
 40
0.0
 40
0.0
 40
0.0
 40
0.2474459107
 40
0.4403219978
 40
0.5800589538
 40
0.6696863812
 40
0.7201728888
 40
0.77320394
 40
0.864643946
 40
1.0
 40
1.0
 40
1.0
 40
1.0
 10
389.1788454736
 20
334.2270544186
 30
0.0
 10
389.1700886418
 20
334.204859791
 30
0.0
 10
389.1535673312
 20
334.1657198142
 30
0.0
 10
389.1291301264
 20
334.1153923378
 30
0.0
 10
389.1069086566
 20
334.0809678934
 30
0.0
 10
389.0907615325
 20
334.0597792173
 30
0.0
 10
389.0700068108
 20
334.0521844716
 30
0.0
 10
389.0580578031
 20
334.0710218564
 30
0.0
 10
389.0547564703
 20
334.0968843762
 30
0.0
 10
389.0537091113
 20
334.1190913957
 30
0.0
 10
389.0537728748
 20
334.1321427794
 30
0.0
  0
LINE
  5
340
100
AcDbEntity
  8
00_COMPONENTS_36
100
AcDbLine
 62
7
  6
CONTINUOUS
 10
389.4451491856
 20
337.1591238324
 11
389.4444365563
 21
337.1453480337
  0
SPLINE
  5
341
100
AcDbEntity
  8
00_COMPONENTS_36
100
AcDbSpline
 62
7
  6
CONTINUOUS
 70
0
 71
3
 72
21
 73
17
 74
0
 42
0.0000001
 43
0.0000001
 44
0.0000000001
 40
0.0
 40
0.0
 40
0.0
 40
0.0
 40
0.2307751095
 40
0.4418246584
 40
0.6146983968
 40
0.6809240179
 40
0.7319821502
 40
0.7673243613
 40
0.7891792951
 40
0.7972852683
 40
0.8053655384
 40
0.8261110005
 40
0.8562532983
 40
0.8958797205
 40
0.9440893699
 40
1.0
 40
1.0
 40
1.0
 40
1.0
 10
389.4444365563
 20
337.1453480337
 30
0.0
 10
389.4375969734
 20
337.0155948703
 30
0.0
 10
389.4179144692
 20
336.7673871394
 30
0.0
 10
389.366585512
 20
336.4249492232
 30
0.0
 10
389.3085339693
 20
336.1774961234
 30
0.0
 10
389.2541564546
 20
336.0234318308
 30
0.0
 10
389.2178278594
 20
335.9450276021
 30
0.0
 10
389.1849241416
 20
335.8941616726
 30
0.0
 10
389.155046711
 20
335.8689358496
 30
0.0
 10
389.1328233733
 20
335.8675482578
 30
0.0
 10
389.1134743504
 20
335.8770224902
 30
0.0
 10
389.0955762998
 20
335.9069596803
 30
0.0
 10
389.0815465554
 20
335.9557036189
 30
0.0
 10
389.071553071
 20
336.021670045
 30
0.0
 10
389.0659248137
 20
336.1023922745
 30
0.0
 10
389.0648815103
 20
336.1610440321
 30
0.0
 10
389.0648638087
 20
336.1925233876
 30
0.0
  0
SPLINE
  5
342
100
AcDbEntity
  8
00_COMPONENTS_36
100
AcDbSpline
 62
7
  6
CONTINUOUS
 70
0
 71
3
 72
9
 73
5
 74
0
 42
0.0000001
 43
0.0000001
 44
0.0000000001
 40
0.0
 40
0.0
 40
0.0
 40
0.0
 40
0.4996001326
 40
1.0
 40
1.0
 40
1.0
 40
1.0
 10
389.286181785
 20
340.3077047301
 30
0.0
 10
389.3378030751
 20
342.5161995972
 30
0.0
 10
389.4118302404
 20
346.9374715559
 30
0.0
 10
389.428979879
 20
351.359252514
 30
0.0
 10
389.4299706027
 20
353.5718865872
 30
0.0
  0
SPLINE
  5
343
100
AcDbEntity
  8
00_COMPONENTS_36
100
AcDbSpline
 62
7
  6
CONTINUOUS
 70
0
 71
3
 72
9
 73
5
 74
0
 42
0.0000001
 43
0.0000001
 44
0.0000000001
 40
0.0
 40
0.0
 40
0.0
 40
0.0
 40
0.5003992451
 40
1.0
 40
1.0
 40
1.0
 40
1.0
 10
389.4299762823
 20
354.3012132088
 30
0.0
 10
389.4290195456
 20
356.5156578929
 30
0.0
 10
389.4119418321
 20
360.9410628483
 30
0.0
 10
389.3379436748
 20
365.3659600718
 30
0.0
 10
389.2862909282
 20
367.5762679045
 30
0.0
  0
SPLINE
  5
344
100
AcDbEntity
  8
00_COMPONENTS_36
100
AcDbSpline
 62
7
  6
CONTINUOUS
 70
0
 71
3
 72
9
 73
5
 74
0
 42
0.0000001
 43
0.0000001
 44
0.0000000001
 40
0.0
 40
0.0
 40
0.0
 40
0.0
 40
0.3794537217
 40
1.0
 40
1.0
 40
1.0
 40
1.0
 10
389.2585180538
 20
368.6918350746
 30
0.0
 10
389.2599962636
 20
368.6914016513
 30
0.0
 10
389.2635229021
 20
368.6901839118
 30
0.0
 10
389.2685497456
 20
368.6879667926
 30
0.0
 10
389.2686563151
 20
368.6854498599
 30
0.0
  0
SPLINE
  5
345
100
AcDbEntity
  8
00_COMPONENTS_36
100
AcDbSpline
 62
7
  6
CONTINUOUS
 70
0
 71
3
 72
11
 73
7
 74
0
 42
0.0000001
 43
0.0000001
 44
0.0000000001
 40
0.0
 40
0.0
 40
0.0
 40
0.0
 40
0.2326896531
 40
0.4776530732
 40
0.7341269862
 40
1.0
 40
1.0
 40
1.0
 40
1.0
 10
383.464850447
 20
373.6224104427
 30
0.0
 10
383.818668089
 20
373.4354040816
 30
0.0
 10
384.467430374
 20
372.895834651
 30
0.0
 10
385.1357294835
 20
371.8059088064
 30
0.0
 10
385.5248677274
 20
370.5330105491
 30
0.0
 10
385.6044501438
 20
369.6317790809
 30
0.0
 10
385.6044507353
 20
369.1745099171
 30
0.0
  0
SPLINE
  5
346
100
AcDbEntity
  8
00_COMPONENTS_36
100
AcDbSpline
 62
7
  6
CONTINUOUS
 70
0
 71
3
 72
11
 73
7
 74
0
 42
0.0000001
 43
0.0000001
 44
0.0000000001
 40
0.0
 40
0.0
 40
0.0
 40
0.0
 40
0.2658730083
 40
0.522346922
 40
0.767310344
 40
1.0
 40
1.0
 40
1.0
 40
1.0
 10
385.6044507404
 20
338.7136694013
 30
0.0
 10
385.6044500856
 20
338.2564003344
 30
0.0
 10
385.524867575
 20
337.355169058
 30
0.0
 10
385.1357292766
 20
336.0822710901
 30
0.0
 10
384.4674302026
 20
334.9923455026
 30
0.0
 10
383.8186680195
 20
334.4527761991
 30
0.0
 10
383.4648504399
 20
334.2657698728
 30
0.0
  0
SPLINE
  5
347
100
AcDbEntity
  8
00_COMPONENTS_36
100
AcDbSpline
 62
7
  6
CONTINUOUS
 70
0
 71
3
 72
13
 73
9
 74
0
 42
0.0000001
 43
0.0000001
 44
0.0000000001
 40
0.0
 40
0.0
 40
0.0
 40
0.0
 40
0.0668743996
 40
0.1557416953
 40
0.2661467392
 40
0.3950606663
 40
0.6906941303
 40
1.0
 40
1.0
 40
1.0
 40
1.0
 10
389.2585423473
 20
368.6918386708
 30
0.0
 10
389.1855155965
 20
368.7304716624
 30
0.0
 10
389.0058749306
 20
368.8018261019
 30
0.0
 10
388.6891628405
 20
368.8908631424
 30
0.0
 10
388.2915616954
 20
368.9718426772
 30
0.0
 10
387.6378765296
 20
369.0702828938
 30
0.0
 10
386.7338387475
 20
369.1487506956
 30
0.0
 10
385.9865560985
 20
369.172152146
 30
0.0
 10
385.6044495336
 20
369.1745114061
 30
0.0
  0
SPLINE
  5
348
100
AcDbEntity
  8
00_COMPONENTS_36
100
AcDbSpline
 62
7
  6
CONTINUOUS
 70
0
 71
3
 72
11
 73
7
 74
0
 42
0.0000001
 43
0.0000001
 44
0.0000000001
 40
0.0
 40
0.0
 40
0.0
 40
0.0
 40
0.2505273133
 40
0.5008522504
 40
0.7507520552
 40
1.0
 40
1.0
 40
1.0
 40
1.0
 10
385.0459186446
 20
375.8944266469
 30
0.0
 10
385.5427732977
 20
375.6564783826
 30
0.0
 10
386.4830254751
 20
375.061067968
 30
0.0
 10
387.6557000726
 20
373.8816744484
 30
0.0
 10
388.5563253254
 20
372.4883620065
 30
0.0
 10
388.9628213908
 20
371.4602793552
 30
0.0
 10
389.1155165832
 20
370.9338988738
 30
0.0
  0
SPLINE
  5
349
100
AcDbEntity
  8
00_COMPONENTS_36
100
AcDbSpline
 62
7
  6
CONTINUOUS
 70
0
 71
3
 72
9
 73
5
 74
0
 42
0.0000001
 43
0.0000001
 44
0.0000000001
 40
0.0
 40
0.0
 40
0.0
 40
0.0
 40
0.5284610632
 40
1.0
 40
1.0
 40
1.0
 40
1.0
 10
389.2585443731
 20
368.6918379984
 30
0.0
 10
389.2489485142
 20
369.0832123226
 30
0.0
 10
389.2146804248
 20
369.8234556862
 30
0.0
 10
389.1540568418
 20
370.5619714892
 30
0.0
 10
389.1180905277
 20
370.9094381824
 30
0.0
  0
LINE
  5
34A
100
AcDbEntity
  8
00_COMPONENTS_36
100
AcDbLine
 62
7
  6
CONTINUOUS
 10
389.1180905277
 20
370.9094381824
 11
389.1155452409
 21
370.933906503
  0
SPLINE
  5
34B
100
AcDbEntity
  8
00_COMPONENTS_36
100
AcDbSpline
 62
7
  6
CONTINUOUS
 70
0
 71
3
 72
8
 73
4
 74
0
 42
0.0000001
 43
0.0000001
 44
0.0000000001
 40
0.0
 40
0.0
 40
0.0
 40
0.0
 40
1.0
 40
1.0
 40
1.0
 40
1.0
 10
389.1155452409
 20
370.933906503
 30
0.0
 10
389.119761469
 20
370.9248762424
 30
0.0
 10
389.1226002021
 20
370.9150462558
 30
0.0
 10
389.123694932
 20
370.9051405123
 30
0.0
  0
SPLINE
  5
34C
100
AcDbEntity
  8
00_COMPONENTS_36
100
AcDbSpline
 62
7
  6
CONTINUOUS
 70
0
 71
3
 72
13
 73
9
 74
0
 42
0.0000001
 43
0.0000001
 44
0.0000000001
 40
0.0
 40
0.0
 40
0.0
 40
0.0
 40
0.0794257376
 40
0.1716756538
 40
0.2792548417
 40
0.4017804122
 40
0.6839739422
 40
1.0
 40
1.0
 40
1.0
 40
1.0
 10
385.0459601324
 20
375.8943886344
 30
0.0
 10
385.0343193034
 20
375.843722542
 30
0.0
 10
384.9931264619
 20
375.7374346083
 30
0.0
 10
384.8842505257
 20
375.5886808869
 30
0.0
 10
384.7286422378
 20
375.4449070813
 30
0.0
 10
384.4548982346
 20
375.2503259241
 30
0.0
 10
384.033287065
 20
375.0330548327
 30
0.0
 10
383.6621985974
 20
374.905931359
 30
0.0
 10
383.4648527307
 20
374.8439609185
 30
0.0
  0
SPLINE
  5
34D
100
AcDbEntity
  8
00_COMPONENTS_36
100
AcDbSpline
 62
7
  6
CONTINUOUS
 70
0
 71
3
 72
8
 73
4
 74
0
 42
0.0000001
 43
0.0000001
 44
0.0000000001
 40
0.0
 40
0.0
 40
0.0
 40
0.0
 40
1.0
 40
1.0
 40
1.0
 40
1.0
 10
384.3034667274
 20
376.045915907
 30
0.0
 10
384.5559286867
 20
376.0381031568
 30
0.0
 10
384.8108658205
 20
375.9868708944
 30
0.0
 10
385.0459117702
 20
375.8943966736
 30
0.0
  0
LINE
  5
34E
100
AcDbEntity
  8
00_COMPONENTS_36
100
AcDbLine
 62
7
  6
CONTINUOUS
 10
389.1155364224
 20
336.9542151894
 11
389.1180822139
 21
336.9787127432
  0
SPLINE
  5
34F
100
AcDbEntity
  8
00_COMPONENTS_36
100
AcDbSpline
 62
7
  6
CONTINUOUS
 70
0
 71
3
 72
9
 73
5
 74
0
 42
0.0000001
 43
0.0000001
 44
0.0000000001
 40
0.0
 40
0.0
 40
0.0
 40
0.0
 40
0.4715500334
 40
1.0
 40
1.0
 40
1.0
 40
1.0
 10
389.1180822139
 20
336.9787127432
 30
0.0
 10
389.1540163017
 20
337.3261959389
 30
0.0
 10
389.2147555186
 20
338.0647122616
 30
0.0
 10
389.2489315485
 20
338.8049713476
 30
0.0
 10
389.2585442557
 20
339.1963425034
 30
0.0
  0
SPLINE
  5
350
100
AcDbEntity
  8
00_COMPONENTS_36
100
AcDbSpline
 62
7
  6
CONTINUOUS
 70
0
 71
3
 72
13
 73
9
 74
0
 42
0.0000001
 43
0.0000001
 44
0.0000000001
 40
0.0
 40
0.0
 40
0.0
 40
0.0
 40
0.0789456253
 40
0.164891108
 40
0.2644154661
 40
0.3805797594
 40
0.6625863556
 40
1.0
 40
1.0
 40
1.0
 40
1.0
 10
384.3034481507
 20
376.0459443265
 30
0.0
 10
384.3034379818
 20
376.0192400894
 30
0.0
 10
384.2927032867
 20
375.9629913177
 30
0.0
 10
384.2453714564
 20
375.8853354894
 30
0.0
 10
384.1692912499
 20
375.8158819291
 30
0.0
 10
384.0241954734
 20
375.728980979
 30
0.0
 10
383.7851229534
 20
375.6515976891
 30
0.0
 10
383.5781630965
 20
375.6175941041
 30
0.0
 10
383.4648510897
 20
375.6039213755
 30
0.0
  0
LINE
  5
351
100
AcDbEntity
  8
00_COMPONENTS_36
100
AcDbLine
 62
7
  6
CONTINUOUS
 10
389.4479450486
 20
337.1586262038
 11
389.4535116126
 21
337.1586472766
  0
LINE
  5
352
100
AcDbEntity
  8
00_COMPONENTS_36
100
AcDbLine
 62
7
  6
CONTINUOUS
 10
389.4535116126
 20
337.1586472766
 11
389.4546184236
 21
337.1588408271
  0
SPLINE
  5
353
100
AcDbEntity
  8
00_COMPONENTS_36
100
AcDbSpline
 62
7
  6
CONTINUOUS
 70
0
 71
3
 72
9
 73
5
 74
0
 42
0.0000001
 43
0.0000001
 44
0.0000000001
 40
0.0
 40
0.0
 40
0.0
 40
0.0
 40
0.3795397162
 40
1.0
 40
1.0
 40
1.0
 40
1.0
 10
389.2585442258
 20
339.1963412645
 30
0.0
 10
389.2600213331
 20
339.1967749412
 30
0.0
 10
389.2635438567
 20
339.1979918408
 30
0.0
 10
389.2685669371
 20
339.2002157702
 30
0.0
 10
389.268666526
 20
339.2027304543
 30
0.0
  0
SPLINE
  5
354
100
AcDbEntity
  8
00_COMPONENTS_36
100
AcDbSpline
 62
7
  6
CONTINUOUS
 70
0
 71
3
 72
13
 73
9
 74
0
 42
0.0000001
 43
0.0000001
 44
0.0000000001
 40
0.0
 40
0.0
 40
0.0
 40
0.0
 40
0.3374133886
 40
0.6194199523
 40
0.735584321
 40
0.8351088091
 40
0.9210543834
 40
1.0
 40
1.0
 40
1.0
 40
1.0
 10
383.4648510901
 20
332.2842589467
 30
0.0
 10
383.5781628451
 20
332.2705862458
 30
0.0
 10
383.7851223079
 20
332.2365827528
 30
0.0
 10
384.0241944352
 20
332.1591997458
 30
0.0
 10
384.1692901883
 20
332.0722991398
 30
0.0
 10
384.2453705598
 20
332.0028458563
 30
0.0
 10
384.2927027444
 20
331.9251903317
 30
0.0
 10
384.3034377891
 20
331.8689416942
 30
0.0
 10
384.3034481488
 20
331.8422374991
 30
0.0
  0
SPLINE
  5
355
100
AcDbEntity
  8
00_COMPONENTS_36
100
AcDbSpline
 62
7
  6
CONTINUOUS
 70
0
 71
3
 72
11
 73
7
 74
0
 42
0.0000001
 43
0.0000001
 44
0.0000000001
 40
0.0
 40
0.0
 40
0.0
 40
0.0
 40
0.2492477781
 40
0.4991482156
 40
0.7494729969
 40
1.0
 40
1.0
 40
1.0
 40
1.0
 10
389.115505713
 20
336.9542156622
 30
0.0
 10
388.9628096534
 20
336.4278412238
 30
0.0
 10
388.5562959397
 20
335.399775821
 30
0.0
 10
387.6556783782
 20
334.0064774767
 30
0.0
 10
386.4830064526
 20
332.8271033203
 30
0.0
 10
385.5427680112
 20
332.2316938321
 30
0.0
 10
385.0459186446
 20
331.9937481986
 30
0.0
  0
SPLINE
  5
356
100
AcDbEntity
  8
00_COMPONENTS_36
100
AcDbSpline
 62
7
  6
CONTINUOUS
 70
0
 71
3
 72
9
 73
5
 74
0
 42
0.0000001
 43
0.0000001
 44
0.0000000001
 40
0.0
 40
0.0
 40
0.0
 40
0.0
 40
0.4568792402
 40
1.0
 40
1.0
 40
1.0
 40
1.0
 10
389.4479450486
 20
337.1586262038
 30
0.0
 10
389.4475020048
 20
337.1587644159
 30
0.0
 10
389.4466263687
 20
337.1594156034
 30
0.0
 10
389.445483282
 20
337.158954846
 30
0.0
 10
389.445087384
 20
337.1585706001
 30
0.0
  0
SPLINE
  5
357
100
AcDbEntity
  8
00_COMPONENTS_36
100
AcDbSpline
 62
7
  6
CONTINUOUS
 70
0
 71
3
 72
9
 73
5
 74
0
 42
0.0000001
 43
0.0000001
 44
0.0000000001
 40
0.0
 40
0.0
 40
0.0
 40
0.0
 40
0.2333235431
 40
1.0
 40
1.0
 40
1.0
 40
1.0
 10
389.0537728748
 20
334.1321427794
 30
0.0
 10
389.0537866081
 20
334.1349537692
 30
0.0
 10
389.0539408042
 20
334.1470009042
 30
0.0
 10
389.0544364462
 20
334.1590420734
 30
0.0
 10
389.054944425
 20
334.1682648198
 30
0.0
  0
SPLINE
  5
358
100
AcDbEntity
  8
00_COMPONENTS_36
100
AcDbSpline
 62
7
  6
CONTINUOUS
 70
0
 71
3
 72
9
 73
5
 74
0
 42
0.0000001
 43
0.0000001
 44
0.0000000001
 40
0.0
 40
0.0
 40
0.0
 40
0.0
 40
0.4250100374
 40
1.0
 40
1.0
 40
1.0
 40
1.0
 10
389.056021319
 20
334.1852778512
 30
0.0
 10
389.0604328679
 20
334.2474598595
 30
0.0
 10
389.0799159652
 20
334.3930127333
 30
0.0
 10
389.1041173122
 20
334.5376365219
 30
0.0
 10
389.1185466536
 20
334.6207295712
 30
0.0
  0
SPLINE
  5
359
100
AcDbEntity
  8
00_COMPONENTS_36
100
AcDbSpline
 62
7
  6
CONTINUOUS
 70
0
 71
3
 72
9
 73
5
 74
0
 42
0.0000001
 43
0.0000001
 44
0.0000000001
 40
0.0
 40
0.0
 40
0.0
 40
0.0
 40
0.4570393621
 40
1.0
 40
1.0
 40
1.0
 40
1.0
 10
389.1185466536
 20
334.6207295712
 30
0.0
 10
389.1461173622
 20
334.7794987199
 30
0.0
 10
389.2098862642
 20
335.126269916
 30
0.0
 10
389.2687506587
 20
335.4739431466
 30
0.0
 10
389.2979854203
 20
335.6631375484
 30
0.0
  0
SPLINE
  5
35A
100
AcDbEntity
  8
00_COMPONENTS_36
100
AcDbSpline
 62
7
  6
CONTINUOUS
 70
0
 71
3
 72
9
 73
5
 74
0
 42
0.0000001
 43
0.0000001
 44
0.0000000001
 40
0.0
 40
0.0
 40
0.0
 40
0.0
 40
0.2379130481
 40
1.0
 40
1.0
 40
1.0
 40
1.0
 10
389.3193784375
 20
335.8050350457
 30
0.0
 10
389.3346308496
 20
335.9088672788
 30
0.0
 10
389.3949767054
 20
336.3458082097
 30
0.0
 10
389.4369130871
 20
336.7855677194
 30
0.0
 10
389.4529584321
 20
337.1213509273
 30
0.0
  0
LINE
  5
35B
100
AcDbEntity
  8
00_COMPONENTS_36
100
AcDbLine
 62
7
  6
CONTINUOUS
 10
389.4529584321
 20
337.1213509273
 11
389.4536831874
 21
337.1367567826
  0
SPLINE
  5
35C
100
AcDbEntity
  8
00_COMPONENTS_36
100
AcDbSpline
 62
7
  6
CONTINUOUS
 70
0
 71
3
 72
10
 73
6
 74
0
 42
0.0000001
 43
0.0000001
 44
0.0000000001
 40
0.0
 40
0.0
 40
0.0
 40
0.0
 40
0.1796190938
 40
0.4128361517
 40
1.0
 40
1.0
 40
1.0
 40
1.0
 10
389.0622648559
 20
373.6354495758
 30
0.0
 10
389.0708985204
 20
373.55796682
 30
0.0
 10
389.098302988
 20
373.3807848144
 30
0.0
 10
389.174087678
 20
372.9534594488
 30
0.0
 10
389.237574836
 20
372.6030296036
 30
0.0
 10
389.2780622528
 20
372.3514122331
 30
0.0
  0
SPLINE
  5
35D
100
AcDbEntity
  8
00_COMPONENTS_36
100
AcDbSpline
 62
7
  6
CONTINUOUS
 70
0
 71
3
 72
9
 73
5
 74
0
 42
0.0000001
 43
0.0000001
 44
0.0000000001
 40
0.0
 40
0.0
 40
0.0
 40
0.0
 40
0.2436321358
 40
1.0
 40
1.0
 40
1.0
 40
1.0
 10
389.3788927334
 20
371.6368305927
 30
0.0
 10
389.3875146015
 20
371.5641863815
 30
0.0
 10
389.4206775349
 20
371.2657621217
 30
0.0
 10
389.4439487182
 20
370.966177725
 30
0.0
 10
389.4543327998
 20
370.7393048581
 30
0.0
  0
SPLINE
  5
35E
100
AcDbEntity
  8
00_COMPONENTS_28
100
AcDbSpline
 62
7
  6
CONTINUOUS
 70
0
 71
3
 72
8
 73
4
 74
0
 42
0.0000001
 43
0.0000001
 44
0.0000000001
 40
0.0
 40
0.0
 40
0.0
 40
0.0
 40
1.0
 40
1.0
 40
1.0
 40
1.0
 10
383.4648514525
 20
63.9440901598
 30
0.0
 10
383.4648514525
 20
63.7865866355
 30
0.0
 10
383.4414198809
 20
63.6278382849
 30
0.0
 10
383.3987413644
 20
63.476227255
 30
0.0
  0
SPLINE
  5
35F
100
AcDbEntity
  8
00_COMPONENTS_28
100
AcDbSpline
 62
7
  6
CONTINUOUS
 70
0
 71
3
 72
8
 73
4
 74
0
 42
0.0000001
 43
0.0000001
 44
0.0000000001
 40
0.0
 40
0.0
 40
0.0
 40
0.0
 40
1.0
 40
1.0
 40
1.0
 40
1.0
 10
383.3987413644
 20
63.476227255
 30
0.0
 10
383.3529382795
 20
63.3135165179
 30
0.0
 10
383.2848002758
 20
63.1563671213
 30
0.0
 10
383.2031431469
 20
63.0083643515
 30
0.0
  0
SPLINE
  5
360
100
AcDbEntity
  8
00_COMPONENTS_28
100
AcDbSpline
 62
7
  6
CONTINUOUS
 70
0
 71
3
 72
8
 73
4
 74
0
 42
0.0000001
 43
0.0000001
 44
0.0000000001
 40
0.0
 40
0.0
 40
0.0
 40
0.0
 40
1.0
 40
1.0
 40
1.0
 40
1.0
 10
383.2031431469
 20
63.0083643515
 30
0.0
 10
383.1121399952
 20
62.8434220041
 30
0.0
 10
383.003712641
 20
62.6876875672
 30
0.0
 10
382.8861379943
 20
62.5405014468
 30
0.0
  0
SPLINE
  5
361
100
AcDbEntity
  8
00_COMPONENTS_28
100
AcDbSpline
 62
7
  6
CONTINUOUS
 70
0
 71
3
 72
8
 73
4
 74
0
 42
0.0000001
 43
0.0000001
 44
0.0000000001
 40
0.0
 40
0.0
 40
0.0
 40
0.0
 40
1.0
 40
1.0
 40
1.0
 40
1.0
 10
382.8861379943
 20
654.9476788728
 30
0.0
 10
383.003712641
 20
654.8004927523
 30
0.0
 10
383.1121399952
 20
654.6447583154
 30
0.0
 10
383.2031431469
 20
654.479815968
 30
0.0
  0
SPLINE
  5
362
100
AcDbEntity
  8
00_COMPONENTS_28
100
AcDbSpline
 62
7
  6
CONTINUOUS
 70
0
 71
3
 72
8
 73
4
 74
0
 42
0.0000001
 43
0.0000001
 44
0.0000000001
 40
0.0
 40
0.0
 40
0.0
 40
0.0
 40
1.0
 40
1.0
 40
1.0
 40
1.0
 10
383.2031431469
 20
654.479815968
 30
0.0
 10
383.2848002758
 20
654.3318131982
 30
0.0
 10
383.3529382795
 20
654.1746638017
 30
0.0
 10
383.3987413644
 20
654.0119530645
 30
0.0
  0
SPLINE
  5
363
100
AcDbEntity
  8
00_COMPONENTS_28
100
AcDbSpline
 62
7
  6
CONTINUOUS
 70
0
 71
3
 72
8
 73
4
 74
0
 42
0.0000001
 43
0.0000001
 44
0.0000000001
 40
0.0
 40
0.0
 40
0.0
 40
0.0
 40
1.0
 40
1.0
 40
1.0
 40
1.0
 10
383.3987413644
 20
654.0119530645
 30
0.0
 10
383.4414198809
 20
653.8603420346
 30
0.0
 10
383.4648514525
 20
653.701593684
 30
0.0
 10
383.4648514525
 20
653.5440901598
 30
0.0
  0
SPLINE
  5
364
100
AcDbEntity
  8
00_COMPONENTS_28
100
AcDbSpline
 62
7
  6
CONTINUOUS
 70
0
 71
3
 72
9
 73
5
 74
0
 42
0.0000001
 43
0.0000001
 44
0.0000000001
 40
0.0
 40
0.0
 40
0.0
 40
0.0
 40
0.2193272796
 40
1.0
 40
1.0
 40
1.0
 40
1.0
 10
363.4648546385
 20
62.8356006237
 30
0.0
 10
363.4648706745
 20
62.8134247268
 30
0.0
 10
363.4792250487
 20
62.7119113767
 30
0.0
 10
363.5465997462
 20
62.6264157466
 30
0.0
 10
363.6032118172
 20
62.5714115227
 30
0.0
  0
SPLINE
  5
365
100
AcDbEntity
  8
00_COMPONENTS_28
100
AcDbSpline
 62
7
  6
CONTINUOUS
 70
0
 71
3
 72
9
 73
5
 74
0
 42
0.0000001
 43
0.0000001
 44
0.0000000001
 40
0.0
 40
0.0
 40
0.0
 40
0.0
 40
0.2246321424
 40
1.0
 40
1.0
 40
1.0
 40
1.0
 10
363.6032118172
 20
62.5714115227
 30
0.0
 10
363.6186961109
 20
62.5563670005
 30
0.0
 10
363.6902962522
 20
62.4921334458
 30
0.0
 10
363.7698131681
 20
62.4372998275
 30
0.0
 10
363.8329609122
 20
62.3977312642
 30
0.0
  0
SPLINE
  5
366
100
AcDbEntity
  8
00_COMPONENTS_28
100
AcDbSpline
 62
7
  6
CONTINUOUS
 70
0
 71
3
 72
9
 73
5
 74
0
 42
0.0000001
 43
0.0000001
 44
0.0000000001
 40
0.0
 40
0.0
 40
0.0
 40
0.0
 40
0.2309494415
 40
1.0
 40
1.0
 40
1.0
 40
1.0
 10
363.8329609122
 20
62.3977312642
 30
0.0
 10
363.8603531786
 20
62.3805671891
 30
0.0
 10
363.9805346646
 20
62.3087559012
 30
0.0
 10
364.1053079854
 20
62.2449374396
 30
0.0
 10
364.2021768314
 20
62.1979976158
 30
0.0
  0
SPLINE
  5
367
100
AcDbEntity
  8
00_COMPONENTS_28
100
AcDbSpline
 62
7
  6
CONTINUOUS
 70
0
 71
3
 72
8
 73
4
 74
0
 42
0.0000001
 43
0.0000001
 44
0.0000000001
 40
0.0
 40
0.0
 40
0.0
 40
0.0
 40
1.0
 40
1.0
 40
1.0
 40
1.0
 10
364.2963202042
 20
62.1532018798
 30
0.0
 10
364.4094850875
 20
62.1002581308
 30
0.0
 10
364.5237304646
 20
62.0496350316
 30
0.0
 10
364.6381552826
 20
61.9994723722
 30
0.0
  0
LINE
  5
368
100
AcDbEntity
  8
00_COMPONENTS_28
100
AcDbLine
 62
7
  6
CONTINUOUS
 10
364.6381552826
 20
61.9994723722
 11
364.7648514525
 21
61.9440901598
  0
SPLINE
  5
369
100
AcDbEntity
  8
00_COMPONENTS_28
100
AcDbSpline
 62
7
  6
CONTINUOUS
 70
0
 71
3
 72
9
 73
5
 74
0
 42
0.0000001
 43
0.0000001
 44
0.0000000001
 40
0.0
 40
0.0
 40
0.0
 40
0.0
 40
0.7615379309
 40
1.0
 40
1.0
 40
1.0
 40
1.0
 10
364.7648514525
 20
655.5440901598
 30
0.0
 10
364.6003647384
 20
655.472277119
 30
0.0
 10
364.3841613821
 20
655.3783029167
 30
0.0
 10
364.1718985635
 20
655.2758083607
 30
0.0
 10
364.1216778988
 20
655.250580867
 30
0.0
  0
SPLINE
  5
36A
100
AcDbEntity
  8
00_COMPONENTS_28
100
AcDbSpline
 62
7
  6
CONTINUOUS
 70
0
 71
3
 72
9
 73
5
 74
0
 42
0.0000001
 43
0.0000001
 44
0.0000000001
 40
0.0
 40
0.0
 40
0.0
 40
0.0
 40
0.2851103765
 40
1.0
 40
1.0
 40
1.0
 40
1.0
 10
364.1216778988
 20
655.250580867
 30
0.0
 10
364.0730321876
 20
655.2261445243
 30
0.0
 10
363.9041796384
 20
655.1376605945
 30
0.0
 10
363.7388189025
 20
655.0376771178
 30
0.0
 10
363.6364766877
 20
654.947354301
 30
0.0
  0
SPLINE
  5
36B
100
AcDbEntity
  8
00_COMPONENTS_28
100
AcDbSpline
 62
7
  6
CONTINUOUS
 70
0
 71
3
 72
8
 73
4
 74
0
 42
0.0000001
 43
0.0000001
 44
0.0000000001
 40
0.0
 40
0.0
 40
0.0
 40
0.0
 40
1.0
 40
1.0
 40
1.0
 40
1.0
 10
363.596982411
 20
654.9103261009
 30
0.0
 10
363.579823775
 20
654.8931642076
 30
0.0
 10
363.5634250426
 20
654.875175092
 30
0.0
 10
363.5482481833
 20
654.85623803
 30
0.0
  0
SPLINE
  5
36C
100
AcDbEntity
  8
00_COMPONENTS_28
100
AcDbSpline
 62
7
  6
CONTINUOUS
 70
0
 71
3
 72
9
 73
5
 74
0
 42
0.0000001
 43
0.0000001
 44
0.0000000001
 40
0.0
 40
0.0
 40
0.0
 40
0.0
 40
0.281254711
 40
1.0
 40
1.0
 40
1.0
 40
1.0
 10
363.5482481833
 20
654.85623803
 30
0.0
 10
363.535216171
 20
654.8399772199
 30
0.0
 10
363.4920320274
 20
654.7801157511
 30
0.0
 10
363.4649393433
 20
654.7058326785
 30
0.0
 10
363.4648581004
 20
654.6525797789
 30
0.0
  0
SPLINE
  5
36D
100
AcDbEntity
  8
00_COMPONENTS_32
100
AcDbSpline
 62
7
  6
CONTINUOUS
 70
0
 71
3
 72
9
 73
5
 74
0
 42
0.0000001
 43
0.0000001
 44
0.0000000001
 40
0.0
 40
0.0
 40
0.0
 40
0.0
 40
0.2608075108
 40
1.0
 40
1.0
 40
1.0
 40
1.0
 10
359.0221604454
 20
78.9095301674
 30
0.0
 10
358.9278636427
 20
78.8249416588
 30
0.0
 10
358.5679473765
 20
78.499060199
 30
0.0
 10
358.217804322
 20
78.1602799541
 30
0.0
 10
357.9827400226
 20
77.8888940634
 30
0.0
  0
SPLINE
  5
36E
100
AcDbEntity
  8
00_COMPONENTS_32
100
AcDbSpline
 62
7
  6
CONTINUOUS
 70
0
 71
3
 72
9
 73
5
 74
0
 42
0.0000001
 43
0.0000001
 44
0.0000000001
 40
0.0
 40
0.0
 40
0.0
 40
0.0
 40
0.2846507673
 40
1.0
 40
1.0
 40
1.0
 40
1.0
 10
357.9827400226
 20
77.8888940634
 30
0.0
 10
357.8740494356
 20
77.7634088586
 30
0.0
 10
357.5116490199
 20
77.312160296
 30
0.0
 10
357.2545547319
 20
76.7350981224
 30
0.0
 10
357.2545548411
 20
76.3178957358
 30
0.0
  0
SPLINE
  5
36F
100
AcDbEntity
  8
00_COMPONENTS_32
100
AcDbSpline
 62
7
  6
CONTINUOUS
 70
0
 71
3
 72
9
 73
5
 74
0
 42
0.0000001
 43
0.0000001
 44
0.0000000001
 40
0.0
 40
0.0
 40
0.0
 40
0.0
 40
0.3579477475
 40
1.0
 40
1.0
 40
1.0
 40
1.0
 10
130.2545548411
 20
656.3440901598
 30
0.0
 10
130.2545548411
 20
656.4828642981
 30
0.0
 10
130.5832016822
 20
656.7997876601
 30
0.0
 10
130.9247266418
 20
656.9346422887
 30
0.0
 10
131.1552407361
 20
657.0285798869
 30
0.0
  0
SPLINE
  5
370
100
AcDbEntity
  8
00_COMPONENTS_32
100
AcDbSpline
 62
7
  6
CONTINUOUS
 70
0
 71
3
 72
9
 73
5
 74
0
 42
0.0000001
 43
0.0000001
 44
0.0000000001
 40
0.0
 40
0.0
 40
0.0
 40
0.0
 40
0.2327044689
 40
1.0
 40
1.0
 40
1.0
 40
1.0
 10
131.1552407361
 20
657.0285798869
 30
0.0
 10
131.2137662779
 20
657.0524298334
 30
0.0
 10
131.4666094512
 20
657.1516340457
 30
0.0
 10
131.7232960036
 20
657.2407081197
 30
0.0
 10
131.9209304752
 20
657.3067737652
 30
0.0
  0
SPLINE
  5
371
100
AcDbEntity
  8
00_COMPONENTS_32
100
AcDbSpline
 62
7
  6
CONTINUOUS
 70
0
 71
3
 72
8
 73
4
 74
0
 42
0.0000001
 43
0.0000001
 44
0.0000000001
 40
0.0
 40
0.0
 40
0.0
 40
0.0
 40
1.0
 40
1.0
 40
1.0
 40
1.0
 10
131.9209304752
 20
657.3067737652
 30
0.0
 10
132.1646895964
 20
657.3882580506
 30
0.0
 10
132.4096449275
 20
657.4661329141
 30
0.0
 10
132.6545548411
 20
657.5440901598
 30
0.0
  0
SPLINE
  5
372
100
AcDbEntity
  8
00_COMPONENTS_32
100
AcDbSpline
 62
7
  6
CONTINUOUS
 70
0
 71
3
 72
8
 73
4
 74
0
 42
0.0000001
 43
0.0000001
 44
0.0000000001
 40
0.0
 40
0.0
 40
0.0
 40
0.0
 40
1.0
 40
1.0
 40
1.0
 40
1.0
 10
132.6545548411
 20
59.9440901598
 30
0.0
 10
132.4096431457
 20
60.0220479726
 30
0.0
 10
132.1646860306
 20
60.0999233988
 30
0.0
 10
131.9209251548
 20
60.1814083332
 30
0.0
  0
SPLINE
  5
373
100
AcDbEntity
  8
00_COMPONENTS_32
100
AcDbSpline
 62
7
  6
CONTINUOUS
 70
0
 71
3
 72
9
 73
5
 74
0
 42
0.0000001
 43
0.0000001
 44
0.0000000001
 40
0.0
 40
0.0
 40
0.0
 40
0.0
 40
0.2734107528
 40
1.0
 40
1.0
 40
1.0
 40
1.0
 10
131.9209251548
 20
60.1814083332
 30
0.0
 10
131.8305065898
 20
60.2116336547
 30
0.0
 10
131.5005933567
 20
60.3242703906
 30
0.0
 10
131.1731538858
 20
60.4461084226
 30
0.0
 10
130.9424759272
 20
60.5508825859
 30
0.0
  0
SPLINE
  5
374
100
AcDbEntity
  8
00_COMPONENTS_32
100
AcDbSpline
 62
7
  6
CONTINUOUS
 70
0
 71
3
 72
9
 73
5
 74
0
 42
0.0000001
 43
0.0000001
 44
0.0000000001
 40
0.0
 40
0.0
 40
0.0
 40
0.0
 40
0.6299410926
 40
1.0
 40
1.0
 40
1.0
 40
1.0
 10
130.9424759272
 20
60.5508825859
 30
0.0
 10
130.7636036091
 20
60.6321265746
 30
0.0
 10
130.4881598701
 20
60.756545388
 30
0.0
 10
130.2545548411
 20
61.0286806853
 30
0.0
 10
130.2545548411
 20
61.1440901598
 30
0.0
  0
SPLINE
  5
375
100
AcDbEntity
  8
00_COMPONENTS_32
100
AcDbSpline
 62
7
  6
CONTINUOUS
 70
0
 71
3
 72
9
 73
5
 74
0
 42
0.0000001
 43
0.0000001
 44
0.0000000001
 40
0.0
 40
0.0
 40
0.0
 40
0.0
 40
0.2253920214
 40
1.0
 40
1.0
 40
1.0
 40
1.0
 10
357.2545752516
 20
641.1702845837
 30
0.0
 10
357.2545752169
 20
641.038437143
 30
0.0
 10
357.3308753644
 20
640.4512388552
 30
0.0
 10
357.6854984188
 20
639.9426535144
 30
0.0
 10
357.9820734495
 20
639.6000709958
 30
0.0
  0
SPLINE
  5
376
100
AcDbEntity
  8
00_COMPONENTS_32
100
AcDbSpline
 62
7
  6
CONTINUOUS
 70
0
 71
3
 72
9
 73
5
 74
0
 42
0.0000001
 43
0.0000001
 44
0.0000000001
 40
0.0
 40
0.0
 40
0.0
 40
0.0
 40
0.2372311446
 40
1.0
 40
1.0
 40
1.0
 40
1.0
 10
357.9820734495
 20
639.6000709958
 30
0.0
 10
358.0575533529
 20
639.512881945
 30
0.0
 10
358.3869518551
 20
639.1550270835
 30
0.0
 10
358.7461167667
 20
638.8263239707
 30
0.0
 10
359.0221277971
 20
638.5787227271
 30
0.0
  0
SPLINE
  5
377
100
AcDbEntity
  8
00_COMPONENTS_32
100
AcDbSpline
 62
7
  6
CONTINUOUS
 70
0
 71
3
 72
9
 73
5
 74
0
 42
0.0000001
 43
0.0000001
 44
0.0000000001
 40
0.0
 40
0.0
 40
0.0
 40
0.0
 40
0.2133920023
 40
1.0
 40
1.0
 40
1.0
 40
1.0
 10
357.2545548411
 20
61.9440901598
 30
0.0
 10
357.2545548411
 20
61.8934248596
 30
0.0
 10
357.216107469
 20
61.6548936551
 30
0.0
 10
357.0429076755
 20
61.4636212757
 30
0.0
 10
356.9021325131
 20
61.340890793
 30
0.0
  0
SPLINE
  5
378
100
AcDbEntity
  8
00_COMPONENTS_32
100
AcDbSpline
 62
7
  6
CONTINUOUS
 70
0
 71
3
 72
9
 73
5
 74
0
 42
0.0000001
 43
0.0000001
 44
0.0000000001
 40
0.0
 40
0.0
 40
0.0
 40
0.0
 40
0.2227683594
 40
1.0
 40
1.0
 40
1.0
 40
1.0
 10
356.9021325131
 20
61.340890793
 30
0.0
 10
356.8625561186
 20
61.3063873343
 30
0.0
 10
356.678759451
 20
61.1585324695
 30
0.0
 10
356.4772885379
 20
61.0341257942
 30
0.0
 10
356.3176431282
 20
60.9442851753
 30
0.0
  0
SPLINE
  5
379
100
AcDbEntity
  8
00_COMPONENTS_32
100
AcDbSpline
 62
7
  6
CONTINUOUS
 70
0
 71
3
 72
9
 73
5
 74
0
 42
0.0000001
 43
0.0000001
 44
0.0000000001
 40
0.0
 40
0.0
 40
0.0
 40
0.0
 40
0.2335680672
 40
1.0
 40
1.0
 40
1.0
 40
1.0
 10
356.3176431282
 20
60.9442851753
 30
0.0
 10
356.2628675302
 20
60.9134601511
 30
0.0
 10
356.0262735307
 20
60.7851723444
 30
0.0
 10
355.783252874
 20
60.6690833936
 30
0.0
 10
355.5954637959
 20
60.583799654
 30
0.0
  0
SPLINE
  5
37A
100
AcDbEntity
  8
00_COMPONENTS_32
100
AcDbSpline
 62
7
  6
CONTINUOUS
 70
0
 71
3
 72
9
 73
5
 74
0
 42
0.0000001
 43
0.0000001
 44
0.0000000001
 40
0.0
 40
0.0
 40
0.0
 40
0.0
 40
0.2381555709
 40
1.0
 40
1.0
 40
1.0
 40
1.0
 10
355.5954637959
 20
60.583799654
 30
0.0
 10
355.4748611441
 20
60.5290283901
 30
0.0
 10
354.965383031
 20
60.3057988792
 30
0.0
 10
354.4482568856
 20
60.100739226
 30
0.0
 10
354.0545548411
 20
59.9440901598
 30
0.0
  0
SPLINE
  5
37B
100
AcDbEntity
  8
00_COMPONENTS_32
100
AcDbSpline
 62
7
  6
CONTINUOUS
 70
0
 71
3
 72
9
 73
5
 74
0
 42
0.0000001
 43
0.0000001
 44
0.0000000001
 40
0.0
 40
0.0
 40
0.0
 40
0.0
 40
0.2578733598
 40
1.0
 40
1.0
 40
1.0
 40
1.0
 10
354.0545548411
 20
657.5440901598
 30
0.0
 10
354.1877731643
 20
657.4910842732
 30
0.0
 10
354.7042899055
 20
657.2854241994
 30
0.0
 10
355.2193186877
 20
657.0751904188
 30
0.0
 10
355.5950148778
 20
656.9045843774
 30
0.0
  0
SPLINE
  5
37C
100
AcDbEntity
  8
00_COMPONENTS_32
100
AcDbSpline
 62
7
  6
CONTINUOUS
 70
0
 71
3
 72
9
 73
5
 74
0
 42
0.0000001
 43
0.0000001
 44
0.0000000001
 40
0.0
 40
0.0
 40
0.0
 40
0.0
 40
0.2655944006
 40
1.0
 40
1.0
 40
1.0
 40
1.0
 10
355.5950148778
 20
656.9045843774
 30
0.0
 10
355.6600643547
 20
656.8750449941
 30
0.0
 10
355.904143116
 20
656.7620418025
 30
0.0
 10
356.1447775965
 20
656.6411455922
 30
0.0
 10
356.3169499006
 20
656.5442851753
 30
0.0
  0
SPLINE
  5
37D
100
AcDbEntity
  8
00_COMPONENTS_32
100
AcDbSpline
 62
7
  6
CONTINUOUS
 70
0
 71
3
 72
9
 73
5
 74
0
 42
0.0000001
 43
0.0000001
 44
0.0000000001
 40
0.0
 40
0.0
 40
0.0
 40
0.0
 40
0.2772039406
 40
1.0
 40
1.0
 40
1.0
 40
1.0
 10
356.3169499006
 20
656.5442851753
 30
0.0
 10
356.3739434849
 20
656.5122218167
 30
0.0
 10
356.5774448847
 20
656.3931710707
 30
0.0
 10
356.7735961505
 20
656.2593489823
 30
0.0
 10
356.9021216416
 20
656.1472993193
 30
0.0
  0
SPLINE
  5
37E
100
AcDbEntity
  8
00_COMPONENTS_32
100
AcDbSpline
 62
7
  6
CONTINUOUS
 70
0
 71
3
 72
9
 73
5
 74
0
 42
0.0000001
 43
0.0000001
 44
0.0000000001
 40
0.0
 40
0.0
 40
0.0
 40
0.0
 40
0.3027296058
 40
1.0
 40
1.0
 40
1.0
 40
1.0
 10
356.9021216416
 20
656.1472993193
 30
0.0
 10
356.9560559784
 20
656.1002788861
 30
0.0
 10
357.1249521352
 20
655.9389982103
 30
0.0
 10
357.2545548411
 20
655.7088966318
 30
0.0
 10
357.2545548411
 20
655.5440901598
 30
0.0
  0
ENDSEC
  0
SECTION
  2
OBJECTS
  0
DICTIONARY
  5
C
100
AcDbDictionary
280
0
281
1
  3
ACAD_GROUP
350
D
  3
ACAD_MLINESTYLE
350
17
  3
ACAD_LAYOUT
350
1A
  3
ACAD_PLOTSETTINGS
350
19
  3
ACAD_PLOTSTYLENAME
350
E
  0
DICTIONARY
  5
D
102
{ACAD_REACTORS
330
C
102
}
100
AcDbDictionary
280
0
281
1
  0
ACDBDICTIONARYWDFLT
  5
E
102
{ACAD_REACTORS
330
C
102
}
100
AcDbDictionary
281
1
  3
Normal
350
F
100
AcDbDictionaryWithDefault
340
F
  0
DICTIONARY
  5
17
102
{ACAD_REACTORS
330
C
102
}
100
AcDbDictionary
280
0
281
1
  3
Standard
350
18
  0
DICTIONARY
  5
19
102
{ACAD_REACTORS
330
C
102
}
100
AcDbDictionary
281
1
  0
DICTIONARY
  5
1A
102
{ACAD_REACTORS
330
C
102
}
100
AcDbDictionary
281
1
  3
Model
350
37F
  3
Layout1
350
380
  0
ACDBPLACEHOLDER
  5
F
102
{ACAD_REACTORS
330
E
102
}
  0
MLINESTYLE
  5
18
102
{ACAD_REACTORS
330
17
102
}
100
AcDbMlineStyle
  2
STANDARD
 70
0
  3

 62
256
 51
90.0
 52
90.0
 71
2
 49
0.5
 62
256
  6
BYLAYER
 49
-0.5
 62
256
  6
BYLAYER
  0
LAYOUT
  5
37F
102
{ACAD_REACTORS
330
1A
102
}
100
AcDbPlotSettings
  1

  2
none_device
  4

  6

 40
0.0
 41
0.0
 42
0.0
 43
0.0
 44
210.0
 45
297.0
 46
0.0
 47
0.0
 48
0.0
 49
0.0
140
0.0
141
0.0
142
1.0
143
1.0
 70
1024
 72
1
 73
0
 74
0
  7

 75
0
147
1.0
148
0.0
149
0.0
100
AcDbLayout
  1
Model
 70
0
 71
0
 10
0.0
 20
0.0
 11
210.0
 21
297.0
 12
0.0
 22
0.0
 32
0.0
 14
0.0
 24
0.0
 34
0.0
 15
0.0
 25
0.0
 35
0.0
146
0.0
 13
0.0
 23
0.0
 33
0.0
 16
1.0
 26
0.0
 36
0.0
 17
0.0
 27
1.0
 37
0.0
 76
0
330
22B
345
0
346
0
  0
LAYOUT
  5
380
102
{ACAD_REACTORS
330
1A
102
}
100
AcDbPlotSettings
  1

  2
none_device
  4

  6

 40
0.0
 41
0.0
 42
0.0
 43
0.0
 44
210.0
 45
297.0
 46
0.0
 47
0.0
 48
0.0
 49
0.0
140
0.0
141
0.0
142
1.0
143
1.0
 70
0
 72
1
 73
0
 74
0
  7

 75
0
147
1.0
148
0.0
149
0.0
100
AcDbLayout
  1
Layout1
 70
0
 71
1
 10
0.0
 20
0.0
 11
210.0
 21
297.0
 12
0.0
 22
0.0
 32
0.0
 14
0.0
 24
0.0
 34
0.0
 15
0.0
 25
0.0
 35
0.0
146
0.0
 13
0.0
 23
0.0
 33
0.0
 16
1.0
 26
0.0
 36
0.0
 17
0.0
 27
1.0
 37
0.0
 76
0
330
22C
345
0
346
0
  0
ENDSEC
  0
EOF
