999
DXF file: C:\Users\sesa63760\Dev\_Creo\CAD\MCADID0002803_3D-CAD\drw0001_1.dxf
999
Pro/ENGINEER 2019471 by Parametric Technology Corporation
  0
SECTION
  2
HEADER
  9
$ACADVER
  1
AC1024
  9
$DWGCODEPAGE
  3
ANSI_1252
  9
$EXTMAX
 10
31.508425281
 20
44.5619157545
 30
0.0
  9
$EXTMIN
 10
0.0
 20
0.0
 30
0.0
  9
$LIMMIN
 10
0.0
 20
0.0
  9
$LIMMAX
 10
31.508425281
 20
44.5619157545
  9
$VIEWCTR
 10
15.7542126405
 20
22.2809578773
  9
$VIEWSIZE
 40
44.5619157545
  9
$CLAYER
  8
0
  9
$LTSCALE
 40
2.9047767307
  9
$CELTYPE
  6
BYLAYER
  9
$DIMSCALE
 40
1.0
  9
$DIMASZ
 40
0.375100301
  9
$DIMEXO
 40
1.0
  9
$DIMDLI
 40
2.0069366503
  9
$DIMEXE
 40
1.0
  9
$DIMCEN
 40
0.4753271014
  9
$DIMLFAC
 40
1.0
  9
$DIMBLK
  1
_FILLED
  9
$DIMALT
 70
0
  9
$DIMALTF
 40
0.0393700787
  9
$DIMTXT
 40
0.5251404213
  9
$DIMTOL
 70
1
  9
$DIMLIM
 70
0
  9
$DIMTFAC
 40
1.0
  9
$DIMTP
 40
0.01
  9
$DIMTM
 40
0.01
  9
$DIMGAP
 40
0.625
  9
$DIMDSEP
 70
46
  9
$AUNITS
 70
0
  9
$PDMODE
 70
3
  9
$PDSIZE
 40
0.3125
  9
$HANDSEED
  5
250
  9
$TILEMODE
 70
1
  9
$MEASUREMENT
 70
1
  9
$INSUNITS
 70
4
  0
ENDSEC
  0
SECTION
  2
CLASSES
  0
CLASS
  1
ACDBDICTIONARYWDFLT
  2
AcDbDictionaryWithDefault
  3
AutoCAD 2000
 90
0
 91
1
280
0
281
0
  0
CLASS
  1
ACDBPLACEHOLDER
  2
AcDbPlaceHolder
  3
AutoCAD 2000
 90
0
 91
1
280
0
281
0
  0
CLASS
  1
LAYOUT
  2
AcDbLayout
  3
AutoCAD 2000
 90
0
 91
0
280
0
281
0
  0
ENDSEC
  0
SECTION
  2
TABLES
  0
TABLE
  2
VPORT
  5
8
100
AcDbSymbolTable
 70
2
  0
VPORT
  5
1F4
100
AcDbSymbolTableRecord
100
AcDbViewportTableRecord
  2
*ACTIVE
 70
0
 10
0.0
 20
0.0
 11
1.0
 21
1.0
 12
15.7542126405
 22
22.2809578773
 13
0.0
 23
0.0
 14
1.0
 24
1.0
 15
0.0
 25
0.0
 16
0.0
 26
0.0
 36
1.0
 17
0.0
 27
0.0
 37
0.0
 40
44.5619157545
 41
0.7070707071
 42
50.0
 43
0.0
 44
0.0
 50
0.0
 51
0.0
 71
0
 72
100
 73
1
 74
1
 75
0
 76
0
 77
0
 78
0
  0
ENDTAB
  0
TABLE
  2
LTYPE
  5
5
100
AcDbSymbolTable
 70
6
  0
LTYPE
  5
14
100
AcDbSymbolTableRecord
100
AcDbLinetypeTableRecord
  2
BYBLOCK
 70
0
  3

 72
65
 73
0
 40
0.0
  0
LTYPE
  5
15
100
AcDbSymbolTableRecord
100
AcDbLinetypeTableRecord
  2
BYLAYER
 70
0
  3

 72
65
 73
0
 40
0.0
  0
LTYPE
  5
16
100
AcDbSymbolTableRecord
100
AcDbLinetypeTableRecord
  2
CONTINUOUS
 70
64
  3
Solid line
 72
65
 73
0
 40
0.0
  0
LTYPE
  5
1F5
100
AcDbSymbolTableRecord
100
AcDbLinetypeTableRecord
  2
CENTER
 70
64
  3
____ _ ____ _ ____ _ ____ _ ____ _ ____ _ ____
 72
65
 73
4
 40
0.6
 49
0.375
 74
0
 49
-0.075
 74
0
 49
0.075
 74
0
 49
-0.075
 74
0
  0
LTYPE
  5
1F6
100
AcDbSymbolTableRecord
100
AcDbLinetypeTableRecord
  2
HIDDEN
 70
64
  3
- - - - - - - - - - - - - - - - - - - -
 72
65
 73
2
 40
0.2
 49
0.1
 74
0
 49
-0.1
 74
0
  0
LTYPE
  5
1F7
100
AcDbSymbolTableRecord
100
AcDbLinetypeTableRecord
  2
PHANTOM
 70
64
  3
_____ _ _ _____ _ _ _____ _ _ _____
 72
65
 73
6
 40
0.8
 49
0.45
 74
0
 49
-0.05
 74
0
 49
0.1
 74
0
 49
-0.05
 74
0
 49
0.1
 74
0
 49
-0.05
 74
0
  0
LTYPE
  5
1F8
100
AcDbSymbolTableRecord
100
AcDbLinetypeTableRecord
  2
DOT
 70
64
  3
. . . . . . . . . . . . . . . . . . . .
 72
65
 73
2
 40
0.2
 49
0.1
 74
0
 49
-0.1
 74
0
  0
LTYPE
  5
1F9
100
AcDbSymbolTableRecord
100
AcDbLinetypeTableRecord
  2
DASHED
 70
64
  3
- - - - - - - - - - - - - - - - - - - -
 72
65
 73
2
 40
0.2
 49
0.1
 74
0
 49
-0.1
 74
0
  0
ENDTAB
  0
TABLE
  2
LAYER
  5
2
100
AcDbSymbolTable
 70
36
  0
LAYER
  5
10
100
AcDbSymbolTableRecord
100
AcDbLayerTableRecord
  2
0
 70
0
 62
7
  6
CONTINUOUS
370
-3
390
F
  0
LAYER
  5
1FA
100
AcDbSymbolTableRecord
100
AcDbLayerTableRecord
  2
DEFAULT_1
 70
0
 62
7
  6
CENTER
370
-3
390
F
  0
LAYER
  5
1FB
100
AcDbSymbolTableRecord
100
AcDbLayerTableRecord
  2
DEFAULT_2
 70
0
 62
7
  6
HIDDEN
370
-3
390
F
  0
LAYER
  5
1FC
100
AcDbSymbolTableRecord
100
AcDbLayerTableRecord
  2
DEFAULT_3
 70
0
 62
7
  6
PHANTOM
370
-3
390
F
  0
LAYER
  5
1FD
100
AcDbSymbolTableRecord
100
AcDbLayerTableRecord
  2
00_COMPONENTS
 70
0
 62
7
  6
CONTINUOUS
370
-3
390
F
  0
LAYER
  5
1FE
100
AcDbSymbolTableRecord
100
AcDbLayerTableRecord
  2
01_1_DEFAULT_DATUMS
 70
0
 62
7
  6
CONTINUOUS
370
-3
390
F
  0
LAYER
  5
1FF
100
AcDbSymbolTableRecord
100
AcDbLayerTableRecord
  2
01_PLANES
 70
0
 62
7
  6
CONTINUOUS
370
-3
390
F
  0
LAYER
  5
200
100
AcDbSymbolTableRecord
100
AcDbLayerTableRecord
  2
02_COORD_SYS
 70
0
 62
7
  6
CONTINUOUS
370
-3
390
F
  0
LAYER
  5
201
100
AcDbSymbolTableRecord
100
AcDbLayerTableRecord
  2
03_AXES
 70
0
 62
7
  6
CONTINUOUS
370
-3
390
F
  0
LAYER
  5
202
100
AcDbSymbolTableRecord
100
AcDbLayerTableRecord
  2
04_POINTS
 70
0
 62
7
  6
CONTINUOUS
370
-3
390
F
  0
LAYER
  5
203
100
AcDbSymbolTableRecord
100
AcDbLayerTableRecord
  2
05_CURVES
 70
0
 62
7
  6
CONTINUOUS
370
-3
390
F
  0
LAYER
  5
204
100
AcDbSymbolTableRecord
100
AcDbLayerTableRecord
  2
06_SURFS
 70
0
 62
7
  6
CONTINUOUS
370
-3
390
F
  0
LAYER
  5
205
100
AcDbSymbolTableRecord
100
AcDbLayerTableRecord
  2
07_COSMETICS
 70
0
 62
7
  6
CONTINUOUS
370
-3
390
F
  0
LAYER
  5
206
100
AcDbSymbolTableRecord
100
AcDbLayerTableRecord
  2
10_NOTES
 70
0
 62
7
  6
CONTINUOUS
370
-3
390
F
  0
LAYER
  5
207
100
AcDbSymbolTableRecord
100
AcDbLayerTableRecord
  2
11_NOTES_PUB
 70
0
 62
7
  6
CONTINUOUS
370
-3
390
F
  0
LAYER
  5
208
100
AcDbSymbolTableRecord
100
AcDbLayerTableRecord
  2
13_REF_GTOL
 70
0
 62
7
  6
CONTINUOUS
370
-3
390
F
  0
LAYER
  5
209
100
AcDbSymbolTableRecord
100
AcDbLayerTableRecord
  2
16_MISC
 70
0
 62
7
  6
CONTINUOUS
370
-3
390
F
  0
LAYER
  5
20A
100
AcDbSymbolTableRecord
100
AcDbLayerTableRecord
  2
17_NO_PRINT
 70
0
 62
7
  6
CONTINUOUS
370
-3
390
F
  0
LAYER
  5
20B
100
AcDbSymbolTableRecord
100
AcDbLayerTableRecord
  2
18_DATUM_CAMS_JOINTS
 70
0
 62
7
  6
CONTINUOUS
370
-3
390
F
  0
LAYER
  5
20C
100
AcDbSymbolTableRecord
100
AcDbLayerTableRecord
  2
19_DATUM_FUNCTIONAL
 70
0
 62
7
  6
CONTINUOUS
370
-3
390
F
  0
LAYER
  5
20D
100
AcDbSymbolTableRecord
100
AcDbLayerTableRecord
  2
20_DATUM_KINEMATIC_SCHEME
 70
0
 62
7
  6
CONTINUOUS
370
-3
390
F
  0
ENDTAB
  0
TABLE
  2
STYLE
  5
3
100
AcDbSymbolTable
 70
1
  0
STYLE
  5
11
100
AcDbSymbolTableRecord
100
AcDbTextStyleTableRecord
  2
STANDARD
 70
0
 40
0.0
 41
1.0
 50
0.0
 71
0
 42
0.2
  3
ARIAL.TTF
  4

  0
STYLE
  5
20E
100
AcDbSymbolTableRecord
100
AcDbTextStyleTableRecord
  2
TEXTSTYLE_1
 70
0
 40
0.0
 41
0.8
 50
0.0
 71
0
 42
0.2
  3
gdt
  4

  0
ENDTAB
  0
TABLE
  2
VIEW
  5
6
100
AcDbSymbolTable
 70
0
  0
ENDTAB
  0
TABLE
  2
UCS
  5
7
100
AcDbSymbolTable
 70
0
  0
ENDTAB
  0
TABLE
  2
APPID
  5
9
100
AcDbSymbolTable
 70
1
  0
APPID
  5
20F
100
AcDbSymbolTableRecord
100
AcDbRegAppTableRecord
  2
ACAD
 70
0
  0
ENDTAB
  0
TABLE
  2
BLOCK_RECORD
  5
1
100
AcDbSymbolTable
 70
0
  0
BLOCK_RECORD
  5
210
100
AcDbSymbolTableRecord
100
AcDbBlockTableRecord
  2
*Model_Space
  0
BLOCK_RECORD
  5
211
100
AcDbSymbolTableRecord
100
AcDbBlockTableRecord
  2
*Paper_Space
  0
BLOCK_RECORD
  5
212
100
AcDbSymbolTableRecord
100
AcDbBlockTableRecord
  2
_FILLED
  0
ENDTAB
  0
TABLE
  2
DIMSTYLE
  5
A
100
AcDbSymbolTable
 70
1
100
AcDbDimStyleTable
 71
0
  0
DIMSTYLE
105
213
100
AcDbSymbolTableRecord
100
AcDbDimStyleTableRecord
  2
STANDARD
 70
0
  3

  4

 40
1.0
 41
0.375100301
 42
1.0
 43
0.38
 44
1.0
 45
0.0
 46
0.0
 47
0.01
 48
0.01
140
0.5251404213
141
0.09
142
0.0
143
25.4
144
1.0
145
0.0
146
1.0
147
0.625
 71
1
 72
0
 73
0
 74
0
 75
0
 76
0
 77
1
 78
8
 79
2
170
0
171
1
172
0
173
0
174
0
175
0
176
0
177
0
178
0
270
2
179
2
271
2
272
2
273
2
274
2
275
0
280
0
281
0
282
0
283
1
284
8
285
0
286
0
287
3
288
0
340
11
278
46
341
212
342
212
343
212
344
212
  0
ENDTAB
  0
ENDSEC
  0
SECTION
  2
BLOCKS
  0
BLOCK
  5
20
100
AcDbEntity
  8
0
100
AcDbBlockBegin
  2
*Model_Space
 70
0
 10
0.0
 20
0.0
 30
0.0
  3
*Model_Space
  1

  0
ENDBLK
  5
21
100
AcDbEntity
  8
0
100
AcDbBlockEnd
  0
BLOCK
  5
1C
100
AcDbEntity
  8
0
100
AcDbBlockBegin
  2
*Paper_Space
 70
0
 10
0.0
 20
0.0
 30
0.0
  3
*Paper_Space
  1

  0
ENDBLK
  5
1D
100
AcDbEntity
  8
0
100
AcDbBlockEnd
  0
BLOCK
  5
214
100
AcDbEntity
  8
0
100
AcDbBlockBegin
  2
_FILLED
 70
64
 10
0.0
 20
0.0
  3
_FILLED
  1

  0
SOLID
  5
215
100
AcDbEntity
  8
0
  6
BYBLOCK
 62
0
100
AcDbTrace
 10
0.0
 20
0.0
 11
-1.0
 21
0.25
 12
-1.0
 22
-0.25
 13
-1.0
 23
-0.25
  0
ENDBLK
  5
216
100
AcDbEntity
  8
0
  6
BYBLOCK
 62
0
100
AcDbBlockEnd
  0
ENDSEC
  0
SECTION
  2
ENTITIES
  0
LINE
  5
217
100
AcDbEntity
  8
0
100
AcDbLine
 62
7
  6
BYLAYER
 10
3.6481383163
 20
24.0036778178
 11
3.6481383163
 21
23.5954266093
  0
LWPOLYLINE
  5
218
100
AcDbEntity
  8
0
100
AcDbPolyline
 62
7
  6
BYLAYER
 90
5
 70
0
 10
7.5864005968
 20
28.965970877
 10
6.5268261464
 20
28.2651432754
 10
4.9552597652
 20
26.6632995682
 10
4.180648237
 20
24.8959600694
 10
4.247945821
 20
23.038224956
  0
LWPOLYLINE
  5
219
100
AcDbEntity
  8
0
100
AcDbPolyline
 62
7
  6
BYLAYER
 90
6
 70
0
 10
4.247945821
 20
23.038224956
 10
5.2100261446
 20
21.2154569565
 10
7.0602528149
 20
19.5772617864
 10
8.1978847469
 20
18.9241323284
 10
10.8917987907
 20
17.9065418171
 10
11.2134829868
 20
17.8466468886
  0
LWPOLYLINE
  5
21A
100
AcDbEntity
  8
0
100
AcDbPolyline
 62
7
  6
BYLAYER
 90
11
 70
0
 10
7.5864357965
 20
28.9660107831
 10
8.8094147908
 20
29.5817324279
 10
11.6301731052
 20
30.4978831279
 10
14.7767928356
 20
30.9413261264
 10
18.0255228629
 20
30.8771426626
 10
21.115212506
 20
30.3097429084
 10
23.8231933029
 20
29.2825807187
 10
24.9705741921
 20
28.6190922224
 10
26.7461562631
 20
27.0530747306
 10
27.7218438634
 20
25.2739562278
 10
27.8323369654
 20
23.4110255525
  0
LINE
  5
21B
100
AcDbEntity
  8
0
100
AcDbLine
 62
7
  6
BYLAYER
 10
16.2809414654
 20
13.6773954091
 11
16.3747576478
 21
13.6232318362
  0
LWPOLYLINE
  5
21C
100
AcDbEntity
  8
0
100
AcDbPolyline
 62
7
  6
BYLAYER
 90
9
 70
0
 10
20.5261351316
 20
16.9617765468
 10
17.2619891521
 20
16.5026885334
 10
13.9016061002
 20
16.5687461224
 10
10.6974065599
 20
17.15541996
 10
7.8805935566
 20
18.2218694994
 10
6.6880516669
 20
18.9106013892
 10
4.844120755
 20
20.5344104522
 10
3.8284876204
 20
22.3813602824
 10
3.6482035536
 20
23.5954266032
  0
LINE
  5
21D
100
AcDbEntity
  8
0
100
AcDbLine
 62
7
  6
BYLAYER
 10
19.2377837817
 20
16.0868866289
 11
18.8672318433
 21
16.1010312423
  0
LWPOLYLINE
  5
21E
100
AcDbEntity
  8
0
100
AcDbPolyline
 62
7
  6
BYLAYER
 90
3
 70
0
 10
14.157398899
 20
17.345165878
 10
17.0445177134
 20
17.2683516837
 10
20.238302622
 20
17.6928570565
  0
LINE
  5
21F
100
AcDbEntity
  8
0
100
AcDbLine
 62
7
  6
BYLAYER
 10
18.8672318433
 20
16.1010312423
 11
18.5437421587
 21
16.2877938736
  0
LINE
  5
220
100
AcDbEntity
  8
0
100
AcDbLine
 62
7
  6
BYLAYER
 10
18.9680109378
 20
16.2878089004
 11
18.334535922
 21
16.6535375974
  0
LINE
  5
221
100
AcDbEntity
  8
0
100
AcDbLine
 62
7
  6
BYLAYER
 10
18.225795478
 20
16.6382437243
 11
18.5437421587
 21
16.2877938736
  0
LINE
  5
222
100
AcDbEntity
  8
0
100
AcDbLine
 62
7
  6
BYLAYER
 10
14.3986761979
 20
16.5589748398
 11
14.4607001892
 21
14.2543513642
  0
LINE
  5
223
100
AcDbEntity
  8
0
100
AcDbLine
 62
7
  6
BYLAYER
 10
15.7153421971
 20
13.6773940495
 11
15.715342563
 21
16.5330921342
  0
LINE
  5
224
100
AcDbEntity
  8
0
100
AcDbLine
 62
7
  6
BYLAYER
 10
16.2809418299
 20
16.521973722
 11
16.2809414654
 21
13.6773954091
  0
LINE
  5
225
100
AcDbEntity
  8
0
100
AcDbLine
 62
7
  6
BYLAYER
 10
17.5355844086
 20
14.2543587553
 11
17.5973809943
 21
16.5498465588
  0
LINE
  5
226
100
AcDbEntity
  8
0
100
AcDbLine
 62
7
  6
BYLAYER
 10
18.9680109378
 20
16.7426331184
 11
18.9680109378
 21
16.2878089004
  0
LINE
  5
227
100
AcDbEntity
  8
0
100
AcDbLine
 62
7
  6
BYLAYER
 10
19.6751177189
 20
16.4153238766
 11
19.6751177189
 21
16.8420846286
  0
LWPOLYLINE
  5
228
100
AcDbEntity
  8
0
100
AcDbPolyline
 62
7
  6
BYLAYER
 90
3
 70
0
 10
20.238302622
 20
17.6928570565
 10
23.16275665
 20
18.626986548
 10
24.4097585277
 20
19.2532203787
  0
LINE
  5
229
100
AcDbEntity
  8
0
100
AcDbLine
 62
7
  6
BYLAYER
 10
20.7441608079
 20
17.0325325076
 11
19.6751177189
 21
16.4153238766
  0
LINE
  5
22A
100
AcDbEntity
  8
0
100
AcDbLine
 62
7
  6
BYLAYER
 10
21.1454921483
 20
17.1627767296
 11
19.4127991783
 21
16.1624119484
  0
LINE
  5
22B
100
AcDbEntity
  8
0
100
AcDbLine
 62
7
  6
BYLAYER
 10
19.4128304897
 20
16.1624300784
 11
19.348480493
 21
16.1305399809
  0
LINE
  5
22C
100
AcDbEntity
  8
0
100
AcDbLine
 62
7
  6
BYLAYER
 10
15.6215267959
 20
13.6232300257
 11
15.7153421971
 21
13.6773940495
  0
LWPOLYLINE
  5
22D
100
AcDbEntity
  8
0
100
AcDbPolyline
 62
7
  6
BYLAYER
 90
3
 70
0
 10
24.7309434218
 20
18.5536532909
 10
23.4603316571
 20
17.9140125307
 10
20.5261351316
 20
16.9617765468
  0
LWPOLYLINE
  5
22E
100
AcDbEntity
  8
0
100
AcDbPolyline
 62
7
  6
BYLAYER
 90
4
 70
0
 10
27.8323369654
 20
23.4110255525
 10
27.0687652595
 20
21.5961218439
 10
25.4772411655
 20
19.9600258096
 10
24.4098408361
 20
19.2532330872
  0
LINE
  5
22F
100
AcDbEntity
  8
0
100
AcDbLine
 62
7
  6
BYLAYER
 10
28.3481383163
 20
24.0036778178
 11
28.3481383163
 21
23.5954266093
  0
ARC
  5
230
100
AcDbEntity
  8
0
100
AcDbCircle
 62
7
  6
BYLAYER
 10
18.505739775
 20
29.7695585719
 40
12.472311213
100
AcDbArc
 50
296.1667373453
 51
299.9419222332
  0
ARC
  5
231
100
AcDbEntity
  8
0
100
AcDbCircle
 62
7
  6
BYLAYER
 10
24.2171364321
 20
24.0040617474
 40
4.1310011571
100
AcDbArc
 50
354.4385613975
 51
359.9946750084
  0
ARC
  5
232
100
AcDbEntity
  8
0
100
AcDbCircle
 62
7
  6
BYLAYER
 10
7.7701589362
 20
24.0035976919
 40
4.1220144035
100
AcDbArc
 50
179.9988862542
 51
185.5784294939
  0
SPLINE
  5
233
100
AcDbEntity
  8
0
100
AcDbSpline
 62
7
  6
BYLAYER
 70
0
 71
3
 72
11
 73
7
 74
0
 42
0.0000001
 43
0.0000001
 44
0.0000000001
 40
0.0
 40
0.0
 40
0.0
 40
0.0
 40
0.2167404325
 40
0.4529158866
 40
0.7139682668
 40
1.0
 40
1.0
 40
1.0
 40
1.0
 10
15.247514203
 20
13.5510947188
 30
0.0
 10
15.2743801309
 20
13.5422910983
 30
0.0
 10
15.3336252337
 20
13.532691952
 30
0.0
 10
15.4270654659
 20
13.5419709142
 30
0.0
 10
15.5251007559
 20
13.5726259492
 30
0.0
 10
15.5892154143
 20
13.6045751522
 30
0.0
 10
15.6215267959
 20
13.6232300257
 30
0.0
  0
SPLINE
  5
234
100
AcDbEntity
  8
0
100
AcDbSpline
 62
7
  6
BYLAYER
 70
0
 71
3
 72
10
 73
6
 74
0
 42
0.0000001
 43
0.0000001
 44
0.0000000001
 40
0.0
 40
0.0
 40
0.0
 40
0.0
 40
0.5066835969
 40
0.7545727588
 40
1.0
 40
1.0
 40
1.0
 40
1.0
 10
15.247515809
 20
13.5510900469
 30
0.0
 10
15.1220738345
 20
13.5923764218
 30
0.0
 10
14.939987136
 20
13.6714595152
 30
0.0
 10
14.7212768304
 20
13.8140252276
 30
0.0
 10
14.6225641488
 20
13.8970919261
 30
0.0
 10
14.5764736528
 20
13.941449143
 30
0.0
  0
SPLINE
  5
235
100
AcDbEntity
  8
0
100
AcDbSpline
 62
7
  6
BYLAYER
 70
0
 71
3
 72
11
 73
7
 74
0
 42
0.0000001
 43
0.0000001
 44
0.0000000001
 40
0.0
 40
0.0
 40
0.0
 40
0.0
 40
0.2819725934
 40
0.5412585058
 40
0.7789445336
 40
1.0
 40
1.0
 40
1.0
 40
1.0
 10
17.5355844086
 20
14.2543587553
 30
0.0
 10
17.5347170344
 20
14.2223145192
 30
0.0
 10
17.5289678144
 20
14.1607922742
 30
0.0
 10
17.506649156
 20
14.0746303012
 30
0.0
 10
17.4711713761
 20
14.0004878992
 30
0.0
 10
17.4382562371
 20
13.9592602422
 30
0.0
 10
17.4201582629
 20
13.9418243097
 30
0.0
  0
SPLINE
  5
236
100
AcDbEntity
  8
0
100
AcDbSpline
 62
7
  6
BYLAYER
 70
0
 71
3
 72
18
 73
14
 74
0
 42
0.0000001
 43
0.0000001
 44
0.0000000001
 40
0.0
 40
0.0
 40
0.0
 40
0.0
 40
0.053910516
 40
0.1080792391
 40
0.1627589499
 40
0.2181895552
 40
0.2745943682
 40
0.332177797
 40
0.4515035732
 40
0.5773906743
 40
0.7105702473
 40
0.8514501173
 40
1.0
 40
1.0
 40
1.0
 40
1.0
 10
28.3481285726
 20
23.5954266147
 30
0.0
 10
28.3481247284
 20
23.4787019079
 30
0.0
 10
28.3381439393
 20
23.2445732251
 30
0.0
 10
28.2933454933
 20
22.8946335702
 30
0.0
 10
28.2187647411
 20
22.5464292453
 30
0.0
 10
28.1146697985
 20
22.2008516155
 30
0.0
 10
27.9813195423
 20
21.8587226724
 30
0.0
 10
27.7624071759
 20
21.4030010429
 30
0.0
 10
27.4138845332
 20
20.8449526818
 30
0.0
 10
26.8911755941
 20
20.2114601734
 30
0.0
 10
26.2643242816
 20
19.6114153791
 30
0.0
 10
25.5396020878
 20
19.0504714092
 30
0.0
 10
25.009486837
 20
18.7144694467
 30
0.0
 10
24.7309434218
 20
18.5536532909
 30
0.0
  0
SPLINE
  5
237
100
AcDbEntity
  8
0
100
AcDbSpline
 62
7
  6
BYLAYER
 70
0
 71
3
 72
33
 73
29
 74
0
 42
0.0000001
 43
0.0000001
 44
0.0000000001
 40
0.0
 40
0.0
 40
0.0
 40
0.0
 40
0.0213269126
 40
0.0428822173
 40
0.0648823743
 40
0.0875218342
 40
0.1109659785
 40
0.1353473766
 40
0.160764862
 40
0.1872846486
 40
0.21494264
 40
0.2437473277
 40
0.2736828203
 40
0.3047118052
 40
0.336778283
 40
0.3698100894
 40
0.4037211618
 40
0.4384136219
 40
0.5096849033
 40
0.5826932925
 40
0.656408313
 40
0.7297671152
 40
0.801719168
 40
0.8712837627
 40
0.9049047921
 40
0.9376163398
 40
0.969336994
 40
1.0
 40
1.0
 40
1.0
 40
1.0
 10
28.3481375714
 20
24.0036778178
 30
0.0
 10
28.3481378564
 20
24.1788836269
 30
0.0
 10
28.3255236131
 20
24.5315768977
 30
0.0
 10
28.2241890092
 20
25.0562247712
 30
0.0
 10
28.0560971871
 20
25.5747898688
 30
0.0
 10
27.8223775719
 20
26.0842481966
 30
0.0
 10
27.524508764
 20
26.5818677196
 30
0.0
 10
27.1642738263
 20
27.0650098031
 30
0.0
 10
26.7437378658
 20
27.5311609028
 30
0.0
 10
26.2652413471
 20
27.9779041902
 30
0.0
 10
25.7313995531
 20
28.4029202082
 30
0.0
 10
25.1451015653
 20
28.8039907808
 30
0.0
 10
24.5095051548
 20
29.1790099514
 30
0.0
 10
23.8280278323
 20
29.5259965697
 30
0.0
 10
23.1043314164
 20
29.8431088344
 30
0.0
 10
22.3423118956
 20
30.1286531448
 30
0.0
 10
21.5460534714
 20
30.3811113888
 30
0.0
 10
20.4346051515
 20
30.6743689228
 30
0.0
 10
18.9877426129
 20
30.9481354447
 30
0.0
 10
17.2035127558
 20
31.1255022788
 30
0.0
 10
15.3934894392
 20
31.150904288
 30
0.0
 10
13.5964209611
 20
31.0237876048
 30
0.0
 10
11.8507603587
 20
30.7469069658
 30
0.0
 10
10.4538582981
 20
30.3922646795
 30
0.0
 10
9.3950977938
 20
30.0367675469
 30
0.0
 10
8.6455733522
 20
29.7405350523
 30
0.0
 10
7.9357307367
 20
29.4133245808
 30
0.0
 10
7.4834888883
 20
29.1714026235
 30
0.0
 10
7.2653332107
 20
29.0454511362
 30
0.0
  0
SPLINE
  5
238
100
AcDbEntity
  8
0
100
AcDbSpline
 62
7
  6
BYLAYER
 70
0
 71
3
 72
11
 73
7
 74
0
 42
0.0000001
 43
0.0000001
 44
0.0000000001
 40
0.0
 40
0.0
 40
0.0
 40
0.0
 40
0.2167480992
 40
0.4529263214
 40
0.7139563465
 40
1.0
 40
1.0
 40
1.0
 40
1.0
 10
16.7490637953
 20
13.5511905063
 30
0.0
 10
16.7221858732
 20
13.5423495952
 30
0.0
 10
16.6628986476
 20
13.5326858622
 30
0.0
 10
16.5693821425
 20
13.5419440661
 30
0.0
 10
16.4712611871
 20
13.5725897826
 30
0.0
 10
16.4070956861
 20
13.6045618835
 30
0.0
 10
16.3747576478
 20
13.6232318362
 30
0.0
  0
SPLINE
  5
239
100
AcDbEntity
  8
0
100
AcDbSpline
 62
7
  6
BYLAYER
 70
0
 71
3
 72
9
 73
5
 74
0
 42
0.0000001
 43
0.0000001
 44
0.0000000001
 40
0.0
 40
0.0
 40
0.0
 40
0.0
 40
0.2470926275
 40
1.0
 40
1.0
 40
1.0
 40
1.0
 10
17.1129235576
 20
13.7125311187
 30
0.0
 10
17.0845037695
 20
13.6961230443
 30
0.0
 10
16.9676316291
 20
13.6329565914
 30
0.0
 10
16.8440485763
 20
13.5824457144
 30
0.0
 10
16.7490690641
 20
13.5511795743
 30
0.0
  0
SPLINE
  5
23A
100
AcDbEntity
  8
0
100
AcDbSpline
 62
7
  6
BYLAYER
 70
0
 71
3
 72
9
 73
5
 74
0
 42
0.0000001
 43
0.0000001
 44
0.0000000001
 40
0.0
 40
0.0
 40
0.0
 40
0.0
 40
0.4977929586
 40
1.0
 40
1.0
 40
1.0
 40
1.0
 10
17.4201595213
 20
13.9418041116
 30
0.0
 10
17.3742585525
 20
13.8975960684
 30
0.0
 10
17.2760584954
 20
13.8148418539
 30
0.0
 10
17.1686030403
 20
13.7446774911
 30
0.0
 10
17.1129235576
 20
13.7125311187
 30
0.0
  0
SPLINE
  5
23B
100
AcDbEntity
  8
0
100
AcDbSpline
 62
7
  6
BYLAYER
 70
0
 71
3
 72
11
 73
7
 74
0
 42
0.0000001
 43
0.0000001
 44
0.0000000001
 40
0.0
 40
0.0
 40
0.0
 40
0.0
 40
0.282007337
 40
0.541281128
 40
0.7789577505
 40
1.0
 40
1.0
 40
1.0
 40
1.0
 10
14.4607001892
 20
14.2543513642
 30
0.0
 10
14.46156901
 20
14.2222537214
 30
0.0
 10
14.4673327081
 20
14.1606331729
 30
0.0
 10
14.4897273923
 20
14.0743461643
 30
0.0
 10
14.5253129561
 20
14.0001161903
 30
0.0
 10
14.5583418064
 20
13.9588731902
 30
0.0
 10
14.5764997882
 20
13.9414458802
 30
0.0
  0
SPLINE
  5
23C
100
AcDbEntity
  8
0
100
AcDbSpline
 62
7
  6
BYLAYER
 70
0
 71
3
 72
18
 73
14
 74
0
 42
0.0000001
 43
0.0000001
 44
0.0000000001
 40
0.0
 40
0.0
 40
0.0
 40
0.0
 40
0.1485498062
 40
0.2894290023
 40
0.4226081063
 40
0.5484950439
 40
0.6678211347
 40
0.7254048294
 40
0.7818098226
 40
0.8372405613
 40
0.8919203862
 40
0.9460892782
 40
1.0
 40
1.0
 40
1.0
 40
1.0
 10
7.2653332107
 20
29.0454511362
 30
0.0
 10
6.9867898663
 20
28.8846350212
 30
0.0
 10
6.4566756795
 20
28.5486341304
 30
0.0
 10
5.7319552226
 20
27.9876918005
 30
0.0
 10
5.1051055615
 20
27.3876492006
 30
0.0
 10
4.5823946709
 20
26.7541588549
 30
0.0
 10
4.2338715075
 20
26.196109558
 30
0.0
 10
4.0149569322
 20
25.7403870121
 30
0.0
 10
3.8816061153
 20
25.3982568425
 30
0.0
 10
3.7775095582
 20
25.0526786344
 30
0.0
 10
3.7029287111
 20
24.7044732784
 30
0.0
 10
3.6581299697
 20
24.3545325312
 30
0.0
 10
3.6481485243
 20
24.1204030006
 30
0.0
 10
3.6481445335
 20
24.0036778178
 30
0.0
  0
SPLINE
  5
23D
100
AcDbEntity
  8
0
100
AcDbSpline
 62
7
  6
BYLAYER
 70
0
 71
3
 72
22
 73
18
 74
0
 42
0.0000001
 43
0.0000001
 44
0.0000000001
 40
0.0
 40
0.0
 40
0.0
 40
0.0
 40
0.0463946169
 40
0.093814748
 40
0.1427957314
 40
0.1937841063
 40
0.2471228692
 40
0.3030532552
 40
0.3617174845
 40
0.4231684001
 40
0.48738208
 40
0.5542641038
 40
0.6236634964
 40
0.6953788571
 40
0.7691663758
 40
0.8447488837
 40
1.0
 40
1.0
 40
1.0
 40
1.0
 10
3.6676661163
 20
23.6029040366
 30
0.0
 10
3.6869852461
 20
23.4048507359
 30
0.0
 10
3.7550346967
 20
23.0066480178
 30
0.0
 10
3.9414733825
 20
22.421378351
 30
0.0
 10
4.2112696777
 20
21.8477658969
 30
0.0
 10
4.562249141
 20
21.289950877
 30
0.0
 10
4.9916430823
 20
20.7515412208
 30
0.0
 10
5.4963695225
 20
20.2360882943
 30
0.0
 10
6.0728731526
 20
19.7469401829
 30
0.0
 10
6.717156915
 20
19.2872604769
 30
0.0
 10
7.4248538025
 20
18.8601354623
 30
0.0
 10
8.1911117815
 20
18.4683529435
 30
0.0
 10
9.0107327934
 20
18.1145630449
 30
0.0
 10
9.8781231554
 20
17.8011663739
 30
0.0
 10
10.787404489
 20
17.5302281052
 30
0.0
 10
12.0583925347
 20
17.2254955161
 30
0.0
 10
13.0384985599
 20
17.0703652997
 30
0.0
 10
13.7004487972
 20
16.9979928969
 30
0.0
  0
SPLINE
  5
23E
100
AcDbEntity
  8
0
100
AcDbSpline
 62
7
  6
BYLAYER
 70
0
 71
3
 72
15
 73
11
 74
0
 42
0.0000001
 43
0.0000001
 44
0.0000000001
 40
0.0
 40
0.0
 40
0.0
 40
0.0
 40
0.1297288456
 40
0.2601887334
 40
0.3902997173
 40
0.5189901516
 40
0.6452248839
 40
0.768033382
 40
0.8865312911
 40
1.0
 40
1.0
 40
1.0
 40
1.0
 10
13.7004487972
 20
16.9979928969
 30
0.0
 10
14.1541923444
 20
16.9483841666
 30
0.0
 10
15.0677953539
 20
16.8789999337
 30
0.0
 10
16.4418604594
 20
16.8633778474
 30
0.0
 10
17.8105150264
 20
16.9358164322
 30
0.0
 10
19.156807768
 20
17.0954255522
 30
0.0
 10
20.4641654669
 20
17.3402397356
 30
0.0
 10
21.7165017047
 20
17.6672879969
 30
0.0
 10
22.8984127474
 20
18.072483145
 30
0.0
 10
23.6475754039
 20
18.3993077019
 30
0.0
 10
24.0058404572
 20
18.5754780166
 30
0.0
  0
SPLINE
  5
23F
100
AcDbEntity
  8
0
100
AcDbSpline
 62
7
  6
BYLAYER
 70
0
 71
3
 72
15
 73
11
 74
0
 42
0.0000001
 43
0.0000001
 44
0.0000000001
 40
0.0
 40
0.0
 40
0.0
 40
0.0
 40
0.1473069445
 40
0.2875364023
 40
0.4206960629
 40
0.5470453753
 40
0.6671323955
 40
0.7818193824
 40
0.8922867625
 40
1.0
 40
1.0
 40
1.0
 40
1.0
 10
24.7309434218
 20
18.9619044995
 30
0.0
 10
24.9900918511
 20
19.1115230218
 30
0.0
 10
25.48500026
 20
19.4232011756
 30
0.0
 10
26.1669817151
 20
19.940095558
 30
0.0
 10
26.76527904
 20
20.4911674216
 30
0.0
 10
27.2748036361
 20
21.0721049696
 30
0.0
 10
27.6911316565
 20
21.6783892105
 30
0.0
 10
28.0104085425
 20
22.3053098096
 30
0.0
 10
28.2293866314
 20
22.9475173493
 30
0.0
 10
28.3074985255
 20
23.3859346162
 30
0.0
 10
28.3286923477
 20
23.6037137579
 30
0.0
  0
SPLINE
  5
240
100
AcDbEntity
  8
0
100
AcDbSpline
 62
7
  6
BYLAYER
 70
0
 71
3
 72
43
 73
39
 74
0
 42
0.0000001
 43
0.0000001
 44
0.0000000001
 40
0.0
 40
0.0
 40
0.0
 40
0.0
 40
0.0325482826
 40
0.0665556043
 40
0.1383141764
 40
0.1757336589
 40
0.2138807364
 40
0.2525212288
 40
0.2914096952
 40
0.3302986784
 40
0.3689394026
 40
0.4070862815
 40
0.4445070957
 40
0.4809797019
 40
0.5163057763
 40
0.5334864936
 40
0.5503191255
 40
0.5828663755
 40
0.6138560618
 40
0.6287522579
 40
0.6432464278
 40
0.6710288085
 40
0.6972872534
 40
0.7221763951
 40
0.745937346
 40
0.7688862177
 40
0.7914103008
 40
0.8026556228
 40
0.8139556398
 40
0.8253619691
 40
0.8369235451
 40
0.8606845785
 40
0.8855764097
 40
0.9118344744
 40
0.9255359731
 40
0.9396290726
 40
0.9690093638
 40
1.0
 40
1.0
 40
1.0
 40
1.0
 10
10.6380657863
 20
27.3987291553
 30
0.0
 10
10.8176492981
 20
27.5024098692
 30
0.0
 10
11.1942076549
 20
27.6985925991
 30
0.0
 10
12.0054333535
 20
28.0443291732
 30
0.0
 10
12.8813551252
 20
28.31060641
 30
0.0
 10
13.8010105089
 20
28.4999699546
 30
0.0
 10
14.5216424882
 20
28.6038669966
 30
0.0
 10
15.2563354198
 20
28.6664819563
 30
0.0
 10
15.9981329337
 20
28.6876142864
 30
0.0
 10
16.7399220849
 20
28.6664429155
 30
0.0
 10
17.4746452405
 20
28.6039329108
 30
0.0
 10
18.1952091997
 20
28.4998773135
 30
0.0
 10
18.8948266257
 20
28.356034049
 30
0.0
 10
19.5666976958
 20
28.1732083009
 30
0.0
 10
20.1031051446
 20
27.9883185551
 30
0.0
 10
20.5124543475
 20
27.8219954641
 30
0.0
 10
20.8992619646
 20
27.6480034425
 30
0.0
 10
21.3538506407
 20
27.4111239062
 30
0.0
 10
21.7765828564
 20
27.1433188517
 30
0.0
 10
22.0860396029
 20
26.9145691758
 30
0.0
 10
22.3680289621
 20
26.6838238179
 30
0.0
 10
22.6841319423
 20
26.3812350058
 30
0.0
 10
23.0050277527
 20
25.9924009126
 30
0.0
 10
23.2584739106
 20
25.5862357892
 30
0.0
 10
23.4423650888
 20
25.1668378185
 30
0.0
 10
23.5533281866
 20
24.7379337502
 30
0.0
 10
23.5845708038
 20
24.3760456098
 30
0.0
 10
23.5723479032
 20
24.0888741798
 30
0.0
 10
23.5447439036
 20
23.874068752
 30
0.0
 10
23.4989468315
 20
23.6603516581
 30
0.0
 10
23.413167418
 20
23.3749753457
 30
0.0
 10
23.2586596535
 20
23.0220263052
 30
0.0
 10
23.0050123324
 20
22.6160531612
 30
0.0
 10
22.7414352885
 20
22.2963872689
 30
0.0
 10
22.4998865526
 20
22.0507461366
 30
0.0
 10
22.2304225789
 20
21.8053895167
 30
0.0
 10
21.8546385054
 20
21.5144488265
 30
0.0
 10
21.5292740275
 20
21.3082679123
 30
0.0
 10
21.358285725
 20
21.2095473059
 30
0.0
  0
SPLINE
  5
241
100
AcDbEntity
  8
0
100
AcDbSpline
 62
7
  6
BYLAYER
 70
0
 71
3
 72
9
 73
5
 74
0
 42
0.0000001
 43
0.0000001
 44
0.0000000001
 40
0.0
 40
0.0
 40
0.0
 40
0.0
 40
0.4938282406
 40
1.0
 40
1.0
 40
1.0
 40
1.0
 10
11.1975070752
 20
17.8257348874
 30
0.0
 10
11.6758999095
 20
17.7039868539
 30
0.0
 10
12.6554644845
 20
17.4985872718
 30
0.0
 10
13.6479603231
 20
17.3705369482
 30
0.0
 10
14.1518745898
 20
17.3248543184
 30
0.0
  0
SPLINE
  5
242
100
AcDbEntity
  8
0
100
AcDbSpline
 62
7
  6
BYLAYER
 70
0
 71
3
 72
44
 73
40
 74
0
 42
0.0000001
 43
0.0000001
 44
0.0000000001
 40
0.0
 40
0.0
 40
0.0
 40
0.0
 40
0.0325460965
 40
0.0665515143
 40
0.101874672
 40
0.1383453943
 40
0.1757624283
 40
0.2139070279
 40
0.2525450907
 40
0.2914310221
 40
0.3303174616
 40
0.3689558175
 40
0.4071000516
 40
0.4445187669
 40
0.4809890661
 40
0.516312761
 40
0.5503183014
 40
0.5828633558
 40
0.6138511549
 40
0.6432303806
 40
0.6710111212
 40
0.6972677868
 40
0.7221540516
 40
0.7459148618
 40
0.7574757572
 40
0.7688797631
 40
0.7801785545
 40
0.791423752
 40
0.8026685107
 40
0.8139667535
 40
0.8253720099
 40
0.8369338418
 40
0.8606931888
 40
0.8855832
 40
0.9118402269
 40
0.925540277
 40
0.9396326271
 40
0.9690114633
 40
1.0
 40
1.0
 40
1.0
 40
1.0
 10
21.3582108463
 20
21.2095040749
 30
0.0
 10
21.1786279011
 20
21.1058235382
 30
0.0
 10
20.802079862
 20
20.9096585267
 30
0.0
 10
20.2044724438
 20
20.6549247493
 30
0.0
 10
19.5666954392
 20
20.4350130004
 30
0.0
 10
18.894797576
 20
20.2522805823
 30
0.0
 10
18.1952272238
 20
20.1082444223
 30
0.0
 10
17.4746437702
 20
20.0043683738
 30
0.0
 10
16.73993937
 20
19.9417137622
 30
0.0
 10
15.9981448614
 20
19.9206421705
 30
0.0
 10
15.256351698
 20
19.9417383178
 30
0.0
 10
14.5216364857
 20
20.0043249877
 30
0.0
 10
13.8010595291
 20
20.1083085291
 30
0.0
 10
13.1014579975
 20
20.2522156976
 30
0.0
 10
12.4295645849
 20
20.4350264581
 30
0.0
 10
11.7917849273
 20
20.6548965489
 30
0.0
 10
11.1941538918
 20
20.9096730313
 30
0.0
 10
10.6424025711
 20
21.1971000028
 30
0.0
 10
10.1417107555
 20
21.5143869054
 30
0.0
 10
9.6968906638
 20
21.858755429
 30
0.0
 10
9.3121498615
 20
22.226982526
 30
0.0
 10
8.9912574407
 20
22.6158487461
 30
0.0
 10
8.7377880771
 20
23.0219430135
 30
0.0
 10
8.583157836
 20
23.3747985749
 30
0.0
 10
8.4972750184
 20
23.6601487636
 30
0.0
 10
8.4516062221
 20
23.8738854094
 30
0.0
 10
8.4240434149
 20
24.0886705817
 30
0.0
 10
8.4147800489
 20
24.3040131008
 30
0.0
 10
8.4239233509
 20
24.5193602819
 30
0.0
 10
8.4515346777
 20
24.7341461198
 30
0.0
 10
8.497333657
 20
24.9478628358
 30
0.0
 10
8.5831023986
 20
25.2332447086
 30
0.0
 10
8.737616748
 20
25.5861972481
 30
0.0
 10
8.9912726295
 20
25.9921646784
 30
0.0
 10
9.2548288018
 20
26.3118480302
 30
0.0
 10
9.4963967434
 20
26.5574727209
 30
0.0
 10
9.7658530631
 20
26.8028371105
 30
0.0
 10
10.1416328637
 20
27.0937898576
 30
0.0
 10
10.4670032444
 20
27.2999655442
 30
0.0
 10
10.6379909075
 20
27.3986859243
 30
0.0
  0
SPLINE
  5
243
100
AcDbEntity
  8
0
100
AcDbSpline
 62
7
  6
BYLAYER
 70
0
 71
3
 72
9
 73
5
 74
0
 42
0.0000001
 43
0.0000001
 44
0.0000000001
 40
0.0
 40
0.0
 40
0.0
 40
0.0
 40
0.2500169283
 40
1.0
 40
1.0
 40
1.0
 40
1.0
 10
16.9460898723
 20
16.5088867161
 30
0.0
 10
16.946840594
 20
16.2930481537
 30
0.0
 10
16.9498158676
 20
15.4297522659
 30
0.0
 10
16.9526696043
 20
14.5664559556
 30
0.0
 10
16.9547191653
 20
13.9189980525
 30
0.0
  0
SPLINE
  5
244
100
AcDbEntity
  8
0
100
AcDbSpline
 62
7
  6
BYLAYER
 70
0
 71
3
 72
9
 73
5
 74
0
 42
0.0000001
 43
0.0000001
 44
0.0000000001
 40
0.0
 40
0.0
 40
0.0
 40
0.0
 40
0.2405905861
 40
1.0
 40
1.0
 40
1.0
 40
1.0
 10
17.2785269715
 20
14.067409668
 30
0.0
 10
17.253769157
 20
14.0531158225
 30
0.0
 10
17.1493771148
 20
13.9962939845
 30
0.0
 10
17.0396419596
 20
13.9495037862
 30
0.0
 10
16.9547191653
 20
13.9189980525
 30
0.0
  0
SPLINE
  5
245
100
AcDbEntity
  8
0
100
AcDbSpline
 62
7
  6
BYLAYER
 70
0
 71
3
 72
14
 73
10
 74
0
 42
0.0000001
 43
0.0000001
 44
0.0000000001
 40
0.0
 40
0.0
 40
0.0
 40
0.0
 40
0.292509962
 40
0.4252188255
 40
0.5494538385
 40
0.6667529581
 40
0.7792127389
 40
0.8893785829
 40
1.0
 40
1.0
 40
1.0
 40
1.0
 10
15.0415702692
 20
13.9189934539
 30
0.0
 10
15.041430936
 20
13.8749811568
 30
0.0
 10
15.0471014706
 20
13.8105170544
 30
0.0
 10
15.0701901815
 20
13.7309057281
 30
0.0
 10
15.093659246
 20
13.6794655451
 30
0.0
 10
15.1235235002
 20
13.6350423288
 30
0.0
 10
15.1594859488
 20
13.5982463352
 30
0.0
 10
15.2009865099
 20
13.5695619604
 30
0.0
 10
15.2316971108
 20
13.5562777773
 30
0.0
 10
15.247514203
 20
13.5510947188
 30
0.0
  0
SPLINE
  5
246
100
AcDbEntity
  8
0
100
AcDbSpline
 62
7
  6
BYLAYER
 70
0
 71
3
 72
9
 73
5
 74
0
 42
0.0000001
 43
0.0000001
 44
0.0000000001
 40
0.0
 40
0.0
 40
0.0
 40
0.0
 40
0.2384261277
 40
1.0
 40
1.0
 40
1.0
 40
1.0
 10
17.5355844086
 20
14.2543587553
 30
0.0
 10
17.5170448291
 20
14.2371552451
 30
0.0
 10
17.4369577501
 20
14.167519078
 30
0.0
 10
17.3484901869
 20
14.1078027081
 30
0.0
 10
17.2785269715
 20
14.067409668
 30
0.0
  0
SPLINE
  5
247
100
AcDbEntity
  8
0
100
AcDbSpline
 62
7
  6
BYLAYER
 70
0
 71
3
 72
9
 73
5
 74
0
 42
0.0000001
 43
0.0000001
 44
0.0000000001
 40
0.0
 40
0.0
 40
0.0
 40
0.0
 40
0.2499817171
 40
1.0
 40
1.0
 40
1.0
 40
1.0
 10
15.0415702692
 20
13.9189934539
 30
0.0
 10
15.0422633024
 20
14.1379072909
 30
0.0
 10
15.0450771275
 20
15.0136265502
 30
0.0
 10
15.0480428016
 20
15.8893453178
 30
0.0
 10
15.0503298544
 20
16.5461501809
 30
0.0
  0
SPLINE
  5
248
100
AcDbEntity
  8
0
100
AcDbSpline
 62
7
  6
BYLAYER
 70
0
 71
3
 72
9
 73
5
 74
0
 42
0.0000001
 43
0.0000001
 44
0.0000000001
 40
0.0
 40
0.0
 40
0.0
 40
0.0
 40
0.5009652587
 40
1.0
 40
1.0
 40
1.0
 40
1.0
 10
19.6751177189
 20
16.4153238766
 30
0.0
 10
19.6407133993
 20
16.3646881449
 30
0.0
 10
19.5625244034
 20
16.2697938387
 30
0.0
 10
19.4656095205
 20
16.1929080963
 30
0.0
 10
19.4128004817
 20
16.1624120001
 30
0.0
  0
SPLINE
  5
249
100
AcDbEntity
  8
0
100
AcDbSpline
 62
7
  6
BYLAYER
 70
0
 71
3
 72
11
 73
7
 74
0
 42
0.0000001
 43
0.0000001
 44
0.0000000001
 40
0.0
 40
0.0
 40
0.0
 40
0.0
 40
0.2707271215
 40
0.5283055048
 40
0.7715674121
 40
1.0
 40
1.0
 40
1.0
 40
1.0
 10
15.0415702692
 20
13.9189934539
 30
0.0
 10
14.9842513803
 20
13.939583006
 30
0.0
 10
14.8739226613
 20
13.9842164501
 30
0.0
 10
14.7191684811
 20
14.0633781344
 30
0.0
 10
14.580943509
 20
14.1522690126
 30
0.0
 10
14.4983706168
 20
14.2193963342
 30
0.0
 10
14.4607001892
 20
14.2543513642
 30
0.0
  0
SPLINE
  5
24A
100
AcDbEntity
  8
0
100
AcDbSpline
 62
7
  6
BYLAYER
 70
0
 71
3
 72
14
 73
10
 74
0
 42
0.0000001
 43
0.0000001
 44
0.0000000001
 40
0.0
 40
0.0
 40
0.0
 40
0.0
 40
0.1510388864
 40
0.2929926039
 40
0.5493343278
 40
0.6666777439
 40
0.7791734486
 40
0.8893671378
 40
1.0
 40
1.0
 40
1.0
 40
1.0
 10
16.9547191653
 20
13.9189980525
 30
0.0
 10
16.9547910422
 20
13.8962920818
 30
0.0
 10
16.9527990043
 20
13.8521762112
 30
0.0
 10
16.9400515717
 20
13.7705181997
 30
0.0
 10
16.9138332929
 20
13.6961640514
 30
0.0
 10
16.8729020397
 20
13.6352015388
 30
0.0
 10
16.8369833583
 20
13.5983979897
 30
0.0
 10
16.7955363459
 20
13.5696975224
 30
0.0
 10
16.7648628009
 20
13.5563872474
 30
0.0
 10
16.7490637953
 20
13.5511905063
 30
0.0
  0
ELLIPSE
  5
24B
100
AcDbEntity
  8
0
100
AcDbEllipse
 62
7
  6
BYLAYER
 10
15.9981430094
 20
13.5140231273
 30
0.0
 11
0.4
 21
-0.0000000009
 31
0.0
 40
0.5775178928
 41
0.78554418
 42
2.3560568068
  0
ELLIPSE
  5
24C
100
AcDbEntity
  8
0
100
AcDbEllipse
 62
7
  6
BYLAYER
 10
19.3215628564
 20
16.2060704036
 30
0.0
 11
0.4990572264
 21
0.2070653777
 31
0.0
 40
0.1482147404
 41
-1.8005674937
 42
-1.5783539051
  0
ELLIPSE
  5
24D
100
AcDbEntity
  8
0
100
AcDbEllipse
 62
7
  6
BYLAYER
 10
19.3215628564
 20
15.8387290437
 30
0.0
 11
-0.4922003595
 21
0.485152088
 31
0.0
 40
0.1813255814
 41
-1.2255824833
 42
-0.6085407602
  0
ENDSEC
  0
SECTION
  2
OBJECTS
  0
DICTIONARY
  5
C
100
AcDbDictionary
280
0
281
1
  3
ACAD_GROUP
350
D
  3
ACAD_MLINESTYLE
350
17
  3
ACAD_LAYOUT
350
1A
  3
ACAD_PLOTSETTINGS
350
19
  3
ACAD_PLOTSTYLENAME
350
E
  0
DICTIONARY
  5
D
102
{ACAD_REACTORS
330
C
102
}
100
AcDbDictionary
280
0
281
1
  0
ACDBDICTIONARYWDFLT
  5
E
102
{ACAD_REACTORS
330
C
102
}
100
AcDbDictionary
281
1
  3
Normal
350
F
100
AcDbDictionaryWithDefault
340
F
  0
DICTIONARY
  5
17
102
{ACAD_REACTORS
330
C
102
}
100
AcDbDictionary
280
0
281
1
  3
Standard
350
18
  0
DICTIONARY
  5
19
102
{ACAD_REACTORS
330
C
102
}
100
AcDbDictionary
281
1
  0
DICTIONARY
  5
1A
102
{ACAD_REACTORS
330
C
102
}
100
AcDbDictionary
281
1
  3
Model
350
24E
  3
Layout1
350
24F
  0
ACDBPLACEHOLDER
  5
F
102
{ACAD_REACTORS
330
E
102
}
  0
MLINESTYLE
  5
18
102
{ACAD_REACTORS
330
17
102
}
100
AcDbMlineStyle
  2
STANDARD
 70
0
  3

 62
256
 51
90.0
 52
90.0
 71
2
 49
0.5
 62
256
  6
BYLAYER
 49
-0.5
 62
256
  6
BYLAYER
  0
LAYOUT
  5
24E
102
{ACAD_REACTORS
330
1A
102
}
100
AcDbPlotSettings
  1

  2
none_device
  4

  6

 40
0.0
 41
0.0
 42
0.0
 43
0.0
 44
210.0
 45
297.0
 46
0.0
 47
0.0
 48
0.0
 49
0.0
140
0.0
141
0.0
142
1.0
143
1.0
 70
1024
 72
1
 73
0
 74
0
  7

 75
0
147
1.0
148
0.0
149
0.0
100
AcDbLayout
  1
Model
 70
0
 71
0
 10
0.0
 20
0.0
 11
210.0
 21
297.0
 12
0.0
 22
0.0
 32
0.0
 14
0.0
 24
0.0
 34
0.0
 15
0.0
 25
0.0
 35
0.0
146
0.0
 13
0.0
 23
0.0
 33
0.0
 16
1.0
 26
0.0
 36
0.0
 17
0.0
 27
1.0
 37
0.0
 76
0
330
210
345
0
346
0
  0
LAYOUT
  5
24F
102
{ACAD_REACTORS
330
1A
102
}
100
AcDbPlotSettings
  1

  2
none_device
  4

  6

 40
0.0
 41
0.0
 42
0.0
 43
0.0
 44
210.0
 45
297.0
 46
0.0
 47
0.0
 48
0.0
 49
0.0
140
0.0
141
0.0
142
1.0
143
1.0
 70
0
 72
1
 73
0
 74
0
  7

 75
0
147
1.0
148
0.0
149
0.0
100
AcDbLayout
  1
Layout1
 70
0
 71
1
 10
0.0
 20
0.0
 11
210.0
 21
297.0
 12
0.0
 22
0.0
 32
0.0
 14
0.0
 24
0.0
 34
0.0
 15
0.0
 25
0.0
 35
0.0
146
0.0
 13
0.0
 23
0.0
 33
0.0
 16
1.0
 26
0.0
 36
0.0
 17
0.0
 27
1.0
 37
0.0
 76
0
330
211
345
0
346
0
  0
ENDSEC
  0
EOF
