999
DXF file: C:\Users\sesa63760\Dev\_Creo\CAD\MCADID0004023_3D-CAD\drw0001_5.dxf
999
Pro/ENGINEER 2019471 by Parametric Technology Corporation
  0
SECTION
  2
HEADER
  9
$ACADVER
  1
AC1024
  9
$DWGCODEPAGE
  3
ANSI_1252
  9
$EXTMAX
 10
77.7787020532
 20
110.0013071895
 30
0.0
  9
$EXTMIN
 10
0.0
 20
0.0
 30
0.0
  9
$LIMMIN
 10
0.0
 20
0.0
  9
$LIMMAX
 10
77.7787020532
 20
110.0013071895
  9
$VIEWCTR
 10
38.8893510266
 20
55.0006535948
  9
$VIEWSIZE
 40
110.0013071895
  9
$CLAYER
  8
0
  9
$LTSCALE
 40
7.1704555798
  9
$CELTYPE
  6
BYLAYER
  9
$DIMSCALE
 40
1.0
  9
$DIMASZ
 40
0.9259369292
  9
$DIMEXO
 40
1.0
  9
$DIMDLI
 40
4.954132946
  9
$DIMEXE
 40
1.0
  9
$DIMCEN
 40
1.1733472767
  9
$DIMLFAC
 40
1.0
  9
$DIMBLK
  1
_FILLED
  9
$DIMALT
 70
0
  9
$DIMALTF
 40
0.0393700787
  9
$DIMTXT
 40
1.2963117009
  9
$DIMTOL
 70
1
  9
$DIMLIM
 70
0
  9
$DIMTFAC
 40
1.0
  9
$DIMTP
 40
0.01
  9
$DIMTM
 40
0.01
  9
$DIMGAP
 40
0.625
  9
$DIMDSEP
 70
46
  9
$AUNITS
 70
0
  9
$PDMODE
 70
3
  9
$PDSIZE
 40
0.3125
  9
$HANDSEED
  5
33B
  9
$TILEMODE
 70
1
  9
$MEASUREMENT
 70
1
  9
$INSUNITS
 70
4
  0
ENDSEC
  0
SECTION
  2
CLASSES
  0
CLASS
  1
ACDBDICTIONARYWDFLT
  2
AcDbDictionaryWithDefault
  3
AutoCAD 2000
 90
0
 91
1
280
0
281
0
  0
CLASS
  1
ACDBPLACEHOLDER
  2
AcDbPlaceHolder
  3
AutoCAD 2000
 90
0
 91
1
280
0
281
0
  0
CLASS
  1
LAYOUT
  2
AcDbLayout
  3
AutoCAD 2000
 90
0
 91
0
280
0
281
0
  0
ENDSEC
  0
SECTION
  2
TABLES
  0
TABLE
  2
VPORT
  5
8
100
AcDbSymbolTable
 70
2
  0
VPORT
  5
1F4
100
AcDbSymbolTableRecord
100
AcDbViewportTableRecord
  2
*ACTIVE
 70
0
 10
0.0
 20
0.0
 11
1.0
 21
1.0
 12
38.8893510266
 22
55.0006535948
 13
0.0
 23
0.0
 14
1.0
 24
1.0
 15
0.0
 25
0.0
 16
0.0
 26
0.0
 36
1.0
 17
0.0
 27
0.0
 37
0.0
 40
110.0013071895
 41
0.7070707071
 42
50.0
 43
0.0
 44
0.0
 50
0.0
 51
0.0
 71
0
 72
100
 73
1
 74
1
 75
0
 76
0
 77
0
 78
0
  0
ENDTAB
  0
TABLE
  2
LTYPE
  5
5
100
AcDbSymbolTable
 70
6
  0
LTYPE
  5
14
100
AcDbSymbolTableRecord
100
AcDbLinetypeTableRecord
  2
BYBLOCK
 70
0
  3

 72
65
 73
0
 40
0.0
  0
LTYPE
  5
15
100
AcDbSymbolTableRecord
100
AcDbLinetypeTableRecord
  2
BYLAYER
 70
0
  3

 72
65
 73
0
 40
0.0
  0
LTYPE
  5
16
100
AcDbSymbolTableRecord
100
AcDbLinetypeTableRecord
  2
CONTINUOUS
 70
64
  3
Solid line
 72
65
 73
0
 40
0.0
  0
LTYPE
  5
1F5
100
AcDbSymbolTableRecord
100
AcDbLinetypeTableRecord
  2
CENTER
 70
64
  3
____ _ ____ _ ____ _ ____ _ ____ _ ____ _ ____
 72
65
 73
4
 40
0.6
 49
0.375
 74
0
 49
-0.075
 74
0
 49
0.075
 74
0
 49
-0.075
 74
0
  0
LTYPE
  5
1F6
100
AcDbSymbolTableRecord
100
AcDbLinetypeTableRecord
  2
HIDDEN
 70
64
  3
- - - - - - - - - - - - - - - - - - - -
 72
65
 73
2
 40
0.2
 49
0.1
 74
0
 49
-0.1
 74
0
  0
LTYPE
  5
1F7
100
AcDbSymbolTableRecord
100
AcDbLinetypeTableRecord
  2
PHANTOM
 70
64
  3
_____ _ _ _____ _ _ _____ _ _ _____
 72
65
 73
6
 40
0.8
 49
0.45
 74
0
 49
-0.05
 74
0
 49
0.1
 74
0
 49
-0.05
 74
0
 49
0.1
 74
0
 49
-0.05
 74
0
  0
LTYPE
  5
1F8
100
AcDbSymbolTableRecord
100
AcDbLinetypeTableRecord
  2
DOT
 70
64
  3
. . . . . . . . . . . . . . . . . . . .
 72
65
 73
2
 40
0.2
 49
0.1
 74
0
 49
-0.1
 74
0
  0
LTYPE
  5
1F9
100
AcDbSymbolTableRecord
100
AcDbLinetypeTableRecord
  2
DASHED
 70
64
  3
- - - - - - - - - - - - - - - - - - - -
 72
65
 73
2
 40
0.2
 49
0.1
 74
0
 49
-0.1
 74
0
  0
ENDTAB
  0
TABLE
  2
LAYER
  5
2
100
AcDbSymbolTable
 70
36
  0
LAYER
  5
10
100
AcDbSymbolTableRecord
100
AcDbLayerTableRecord
  2
0
 70
0
 62
7
  6
CONTINUOUS
370
-3
390
F
  0
LAYER
  5
1FA
100
AcDbSymbolTableRecord
100
AcDbLayerTableRecord
  2
DEFAULT_1
 70
0
 62
7
  6
CENTER
370
-3
390
F
  0
LAYER
  5
1FB
100
AcDbSymbolTableRecord
100
AcDbLayerTableRecord
  2
DEFAULT_2
 70
0
 62
7
  6
HIDDEN
370
-3
390
F
  0
LAYER
  5
1FC
100
AcDbSymbolTableRecord
100
AcDbLayerTableRecord
  2
DEFAULT_3
 70
0
 62
7
  6
PHANTOM
370
-3
390
F
  0
LAYER
  5
1FD
100
AcDbSymbolTableRecord
100
AcDbLayerTableRecord
  2
00_COMPONENTS
 70
0
 62
7
  6
CONTINUOUS
370
-3
390
F
  0
LAYER
  5
1FE
100
AcDbSymbolTableRecord
100
AcDbLayerTableRecord
  2
01_1_DEFAULT_DATUMS
 70
0
 62
7
  6
CONTINUOUS
370
-3
390
F
  0
LAYER
  5
1FF
100
AcDbSymbolTableRecord
100
AcDbLayerTableRecord
  2
01_PLANES
 70
0
 62
7
  6
CONTINUOUS
370
-3
390
F
  0
LAYER
  5
200
100
AcDbSymbolTableRecord
100
AcDbLayerTableRecord
  2
02_COORD_SYS
 70
0
 62
7
  6
CONTINUOUS
370
-3
390
F
  0
LAYER
  5
201
100
AcDbSymbolTableRecord
100
AcDbLayerTableRecord
  2
03_AXES
 70
0
 62
7
  6
CONTINUOUS
370
-3
390
F
  0
LAYER
  5
202
100
AcDbSymbolTableRecord
100
AcDbLayerTableRecord
  2
04_POINTS
 70
0
 62
7
  6
CONTINUOUS
370
-3
390
F
  0
LAYER
  5
203
100
AcDbSymbolTableRecord
100
AcDbLayerTableRecord
  2
05_CURVES
 70
0
 62
7
  6
CONTINUOUS
370
-3
390
F
  0
LAYER
  5
204
100
AcDbSymbolTableRecord
100
AcDbLayerTableRecord
  2
06_SURFS
 70
0
 62
7
  6
CONTINUOUS
370
-3
390
F
  0
LAYER
  5
205
100
AcDbSymbolTableRecord
100
AcDbLayerTableRecord
  2
07_COSMETICS
 70
0
 62
7
  6
CONTINUOUS
370
-3
390
F
  0
LAYER
  5
206
100
AcDbSymbolTableRecord
100
AcDbLayerTableRecord
  2
10_NOTES
 70
0
 62
7
  6
CONTINUOUS
370
-3
390
F
  0
LAYER
  5
207
100
AcDbSymbolTableRecord
100
AcDbLayerTableRecord
  2
11_NOTES_PUB
 70
0
 62
7
  6
CONTINUOUS
370
-3
390
F
  0
LAYER
  5
208
100
AcDbSymbolTableRecord
100
AcDbLayerTableRecord
  2
13_REF_GTOL
 70
0
 62
7
  6
CONTINUOUS
370
-3
390
F
  0
LAYER
  5
209
100
AcDbSymbolTableRecord
100
AcDbLayerTableRecord
  2
16_MISC
 70
0
 62
7
  6
CONTINUOUS
370
-3
390
F
  0
LAYER
  5
20A
100
AcDbSymbolTableRecord
100
AcDbLayerTableRecord
  2
17_NO_PRINT
 70
0
 62
7
  6
CONTINUOUS
370
-3
390
F
  0
LAYER
  5
20B
100
AcDbSymbolTableRecord
100
AcDbLayerTableRecord
  2
18_DATUM_CAMS_JOINTS
 70
0
 62
7
  6
CONTINUOUS
370
-3
390
F
  0
LAYER
  5
20C
100
AcDbSymbolTableRecord
100
AcDbLayerTableRecord
  2
19_DATUM_FUNCTIONAL
 70
0
 62
7
  6
CONTINUOUS
370
-3
390
F
  0
LAYER
  5
20D
100
AcDbSymbolTableRecord
100
AcDbLayerTableRecord
  2
20_DATUM_KINEMATIC_SCHEME
 70
0
 62
7
  6
CONTINUOUS
370
-3
390
F
  0
ENDTAB
  0
TABLE
  2
STYLE
  5
3
100
AcDbSymbolTable
 70
1
  0
STYLE
  5
11
100
AcDbSymbolTableRecord
100
AcDbTextStyleTableRecord
  2
STANDARD
 70
0
 40
0.0
 41
1.0
 50
0.0
 71
0
 42
0.2
  3
ARIAL.TTF
  4

  0
STYLE
  5
20E
100
AcDbSymbolTableRecord
100
AcDbTextStyleTableRecord
  2
TEXTSTYLE_1
 70
0
 40
0.0
 41
0.8
 50
0.0
 71
0
 42
0.2
  3
gdt
  4

  0
ENDTAB
  0
TABLE
  2
VIEW
  5
6
100
AcDbSymbolTable
 70
0
  0
ENDTAB
  0
TABLE
  2
UCS
  5
7
100
AcDbSymbolTable
 70
0
  0
ENDTAB
  0
TABLE
  2
APPID
  5
9
100
AcDbSymbolTable
 70
1
  0
APPID
  5
20F
100
AcDbSymbolTableRecord
100
AcDbRegAppTableRecord
  2
ACAD
 70
0
  0
ENDTAB
  0
TABLE
  2
BLOCK_RECORD
  5
1
100
AcDbSymbolTable
 70
0
  0
BLOCK_RECORD
  5
210
100
AcDbSymbolTableRecord
100
AcDbBlockTableRecord
  2
*Model_Space
  0
BLOCK_RECORD
  5
211
100
AcDbSymbolTableRecord
100
AcDbBlockTableRecord
  2
*Paper_Space
  0
BLOCK_RECORD
  5
212
100
AcDbSymbolTableRecord
100
AcDbBlockTableRecord
  2
_FILLED
  0
ENDTAB
  0
TABLE
  2
DIMSTYLE
  5
A
100
AcDbSymbolTable
 70
1
100
AcDbDimStyleTable
 71
0
  0
DIMSTYLE
105
213
100
AcDbSymbolTableRecord
100
AcDbDimStyleTableRecord
  2
STANDARD
 70
0
  3

  4

 40
1.0
 41
0.9259369292
 42
1.0
 43
0.38
 44
1.0
 45
0.0
 46
0.0
 47
0.01
 48
0.01
140
1.2963117009
141
0.09
142
0.0
143
25.4
144
1.0
145
0.0
146
1.0
147
0.625
 71
1
 72
0
 73
0
 74
0
 75
0
 76
0
 77
1
 78
8
 79
2
170
0
171
1
172
0
173
0
174
0
175
0
176
0
177
0
178
0
270
2
179
2
271
2
272
2
273
2
274
2
275
0
280
0
281
0
282
0
283
1
284
8
285
0
286
0
287
3
288
0
340
11
278
46
341
212
342
212
343
212
344
212
  0
ENDTAB
  0
ENDSEC
  0
SECTION
  2
BLOCKS
  0
BLOCK
  5
20
100
AcDbEntity
  8
0
100
AcDbBlockBegin
  2
*Model_Space
 70
0
 10
0.0
 20
0.0
 30
0.0
  3
*Model_Space
  1

  0
ENDBLK
  5
21
100
AcDbEntity
  8
0
100
AcDbBlockEnd
  0
BLOCK
  5
1C
100
AcDbEntity
  8
0
100
AcDbBlockBegin
  2
*Paper_Space
 70
0
 10
0.0
 20
0.0
 30
0.0
  3
*Paper_Space
  1

  0
ENDBLK
  5
1D
100
AcDbEntity
  8
0
100
AcDbBlockEnd
  0
BLOCK
  5
214
100
AcDbEntity
  8
0
100
AcDbBlockBegin
  2
_FILLED
 70
64
 10
0.0
 20
0.0
  3
_FILLED
  1

  0
SOLID
  5
215
100
AcDbEntity
  8
0
  6
BYBLOCK
 62
0
100
AcDbTrace
 10
0.0
 20
0.0
 11
-1.0
 21
0.25
 12
-1.0
 22
-0.25
 13
-1.0
 23
-0.25
  0
ENDBLK
  5
216
100
AcDbEntity
  8
0
  6
BYBLOCK
 62
0
100
AcDbBlockEnd
  0
ENDSEC
  0
SECTION
  2
ENTITIES
  0
LINE
  5
217
100
AcDbEntity
  8
0
100
AcDbLine
 62
7
  6
BYLAYER
 10
9.0664752096
 20
50.0852945311
 11
9.0664752096
 21
60.1852980571
  0
LINE
  5
218
100
AcDbEntity
  8
0
100
AcDbLine
 62
7
  6
BYLAYER
 10
9.2664752096
 20
49.9352941176
 11
9.2664752096
 21
60.3352941176
  0
LINE
  5
219
100
AcDbEntity
  8
0
100
AcDbLine
 62
7
  6
BYLAYER
 10
9.4664752096
 20
49.3354033617
 11
9.4664752096
 21
60.9352607178
  0
LINE
  5
21A
100
AcDbEntity
  8
0
100
AcDbLine
 62
7
  6
BYLAYER
 10
9.6664752096
 20
49.1352941176
 11
9.6664752096
 21
61.1352941176
  0
LINE
  5
21B
100
AcDbEntity
  8
0
100
AcDbLine
 62
7
  6
BYLAYER
 10
14.0664752096
 20
46.6352969852
 11
14.0664752096
 21
63.6352912501
  0
LINE
  5
21C
100
AcDbEntity
  8
0
100
AcDbLine
 62
7
  6
BYLAYER
 10
14.0664752096
 20
63.6352941176
 11
14.7174114127
 21
64.7627486939
  0
LINE
  5
21D
100
AcDbEntity
  8
0
100
AcDbLine
 62
7
  6
BYLAYER
 10
9.4664752096
 20
60.9352941176
 11
9.6664752096
 21
61.1352941176
  0
LINE
  5
21E
100
AcDbEntity
  8
0
100
AcDbLine
 62
7
  6
BYLAYER
 10
9.4664752096
 20
49.3352941176
 11
9.6664752096
 21
49.1352941176
  0
LINE
  5
21F
100
AcDbEntity
  8
0
100
AcDbLine
 62
7
  6
BYLAYER
 10
14.0664752096
 20
46.6352941176
 11
14.7174114127
 21
45.5078395414
  0
LINE
  5
220
100
AcDbEntity
  8
0
100
AcDbLine
 62
7
  6
BYLAYER
 10
17.0664752096
 20
63.6352912501
 11
17.0664752096
 21
46.6352969852
  0
LINE
  5
221
100
AcDbEntity
  8
0
100
AcDbLine
 62
7
  6
BYLAYER
 10
17.7664752096
 20
62.750522478
 11
17.7664752096
 21
62.4334303662
  0
LINE
  5
222
100
AcDbEntity
  8
0
100
AcDbLine
 62
7
  6
BYLAYER
 10
17.7664752096
 20
62.329365236
 11
17.7664752096
 21
62.0491206485
  0
LINE
  5
223
100
AcDbEntity
  8
0
100
AcDbLine
 62
7
  6
BYLAYER
 10
17.7664752096
 20
61.7666239378
 11
17.7664752096
 21
61.4425948574
  0
LINE
  5
224
100
AcDbEntity
  8
0
100
AcDbLine
 62
7
  6
BYLAYER
 10
17.7664752096
 20
60.990746243
 11
17.7664752096
 21
60.6333472309
  0
LINE
  5
225
100
AcDbEntity
  8
0
100
AcDbLine
 62
7
  6
BYLAYER
 10
17.7664752096
 20
60.026669499
 11
17.7664752096
 21
59.6473876535
  0
LINE
  5
226
100
AcDbEntity
  8
0
100
AcDbLine
 62
7
  6
BYLAYER
 10
17.7664752096
 20
58.9053799256
 11
17.7664752096
 21
58.5164056773
  0
LINE
  5
227
100
AcDbEntity
  8
0
100
AcDbLine
 62
7
  6
BYLAYER
 10
17.7664752096
 20
57.6629166922
 11
17.7664752096
 21
57.2767519935
  0
LINE
  5
228
100
AcDbEntity
  8
0
100
AcDbLine
 62
7
  6
BYLAYER
 10
17.7664752096
 20
56.3392135896
 11
17.7664752096
 21
55.9682700917
  0
LINE
  5
229
100
AcDbEntity
  8
0
100
AcDbLine
 62
7
  6
BYLAYER
 10
17.7664752096
 20
54.9768155246
 11
17.7664752096
 21
54.6104608537
  0
LINE
  5
22A
100
AcDbEntity
  8
0
100
AcDbLine
 62
7
  6
BYLAYER
 10
17.7664752096
 20
53.6420658949
 11
17.7664752096
 21
53.2619816893
  0
LINE
  5
22B
100
AcDbEntity
  8
0
100
AcDbLine
 62
7
  6
BYLAYER
 10
17.7664752096
 20
52.3628483483
 11
17.7664752096
 21
51.9737123276
  0
LINE
  5
22C
100
AcDbEntity
  8
0
100
AcDbLine
 62
7
  6
BYLAYER
 10
17.7664752096
 20
51.17273949
 11
17.7664752096
 21
50.787058806
  0
LINE
  5
22D
100
AcDbEntity
  8
0
100
AcDbLine
 62
7
  6
BYLAYER
 10
17.7664752096
 20
50.1099903978
 11
17.7664752096
 21
49.7401611451
  0
LINE
  5
22E
100
AcDbEntity
  8
0
100
AcDbLine
 62
7
  6
BYLAYER
 10
17.7664752096
 20
49.2087587019
 11
17.7664752096
 21
48.866667497
  0
LINE
  5
22F
100
AcDbEntity
  8
0
100
AcDbLine
 62
7
  6
BYLAYER
 10
17.7664752096
 20
48.4980107307
 11
17.7664752096
 21
48.1946526664
  0
LINE
  5
230
100
AcDbEntity
  8
0
100
AcDbLine
 62
7
  6
BYLAYER
 10
17.7664752096
 20
48.0005905088
 11
17.7664752096
 21
47.7457157628
  0
LINE
  5
231
100
AcDbEntity
  8
0
100
AcDbLine
 62
7
  6
BYLAYER
 10
17.7664752096
 20
47.7324855313
 11
17.7664752096
 21
47.5342859877
  0
LINE
  5
232
100
AcDbEntity
  8
0
100
AcDbLine
 62
7
  6
BYLAYER
 10
17.5381512477
 20
61.2506930474
 11
17.5076543754
 21
61.2088447763
  0
LINE
  5
233
100
AcDbEntity
  8
0
100
AcDbLine
 62
7
  6
BYLAYER
 10
17.532897887
 20
48.6833818972
 11
17.5381512477
 21
48.6763395868
  0
LINE
  5
234
100
AcDbEntity
  8
0
100
AcDbLine
 62
7
  6
BYLAYER
 10
20.3664752096
 20
47.5342859877
 11
20.3664752096
 21
47.7324855313
  0
LINE
  5
235
100
AcDbEntity
  8
0
100
AcDbLine
 62
7
  6
BYLAYER
 10
20.3664752096
 20
47.7457157628
 11
20.3664752096
 21
48.0005905088
  0
LINE
  5
236
100
AcDbEntity
  8
0
100
AcDbLine
 62
7
  6
BYLAYER
 10
20.3664752096
 20
48.1946526664
 11
20.3664752096
 21
48.4980107307
  0
LINE
  5
237
100
AcDbEntity
  8
0
100
AcDbLine
 62
7
  6
BYLAYER
 10
20.3664752096
 20
48.866667497
 11
20.3664752096
 21
49.2087587019
  0
LINE
  5
238
100
AcDbEntity
  8
0
100
AcDbLine
 62
7
  6
BYLAYER
 10
20.3664752096
 20
49.7401611451
 11
20.3664752096
 21
50.1099903978
  0
LINE
  5
239
100
AcDbEntity
  8
0
100
AcDbLine
 62
7
  6
BYLAYER
 10
20.3664752096
 20
50.787058806
 11
20.3664752096
 21
51.17273949
  0
LINE
  5
23A
100
AcDbEntity
  8
0
100
AcDbLine
 62
7
  6
BYLAYER
 10
20.3664752096
 20
51.9737123276
 11
20.3664752096
 21
52.3628483483
  0
LINE
  5
23B
100
AcDbEntity
  8
0
100
AcDbLine
 62
7
  6
BYLAYER
 10
20.3664752096
 20
53.2619816893
 11
20.3664752096
 21
53.6420658949
  0
LINE
  5
23C
100
AcDbEntity
  8
0
100
AcDbLine
 62
7
  6
BYLAYER
 10
20.3664752096
 20
54.6104608537
 11
20.3664752096
 21
54.9768155246
  0
LINE
  5
23D
100
AcDbEntity
  8
0
100
AcDbLine
 62
7
  6
BYLAYER
 10
20.3664752096
 20
55.9682700917
 11
20.3664752096
 21
56.3392135896
  0
LINE
  5
23E
100
AcDbEntity
  8
0
100
AcDbLine
 62
7
  6
BYLAYER
 10
20.3664752096
 20
57.2767519935
 11
20.3664752096
 21
57.6629166922
  0
LINE
  5
23F
100
AcDbEntity
  8
0
100
AcDbLine
 62
7
  6
BYLAYER
 10
20.3664752096
 20
58.5164056773
 11
20.3664752096
 21
58.9053799256
  0
LINE
  5
240
100
AcDbEntity
  8
0
100
AcDbLine
 62
7
  6
BYLAYER
 10
20.3664752096
 20
59.6473876535
 11
20.3664752096
 21
60.026669499
  0
LINE
  5
241
100
AcDbEntity
  8
0
100
AcDbLine
 62
7
  6
BYLAYER
 10
20.3664752096
 20
60.6333472309
 11
20.3664752096
 21
60.990746243
  0
LINE
  5
242
100
AcDbEntity
  8
0
100
AcDbLine
 62
7
  6
BYLAYER
 10
20.3664752096
 20
61.4425948574
 11
20.3664752096
 21
61.7666239378
  0
LINE
  5
243
100
AcDbEntity
  8
0
100
AcDbLine
 62
7
  6
BYLAYER
 10
20.3664752096
 20
62.0491206485
 11
20.3664752096
 21
62.329365236
  0
LINE
  5
244
100
AcDbEntity
  8
0
100
AcDbLine
 62
7
  6
BYLAYER
 10
20.3664752096
 20
62.4334303662
 11
20.3664752096
 21
62.750522478
  0
LINE
  5
245
100
AcDbEntity
  8
0
100
AcDbLine
 62
7
  6
BYLAYER
 10
21.0664752096
 20
63.6352941176
 11
21.7174114127
 21
64.7627486939
  0
LINE
  5
246
100
AcDbEntity
  8
0
100
AcDbLine
 62
7
  6
BYLAYER
 10
21.0664752096
 20
46.6352941176
 11
21.7174114127
 21
45.5078395414
  0
LINE
  5
247
100
AcDbEntity
  8
0
100
AcDbLine
 62
7
  6
BYLAYER
 10
21.0664752096
 20
46.6352969852
 11
21.0664752096
 21
63.6352912501
  0
LINE
  5
248
100
AcDbEntity
  8
0
100
AcDbLine
 62
7
  6
BYLAYER
 10
24.0664752096
 20
63.6352912501
 11
24.0664752096
 21
46.6352969852
  0
LINE
  5
249
100
AcDbEntity
  8
0
100
AcDbLine
 62
7
  6
BYLAYER
 10
17.0664752096
 20
46.6352941176
 11
16.4155390065
 21
45.5078395414
  0
LINE
  5
24A
100
AcDbEntity
  8
0
100
AcDbLine
 62
7
  6
BYLAYER
 10
17.7528630448
 20
47.7389126791
 11
17.7664752096
 21
47.7324855313
  0
LINE
  5
24B
100
AcDbEntity
  8
0
100
AcDbLine
 62
7
  6
BYLAYER
 10
17.0664752096
 20
63.6352941176
 11
16.4155390065
 21
64.7627486939
  0
LINE
  5
24C
100
AcDbEntity
  8
0
100
AcDbLine
 62
7
  6
BYLAYER
 10
20.6000434932
 20
48.6833942024
 11
20.5947991715
 21
48.6763395868
  0
LINE
  5
24D
100
AcDbEntity
  8
0
100
AcDbLine
 62
7
  6
BYLAYER
 10
20.8664752096
 20
47.3838839561
 11
21.0664752096
 21
47.3302941176
  0
LINE
  5
24E
100
AcDbEntity
  8
0
100
AcDbLine
 62
7
  6
BYLAYER
 10
20.5947991715
 20
61.2506930474
 11
20.6253359715
 21
61.2088874359
  0
LINE
  5
24F
100
AcDbEntity
  8
0
100
AcDbLine
 62
7
  6
BYLAYER
 10
24.0664752096
 20
46.6352941176
 11
23.4155390065
 21
45.5078395414
  0
LINE
  5
250
100
AcDbEntity
  8
0
100
AcDbLine
 62
7
  6
BYLAYER
 10
70.8664752096
 20
49.9645191926
 11
69.5664752096
 21
49.7352941176
  0
LINE
  5
251
100
AcDbEntity
  8
0
100
AcDbLine
 62
7
  6
BYLAYER
 10
16.3918727558
 20
45.4703395414
 11
14.7410776634
 21
45.4703395414
  0
LINE
  5
252
100
AcDbEntity
  8
0
100
AcDbLine
 62
7
  6
BYLAYER
 10
21.7410776634
 20
45.4703395414
 11
23.3918727867
 21
45.4703395414
  0
LINE
  5
253
100
AcDbEntity
  8
0
100
AcDbLine
 62
7
  6
BYLAYER
 10
16.445967925
 20
45.5703395414
 11
14.6869825734
 21
45.5703395414
  0
LINE
  5
254
100
AcDbEntity
  8
0
100
AcDbLine
 62
7
  6
BYLAYER
 10
21.6869824942
 20
45.5703395414
 11
23.4459675466
 21
45.5703395414
  0
LINE
  5
255
100
AcDbEntity
  8
0
100
AcDbLine
 62
7
  6
BYLAYER
 10
24.0664752096
 20
63.6352941176
 11
23.4155390065
 21
64.7627486939
  0
LINE
  5
256
100
AcDbEntity
  8
0
100
AcDbLine
 62
7
  6
BYLAYER
 10
9.6664752096
 20
49.1352941176
 11
14.0664752096
 21
49.1352941176
  0
LINE
  5
257
100
AcDbEntity
  8
0
100
AcDbLine
 62
7
  6
BYLAYER
 10
17.7664752096
 20
49.1352941176
 11
20.3664752096
 21
49.1352941176
  0
LINE
  5
258
100
AcDbEntity
  8
0
100
AcDbLine
 62
7
  6
BYLAYER
 10
24.0664752096
 20
49.1352941176
 11
51.2664752096
 21
49.1352941176
  0
LINE
  5
259
100
AcDbEntity
  8
0
100
AcDbLine
 62
7
  6
BYLAYER
 10
62.7664752096
 20
49.1352941176
 11
68.2664752096
 21
49.1352941176
  0
LINE
  5
25A
100
AcDbEntity
  8
0
100
AcDbLine
 62
7
  6
BYLAYER
 10
69.3664752096
 20
49.7352941176
 11
69.5664752096
 21
49.7352941176
  0
LINE
  5
25B
100
AcDbEntity
  8
0
100
AcDbLine
 62
7
  6
BYLAYER
 10
53.0334625077
 20
49.7852941176
 11
62.1164752096
 21
49.7852941176
  0
LINE
  5
25C
100
AcDbEntity
  8
0
100
AcDbLine
 62
7
  6
BYLAYER
 10
68.9164752096
 20
49.7852941176
 11
69.3664752096
 21
49.7852941176
  0
LINE
  5
25D
100
AcDbEntity
  8
0
100
AcDbLine
 62
7
  6
BYLAYER
 10
9.1341876333
 20
49.9352941176
 11
9.4664752096
 21
49.9352941176
  0
LINE
  5
25E
100
AcDbEntity
  8
0
100
AcDbLine
 62
7
  6
BYLAYER
 10
16.4459679207
 20
49.9778168295
 11
14.6869828754
 21
49.9778168295
  0
LINE
  5
25F
100
AcDbEntity
  8
0
100
AcDbLine
 62
7
  6
BYLAYER
 10
21.6869824985
 20
49.9778168295
 11
23.4459678418
 21
49.9778168295
  0
LINE
  5
260
100
AcDbEntity
  8
0
100
AcDbLine
 62
7
  6
BYLAYER
 10
16.3918726678
 20
50.5278168295
 11
14.7410777442
 21
50.5278168295
  0
LINE
  5
261
100
AcDbEntity
  8
0
100
AcDbLine
 62
7
  6
BYLAYER
 10
21.7410777514
 20
50.5278168295
 11
23.3918726678
 21
50.5278168295
  0
LINE
  5
262
100
AcDbEntity
  8
0
100
AcDbLine
 62
7
  6
BYLAYER
 10
20.3800784431
 20
47.7389624451
 11
20.3664752096
 21
47.7324855313
  0
LINE
  5
263
100
AcDbEntity
  8
0
100
AcDbLine
 62
7
  6
BYLAYER
 10
17.2664752096
 20
47.3838839561
 11
17.0664752096
 21
47.3302941176
  0
LINE
  5
264
100
AcDbEntity
  8
0
100
AcDbLine
 62
7
  6
BYLAYER
 10
51.4664752096
 20
59.7352941176
 11
52.5334625077
 21
60.3513195214
  0
LINE
  5
265
100
AcDbEntity
  8
0
100
AcDbLine
 62
7
  6
BYLAYER
 10
17.7664752096
 20
62.7527296829
 11
17.0664752096
 21
62.9402941176
  0
LINE
  5
266
100
AcDbEntity
  8
0
100
AcDbLine
 62
7
  6
BYLAYER
 10
51.4664752096
 20
50.5352941176
 11
52.5334625077
 21
49.9192687139
  0
LINE
  5
267
100
AcDbEntity
  8
0
100
AcDbLine
 62
7
  6
BYLAYER
 10
16.3918726678
 20
59.7427714058
 11
14.7410777514
 21
59.7427714058
  0
LINE
  5
268
100
AcDbEntity
  8
0
100
AcDbLine
 62
7
  6
BYLAYER
 10
21.7410777514
 20
59.7427714058
 11
23.391872675
 21
59.7427714058
  0
LINE
  5
269
100
AcDbEntity
  8
0
100
AcDbLine
 62
7
  6
BYLAYER
 10
16.445967925
 20
60.2927714058
 11
14.6869825734
 21
60.2927714058
  0
LINE
  5
26A
100
AcDbEntity
  8
0
100
AcDbLine
 62
7
  6
BYLAYER
 10
21.6869824942
 20
60.2927714058
 11
23.445967925
 21
60.2927714058
  0
LINE
  5
26B
100
AcDbEntity
  8
0
100
AcDbLine
 62
7
  6
BYLAYER
 10
9.4664752096
 20
60.3352941176
 11
9.1341876333
 21
60.3352941176
  0
LINE
  5
26C
100
AcDbEntity
  8
0
100
AcDbLine
 62
7
  6
BYLAYER
 10
53.0334625077
 20
60.4852941176
 11
62.1164752096
 21
60.4852941176
  0
LINE
  5
26D
100
AcDbEntity
  8
0
100
AcDbLine
 62
7
  6
BYLAYER
 10
68.9164752096
 20
60.4852941176
 11
69.3664752096
 21
60.4852941176
  0
LINE
  5
26E
100
AcDbEntity
  8
0
100
AcDbLine
 62
7
  6
BYLAYER
 10
69.3664752096
 20
60.5352941176
 11
69.5664752096
 21
60.5352941176
  0
LINE
  5
26F
100
AcDbEntity
  8
0
100
AcDbLine
 62
7
  6
BYLAYER
 10
9.6664752096
 20
61.1352941176
 11
14.0664752096
 21
61.1352941176
  0
LINE
  5
270
100
AcDbEntity
  8
0
100
AcDbLine
 62
7
  6
BYLAYER
 10
17.5961439439
 20
61.1352941176
 11
20.536802879
 21
61.1352941176
  0
LINE
  5
271
100
AcDbEntity
  8
0
100
AcDbLine
 62
7
  6
BYLAYER
 10
24.0664752096
 20
61.1352941176
 11
51.2664752096
 21
61.1352941176
  0
LINE
  5
272
100
AcDbEntity
  8
0
100
AcDbLine
 62
7
  6
BYLAYER
 10
62.7664752096
 20
61.1352941176
 11
68.2664752096
 21
61.1352941176
  0
LINE
  5
273
100
AcDbEntity
  8
0
100
AcDbLine
 62
7
  6
BYLAYER
 10
16.4459679207
 20
64.7002486939
 11
14.6869824985
 21
64.7002486939
  0
LINE
  5
274
100
AcDbEntity
  8
0
100
AcDbLine
 62
7
  6
BYLAYER
 10
21.6869824985
 20
64.7002486939
 11
23.4459678418
 21
64.7002486939
  0
LINE
  5
275
100
AcDbEntity
  8
0
100
AcDbLine
 62
7
  6
BYLAYER
 10
16.391872757
 20
64.8002486939
 11
14.7410776313
 21
64.8002486939
  0
LINE
  5
276
100
AcDbEntity
  8
0
100
AcDbLine
 62
7
  6
BYLAYER
 10
21.7410776622
 20
64.8002486939
 11
23.3918726509
 21
64.8002486939
  0
LINE
  5
277
100
AcDbEntity
  8
0
100
AcDbLine
 62
7
  6
BYLAYER
 10
70.8664752096
 20
60.3060690427
 11
69.5664752096
 21
60.5352941176
  0
LINE
  5
278
100
AcDbEntity
  8
0
100
AcDbLine
 62
7
  6
BYLAYER
 10
51.2664752096
 20
61.1352941176
 11
51.2664752096
 21
49.1352941176
  0
LINE
  5
279
100
AcDbEntity
  8
0
100
AcDbLine
 62
7
  6
BYLAYER
 10
51.4664752096
 20
60.9352119301
 11
51.4664752096
 21
49.3353763052
  0
LINE
  5
27A
100
AcDbEntity
  8
0
100
AcDbLine
 62
7
  6
BYLAYER
 10
52.5334625077
 20
60.3513195214
 11
52.5334625077
 21
49.9192687139
  0
LINE
  5
27B
100
AcDbEntity
  8
0
100
AcDbLine
 62
7
  6
BYLAYER
 10
53.0334625077
 20
49.7852941176
 11
53.0334625077
 21
60.4852941176
  0
LINE
  5
27C
100
AcDbEntity
  8
0
100
AcDbLine
 62
7
  6
BYLAYER
 10
62.1164752096
 20
60.4852941176
 11
62.7664752096
 21
61.1352941176
  0
LINE
  5
27D
100
AcDbEntity
  8
0
100
AcDbLine
 62
7
  6
BYLAYER
 10
51.4664752096
 20
49.3352941176
 11
51.2664752096
 21
49.1352941176
  0
LINE
  5
27E
100
AcDbEntity
  8
0
100
AcDbLine
 62
7
  6
BYLAYER
 10
20.3664752096
 20
62.7527296829
 11
21.0664752096
 21
62.9402941176
  0
LINE
  5
27F
100
AcDbEntity
  8
0
100
AcDbLine
 62
7
  6
BYLAYER
 10
62.1164752096
 20
49.7852941176
 11
62.7664752096
 21
49.1352941176
  0
LINE
  5
280
100
AcDbEntity
  8
0
100
AcDbLine
 62
7
  6
BYLAYER
 10
51.4664752096
 20
60.9352941176
 11
51.2664752096
 21
61.1352941176
  0
LINE
  5
281
100
AcDbEntity
  8
0
100
AcDbLine
 62
7
  6
BYLAYER
 10
62.1164752096
 20
60.4852941176
 11
62.1164752096
 21
49.7852941176
  0
LINE
  5
282
100
AcDbEntity
  8
0
100
AcDbLine
 62
7
  6
BYLAYER
 10
62.7664752096
 20
49.1352941176
 11
62.7664752096
 21
61.1352941176
  0
LINE
  5
283
100
AcDbEntity
  8
0
100
AcDbLine
 62
7
  6
BYLAYER
 10
68.9164752096
 20
49.7852941176
 11
68.2664752096
 21
49.1352941176
  0
LINE
  5
284
100
AcDbEntity
  8
0
100
AcDbLine
 62
7
  6
BYLAYER
 10
68.9164752096
 20
60.4852941176
 11
68.2664752096
 21
61.1352941176
  0
LINE
  5
285
100
AcDbEntity
  8
0
100
AcDbLine
 62
7
  6
BYLAYER
 10
68.2664752096
 20
61.1352941176
 11
68.2664752096
 21
49.1352941176
  0
LINE
  5
286
100
AcDbEntity
  8
0
100
AcDbLine
 62
7
  6
BYLAYER
 10
68.9164752096
 20
49.7852941176
 11
68.9164752096
 21
60.4852941176
  0
LINE
  5
287
100
AcDbEntity
  8
0
100
AcDbLine
 62
7
  6
BYLAYER
 10
69.3664752096
 20
49.7352852628
 11
69.3664752096
 21
60.5352657146
  0
LINE
  5
288
100
AcDbEntity
  8
0
100
AcDbLine
 62
7
  6
BYLAYER
 10
69.5664752096
 20
60.5352941176
 11
69.5664752096
 21
49.7352941176
  0
LINE
  5
289
100
AcDbEntity
  8
0
100
AcDbLine
 62
7
  6
BYLAYER
 10
70.8664752096
 20
60.3061173916
 11
70.8664752096
 21
49.9644708436
  0
ARC
  5
28A
100
AcDbEntity
  8
0
100
AcDbCircle
 62
7
  6
BYLAYER
 10
-77.8061421637
 20
-25.6967476432
 40
128.5606105154
100
AcDbArc
 50
39.9138785049
 51
40.0569589097
  0
ARC
  5
28B
100
AcDbEntity
  8
0
100
AcDbCircle
 62
7
  6
BYLAYER
 10
-54.7394615953
 20
-14.8625868451
 40
104.1392622953
100
AcDbArc
 50
43.6641560751
 51
43.8457996388
  0
ARC
  5
28C
100
AcDbEntity
  8
0
100
AcDbCircle
 62
7
  6
BYLAYER
 10
-47.5566527184
 20
5.7842496256
 40
86.0247579073
100
AcDbArc
 50
37.4290469542
 51
37.6055372313
  0
ARC
  5
28D
100
AcDbEntity
  8
0
100
AcDbCircle
 62
7
  6
BYLAYER
 10
-34.2719552243
 20
19.235254494
 40
68.0071858463
100
AcDbArc
 50
36.0476282807
 51
36.2176071289
  0
ARC
  5
28E
100
AcDbEntity
  8
0
100
AcDbCircle
 62
7
  6
BYLAYER
 10
-21.8888491011
 20
17.7469755783
 40
58.7167681604
100
AcDbArc
 50
43.6528706988
 51
43.9746867693
  0
ARC
  5
28F
100
AcDbEntity
  8
0
100
AcDbCircle
 62
7
  6
BYLAYER
 10
-25.7159623125
 20
27.0727017064
 40
57.0671915056
100
AcDbArc
 50
35.6246114628
 51
35.7559907206
  0
ARC
  5
290
100
AcDbEntity
  8
0
100
AcDbCircle
 62
7
  6
BYLAYER
 10
-7.7078630576
 20
31.5300434518
 40
39.733531357
100
AcDbArc
 50
44.5766797014
 51
45.0438509393
  0
ARC
  5
291
100
AcDbEntity
  8
0
100
AcDbCircle
 62
7
  6
BYLAYER
 10
0.8939782657
 20
39.6592864054
 40
28.6197373283
100
AcDbArc
 50
46.4991892417
 51
47.1261087637
  0
ARC
  5
292
100
AcDbEntity
  8
0
100
AcDbCircle
 62
7
  6
BYLAYER
 10
-57.8165723166
 20
115.3914342434
 40
100.4532318423
100
AcDbArc
 50
321.3133342122
 51
321.4809110165
  0
ARC
  5
293
100
AcDbEntity
  8
0
100
AcDbCircle
 62
7
  6
BYLAYER
 10
-34.0191630849
 20
104.5070434412
 40
75.3446397203
100
AcDbArc
 50
316.2053552041
 51
316.4568127451
  0
ARC
  5
294
100
AcDbEntity
  8
0
100
AcDbCircle
 62
7
  6
BYLAYER
 10
-39.1817504655
 20
96.1110468389
 40
74.6433819549
100
AcDbArc
 50
323.2092938699
 51
323.3891753338
  0
ARC
  5
295
100
AcDbEntity
  8
0
100
AcDbCircle
 62
7
  6
BYLAYER
 10
-29.652468338
 20
86.6736525242
 40
62.0115582548
100
AcDbArc
 50
324.1241518601
 51
324.2786680871
  0
ARC
  5
296
100
AcDbEntity
  8
0
100
AcDbCircle
 62
7
  6
BYLAYER
 10
-13.7720781547
 20
84.5902464291
 40
47.7720692019
100
AcDbArc
 50
315.6115121003
 51
316.0043624628
  0
ARC
  5
297
100
AcDbEntity
  8
0
100
AcDbCircle
 62
7
  6
BYLAYER
 10
-2.9955427018
 20
74.2607174926
 40
33.6012127773
100
AcDbArc
 50
314.0489802819
 51
314.5931697629
  0
ARC
  5
298
100
AcDbEntity
  8
0
100
AcDbCircle
 62
7
  6
BYLAYER
 10
4.1158784275
 20
67.6330515863
 40
24.56697914
100
AcDbArc
 50
311.4129416222
 51
312.1269245867
  0
ARC
  5
299
100
AcDbEntity
  8
0
100
AcDbCircle
 62
7
  6
BYLAYER
 10
6.8850770003
 20
45.1707039366
 40
21.1310797598
100
AcDbArc
 50
49.5492480509
 51
50.3579665658
  0
ARC
  5
29A
100
AcDbEntity
  8
0
100
AcDbCircle
 62
7
  6
BYLAYER
 10
9.2342942373
 20
62.9864688987
 40
18.2713128506
100
AcDbArc
 50
307.5368098507
 51
308.4453075536
  0
ARC
  5
29B
100
AcDbEntity
  8
0
100
AcDbCircle
 62
7
  6
BYLAYER
 10
11.2822316586
 20
49.107990735
 40
15.8112720656
100
AcDbArc
 50
54.056417042
 51
54.9324192424
  0
ARC
  5
29C
100
AcDbEntity
  8
0
100
AcDbCircle
 62
7
  6
BYLAYER
 10
13.0470141225
 20
59.6200876251
 40
13.7327063553
100
AcDbArc
 50
302.2080256631
 51
302.9511971892
  0
ARC
  5
29D
100
AcDbEntity
  8
0
100
AcDbCircle
 62
7
  6
BYLAYER
 10
14.5353605914
 20
51.8859109345
 40
12.0520564159
100
AcDbArc
 50
60.5656948006
 51
61.0643273487
  0
ARC
  5
29E
100
AcDbEntity
  8
0
100
AcDbCircle
 62
7
  6
BYLAYER
 10
5.8113625114
 20
49.2095104271
 40
10.6623227742
100
AcDbArc
 50
4.1322045606
 51
7.1023153364
  0
ARC
  5
29F
100
AcDbEntity
  8
0
100
AcDbCircle
 62
7
  6
BYLAYER
 10
12.8285873493
 20
61.0593820742
 40
10.6450204568
100
AcDbArc
 50
352.8952788228
 51
355.8702182298
  0
ARC
  5
2A0
100
AcDbEntity
  8
0
100
AcDbCircle
 62
7
  6
BYLAYER
 10
12.8571511141
 20
49.2140156245
 40
10.6163285543
100
AcDbArc
 50
4.1257603783
 51
7.1087417282
  0
ARC
  5
2A1
100
AcDbEntity
  8
0
100
AcDbCircle
 62
7
  6
BYLAYER
 10
5.8774090153
 20
61.0545818864
 40
10.5959800225
100
AcDbArc
 50
352.8883840006
 51
355.8770952172
  0
ARC
  5
2A2
100
AcDbEntity
  8
0
100
AcDbCircle
 62
7
  6
BYLAYER
 10
9.2664752096
 20
50.0852941176
 40
0.2
100
AcDbArc
 50
180.0
 51
228.5903778907
  0
ARC
  5
2A3
100
AcDbEntity
  8
0
100
AcDbCircle
 62
7
  6
BYLAYER
 10
9.2664752096
 20
60.1852941176
 40
0.2
100
AcDbArc
 50
131.4096221093
 51
180.0
  0
ARC
  5
2A4
100
AcDbEntity
  8
0
100
AcDbCircle
 62
7
  6
BYLAYER
 10
116.5088928046
 20
-26.1748425797
 40
129.3044159265
100
AcDbArc
 50
139.9433769595
 51
140.0856343472
  0
ARC
  5
2A5
100
AcDbEntity
  8
0
100
AcDbCircle
 62
7
  6
BYLAYER
 10
92.8724120207
 20
-14.8625868512
 40
104.139262304
100
AcDbArc
 50
136.1542003611
 51
136.3358439248
  0
ARC
  5
2A6
100
AcDbEntity
  8
0
100
AcDbCircle
 62
7
  6
BYLAYER
 10
86.1559863148
 20
5.4259349843
 40
86.6128923493
100
AcDbArc
 50
142.3949452118
 51
142.5702393691
  0
ARC
  5
2A7
100
AcDbEntity
  8
0
100
AcDbCircle
 62
7
  6
BYLAYER
 10
72.7157441281
 20
19.0085425281
 40
68.3919173296
100
AcDbArc
 50
143.7830242387
 51
143.9520514819
  0
ARC
  5
2A8
100
AcDbEntity
  8
0
100
AcDbCircle
 62
7
  6
BYLAYER
 10
60.0632956959
 20
17.7071630158
 40
58.774274218
100
AcDbArc
 50
136.025470667
 51
136.3469718647
  0
ARC
  5
2A9
100
AcDbEntity
  8
0
100
AcDbCircle
 62
7
  6
BYLAYER
 10
63.7541801769
 20
27.1414674318
 40
56.950132631
100
AcDbArc
 50
144.2444607738
 51
144.3761090617
  0
ARC
  5
2AA
100
AcDbEntity
  8
0
100
AcDbCircle
 62
7
  6
BYLAYER
 10
45.8684047945
 20
31.5026342684
 40
39.7724224747
100
AcDbArc
 50
134.9563774714
 51
135.4230918874
  0
ARC
  5
2AB
100
AcDbEntity
  8
0
100
AcDbCircle
 62
7
  6
BYLAYER
 10
37.2581340601
 20
39.6388720177
 40
28.6477355863
100
AcDbArc
 50
132.8741975923
 51
133.5005044018
  0
ARC
  5
2AC
100
AcDbEntity
  8
0
100
AcDbCircle
 62
7
  6
BYLAYER
 10
96.3978376923
 20
115.7496390045
 40
101.027075524
100
AcDbArc
 50
218.5196919959
 51
218.6863151872
  0
ARC
  5
2AD
100
AcDbEntity
  8
0
100
AcDbCircle
 62
7
  6
BYLAYER
 10
78.0551889696
 20
96.6630471331
 40
75.566975452
100
AcDbArc
 50
216.6119526563
 51
216.7896324489
  0
ARC
  5
2AE
100
AcDbEntity
  8
0
100
AcDbCircle
 62
7
  6
BYLAYER
 10
72.1521135046
 20
104.5070434418
 40
75.3446397211
100
AcDbArc
 50
223.543187255
 51
223.794644796
  0
ARC
  5
2AF
100
AcDbEntity
  8
0
100
AcDbCircle
 62
7
  6
BYLAYER
 10
67.959413558
 20
86.7986189764
 40
62.2257784831
100
AcDbArc
 50
215.7212112075
 51
215.875196775
  0
ARC
  5
2B0
100
AcDbEntity
  8
0
100
AcDbCircle
 62
7
  6
BYLAYER
 10
51.8715248682
 20
84.5576745284
 40
47.7253423218
100
AcDbArc
 50
223.9954452208
 51
224.3886802164
  0
ARC
  5
2B1
100
AcDbEntity
  8
0
100
AcDbCircle
 62
7
  6
BYLAYER
 10
41.1055429717
 20
74.2372169008
 40
33.5683652079
100
AcDbArc
 50
225.4065639831
 51
225.9512859725
  0
ARC
  5
2B2
100
AcDbEntity
  8
0
100
AcDbCircle
 62
7
  6
BYLAYER
 10
34.0010812132
 20
67.6151479746
 40
24.5429745172
100
AcDbArc
 50
227.8727262482
 51
228.5874075435
  0
ARC
  5
2B3
100
AcDbEntity
  8
0
100
AcDbCircle
 62
7
  6
BYLAYER
 10
31.2611689936
 20
45.1548849178
 40
21.1517435546
100
AcDbArc
 50
129.6424284715
 51
130.4503569111
  0
ARC
  5
2B4
100
AcDbEntity
  8
0
100
AcDbCircle
 62
7
  6
BYLAYER
 10
28.887670188
 20
62.972402944
 40
18.2534656351
100
AcDbArc
 50
231.5542482984
 51
232.4636342981
  0
ARC
  5
2B5
100
AcDbEntity
  8
0
100
AcDbCircle
 62
7
  6
BYLAYER
 10
26.8592976388
 20
49.0959898841
 40
15.8260233896
100
AcDbArc
 50
125.0680390981
 51
125.9432304474
  0
ARC
  5
2B6
100
AcDbEntity
  8
0
100
AcDbCircle
 62
7
  6
BYLAYER
 10
25.0985277403
 20
59.639867988
 40
13.756154061
100
AcDbArc
 50
237.0495573039
 51
237.791511915
  0
ARC
  5
2B7
100
AcDbEntity
  8
0
100
AcDbCircle
 62
7
  6
BYLAYER
 10
23.5893802653
 20
51.9005320032
 40
12.0352885803
100
AcDbArc
 50
118.9351459515
 51
119.4344306889
  0
ARC
  5
2B8
100
AcDbEntity
  8
0
100
AcDbCircle
 62
7
  6
BYLAYER
 10
25.3212572977
 20
61.0610437042
 40
10.6619904913
100
AcDbArc
 50
184.1321498181
 51
187.1023531355
  0
ARC
  5
2B9
100
AcDbEntity
  8
0
100
AcDbCircle
 62
7
  6
BYLAYER
 10
32.3043356053
 20
49.2112072782
 40
10.6449930577
100
AcDbArc
 50
172.8952665011
 51
175.8702136102
  0
ARC
  5
2BA
100
AcDbEntity
  8
0
100
AcDbCircle
 62
7
  6
BYLAYER
 10
32.2757606662
 20
61.0565705516
 40
10.6162899504
100
AcDbArc
 50
184.1257642644
 51
187.1087565116
  0
ARC
  5
2BB
100
AcDbEntity
  8
0
100
AcDbCircle
 62
7
  6
BYLAYER
 10
25.2548289645
 20
49.2160781584
 40
10.595264181
100
AcDbArc
 50
172.8882923731
 51
175.8772055121
  0
ARC
  5
2BC
100
AcDbEntity
  8
0
100
AcDbCircle
 62
7
  6
BYLAYER
 10
53.0334625077
 20
50.7852941176
 40
1.0
100
AcDbArc
 50
240.0
 51
270.0
  0
ARC
  5
2BD
100
AcDbEntity
  8
0
100
AcDbCircle
 62
7
  6
BYLAYER
 10
53.0334625077
 20
59.4852941176
 40
1.0
100
AcDbArc
 50
90.0
 51
120.0
  0
CIRCLE
  5
2BE
100
AcDbEntity
  8
0
100
AcDbCircle
 62
7
  6
BYLAYER
 10
54.3664752096
 20
55.1352941176
 40
0.5
  0
SPLINE
  5
2BF
100
AcDbEntity
  8
0
100
AcDbSpline
 62
7
  6
BYLAYER
 70
0
 71
3
 72
9
 73
5
 74
0
 42
0.0000001
 43
0.0000001
 44
0.0000000001
 40
0.0
 40
0.0
 40
0.0
 40
0.0
 40
0.2456458236
 40
1.0
 40
1.0
 40
1.0
 40
1.0
 10
14.7174100152
 20
64.7627487103
 30
0.0
 10
14.7192255697
 20
64.7658937899
 30
0.0
 10
14.7267473677
 20
64.7786213138
 30
0.0
 10
14.7347776736
 20
64.7910466881
 30
0.0
 10
14.7410776313
 20
64.8002486939
 30
0.0
  0
SPLINE
  5
2C0
100
AcDbEntity
  8
0
100
AcDbSpline
 62
7
  6
BYLAYER
 70
0
 71
3
 72
9
 73
5
 74
0
 42
0.0000001
 43
0.0000001
 44
0.0000000001
 40
0.0
 40
0.0
 40
0.0
 40
0.0
 40
0.2456456716
 40
1.0
 40
1.0
 40
1.0
 40
1.0
 10
16.415540208
 20
45.5078395273
 30
0.0
 10
16.4137246715
 20
45.5046944479
 30
0.0
 10
16.4062029466
 20
45.491966914
 30
0.0
 10
16.3981727018
 20
45.479541532
 30
0.0
 10
16.3918727558
 20
45.4703395414
 30
0.0
  0
LINE
  5
2C1
100
AcDbEntity
  8
0
100
AcDbLine
 62
7
  6
BYLAYER
 10
17.484093712
 20
49.4876285948
 11
17.5381512477
 21
49.4126883853
  0
LINE
  5
2C2
100
AcDbEntity
  8
0
100
AcDbLine
 62
7
  6
BYLAYER
 10
17.3101843316
 20
54.1337463963
 11
17.5381512477
 21
53.8778965325
  0
LINE
  5
2C3
100
AcDbEntity
  8
0
100
AcDbLine
 62
7
  6
BYLAYER
 10
17.7664752096
 20
54.9768155246
 11
17.6101098817
 21
55.1352941452
  0
LINE
  5
2C4
100
AcDbEntity
  8
0
100
AcDbLine
 62
7
  6
BYLAYER
 10
17.5381512477
 20
55.736976429
 11
17.2811611942
 21
55.4689394802
  0
LINE
  5
2C5
100
AcDbEntity
  8
0
100
AcDbLine
 62
7
  6
BYLAYER
 10
17.5381512477
 20
55.736976429
 11
17.7664752096
 21
55.9682700917
  0
LINE
  5
2C6
100
AcDbEntity
  8
0
100
AcDbLine
 62
7
  6
BYLAYER
 10
17.5381512477
 20
53.8778965325
 11
17.7664752096
 21
53.6420658949
  0
LINE
  5
2C7
100
AcDbEntity
  8
0
100
AcDbLine
 62
7
  6
BYLAYER
 10
17.6101098817
 20
55.1352941452
 11
17.2664752096
 21
55.4830598195
  0
SPLINE
  5
2C8
100
AcDbEntity
  8
0
100
AcDbSpline
 62
7
  6
BYLAYER
 70
0
 71
3
 72
9
 73
5
 74
0
 42
0.0000001
 43
0.0000001
 44
0.0000000001
 40
0.0
 40
0.0
 40
0.0
 40
0.0
 40
0.2544694054
 40
1.0
 40
1.0
 40
1.0
 40
1.0
 10
16.391872757
 20
64.8002486939
 30
0.0
 10
16.3939979338
 20
64.7971445629
 30
0.0
 10
16.402239547
 20
64.784871527
 30
0.0
 10
16.4100301088
 20
64.7722939299
 30
0.0
 10
16.4155402078
 20
64.762748708
 30
0.0
  0
SPLINE
  5
2C9
100
AcDbEntity
  8
0
100
AcDbSpline
 62
7
  6
BYLAYER
 70
0
 71
3
 72
9
 73
5
 74
0
 42
0.0000001
 43
0.0000001
 44
0.0000000001
 40
0.0
 40
0.0
 40
0.0
 40
0.0
 40
0.2544691143
 40
1.0
 40
1.0
 40
1.0
 40
1.0
 10
14.7410776325
 20
45.4703395414
 30
0.0
 10
14.7389524536
 20
45.4734436747
 30
0.0
 10
14.7307108082
 20
45.4857167233
 30
0.0
 10
14.7229201675
 20
45.4982943045
 30
0.0
 10
14.7174100144
 20
45.507839525
 30
0.0
  0
SPLINE
  5
2CA
100
AcDbEntity
  8
0
100
AcDbSpline
 62
7
  6
BYLAYER
 70
0
 71
3
 72
9
 73
5
 74
0
 42
0.0000001
 43
0.0000001
 44
0.0000000001
 40
0.0
 40
0.0
 40
0.0
 40
0.0
 40
0.2567409433
 40
1.0
 40
1.0
 40
1.0
 40
1.0
 10
14.7174100144
 20
45.507839525
 30
0.0
 10
14.7144343869
 20
45.512994195
 30
0.0
 10
14.7031821515
 20
45.5332629959
 30
0.0
 10
14.6933246482
 20
45.5543185871
 30
0.0
 10
14.6869825734
 20
45.5703395414
 30
0.0
  0
SPLINE
  5
2CB
100
AcDbEntity
  8
0
100
AcDbSpline
 62
7
  6
BYLAYER
 70
0
 71
3
 72
9
 73
5
 74
0
 42
0.0000001
 43
0.0000001
 44
0.0000000001
 40
0.0
 40
0.0
 40
0.0
 40
0.0
 40
0.25674013
 40
1.0
 40
1.0
 40
1.0
 40
1.0
 10
16.4155402078
 20
64.762748708
 30
0.0
 10
16.4185158084
 20
64.7575940334
 30
0.0
 10
16.4297679554
 20
64.7373251475
 30
0.0
 10
16.4396258211
 20
64.7162696876
 30
0.0
 10
16.4459679207
 20
64.7002486939
 30
0.0
  0
SPLINE
  5
2CC
100
AcDbEntity
  8
0
100
AcDbSpline
 62
7
  6
BYLAYER
 70
0
 71
3
 72
11
 73
7
 74
0
 42
0.0000001
 43
0.0000001
 44
0.0000000001
 40
0.0
 40
0.0
 40
0.0
 40
0.0
 40
0.2601191801
 40
0.5124273073
 40
0.7581436908
 40
1.0
 40
1.0
 40
1.0
 40
1.0
 10
16.4459679207
 20
64.7002486939
 30
0.0
 10
16.5400364277
 20
64.5232735449
 30
0.0
 10
16.7118141404
 20
64.1671041073
 30
0.0
 10
16.9114017828
 20
63.6167876382
 30
0.0
 10
17.0375412627
 20
63.0591105323
 30
0.0
 10
17.0664727912
 20
62.6828607418
 30
0.0
 10
17.0664722894
 20
62.4965100424
 30
0.0
  0
SPLINE
  5
2CD
100
AcDbEntity
  8
0
100
AcDbSpline
 62
7
  6
BYLAYER
 70
0
 71
3
 72
11
 73
7
 74
0
 42
0.0000001
 43
0.0000001
 44
0.0000000001
 40
0.0
 40
0.0
 40
0.0
 40
0.0
 40
0.2418532753
 40
0.4875651748
 40
0.7398761462
 40
1.0
 40
1.0
 40
1.0
 40
1.0
 10
17.0664722894
 20
62.4965100424
 30
0.0
 10
17.066472917
 20
62.3101617754
 30
0.0
 10
17.0375309587
 20
61.9339197141
 30
0.0
 10
16.9114174043
 20
61.3762402338
 30
0.0
 10
16.7117997288
 20
60.8259320904
 30
0.0
 10
16.5400380744
 20
60.4697496446
 30
0.0
 10
16.445967925
 20
60.2927714058
 30
0.0
  0
SPLINE
  5
2CE
100
AcDbEntity
  8
0
100
AcDbSpline
 62
7
  6
BYLAYER
 70
0
 71
3
 72
11
 73
7
 74
0
 42
0.0000001
 43
0.0000001
 44
0.0000000001
 40
0.0
 40
0.0
 40
0.0
 40
0.0
 40
0.2500091952
 40
0.500011479
 40
0.7500069635
 40
1.0
 40
1.0
 40
1.0
 40
1.0
 10
16.3918726678
 20
59.7427714058
 30
0.0
 10
16.4951149444
 20
59.3675292086
 30
0.0
 10
16.6835152962
 20
58.6118804324
 30
0.0
 10
16.8992733857
 20
57.4636636337
 30
0.0
 10
17.0353663972
 20
56.3031157241
 30
0.0
 10
17.0664752096
 20
55.5244548756
 30
0.0
 10
17.0664752096
 20
55.1352941176
 30
0.0
  0
SPLINE
  5
2CF
100
AcDbEntity
  8
0
100
AcDbSpline
 62
7
  6
BYLAYER
 70
0
 71
3
 72
11
 73
7
 74
0
 42
0.0000001
 43
0.0000001
 44
0.0000000001
 40
0.0
 40
0.0
 40
0.0
 40
0.0
 40
0.2499930752
 40
0.4999885631
 40
0.7499908315
 40
1.0
 40
1.0
 40
1.0
 40
1.0
 10
17.0664752096
 20
55.1352941176
 30
0.0
 10
17.0664752096
 20
54.7461332994
 30
0.0
 10
17.0353664308
 20
53.9674723831
 30
0.0
 10
16.8992733498
 20
52.8069244378
 30
0.0
 10
16.6835152409
 20
51.6587077062
 30
0.0
 10
16.4951149334
 20
50.9030589866
 30
0.0
 10
16.3918726678
 20
50.5278168295
 30
0.0
  0
SPLINE
  5
2D0
100
AcDbEntity
  8
0
100
AcDbSpline
 62
7
  6
BYLAYER
 70
0
 71
3
 72
11
 73
7
 74
0
 42
0.0000001
 43
0.0000001
 44
0.0000000001
 40
0.0
 40
0.0
 40
0.0
 40
0.0
 40
0.2601191801
 40
0.5124273073
 40
0.7581436908
 40
1.0
 40
1.0
 40
1.0
 40
1.0
 10
16.4459679207
 20
49.9778168295
 30
0.0
 10
16.5400364277
 20
49.8008416805
 30
0.0
 10
16.7118141404
 20
49.444672243
 30
0.0
 10
16.9114017828
 20
48.8943557739
 30
0.0
 10
17.0375412627
 20
48.336678668
 30
0.0
 10
17.0664727912
 20
47.9604288775
 30
0.0
 10
17.0664722894
 20
47.7740781781
 30
0.0
  0
SPLINE
  5
2D1
100
AcDbEntity
  8
0
100
AcDbSpline
 62
7
  6
BYLAYER
 70
0
 71
3
 72
11
 73
7
 74
0
 42
0.0000001
 43
0.0000001
 44
0.0000000001
 40
0.0
 40
0.0
 40
0.0
 40
0.0
 40
0.2500091952
 40
0.500011479
 40
0.7500069635
 40
1.0
 40
1.0
 40
1.0
 40
1.0
 10
14.7410777514
 20
50.5278168295
 30
0.0
 10
14.6378354767
 20
50.9030590272
 30
0.0
 10
14.4494351219
 20
51.6587078025
 30
0.0
 10
14.233677034
 20
52.8069246017
 30
0.0
 10
14.0975840218
 20
53.9674725112
 30
0.0
 10
14.0664752096
 20
54.7461333597
 30
0.0
 10
14.0664752096
 20
55.1352941176
 30
0.0
  0
SPLINE
  5
2D2
100
AcDbEntity
  8
0
100
AcDbSpline
 62
7
  6
BYLAYER
 70
0
 71
3
 72
11
 73
7
 74
0
 42
0.0000001
 43
0.0000001
 44
0.0000000001
 40
0.0
 40
0.0
 40
0.0
 40
0.0
 40
0.2418535353
 40
0.4875642888
 40
0.7398749179
 40
1.0
 40
1.0
 40
1.0
 40
1.0
 10
14.0664781272
 20
47.7740782143
 30
0.0
 10
14.0664756199
 20
47.9604266966
 30
0.0
 10
14.0954415119
 20
48.3366657726
 30
0.0
 10
14.2215213067
 20
48.8943502018
 30
0.0
 10
14.4211407735
 20
49.4446597609
 30
0.0
 10
14.5929122946
 20
49.8008377301
 30
0.0
 10
14.6869828754
 20
49.9778168295
 30
0.0
  0
SPLINE
  5
2D3
100
AcDbEntity
  8
0
100
AcDbSpline
 62
7
  6
BYLAYER
 70
0
 71
3
 72
11
 73
7
 74
0
 42
0.0000001
 43
0.0000001
 44
0.0000000001
 40
0.0
 40
0.0
 40
0.0
 40
0.0
 40
0.2499930752
 40
0.4999885631
 40
0.7499908315
 40
1.0
 40
1.0
 40
1.0
 40
1.0
 10
14.0664752096
 20
55.1352941176
 30
0.0
 10
14.0664752096
 20
55.5244549359
 30
0.0
 10
14.0975839883
 20
56.3031158522
 30
0.0
 10
14.2336770698
 20
57.4636637974
 30
0.0
 10
14.4494351771
 20
58.6118805294
 30
0.0
 10
14.6378354877
 20
59.3675292481
 30
0.0
 10
14.7410777514
 20
59.7427714058
 30
0.0
  0
SPLINE
  5
2D4
100
AcDbEntity
  8
0
100
AcDbSpline
 62
7
  6
BYLAYER
 70
0
 71
3
 72
11
 73
7
 74
0
 42
0.0000001
 43
0.0000001
 44
0.0000000001
 40
0.0
 40
0.0
 40
0.0
 40
0.0
 40
0.2601191806
 40
0.5124273075
 40
0.7581436906
 40
1.0
 40
1.0
 40
1.0
 40
1.0
 10
14.6869824942
 20
60.2927714058
 30
0.0
 10
14.5929140095
 20
60.4697465655
 30
0.0
 10
14.4211362622
 20
60.8259159817
 30
0.0
 10
14.2215486357
 20
61.3762324551
 30
0.0
 10
14.0954091685
 20
61.9339095574
 30
0.0
 10
14.0664776287
 20
62.3101593441
 30
0.0
 10
14.0664781298
 20
62.4965100424
 30
0.0
  0
SPLINE
  5
2D5
100
AcDbEntity
  8
0
100
AcDbSpline
 62
7
  6
BYLAYER
 70
0
 71
3
 72
11
 73
7
 74
0
 42
0.0000001
 43
0.0000001
 44
0.0000000001
 40
0.0
 40
0.0
 40
0.0
 40
0.0
 40
0.241853275
 40
0.487565175
 40
0.7398761466
 40
1.0
 40
1.0
 40
1.0
 40
1.0
 10
14.0664781298
 20
62.4965100424
 30
0.0
 10
14.0664775015
 20
62.6828583106
 30
0.0
 10
14.0954194469
 20
63.0591003764
 30
0.0
 10
14.2215330215
 20
63.6167798564
 30
0.0
 10
14.4211506854
 20
64.1670880097
 30
0.0
 10
14.5929123692
 20
64.523270443
 30
0.0
 10
14.6869824985
 20
64.7002486939
 30
0.0
  0
SPLINE
  5
2D6
100
AcDbEntity
  8
0
100
AcDbSpline
 62
7
  6
BYLAYER
 70
0
 71
3
 72
9
 73
5
 74
0
 42
0.0000001
 43
0.0000001
 44
0.0000000001
 40
0.0
 40
0.0
 40
0.0
 40
0.0
 40
0.2437249862
 40
1.0
 40
1.0
 40
1.0
 40
1.0
 10
14.6869825774
 20
64.7002486939
 30
0.0
 10
14.6890622766
 20
64.7055023005
 30
0.0
 10
14.6980267428
 20
64.7268858994
 30
0.0
 10
14.7086446004
 20
64.7475644087
 30
0.0
 10
14.7174100152
 20
64.7627487103
 30
0.0
  0
SPLINE
  5
2D7
100
AcDbEntity
  8
0
100
AcDbSpline
 62
7
  6
BYLAYER
 70
0
 71
3
 72
11
 73
7
 74
0
 42
0.0000001
 43
0.0000001
 44
0.0000000001
 40
0.0
 40
0.0
 40
0.0
 40
0.0
 40
0.2418532753
 40
0.4875651748
 40
0.7398761462
 40
1.0
 40
1.0
 40
1.0
 40
1.0
 10
17.0664722894
 20
47.7740781781
 30
0.0
 10
17.066472917
 20
47.587729911
 30
0.0
 10
17.0375309587
 20
47.2114878498
 30
0.0
 10
16.9114174043
 20
46.6538083695
 30
0.0
 10
16.7117997288
 20
46.103500226
 30
0.0
 10
16.5400380744
 20
45.7473177803
 30
0.0
 10
16.445967925
 20
45.5703395414
 30
0.0
  0
SPLINE
  5
2D8
100
AcDbEntity
  8
0
100
AcDbSpline
 62
7
  6
BYLAYER
 70
0
 71
3
 72
9
 73
5
 74
0
 42
0.0000001
 43
0.0000001
 44
0.0000000001
 40
0.0
 40
0.0
 40
0.0
 40
0.0
 40
0.2437251867
 40
1.0
 40
1.0
 40
1.0
 40
1.0
 10
16.445967925
 20
45.5703395414
 30
0.0
 10
16.443888218
 20
45.5650859227
 30
0.0
 10
16.4349235309
 20
45.5437023705
 30
0.0
 10
16.4243055706
 20
45.5230238878
 30
0.0
 10
16.415540208
 20
45.5078395273
 30
0.0
  0
SPLINE
  5
2D9
100
AcDbEntity
  8
0
100
AcDbSpline
 62
7
  6
BYLAYER
 70
0
 71
3
 72
11
 73
7
 74
0
 42
0.0000001
 43
0.0000001
 44
0.0000000001
 40
0.0
 40
0.0
 40
0.0
 40
0.0
 40
0.2601203797
 40
0.5124283479
 40
0.7581434355
 40
1.0
 40
1.0
 40
1.0
 40
1.0
 10
14.6869828636
 20
45.5703395414
 30
0.0
 10
14.5929139288
 20
45.7473155445
 30
0.0
 10
14.4211269295
 20
46.1034808582
 30
0.0
 10
14.2215348605
 20
46.653797919
 30
0.0
 10
14.0954317745
 20
47.2114807374
 30
0.0
 10
14.0664761223
 20
47.5877272897
 30
0.0
 10
14.0664781272
 20
47.7740782143
 30
0.0
  0
SPLINE
  5
2DA
100
AcDbEntity
  8
0
100
AcDbSpline
 62
7
  6
BYLAYER
 70
0
 71
3
 72
9
 73
5
 74
0
 42
0.0000001
 43
0.0000001
 44
0.0000000001
 40
0.0
 40
0.0
 40
0.0
 40
0.0
 40
0.2456243926
 40
1.0
 40
1.0
 40
1.0
 40
1.0
 10
23.4155440396
 20
64.7627487531
 30
0.0
 10
23.4137291678
 20
64.7658940467
 30
0.0
 10
23.4062077967
 20
64.778622633
 30
0.0
 10
23.3981732038
 20
64.7910460189
 30
0.0
 10
23.3918727879
 20
64.8002486939
 30
0.0
  0
SPLINE
  5
2DB
100
AcDbEntity
  8
0
100
AcDbSpline
 62
7
  6
BYLAYER
 70
0
 71
3
 72
9
 73
5
 74
0
 42
0.0000001
 43
0.0000001
 44
0.0000000001
 40
0.0
 40
0.0
 40
0.0
 40
0.0
 40
0.2456244201
 40
1.0
 40
1.0
 40
1.0
 40
1.0
 10
21.717406351
 20
45.5078394818
 30
0.0
 10
21.7192212282
 20
45.5046941879
 30
0.0
 10
21.7267426239
 20
45.4919656035
 30
0.0
 10
21.7347772442
 20
45.4795422233
 30
0.0
 10
21.7410776634
 20
45.4703395414
 30
0.0
  0
LINE
  5
2DC
100
AcDbEntity
  8
0
100
AcDbLine
 62
7
  6
BYLAYER
 10
20.5228405375
 20
55.1352941452
 11
20.8664752096
 21
55.4830598195
  0
LINE
  5
2DD
100
AcDbEntity
  8
0
100
AcDbLine
 62
7
  6
BYLAYER
 10
20.3664752096
 20
54.9768155246
 11
20.5228405375
 21
55.1352941452
  0
LINE
  5
2DE
100
AcDbEntity
  8
0
100
AcDbLine
 62
7
  6
BYLAYER
 10
20.5947991715
 20
55.736976429
 11
20.851789526
 21
55.4689391536
  0
LINE
  5
2DF
100
AcDbEntity
  8
0
100
AcDbLine
 62
7
  6
BYLAYER
 10
20.5947991715
 20
55.736976429
 11
20.3664752096
 21
55.9682700917
  0
SPLINE
  5
2E0
100
AcDbEntity
  8
0
100
AcDbSpline
 62
7
  6
BYLAYER
 70
0
 71
3
 72
9
 73
5
 74
0
 42
0.0000001
 43
0.0000001
 44
0.0000000001
 40
0.0
 40
0.0
 40
0.0
 40
0.0
 40
0.254471482
 40
1.0
 40
1.0
 40
1.0
 40
1.0
 10
23.3918727867
 20
45.4703395414
 30
0.0
 10
23.3939980768
 20
45.4734438372
 30
0.0
 10
23.4022412881
 20
45.4857165544
 30
0.0
 10
23.4100355032
 20
45.4982928219
 30
0.0
 10
23.4155440405
 20
45.5078394822
 30
0.0
  0
SPLINE
  5
2E1
100
AcDbEntity
  8
0
100
AcDbSpline
 62
7
  6
BYLAYER
 70
0
 71
3
 72
9
 73
5
 74
0
 42
0.0000001
 43
0.0000001
 44
0.0000000001
 40
0.0
 40
0.0
 40
0.0
 40
0.0
 40
0.2544713825
 40
1.0
 40
1.0
 40
1.0
 40
1.0
 10
21.7410776622
 20
64.8002486939
 30
0.0
 10
21.7389523718
 20
64.797144397
 30
0.0
 10
21.7307091494
 20
64.7848716757
 30
0.0
 10
21.7229149046
 20
64.7722954151
 30
0.0
 10
21.7174063519
 20
64.7627487535
 30
0.0
  0
LINE
  5
2E2
100
AcDbEntity
  8
0
100
AcDbLine
 62
7
  6
BYLAYER
 10
20.6488569863
 20
49.4876271695
 11
20.5947991715
 21
49.4126883853
  0
LINE
  5
2E3
100
AcDbEntity
  8
0
100
AcDbLine
 62
7
  6
BYLAYER
 10
20.5947991715
 20
53.8778965325
 11
20.3664752096
 21
53.6420658949
  0
LINE
  5
2E4
100
AcDbEntity
  8
0
100
AcDbLine
 62
7
  6
BYLAYER
 10
20.8227666116
 20
54.1337472296
 11
20.5947991715
 21
53.8778965325
  0
SPLINE
  5
2E5
100
AcDbEntity
  8
0
100
AcDbSpline
 62
7
  6
BYLAYER
 70
0
 71
3
 72
11
 73
7
 74
0
 42
0.0000001
 43
0.0000001
 44
0.0000000001
 40
0.0
 40
0.0
 40
0.0
 40
0.0
 40
0.2418535359
 40
0.4875642883
 40
0.739874916
 40
1.0
 40
1.0
 40
1.0
 40
1.0
 10
24.0664722921
 20
47.7740782233
 30
0.0
 10
24.0664748027
 20
47.5877297354
 30
0.0
 10
24.0375088878
 20
47.2114906512
 30
0.0
 10
23.9114291254
 20
46.6538062024
 30
0.0
 10
23.7118096727
 20
46.1034966188
 30
0.0
 10
23.5400381306
 20
45.7473186471
 30
0.0
 10
23.4459675466
 20
45.5703395414
 30
0.0
  0
SPLINE
  5
2E6
100
AcDbEntity
  8
0
100
AcDbSpline
 62
7
  6
BYLAYER
 70
0
 71
3
 72
11
 73
7
 74
0
 42
0.0000001
 43
0.0000001
 44
0.0000000001
 40
0.0
 40
0.0
 40
0.0
 40
0.0
 40
0.2601203779
 40
0.5124283474
 40
0.7581434361
 40
1.0
 40
1.0
 40
1.0
 40
1.0
 10
23.4459675528
 20
49.9778168295
 30
0.0
 10
23.5400364844
 20
49.8008408326
 30
0.0
 10
23.7118234641
 20
49.4446755221
 30
0.0
 10
23.9114155458
 20
48.8943584851
 30
0.0
 10
24.037518663
 20
48.3366756864
 30
0.0
 10
24.0664742936
 20
47.9604291424
 30
0.0
 10
24.0664722921
 20
47.7740782233
 30
0.0
  0
SPLINE
  5
2E7
100
AcDbEntity
  8
0
100
AcDbSpline
 62
7
  6
BYLAYER
 70
0
 71
3
 72
9
 73
5
 74
0
 42
0.0000001
 43
0.0000001
 44
0.0000000001
 40
0.0
 40
0.0
 40
0.0
 40
0.0
 40
0.2567075078
 40
1.0
 40
1.0
 40
1.0
 40
1.0
 10
23.4155440405
 20
45.5078394822
 30
0.0
 10
23.4185182095
 20
45.5129939142
 30
0.0
 10
23.4297611225
 20
45.5332670879
 30
0.0
 10
23.4396256563
 20
45.5543182973
 30
0.0
 10
23.4459678458
 20
45.5703395414
 30
0.0
  0
SPLINE
  5
2E8
100
AcDbEntity
  8
0
100
AcDbSpline
 62
7
  6
BYLAYER
 70
0
 71
3
 72
11
 73
7
 74
0
 42
0.0000001
 43
0.0000001
 44
0.0000000001
 40
0.0
 40
0.0
 40
0.0
 40
0.0
 40
0.2499930752
 40
0.4999885631
 40
0.7499908315
 40
1.0
 40
1.0
 40
1.0
 40
1.0
 10
24.0664752096
 20
55.1352941176
 30
0.0
 10
24.0664752096
 20
54.7461332994
 30
0.0
 10
24.0353664309
 20
53.9674723831
 30
0.0
 10
23.8992733494
 20
52.8069244379
 30
0.0
 10
23.6835152421
 20
51.6587077059
 30
0.0
 10
23.4951149315
 20
50.9030589871
 30
0.0
 10
23.3918726678
 20
50.5278168295
 30
0.0
  0
SPLINE
  5
2E9
100
AcDbEntity
  8
0
100
AcDbSpline
 62
7
  6
BYLAYER
 70
0
 71
3
 72
11
 73
7
 74
0
 42
0.0000001
 43
0.0000001
 44
0.0000000001
 40
0.0
 40
0.0
 40
0.0
 40
0.0
 40
0.241853275
 40
0.487565175
 40
0.7398761468
 40
1.0
 40
1.0
 40
1.0
 40
1.0
 10
21.0664781298
 20
47.7740781781
 30
0.0
 10
21.0664775015
 20
47.9604264463
 30
0.0
 10
21.0954194483
 20
48.3366685115
 30
0.0
 10
21.2215330169
 20
48.8943479942
 30
0.0
 10
21.4211506988
 20
49.4446561389
 30
0.0
 10
21.5929123487
 20
49.8008385898
 30
0.0
 10
21.6869824985
 20
49.9778168295
 30
0.0
  0
SPLINE
  5
2EA
100
AcDbEntity
  8
0
100
AcDbSpline
 62
7
  6
BYLAYER
 70
0
 71
3
 72
11
 73
7
 74
0
 42
0.0000001
 43
0.0000001
 44
0.0000000001
 40
0.0
 40
0.0
 40
0.0
 40
0.0
 40
0.2500091952
 40
0.500011479
 40
0.7500069635
 40
1.0
 40
1.0
 40
1.0
 40
1.0
 10
21.7410777514
 20
50.5278168295
 30
0.0
 10
21.6378354748
 20
50.9030590267
 30
0.0
 10
21.4494351231
 20
51.6587078029
 30
0.0
 10
21.2336770335
 20
52.8069246016
 30
0.0
 10
21.097584022
 20
53.9674725112
 30
0.0
 10
21.0664752096
 20
54.7461333597
 30
0.0
 10
21.0664752096
 20
55.1352941176
 30
0.0
  0
SPLINE
  5
2EB
100
AcDbEntity
  8
0
100
AcDbSpline
 62
7
  6
BYLAYER
 70
0
 71
3
 72
9
 73
5
 74
0
 42
0.0000001
 43
0.0000001
 44
0.0000000001
 40
0.0
 40
0.0
 40
0.0
 40
0.0
 40
0.256707554
 40
1.0
 40
1.0
 40
1.0
 40
1.0
 10
21.7174063519
 20
64.7627487535
 30
0.0
 10
21.7144321755
 20
64.7575943223
 30
0.0
 10
21.7031892424
 20
64.7373211513
 30
0.0
 10
21.6933246976
 20
64.7162699388
 30
0.0
 10
21.6869824985
 20
64.7002486939
 30
0.0
  0
SPLINE
  5
2EC
100
AcDbEntity
  8
0
100
AcDbSpline
 62
7
  6
BYLAYER
 70
0
 71
3
 72
11
 73
7
 74
0
 42
0.0000001
 43
0.0000001
 44
0.0000000001
 40
0.0
 40
0.0
 40
0.0
 40
0.0
 40
0.2499930752
 40
0.4999885631
 40
0.7499908315
 40
1.0
 40
1.0
 40
1.0
 40
1.0
 10
21.0664752096
 20
55.1352941176
 30
0.0
 10
21.0664752096
 20
55.5244549359
 30
0.0
 10
21.0975839884
 20
56.3031158522
 30
0.0
 10
21.2336770694
 20
57.4636637975
 30
0.0
 10
21.4494351783
 20
58.6118805291
 30
0.0
 10
21.6378354859
 20
59.3675292487
 30
0.0
 10
21.7410777514
 20
59.7427714058
 30
0.0
  0
SPLINE
  5
2ED
100
AcDbEntity
  8
0
100
AcDbSpline
 62
7
  6
BYLAYER
 70
0
 71
3
 72
11
 73
7
 74
0
 42
0.0000001
 43
0.0000001
 44
0.0000000001
 40
0.0
 40
0.0
 40
0.0
 40
0.0
 40
0.2601191807
 40
0.5124273075
 40
0.7581436906
 40
1.0
 40
1.0
 40
1.0
 40
1.0
 10
21.6869824942
 20
60.2927714058
 30
0.0
 10
21.5929139877
 20
60.469746554
 30
0.0
 10
21.4211362706
 20
60.8259159864
 30
0.0
 10
21.2215486338
 20
61.376232454
 30
0.0
 10
21.095409169
 20
61.9339095577
 30
0.0
 10
21.0664776287
 20
62.3101593441
 30
0.0
 10
21.0664781298
 20
62.4965100424
 30
0.0
  0
SPLINE
  5
2EE
100
AcDbEntity
  8
0
100
AcDbSpline
 62
7
  6
BYLAYER
 70
0
 71
3
 72
11
 73
7
 74
0
 42
0.0000001
 43
0.0000001
 44
0.0000000001
 40
0.0
 40
0.0
 40
0.0
 40
0.0
 40
0.26011918
 40
0.5124273073
 40
0.7581436908
 40
1.0
 40
1.0
 40
1.0
 40
1.0
 10
23.4459679207
 20
64.7002486939
 30
0.0
 10
23.540036406
 20
64.5232735334
 30
0.0
 10
23.7118141487
 20
64.167104112
 30
0.0
 10
23.911401781
 20
63.6167876372
 30
0.0
 10
24.0375412631
 20
63.0591105326
 30
0.0
 10
24.0664727912
 20
62.6828607418
 30
0.0
 10
24.0664722894
 20
62.4965100424
 30
0.0
  0
SPLINE
  5
2EF
100
AcDbEntity
  8
0
100
AcDbSpline
 62
7
  6
BYLAYER
 70
0
 71
3
 72
11
 73
7
 74
0
 42
0.0000001
 43
0.0000001
 44
0.0000000001
 40
0.0
 40
0.0
 40
0.0
 40
0.0
 40
0.2500091952
 40
0.500011479
 40
0.7500069635
 40
1.0
 40
1.0
 40
1.0
 40
1.0
 10
23.3918726678
 20
59.7427714058
 30
0.0
 10
23.4951149425
 20
59.3675292081
 30
0.0
 10
23.6835152974
 20
58.6118804327
 30
0.0
 10
23.8992733853
 20
57.4636636336
 30
0.0
 10
24.0353663974
 20
56.3031157241
 30
0.0
 10
24.0664752096
 20
55.5244548756
 30
0.0
 10
24.0664752096
 20
55.1352941176
 30
0.0
  0
SPLINE
  5
2F0
100
AcDbEntity
  8
0
100
AcDbSpline
 62
7
  6
BYLAYER
 70
0
 71
3
 72
11
 73
7
 74
0
 42
0.0000001
 43
0.0000001
 44
0.0000000001
 40
0.0
 40
0.0
 40
0.0
 40
0.0
 40
0.2418532753
 40
0.4875651748
 40
0.7398761459
 40
1.0
 40
1.0
 40
1.0
 40
1.0
 10
24.0664722894
 20
62.4965100424
 30
0.0
 10
24.066472917
 20
62.3101617754
 30
0.0
 10
24.0375309602
 20
61.9339197135
 30
0.0
 10
23.9114173997
 20
61.376240236
 30
0.0
 10
23.7117997425
 20
60.8259320838
 30
0.0
 10
23.5400380536
 20
60.4697496559
 30
0.0
 10
23.445967925
 20
60.2927714058
 30
0.0
  0
SPLINE
  5
2F1
100
AcDbEntity
  8
0
100
AcDbSpline
 62
7
  6
BYLAYER
 70
0
 71
3
 72
11
 73
7
 74
0
 42
0.0000001
 43
0.0000001
 44
0.0000000001
 40
0.0
 40
0.0
 40
0.0
 40
0.0
 40
0.241853275
 40
0.487565175
 40
0.7398761468
 40
1.0
 40
1.0
 40
1.0
 40
1.0
 10
21.0664781298
 20
62.4965100424
 30
0.0
 10
21.0664775015
 20
62.6828583106
 30
0.0
 10
21.0954194484
 20
63.0591003758
 30
0.0
 10
21.2215330169
 20
63.6167798585
 30
0.0
 10
21.4211506988
 20
64.1670880033
 30
0.0
 10
21.5929123487
 20
64.5232704542
 30
0.0
 10
21.6869824985
 20
64.7002486939
 30
0.0
  0
SPLINE
  5
2F2
100
AcDbEntity
  8
0
100
AcDbSpline
 62
7
  6
BYLAYER
 70
0
 71
3
 72
11
 73
7
 74
0
 42
0.0000001
 43
0.0000001
 44
0.0000000001
 40
0.0
 40
0.0
 40
0.0
 40
0.0
 40
0.2601191807
 40
0.5124273075
 40
0.7581436906
 40
1.0
 40
1.0
 40
1.0
 40
1.0
 10
21.6869824942
 20
45.5703395414
 30
0.0
 10
21.5929139877
 20
45.7473146896
 30
0.0
 10
21.4211362706
 20
46.1034841221
 30
0.0
 10
21.2215486338
 20
46.6538005896
 30
0.0
 10
21.095409169
 20
47.2114776934
 30
0.0
 10
21.0664776287
 20
47.5877274798
 30
0.0
 10
21.0664781298
 20
47.7740781781
 30
0.0
  0
SPLINE
  5
2F3
100
AcDbEntity
  8
0
100
AcDbSpline
 62
7
  6
BYLAYER
 70
0
 71
3
 72
9
 73
5
 74
0
 42
0.0000001
 43
0.0000001
 44
0.0000000001
 40
0.0
 40
0.0
 40
0.0
 40
0.0
 40
0.2437474318
 40
1.0
 40
1.0
 40
1.0
 40
1.0
 10
23.4459678418
 20
64.7002486939
 30
0.0
 10
23.4438880055
 20
64.7055026473
 30
0.0
 10
23.434916935
 20
64.7268828218
 30
0.0
 10
23.4243060462
 20
64.7475636133
 30
0.0
 10
23.4155440396
 20
64.7627487531
 30
0.0
  0
SPLINE
  5
2F4
100
AcDbEntity
  8
0
100
AcDbSpline
 62
7
  6
BYLAYER
 70
0
 71
3
 72
9
 73
5
 74
0
 42
0.0000001
 43
0.0000001
 44
0.0000000001
 40
0.0
 40
0.0
 40
0.0
 40
0.0
 40
0.243747406
 40
1.0
 40
1.0
 40
1.0
 40
1.0
 10
21.6869824942
 20
45.5703395414
 30
0.0
 10
21.6890623338
 20
45.5650855878
 30
0.0
 10
21.6980334203
 20
45.5437054113
 30
0.0
 10
21.7086443222
 20
45.5230246167
 30
0.0
 10
21.717406351
 20
45.5078394818
 30
0.0
  0
ELLIPSE
  5
2F5
100
AcDbEntity
  8
0
100
AcDbEllipse
 62
7
  6
BYLAYER
 10
15.0288358379
 20
54.3490439771
 30
0.0
 11
7.084000063
 21
6.4779641088
 31
0.0
 40
0.6826531162
 41
-1.8575939396
 42
-1.7948600409
  0
ELLIPSE
  5
2F6
100
AcDbEntity
  8
0
100
AcDbEllipse
 62
7
  6
BYLAYER
 10
15.0288358379
 20
53.9876105008
 30
0.0
 11
7.3841983811
 21
7.0131458112
 31
0.0
 40
0.5561450433
 41
-1.7854840708
 42
-1.7227501721
  0
ELLIPSE
  5
2F7
100
AcDbEntity
  8
0
100
AcDbEllipse
 62
7
  6
BYLAYER
 10
15.0288358379
 20
53.6630645203
 30
0.0
 11
7.6732594207
 21
7.439498634
 31
0.0
 40
0.4429672902
 41
-1.7051854317
 42
-1.642451533
  0
ELLIPSE
  5
2F8
100
AcDbEntity
  8
0
100
AcDbEllipse
 62
7
  6
BYLAYER
 10
15.0288358379
 20
53.3858372105
 30
0.0
 11
7.9214559825
 21
7.7813255478
 31
0.0
 40
0.3397569986
 41
-1.6216551135
 42
-1.5589212148
  0
ELLIPSE
  5
2F9
100
AcDbEntity
  8
0
100
AcDbEllipse
 62
7
  6
BYLAYER
 10
15.0288358379
 20
54.7357481798
 30
0.0
 11
6.9023799451
 21
5.6884471334
 31
0.0
 40
0.8263497679
 41
-1.8974052139
 42
-1.8346713152
  0
ELLIPSE
  5
2FA
100
AcDbEntity
  8
0
100
AcDbEllipse
 62
7
  6
BYLAYER
 10
15.0288358379
 20
55.1352941176
 30
0.0
 11
8.3509838241
 21
0.0
 31
0.0
 40
0.963433044
 41
-1.2995325731
 42
-1.2367986744
  0
ELLIPSE
  5
2FB
100
AcDbEntity
  8
0
100
AcDbEllipse
 62
7
  6
BYLAYER
 10
15.0288358379
 20
52.9179059154
 30
0.0
 11
8.333433108
 21
8.3279952762
 31
0.0
 40
0.0649774206
 41
-1.3643765566
 42
-1.3016426579
  0
ELLIPSE
  5
2FC
100
AcDbEntity
  8
0
100
AcDbEllipse
 62
7
  6
BYLAYER
 10
15.0288358379
 20
53.0071726121
 30
0.0
 11
8.2557716223
 21
8.2260681246
 31
0.0
 40
0.1528608948
 41
-1.450681815
 42
-1.3879479163
  0
ELLIPSE
  5
2FD
100
AcDbEntity
  8
0
100
AcDbEllipse
 62
7
  6
BYLAYER
 10
15.0288358379
 20
53.164838885
 30
0.0
 11
8.117466273
 21
8.0434984904
 31
0.0
 40
0.2438041777
 41
-1.536573414
 42
-1.4738395153
  0
ELLIPSE
  5
2FE
100
AcDbEntity
  8
0
100
AcDbEllipse
 62
7
  6
BYLAYER
 10
15.0288358379
 20
55.3358745645
 30
0.0
 11
7.1167322142
 21
-4.8305503843
 31
0.0
 40
0.9045203251
 41
1.7874137859
 42
1.8501476846
  0
ELLIPSE
  5
2FF
100
AcDbEntity
  8
0
100
AcDbEllipse
 62
7
  6
BYLAYER
 10
15.0288358379
 20
55.7305886376
 30
0.0
 11
6.9578857343
 21
-6.1399374695
 31
0.0
 40
0.7521396115
 41
1.8227587284
 42
1.8854926271
  0
ELLIPSE
  5
300
100
AcDbEntity
  8
0
100
AcDbEllipse
 62
7
  6
BYLAYER
 10
15.0288358379
 20
56.106169455
 30
0.0
 11
7.2319691818
 21
-6.7625506865
 31
0.0
 40
0.6174932746
 41
1.7604441387
 42
1.8231780374
  0
ELLIPSE
  5
301
100
AcDbEntity
  8
0
100
AcDbEllipse
 62
7
  6
BYLAYER
 10
15.0288358379
 20
56.4505455403
 30
0.0
 11
7.5327025616
 21
-7.2376102948
 31
0.0
 40
0.4981174544
 41
1.6831832728
 42
1.7459171715
  0
ELLIPSE
  5
302
100
AcDbEntity
  8
0
100
AcDbEllipse
 62
7
  6
BYLAYER
 10
15.0288358379
 20
56.7526483626
 30
0.0
 11
7.8033763488
 21
-7.6204835111
 31
0.0
 40
0.3902986392
 41
1.6009510273
 42
1.663684926
  0
ELLIPSE
  5
303
100
AcDbEntity
  8
0
100
AcDbEllipse
 62
7
  6
BYLAYER
 10
15.0288358379
 20
57.0027680887
 30
0.0
 11
8.0264104398
 21
-7.9223157113
 31
0.0
 40
0.2910225948
 41
1.5165160115
 42
1.5792499103
  0
ELLIPSE
  5
304
100
AcDbEntity
  8
0
100
AcDbEllipse
 62
7
  6
BYLAYER
 10
15.0288358379
 20
57.1928656649
 30
0.0
 11
8.1940587861
 21
-8.1447938309
 31
0.0
 40
0.1978335621
 41
1.4309653653
 42
1.493699264
  0
ELLIPSE
  5
305
100
AcDbEntity
  8
0
100
AcDbEllipse
 62
7
  6
BYLAYER
 10
15.0288358379
 20
57.3168311985
 30
0.0
 11
8.3023008481
 21
-8.2871775495
 31
0.0
 40
0.108650535
 41
1.344829064
 42
1.4075629627
  0
ELLIPSE
  5
306
100
AcDbEntity
  8
0
100
AcDbEllipse
 62
7
  6
BYLAYER
 10
15.0288358379
 20
53.820042695
 30
0.0
 11
7.5327025616
 21
7.2376102948
 31
0.0
 40
0.4981174544
 41
0.7904140759
 42
0.8531479746
  0
ELLIPSE
  5
307
100
AcDbEntity
  8
0
100
AcDbEllipse
 62
7
  6
BYLAYER
 10
15.0288358379
 20
54.1644187803
 30
0.0
 11
7.2319691818
 21
6.7625506865
 31
0.0
 40
0.6174932746
 41
0.71315321
 42
0.7758871087
  0
ELLIPSE
  5
308
100
AcDbEntity
  8
0
100
AcDbEllipse
 62
7
  6
BYLAYER
 10
15.0288358379
 20
54.5399995977
 30
0.0
 11
6.9578857343
 21
6.1399374695
 31
0.0
 40
0.7521396115
 41
0.6508386203
 42
0.713572519
  0
ELLIPSE
  5
309
100
AcDbEntity
  8
0
100
AcDbEllipse
 62
7
  6
BYLAYER
 10
15.0288358379
 20
54.9347136708
 30
0.0
 11
7.1167322142
 21
4.8305503843
 31
0.0
 40
0.9045203251
 41
0.6861835629
 42
0.7489174616
  0
ELLIPSE
  5
30A
100
AcDbEntity
  8
0
100
AcDbEllipse
 62
7
  6
BYLAYER
 10
15.0288358379
 20
55.5348400555
 30
0.0
 11
6.9023799451
 21
-5.6884471334
 31
0.0
 40
0.8263497679
 41
-0.7016599322
 42
-0.6389260335
  0
ELLIPSE
  5
30B
100
AcDbEntity
  8
0
100
AcDbEllipse
 62
7
  6
BYLAYER
 10
15.0288358379
 20
57.3526823199
 30
0.0
 11
8.333433108
 21
-8.3279952762
 31
0.0
 40
0.0649774206
 41
-1.2346885895
 42
-1.1719546908
  0
ELLIPSE
  5
30C
100
AcDbEntity
  8
0
100
AcDbEllipse
 62
7
  6
BYLAYER
 10
15.0288358379
 20
57.2634156232
 30
0.0
 11
8.2557716223
 21
-8.2260681246
 31
0.0
 40
0.1528608948
 41
-1.1483833311
 42
-1.0856494324
  0
ELLIPSE
  5
30D
100
AcDbEntity
  8
0
100
AcDbEllipse
 62
7
  6
BYLAYER
 10
15.0288358379
 20
57.1057493502
 30
0.0
 11
8.117466273
 21
-8.0434984904
 31
0.0
 40
0.2438041777
 41
-1.0624917322
 42
-0.9997578335
  0
ELLIPSE
  5
30E
100
AcDbEntity
  8
0
100
AcDbEllipse
 62
7
  6
BYLAYER
 10
15.0288358379
 20
52.8999078999
 30
0.0
 11
8.3490323781
 21
8.3484285061
 31
0.0
 40
0.0216237981
 41
1.2151798089
 42
1.2779137076
  0
ELLIPSE
  5
30F
100
AcDbEntity
  8
0
100
AcDbEllipse
 62
7
  6
BYLAYER
 10
15.0288358379
 20
56.8847510248
 30
0.0
 11
7.9214559825
 21
-7.7813255478
 31
0.0
 40
0.3397569986
 41
-0.9774100326
 42
-0.9146761339
  0
ELLIPSE
  5
310
100
AcDbEntity
  8
0
100
AcDbEllipse
 62
7
  6
BYLAYER
 10
15.0288358379
 20
56.607523715
 30
0.0
 11
7.6732594207
 21
-7.439498634
 31
0.0
 40
0.4429672902
 41
-0.8938797144
 42
-0.8311458157
  0
ELLIPSE
  5
311
100
AcDbEntity
  8
0
100
AcDbEllipse
 62
7
  6
BYLAYER
 10
15.0288358379
 20
52.9537570368
 30
0.0
 11
8.3023008481
 21
8.2871775495
 31
0.0
 40
0.108650535
 41
1.1287682847
 42
1.1915021834
  0
ELLIPSE
  5
312
100
AcDbEntity
  8
0
100
AcDbEllipse
 62
7
  6
BYLAYER
 10
15.0288358379
 20
56.2829777345
 30
0.0
 11
7.3841983811
 21
-7.0131458112
 31
0.0
 40
0.5561450433
 41
-0.8135810753
 42
-0.7508471766
  0
ELLIPSE
  5
313
100
AcDbEntity
  8
0
100
AcDbEllipse
 62
7
  6
BYLAYER
 10
15.0288358379
 20
55.9215442582
 30
0.0
 11
7.084000063
 21
-6.4779641088
 31
0.0
 40
0.6826531162
 41
-0.7414712065
 42
-0.6787373078
  0
ELLIPSE
  5
314
100
AcDbEntity
  8
0
100
AcDbEllipse
 62
7
  6
BYLAYER
 10
15.0288358379
 20
53.0777225704
 30
0.0
 11
8.1940587861
 21
8.1447938309
 31
0.0
 40
0.1978335621
 41
1.0426319834
 42
1.1053658821
  0
ELLIPSE
  5
315
100
AcDbEntity
  8
0
100
AcDbEllipse
 62
7
  6
BYLAYER
 10
15.0288358379
 20
53.2678201466
 30
0.0
 11
8.0264104398
 21
7.9223157113
 31
0.0
 40
0.2910225948
 41
0.9570813372
 42
1.0198152359
  0
ELLIPSE
  5
316
100
AcDbEntity
  8
0
100
AcDbEllipse
 62
7
  6
BYLAYER
 10
15.0288358379
 20
53.5179398727
 30
0.0
 11
7.8033763488
 21
7.6204835111
 31
0.0
 40
0.3902986392
 41
0.8726463214
 42
0.9353802201
  0
ELLIPSE
  5
317
100
AcDbEntity
  8
0
100
AcDbEllipse
 62
7
  6
BYLAYER
 10
23.1041145813
 20
57.3168311985
 30
0.0
 11
8.3023008481
 21
8.2871775495
 31
0.0
 40
0.108650535
 41
1.7340296909
 42
1.7967635896
  0
ELLIPSE
  5
318
100
AcDbEntity
  8
0
100
AcDbEllipse
 62
7
  6
BYLAYER
 10
23.1041145813
 20
57.1928656649
 30
0.0
 11
8.1940587861
 21
8.1447938309
 31
0.0
 40
0.1978335621
 41
1.6478933896
 42
1.7106272883
  0
ELLIPSE
  5
319
100
AcDbEntity
  8
0
100
AcDbEllipse
 62
7
  6
BYLAYER
 10
23.1041145813
 20
57.0027680887
 30
0.0
 11
8.0264104398
 21
7.9223157113
 31
0.0
 40
0.2910225948
 41
1.5623427433
 42
1.625076642
  0
ELLIPSE
  5
31A
100
AcDbEntity
  8
0
100
AcDbEllipse
 62
7
  6
BYLAYER
 10
23.1041145813
 20
56.7526483626
 30
0.0
 11
7.8033763488
 21
7.6204835111
 31
0.0
 40
0.3902986392
 41
1.4779077276
 42
1.5406416263
  0
ELLIPSE
  5
31B
100
AcDbEntity
  8
0
100
AcDbEllipse
 62
7
  6
BYLAYER
 10
23.1041145813
 20
56.4505455403
 30
0.0
 11
7.5327025616
 21
7.2376102948
 31
0.0
 40
0.4981174544
 41
1.3956754821
 42
1.4584093808
  0
ELLIPSE
  5
31C
100
AcDbEntity
  8
0
100
AcDbEllipse
 62
7
  6
BYLAYER
 10
23.1041145813
 20
56.106169455
 30
0.0
 11
7.2319691818
 21
6.7625506865
 31
0.0
 40
0.6174932746
 41
1.3184146161
 42
1.3811485149
  0
ELLIPSE
  5
31D
100
AcDbEntity
  8
0
100
AcDbEllipse
 62
7
  6
BYLAYER
 10
23.1041145813
 20
55.7305886376
 30
0.0
 11
6.9578857343
 21
6.1399374695
 31
0.0
 40
0.7521396115
 41
1.2561000265
 42
1.3188339252
  0
ELLIPSE
  5
31E
100
AcDbEntity
  8
0
100
AcDbEllipse
 62
7
  6
BYLAYER
 10
23.1041145813
 20
55.3358745645
 30
0.0
 11
7.1167322142
 21
4.8305503843
 31
0.0
 40
0.9045203251
 41
1.291444969
 42
1.3541788677
  0
ELLIPSE
  5
31F
100
AcDbEntity
  8
0
100
AcDbEllipse
 62
7
  6
BYLAYER
 10
23.1041145813
 20
54.7357481798
 30
0.0
 11
6.9023799451
 21
-5.6884471334
 31
0.0
 40
0.8263497679
 41
-1.3069213383
 42
-1.2441874396
  0
ELLIPSE
  5
320
100
AcDbEntity
  8
0
100
AcDbEllipse
 62
7
  6
BYLAYER
 10
23.1041145813
 20
54.3490439771
 30
0.0
 11
7.084000063
 21
-6.4779641088
 31
0.0
 40
0.6826531162
 41
-1.3467326127
 42
-1.283998714
  0
ELLIPSE
  5
321
100
AcDbEntity
  8
0
100
AcDbEllipse
 62
7
  6
BYLAYER
 10
23.1041145813
 20
53.9876105008
 30
0.0
 11
7.3841983811
 21
-7.0131458112
 31
0.0
 40
0.5561450433
 41
-1.4188424815
 42
-1.3561085828
  0
ELLIPSE
  5
322
100
AcDbEntity
  8
0
100
AcDbEllipse
 62
7
  6
BYLAYER
 10
23.1041145813
 20
53.6630645203
 30
0.0
 11
7.6732594207
 21
-7.439498634
 31
0.0
 40
0.4429672902
 41
-1.4991411205
 42
-1.4364072218
  0
ELLIPSE
  5
323
100
AcDbEntity
  8
0
100
AcDbEllipse
 62
7
  6
BYLAYER
 10
23.1041145813
 20
53.3858372105
 30
0.0
 11
7.9214559825
 21
-7.7813255478
 31
0.0
 40
0.3397569986
 41
-1.5826714388
 42
-1.5199375401
  0
ELLIPSE
  5
324
100
AcDbEntity
  8
0
100
AcDbEllipse
 62
7
  6
BYLAYER
 10
23.1041145813
 20
53.164838885
 30
0.0
 11
8.117466273
 21
-8.0434984904
 31
0.0
 40
0.2438041777
 41
-1.6677531383
 42
-1.6050192396
  0
ELLIPSE
  5
325
100
AcDbEntity
  8
0
100
AcDbEllipse
 62
7
  6
BYLAYER
 10
23.1041145813
 20
53.0071726121
 30
0.0
 11
8.2557716223
 21
-8.2260681246
 31
0.0
 40
0.1528608948
 41
-1.7536447373
 42
-1.6909108386
  0
ELLIPSE
  5
326
100
AcDbEntity
  8
0
100
AcDbEllipse
 62
7
  6
BYLAYER
 10
23.1041145813
 20
52.9179059154
 30
0.0
 11
8.333433108
 21
-8.3279952762
 31
0.0
 40
0.0649774206
 41
-1.8399499957
 42
-1.777216097
  0
ELLIPSE
  5
327
100
AcDbEntity
  8
0
100
AcDbEllipse
 62
7
  6
BYLAYER
 10
23.1041145813
 20
55.1352941176
 30
0.0
 11
8.3509838241
 21
0.0
 31
0.0
 40
0.963433044
 41
-1.9047939792
 42
-1.8420600805
  0
ELLIPSE
  5
328
100
AcDbEntity
  8
0
100
AcDbEllipse
 62
7
  6
BYLAYER
 10
23.1041145813
 20
55.5348400555
 30
0.0
 11
6.9023799451
 21
5.6884471334
 31
0.0
 40
0.8263497679
 41
-2.5026666201
 42
-2.4399327214
  0
ELLIPSE
  5
329
100
AcDbEntity
  8
0
100
AcDbEllipse
 62
7
  6
BYLAYER
 10
23.1041145813
 20
55.9215442582
 30
0.0
 11
7.084000063
 21
6.4779641088
 31
0.0
 40
0.6826531162
 41
-2.4628553458
 42
-2.4001214471
  0
ELLIPSE
  5
32A
100
AcDbEntity
  8
0
100
AcDbEllipse
 62
7
  6
BYLAYER
 10
23.1041145813
 20
56.2829777345
 30
0.0
 11
7.3841983811
 21
7.0131458112
 31
0.0
 40
0.5561450433
 41
-2.390745477
 42
-2.3280115783
  0
ELLIPSE
  5
32B
100
AcDbEntity
  8
0
100
AcDbEllipse
 62
7
  6
BYLAYER
 10
23.1041145813
 20
56.607523715
 30
0.0
 11
7.6732594207
 21
7.439498634
 31
0.0
 40
0.4429672902
 41
-2.3104468379
 42
-2.2477129392
  0
ELLIPSE
  5
32C
100
AcDbEntity
  8
0
100
AcDbEllipse
 62
7
  6
BYLAYER
 10
23.1041145813
 20
56.8847510248
 30
0.0
 11
7.9214559825
 21
7.7813255478
 31
0.0
 40
0.3397569986
 41
-2.2269165197
 42
-2.164182621
  0
ELLIPSE
  5
32D
100
AcDbEntity
  8
0
100
AcDbEllipse
 62
7
  6
BYLAYER
 10
23.1041145813
 20
57.1057493502
 30
0.0
 11
8.117466273
 21
8.0434984904
 31
0.0
 40
0.2438041777
 41
-2.1418348201
 42
-2.0791009214
  0
ELLIPSE
  5
32E
100
AcDbEntity
  8
0
100
AcDbEllipse
 62
7
  6
BYLAYER
 10
23.1041145813
 20
57.2634156232
 30
0.0
 11
8.2557716223
 21
8.2260681246
 31
0.0
 40
0.1528608948
 41
-2.0559432212
 42
-1.9932093225
  0
ELLIPSE
  5
32F
100
AcDbEntity
  8
0
100
AcDbEllipse
 62
7
  6
BYLAYER
 10
23.1041145813
 20
57.3526823199
 30
0.0
 11
8.333433108
 21
8.3279952762
 31
0.0
 40
0.0649774206
 41
-1.9696379628
 42
-1.9069040641
  0
ELLIPSE
  5
330
100
AcDbEntity
  8
0
100
AcDbEllipse
 62
7
  6
BYLAYER
 10
23.1041145813
 20
54.9347136708
 30
0.0
 11
7.1167322142
 21
-4.8305503843
 31
0.0
 40
0.9045203251
 41
2.392675192
 42
2.4554090907
  0
ELLIPSE
  5
331
100
AcDbEntity
  8
0
100
AcDbEllipse
 62
7
  6
BYLAYER
 10
23.1041145813
 20
54.5399995977
 30
0.0
 11
6.9578857343
 21
-6.1399374695
 31
0.0
 40
0.7521396115
 41
2.4280201346
 42
2.4907540333
  0
ELLIPSE
  5
332
100
AcDbEntity
  8
0
100
AcDbEllipse
 62
7
  6
BYLAYER
 10
23.1041145813
 20
54.1644187803
 30
0.0
 11
7.2319691818
 21
-6.7625506865
 31
0.0
 40
0.6174932746
 41
2.3657055449
 42
2.4284394436
  0
ELLIPSE
  5
333
100
AcDbEntity
  8
0
100
AcDbEllipse
 62
7
  6
BYLAYER
 10
23.1041145813
 20
53.820042695
 30
0.0
 11
7.5327025616
 21
-7.2376102948
 31
0.0
 40
0.4981174544
 41
2.288444679
 42
2.3511785777
  0
ELLIPSE
  5
334
100
AcDbEntity
  8
0
100
AcDbEllipse
 62
7
  6
BYLAYER
 10
23.1041145813
 20
53.5179398727
 30
0.0
 11
7.8033763488
 21
-7.6204835111
 31
0.0
 40
0.3902986392
 41
2.2062124334
 42
2.2689463321
  0
ELLIPSE
  5
335
100
AcDbEntity
  8
0
100
AcDbEllipse
 62
7
  6
BYLAYER
 10
23.1041145813
 20
53.2678201466
 30
0.0
 11
8.0264104398
 21
-7.9223157113
 31
0.0
 40
0.2910225948
 41
2.1217774177
 42
2.1845113164
  0
ELLIPSE
  5
336
100
AcDbEntity
  8
0
100
AcDbEllipse
 62
7
  6
BYLAYER
 10
23.1041145813
 20
53.0777225704
 30
0.0
 11
8.1940587861
 21
-8.1447938309
 31
0.0
 40
0.1978335621
 41
2.0362267715
 42
2.0989606702
  0
ELLIPSE
  5
337
100
AcDbEntity
  8
0
100
AcDbEllipse
 62
7
  6
BYLAYER
 10
23.1041145813
 20
52.9537570368
 30
0.0
 11
8.3023008481
 21
-8.2871775495
 31
0.0
 40
0.108650535
 41
1.9500904702
 42
2.0128243689
  0
ELLIPSE
  5
338
100
AcDbEntity
  8
0
100
AcDbEllipse
 62
7
  6
BYLAYER
 10
23.1041145813
 20
52.8999078999
 30
0.0
 11
8.3490323781
 21
-8.3484285061
 31
0.0
 40
0.0216237981
 41
1.863678946
 42
1.9264128447
  0
ENDSEC
  0
SECTION
  2
OBJECTS
  0
DICTIONARY
  5
C
100
AcDbDictionary
280
0
281
1
  3
ACAD_GROUP
350
D
  3
ACAD_MLINESTYLE
350
17
  3
ACAD_LAYOUT
350
1A
  3
ACAD_PLOTSETTINGS
350
19
  3
ACAD_PLOTSTYLENAME
350
E
  0
DICTIONARY
  5
D
102
{ACAD_REACTORS
330
C
102
}
100
AcDbDictionary
280
0
281
1
  0
ACDBDICTIONARYWDFLT
  5
E
102
{ACAD_REACTORS
330
C
102
}
100
AcDbDictionary
281
1
  3
Normal
350
F
100
AcDbDictionaryWithDefault
340
F
  0
DICTIONARY
  5
17
102
{ACAD_REACTORS
330
C
102
}
100
AcDbDictionary
280
0
281
1
  3
Standard
350
18
  0
DICTIONARY
  5
19
102
{ACAD_REACTORS
330
C
102
}
100
AcDbDictionary
281
1
  0
DICTIONARY
  5
1A
102
{ACAD_REACTORS
330
C
102
}
100
AcDbDictionary
281
1
  3
Model
350
339
  3
Layout1
350
33A
  0
ACDBPLACEHOLDER
  5
F
102
{ACAD_REACTORS
330
E
102
}
  0
MLINESTYLE
  5
18
102
{ACAD_REACTORS
330
17
102
}
100
AcDbMlineStyle
  2
STANDARD
 70
0
  3

 62
256
 51
90.0
 52
90.0
 71
2
 49
0.5
 62
256
  6
BYLAYER
 49
-0.5
 62
256
  6
BYLAYER
  0
LAYOUT
  5
339
102
{ACAD_REACTORS
330
1A
102
}
100
AcDbPlotSettings
  1

  2
none_device
  4

  6

 40
0.0
 41
0.0
 42
0.0
 43
0.0
 44
210.0
 45
297.0
 46
0.0
 47
0.0
 48
0.0
 49
0.0
140
0.0
141
0.0
142
1.0
143
1.0
 70
1024
 72
1
 73
0
 74
0
  7

 75
0
147
1.0
148
0.0
149
0.0
100
AcDbLayout
  1
Model
 70
0
 71
0
 10
0.0
 20
0.0
 11
210.0
 21
297.0
 12
0.0
 22
0.0
 32
0.0
 14
0.0
 24
0.0
 34
0.0
 15
0.0
 25
0.0
 35
0.0
146
0.0
 13
0.0
 23
0.0
 33
0.0
 16
1.0
 26
0.0
 36
0.0
 17
0.0
 27
1.0
 37
0.0
 76
0
330
210
345
0
346
0
  0
LAYOUT
  5
33A
102
{ACAD_REACTORS
330
1A
102
}
100
AcDbPlotSettings
  1

  2
none_device
  4

  6

 40
0.0
 41
0.0
 42
0.0
 43
0.0
 44
210.0
 45
297.0
 46
0.0
 47
0.0
 48
0.0
 49
0.0
140
0.0
141
0.0
142
1.0
143
1.0
 70
0
 72
1
 73
0
 74
0
  7

 75
0
147
1.0
148
0.0
149
0.0
100
AcDbLayout
  1
Layout1
 70
0
 71
1
 10
0.0
 20
0.0
 11
210.0
 21
297.0
 12
0.0
 22
0.0
 32
0.0
 14
0.0
 24
0.0
 34
0.0
 15
0.0
 25
0.0
 35
0.0
146
0.0
 13
0.0
 23
0.0
 33
0.0
 16
1.0
 26
0.0
 36
0.0
 17
0.0
 27
1.0
 37
0.0
 76
0
330
211
345
0
346
0
  0
ENDSEC
  0
EOF
