999
DXF file: C:\Gen2D\CAD\NSYPLM86PG_3D-CAD\drw0001_4.dxf
999
Pro/ENGINEER 2019471 by Parametric Technology Corporation
  0
SECTION
  2
HEADER
  9
$ACADVER
  1
AC1024
  9
$DWGCODEPAGE
  3
ANSI_1252
  9
$EXTMAX
 10
792.4629658655
 20
1120.7690517241
 30
0.0
  9
$EXTMIN
 10
0.0
 20
0.0
 30
0.0
  9
$LIMMIN
 10
0.0
 20
0.0
  9
$LIMMAX
 10
792.4629658655
 20
1120.7690517241
  9
$VIEWCTR
 10
396.2314829328
 20
560.3845258621
  9
$VIEWSIZE
 40
1120.7690517241
  9
$CLAYER
  8
0
  9
$LTSCALE
 40
73.0575381865
  9
$CELTYPE
  6
BYLAYER
  9
$DIMSCALE
 40
1.0
  9
$DIMASZ
 40
9.434082927
  9
$DIMEXO
 40
1.0
  9
$DIMDLI
 40
50.4761172925
  9
$DIMEXE
 40
1.0
  9
$DIMCEN
 40
11.9548698851
  9
$DIMLFAC
 40
1.0
  9
$DIMBLK
  1
_FILLED
  9
$DIMALT
 70
0
  9
$DIMALTF
 40
0.0393700787
  9
$DIMTXT
 40
13.2077160978
  9
$DIMTOL
 70
1
  9
$DIMLIM
 70
0
  9
$DIMTFAC
 40
1.0
  9
$DIMTP
 40
0.01
  9
$DIMTM
 40
0.01
  9
$DIMGAP
 40
0.625
  9
$DIMDSEP
 70
46
  9
$AUNITS
 70
0
  9
$PDMODE
 70
3
  9
$PDSIZE
 40
0.3125
  9
$HANDSEED
  5
444
  9
$TILEMODE
 70
1
  9
$MEASUREMENT
 70
1
  9
$INSUNITS
 70
4
  0
ENDSEC
  0
SECTION
  2
CLASSES
  0
CLASS
  1
ACDBDICTIONARYWDFLT
  2
AcDbDictionaryWithDefault
  3
AutoCAD 2000
 90
0
 91
1
280
0
281
0
  0
CLASS
  1
ACDBPLACEHOLDER
  2
AcDbPlaceHolder
  3
AutoCAD 2000
 90
0
 91
1
280
0
281
0
  0
CLASS
  1
LAYOUT
  2
AcDbLayout
  3
AutoCAD 2000
 90
0
 91
0
280
0
281
0
  0
ENDSEC
  0
SECTION
  2
TABLES
  0
TABLE
  2
VPORT
  5
8
100
AcDbSymbolTable
 70
2
  0
VPORT
  5
1F4
100
AcDbSymbolTableRecord
100
AcDbViewportTableRecord
  2
*ACTIVE
 70
0
 10
0.0
 20
0.0
 11
1.0
 21
1.0
 12
396.2314829328
 22
560.3845258621
 13
0.0
 23
0.0
 14
1.0
 24
1.0
 15
0.0
 25
0.0
 16
0.0
 26
0.0
 36
1.0
 17
0.0
 27
0.0
 37
0.0
 40
1120.7690517241
 41
0.7070707071
 42
50.0
 43
0.0
 44
0.0
 50
0.0
 51
0.0
 71
0
 72
100
 73
1
 74
1
 75
0
 76
0
 77
0
 78
0
  0
ENDTAB
  0
TABLE
  2
LTYPE
  5
5
100
AcDbSymbolTable
 70
6
  0
LTYPE
  5
14
100
AcDbSymbolTableRecord
100
AcDbLinetypeTableRecord
  2
BYBLOCK
 70
0
  3

 72
65
 73
0
 40
0.0
  0
LTYPE
  5
15
100
AcDbSymbolTableRecord
100
AcDbLinetypeTableRecord
  2
BYLAYER
 70
0
  3

 72
65
 73
0
 40
0.0
  0
LTYPE
  5
16
100
AcDbSymbolTableRecord
100
AcDbLinetypeTableRecord
  2
CONTINUOUS
 70
64
  3
Solid line
 72
65
 73
0
 40
0.0
  0
LTYPE
  5
1F5
100
AcDbSymbolTableRecord
100
AcDbLinetypeTableRecord
  2
CENTER
 70
64
  3
____ _ ____ _ ____ _ ____ _ ____ _ ____ _ ____
 72
65
 73
4
 40
0.6
 49
0.375
 74
0
 49
-0.075
 74
0
 49
0.075
 74
0
 49
-0.075
 74
0
  0
LTYPE
  5
1F6
100
AcDbSymbolTableRecord
100
AcDbLinetypeTableRecord
  2
HIDDEN
 70
64
  3
- - - - - - - - - - - - - - - - - - - -
 72
65
 73
2
 40
0.2
 49
0.1
 74
0
 49
-0.1
 74
0
  0
LTYPE
  5
1F7
100
AcDbSymbolTableRecord
100
AcDbLinetypeTableRecord
  2
PHANTOM
 70
64
  3
_____ _ _ _____ _ _ _____ _ _ _____
 72
65
 73
6
 40
0.8
 49
0.45
 74
0
 49
-0.05
 74
0
 49
0.1
 74
0
 49
-0.05
 74
0
 49
0.1
 74
0
 49
-0.05
 74
0
  0
LTYPE
  5
1F8
100
AcDbSymbolTableRecord
100
AcDbLinetypeTableRecord
  2
DOT
 70
64
  3
. . . . . . . . . . . . . . . . . . . .
 72
65
 73
2
 40
0.2
 49
0.1
 74
0
 49
-0.1
 74
0
  0
LTYPE
  5
1F9
100
AcDbSymbolTableRecord
100
AcDbLinetypeTableRecord
  2
DASHED
 70
64
  3
- - - - - - - - - - - - - - - - - - - -
 72
65
 73
2
 40
0.2
 49
0.1
 74
0
 49
-0.1
 74
0
  0
ENDTAB
  0
TABLE
  2
LAYER
  5
2
100
AcDbSymbolTable
 70
36
  0
LAYER
  5
10
100
AcDbSymbolTableRecord
100
AcDbLayerTableRecord
  2
0
 70
0
 62
7
  6
CONTINUOUS
370
-3
390
F
  0
LAYER
  5
1FA
100
AcDbSymbolTableRecord
100
AcDbLayerTableRecord
  2
DEFAULT_1
 70
0
 62
7
  6
CENTER
370
-3
390
F
  0
LAYER
  5
1FB
100
AcDbSymbolTableRecord
100
AcDbLayerTableRecord
  2
DEFAULT_2
 70
0
 62
8
  6
HIDDEN
370
-3
390
F
  0
LAYER
  5
1FC
100
AcDbSymbolTableRecord
100
AcDbLayerTableRecord
  2
DEFAULT_3
 70
0
 62
7
  6
PHANTOM
370
-3
390
F
  0
LAYER
  5
1FD
100
AcDbSymbolTableRecord
100
AcDbLayerTableRecord
  2
00_COMPONENTS
 70
0
 62
7
  6
CONTINUOUS
370
-3
390
F
  0
LAYER
  5
1FE
100
AcDbSymbolTableRecord
100
AcDbLayerTableRecord
  2
00_COMPONENTS_1_1
 70
0
 62
7
  6
CONTINUOUS
370
-3
390
F
  0
LAYER
  5
1FF
100
AcDbSymbolTableRecord
100
AcDbLayerTableRecord
  2
00_COMPONENTS_3
 70
0
 62
7
  6
CONTINUOUS
370
-3
390
F
  0
LAYER
  5
200
100
AcDbSymbolTableRecord
100
AcDbLayerTableRecord
  2
00_COMPONENTS_3_1
 70
0
 62
7
  6
CONTINUOUS
370
-3
390
F
  0
LAYER
  5
201
100
AcDbSymbolTableRecord
100
AcDbLayerTableRecord
  2
00_COMPONENTS_4
 70
0
 62
7
  6
CONTINUOUS
370
-3
390
F
  0
LAYER
  5
202
100
AcDbSymbolTableRecord
100
AcDbLayerTableRecord
  2
00_COMPONENTS_5_1
 70
0
 62
7
  6
CONTINUOUS
370
-3
390
F
  0
LAYER
  5
203
100
AcDbSymbolTableRecord
100
AcDbLayerTableRecord
  2
00_COMPONENTS_7
 70
0
 62
7
  6
CONTINUOUS
370
-3
390
F
  0
LAYER
  5
204
100
AcDbSymbolTableRecord
100
AcDbLayerTableRecord
  2
01_1_DEFAULT_DATUMS
 70
0
 62
7
  6
CONTINUOUS
370
-3
390
F
  0
LAYER
  5
205
100
AcDbSymbolTableRecord
100
AcDbLayerTableRecord
  2
01_PLANES
 70
0
 62
7
  6
CONTINUOUS
370
-3
390
F
  0
LAYER
  5
206
100
AcDbSymbolTableRecord
100
AcDbLayerTableRecord
  2
02_COORD_SYS
 70
0
 62
7
  6
CONTINUOUS
370
-3
390
F
  0
LAYER
  5
207
100
AcDbSymbolTableRecord
100
AcDbLayerTableRecord
  2
03_AXES
 70
0
 62
7
  6
CONTINUOUS
370
-3
390
F
  0
LAYER
  5
208
100
AcDbSymbolTableRecord
100
AcDbLayerTableRecord
  2
03_AXES_4
 70
0
 62
7
  6
CONTINUOUS
370
-3
390
F
  0
LAYER
  5
209
100
AcDbSymbolTableRecord
100
AcDbLayerTableRecord
  2
03_AXES_6
 70
0
 62
7
  6
CONTINUOUS
370
-3
390
F
  0
LAYER
  5
20A
100
AcDbSymbolTableRecord
100
AcDbLayerTableRecord
  2
03_AXES_8
 70
0
 62
7
  6
CONTINUOUS
370
-3
390
F
  0
LAYER
  5
20B
100
AcDbSymbolTableRecord
100
AcDbLayerTableRecord
  2
0443926801-SIMP
 70
0
 62
7
  6
CONTINUOUS
370
-3
390
F
  0
LAYER
  5
20C
100
AcDbSymbolTableRecord
100
AcDbLayerTableRecord
  2
04_POINTS
 70
0
 62
7
  6
CONTINUOUS
370
-3
390
F
  0
LAYER
  5
20D
100
AcDbSymbolTableRecord
100
AcDbLayerTableRecord
  2
05_CURVES
 70
0
 62
7
  6
CONTINUOUS
370
-3
390
F
  0
LAYER
  5
20E
100
AcDbSymbolTableRecord
100
AcDbLayerTableRecord
  2
05_CURVES_3
 70
0
 62
7
  6
CONTINUOUS
370
-3
390
F
  0
LAYER
  5
20F
100
AcDbSymbolTableRecord
100
AcDbLayerTableRecord
  2
05_CURVES_6
 70
0
 62
7
  6
CONTINUOUS
370
-3
390
F
  0
LAYER
  5
210
100
AcDbSymbolTableRecord
100
AcDbLayerTableRecord
  2
05_CURVES_8
 70
0
 62
7
  6
CONTINUOUS
370
-3
390
F
  0
LAYER
  5
211
100
AcDbSymbolTableRecord
100
AcDbLayerTableRecord
  2
06_SURFS
 70
0
 62
7
  6
CONTINUOUS
370
-3
390
F
  0
LAYER
  5
212
100
AcDbSymbolTableRecord
100
AcDbLayerTableRecord
  2
07_COSMETICS
 70
0
 62
7
  6
CONTINUOUS
370
-3
390
F
  0
LAYER
  5
213
100
AcDbSymbolTableRecord
100
AcDbLayerTableRecord
  2
10_NOTES
 70
0
 62
7
  6
CONTINUOUS
370
-3
390
F
  0
LAYER
  5
214
100
AcDbSymbolTableRecord
100
AcDbLayerTableRecord
  2
11_NOTES_PUB
 70
0
 62
7
  6
CONTINUOUS
370
-3
390
F
  0
LAYER
  5
215
100
AcDbSymbolTableRecord
100
AcDbLayerTableRecord
  2
13_REF_GTOL
 70
0
 62
7
  6
CONTINUOUS
370
-3
390
F
  0
LAYER
  5
216
100
AcDbSymbolTableRecord
100
AcDbLayerTableRecord
  2
16_MISC
 70
0
 62
7
  6
CONTINUOUS
370
-3
390
F
  0
LAYER
  5
217
100
AcDbSymbolTableRecord
100
AcDbLayerTableRecord
  2
17_NO_PRINT
 70
0
 62
7
  6
CONTINUOUS
370
-3
390
F
  0
LAYER
  5
218
100
AcDbSymbolTableRecord
100
AcDbLayerTableRecord
  2
18_DATUM_CAMS_JOINTS
 70
0
 62
7
  6
CONTINUOUS
370
-3
390
F
  0
LAYER
  5
219
100
AcDbSymbolTableRecord
100
AcDbLayerTableRecord
  2
19_DATUM_FUNCTIONAL
 70
0
 62
7
  6
CONTINUOUS
370
-3
390
F
  0
LAYER
  5
21A
100
AcDbSymbolTableRecord
100
AcDbLayerTableRecord
  2
20_DATUM_KINEMATIC_SCHEME
 70
0
 62
7
  6
CONTINUOUS
370
-3
390
F
  0
LAYER
  5
21B
100
AcDbSymbolTableRecord
100
AcDbLayerTableRecord
  2
COLOR22
 70
0
 62
7
  6
CONTINUOUS
370
-3
390
F
  0
LAYER
  5
21C
100
AcDbSymbolTableRecord
100
AcDbLayerTableRecord
  2
COLOR23
 70
0
 62
7
  6
CONTINUOUS
370
-3
390
F
  0
LAYER
  5
21D
100
AcDbSymbolTableRecord
100
AcDbLayerTableRecord
  2
COLOR3
 70
0
 62
7
  6
CONTINUOUS
370
-3
390
F
  0
LAYER
  5
21E
100
AcDbSymbolTableRecord
100
AcDbLayerTableRecord
  2
ENN0263A-S-SIMP
 70
0
 62
7
  6
CONTINUOUS
370
-3
390
F
  0
LAYER
  5
21F
100
AcDbSymbolTableRecord
100
AcDbLayerTableRecord
  2
INTFCLR_34645
 70
0
 62
7
  6
CONTINUOUS
370
-3
390
F
  0
LAYER
  5
220
100
AcDbSymbolTableRecord
100
AcDbLayerTableRecord
  2
INTFCLR_34732
 70
0
 62
7
  6
CONTINUOUS
370
-3
390
F
  0
LAYER
  5
221
100
AcDbSymbolTableRecord
100
AcDbLayerTableRecord
  2
INTFCLR_42
 70
0
 62
7
  6
CONTINUOUS
370
-3
390
F
  0
LAYER
  5
222
100
AcDbSymbolTableRecord
100
AcDbLayerTableRecord
  2
INTFCLR_43
 70
0
 62
7
  6
CONTINUOUS
370
-3
390
F
  0
LAYER
  5
223
100
AcDbSymbolTableRecord
100
AcDbLayerTableRecord
  2
INTFCLR_44
 70
0
 62
7
  6
CONTINUOUS
370
-3
390
F
  0
LAYER
  5
224
100
AcDbSymbolTableRecord
100
AcDbLayerTableRecord
  2
INTFCLR_6
 70
0
 62
7
  6
CONTINUOUS
370
-3
390
F
  0
LAYER
  5
225
100
AcDbSymbolTableRecord
100
AcDbLayerTableRecord
  2
INTFCLR_8
 70
0
 62
7
  6
CONTINUOUS
370
-3
390
F
  0
LAYER
  5
226
100
AcDbSymbolTableRecord
100
AcDbLayerTableRecord
  2
INTFCLR_89469
 70
0
 62
7
  6
CONTINUOUS
370
-3
390
F
  0
LAYER
  5
227
100
AcDbSymbolTableRecord
100
AcDbLayerTableRecord
  2
INTF_BLANK
 70
0
 62
7
  6
CONTINUOUS
370
-3
390
F
  0
LAYER
  5
228
100
AcDbSymbolTableRecord
100
AcDbLayerTableRecord
  2
PLM-CAME-SIMP
 70
0
 62
7
  6
CONTINUOUS
370
-3
390
F
  0
LAYER
  5
229
100
AcDbSymbolTableRecord
100
AcDbLayerTableRecord
  2
PLM-ROSACE-SIMP
 70
0
 62
7
  6
CONTINUOUS
370
-3
390
F
  0
LAYER
  5
22A
100
AcDbSymbolTableRecord
100
AcDbLayerTableRecord
  2
_BLACK_HOLE
 70
0
 62
7
  6
CONTINUOUS
370
-3
390
F
  0
LAYER
  5
22B
100
AcDbSymbolTableRecord
100
AcDbLayerTableRecord
  2
white
 70
0
 62
7
  6
CONTINUOUS
370
-3
390
F
  0
ENDTAB
  0
TABLE
  2
STYLE
  5
3
100
AcDbSymbolTable
 70
1
  0
STYLE
  5
11
100
AcDbSymbolTableRecord
100
AcDbTextStyleTableRecord
  2
STANDARD
 70
0
 40
0.0
 41
0.8
 50
0.0
 71
0
 42
0.2
  3
txt
  4

  0
STYLE
  5
22C
100
AcDbSymbolTableRecord
100
AcDbTextStyleTableRecord
  2
TEXTSTYLE_1
 70
0
 40
0.0
 41
0.8
 50
0.0
 71
0
 42
0.2
  3
gdt
  4

  0
ENDTAB
  0
TABLE
  2
VIEW
  5
6
100
AcDbSymbolTable
 70
0
  0
ENDTAB
  0
TABLE
  2
UCS
  5
7
100
AcDbSymbolTable
 70
0
  0
ENDTAB
  0
TABLE
  2
APPID
  5
9
100
AcDbSymbolTable
 70
1
  0
APPID
  5
22D
100
AcDbSymbolTableRecord
100
AcDbRegAppTableRecord
  2
ACAD
 70
0
  0
ENDTAB
  0
TABLE
  2
BLOCK_RECORD
  5
1
100
AcDbSymbolTable
 70
0
  0
BLOCK_RECORD
  5
22E
100
AcDbSymbolTableRecord
100
AcDbBlockTableRecord
  2
*Model_Space
  0
BLOCK_RECORD
  5
22F
100
AcDbSymbolTableRecord
100
AcDbBlockTableRecord
  2
*Paper_Space
  0
BLOCK_RECORD
  5
230
100
AcDbSymbolTableRecord
100
AcDbBlockTableRecord
  2
_FILLED
  0
ENDTAB
  0
TABLE
  2
DIMSTYLE
  5
A
100
AcDbSymbolTable
 70
1
100
AcDbDimStyleTable
 71
0
  0
DIMSTYLE
105
231
100
AcDbSymbolTableRecord
100
AcDbDimStyleTableRecord
  2
STANDARD
 70
0
  3

  4

 40
1.0
 41
9.434082927
 42
1.0
 43
0.38
 44
1.0
 45
0.0
 46
0.0
 47
0.01
 48
0.01
140
13.2077160978
141
0.09
142
0.0
143
25.4
144
1.0
145
0.0
146
1.0
147
0.625
 71
1
 72
0
 73
0
 74
0
 75
0
 76
0
 77
1
 78
8
 79
2
170
0
171
1
172
0
173
0
174
0
175
0
176
0
177
0
178
0
270
2
179
2
271
2
272
2
273
2
274
2
275
0
280
0
281
0
282
0
283
1
284
8
285
0
286
0
287
3
288
0
340
11
278
46
341
230
342
230
343
230
344
230
  0
ENDTAB
  0
ENDSEC
  0
SECTION
  2
BLOCKS
  0
BLOCK
  5
20
100
AcDbEntity
  8
0
100
AcDbBlockBegin
  2
*Model_Space
 70
0
 10
0.0
 20
0.0
 30
0.0
  3
*Model_Space
  1

  0
ENDBLK
  5
21
100
AcDbEntity
  8
0
100
AcDbBlockEnd
  0
BLOCK
  5
1C
100
AcDbEntity
  8
0
100
AcDbBlockBegin
  2
*Paper_Space
 70
0
 10
0.0
 20
0.0
 30
0.0
  3
*Paper_Space
  1

  0
ENDBLK
  5
1D
100
AcDbEntity
  8
0
100
AcDbBlockEnd
  0
BLOCK
  5
232
100
AcDbEntity
  8
0
100
AcDbBlockBegin
  2
_FILLED
 70
64
 10
0.0
 20
0.0
  3
_FILLED
  1

  0
SOLID
  5
233
100
AcDbEntity
  8
0
  6
BYBLOCK
 62
0
100
AcDbTrace
 10
0.0
 20
0.0
 11
-1.0
 21
0.25
 12
-1.0
 22
-0.25
 13
-1.0
 23
-0.25
  0
ENDBLK
  5
234
100
AcDbEntity
  8
0
  6
BYBLOCK
 62
0
100
AcDbBlockEnd
  0
ENDSEC
  0
SECTION
  2
ENTITIES
  0
LINE
  5
235
100
AcDbEntity
  8
00_COMPONENTS_1_1
100
AcDbLine
 62
7
  6
CONTINUOUS
 10
102.7542626783
 20
880.6824468091
 11
105.4562093353
 21
885.36565204
  0
LINE
  5
236
100
AcDbEntity
  8
00_COMPONENTS_1_1
100
AcDbLine
 62
7
  6
CONTINUOUS
 10
102.4436349427
 20
880.8444237886
 11
105.0378438219
 21
885.3395233775
  0
LINE
  5
237
100
AcDbEntity
  8
00_COMPONENTS_1_1
100
AcDbLine
 62
7
  6
CONTINUOUS
 10
102.7673019022
 20
880.8050314072
 11
105.4177215666
 21
885.3986896018
  0
LINE
  5
238
100
AcDbEntity
  8
00_COMPONENTS_1_1
100
AcDbLine
 62
7
  6
CONTINUOUS
 10
102.0160859511
 20
880.9038872125
 11
104.6225355832
 21
885.4183904026
  0
LINE
  5
239
100
AcDbEntity
  8
00_COMPONENTS_1_1
100
AcDbLine
 62
7
  6
CONTINUOUS
 10
102.2293263612
 20
880.873230437
 11
104.8282952329
 21
885.37477657
  0
LINE
  5
23A
100
AcDbEntity
  8
00_COMPONENTS_1_1
100
AcDbLine
 62
7
  6
CONTINUOUS
 10
104.9417389491
 20
885.3939165812
 11
102.3242086812
 21
880.8602211667
  0
LINE
  5
23B
100
AcDbEntity
  8
00_COMPONENTS_1_1
100
AcDbLine
 62
7
  6
CONTINUOUS
 10
105.1302372632
 20
885.3618571227
 11
102.5167041874
 21
880.8350850481
  0
LINE
  5
23C
100
AcDbEntity
  8
00_COMPONENTS_1_1
100
AcDbLine
 62
7
  6
CONTINUOUS
 10
105.4117617835
 20
885.382373606
 11
102.7673019022
 21
880.8050314072
  0
LINE
  5
23D
100
AcDbEntity
  8
00_COMPONENTS_1_1
100
AcDbLine
 62
7
  6
CONTINUOUS
 10
105.4487212323
 20
885.3460895816
 11
102.7542626783
 21
880.6824468091
  0
LINE
  5
23E
100
AcDbEntity
  8
00_COMPONENTS_1_1
100
AcDbLine
 62
7
  6
CONTINUOUS
 10
101.7878745767
 20
880.4536426189
 11
101.7162397378
 21
880.351600206
  0
LINE
  5
23F
100
AcDbEntity
  8
00_COMPONENTS_1_1
100
AcDbLine
 62
7
  6
CONTINUOUS
 10
111.2522464612
 20
883.4563573811
 11
111.3238813001
 21
883.558399794
  0
LINE
  5
240
100
AcDbEntity
  8
00_COMPONENTS_1_1
100
AcDbLine
 62
7
  6
CONTINUOUS
 10
98.8763339675
 20
883.5597303896
 11
98.8249066922
 21
883.5178382337
  0
LINE
  5
241
100
AcDbEntity
  8
00_COMPONENTS_1_1
100
AcDbLine
 62
7
  6
CONTINUOUS
 10
114.1637870703
 20
880.3502696104
 11
114.2130411238
 21
880.3903857965
  0
LINE
  5
242
100
AcDbEntity
  8
0
100
AcDbLine
 62
7
  6
CONTINUOUS
 10
110.6897416572
 20
881.2735425874
 11
105.0253793807
 21
878.0032215023
  0
LINE
  5
243
100
AcDbEntity
  8
0
100
AcDbLine
 62
7
  6
CONTINUOUS
 10
105.4094843076
 20
877.8785744237
 11
110.6056367303
 21
880.8785744237
  0
LINE
  5
244
100
AcDbEntity
  8
00_COMPONENTS_3
100
AcDbLine
 62
7
420
48875
  6
CONTINUOUS
 10
724.7800605189
 20
133.455
 11
720.7802128266
 21
133.455
  0
LINE
  5
245
100
AcDbEntity
  8
00_COMPONENTS_3
100
AcDbLine
 62
7
420
48875
  6
CONTINUOUS
 10
92.2599082112
 20
133.455
 11
88.2600605189
 21
133.455
  0
LINE
  5
246
100
AcDbEntity
  8
00_COMPONENTS_3
100
AcDbLine
 62
7
  6
CONTINUOUS
 10
92.2599082112
 20
133.455
 11
720.7802128266
 21
133.455
  0
LINE
  5
247
100
AcDbEntity
  8
00_COMPONENTS_3
100
AcDbLine
 62
7
420
24575
  6
CONTINUOUS
 10
724.4737474594
 20
133.7613130595
 11
721.5197328606
 21
133.7613130595
  0
LINE
  5
248
100
AcDbEntity
  8
00_COMPONENTS_3
100
AcDbLine
 62
7
420
24575
  6
CONTINUOUS
 10
91.5203849887
 20
133.7613130595
 11
88.5663735783
 21
133.7613130595
  0
LINE
  5
249
100
AcDbEntity
  8
0
100
AcDbLine
 62
7
  6
CONTINUOUS
 10
105.0253793807
 20
235.9067784977
 11
110.6897416572
 21
232.6364574125
  0
LINE
  5
24A
100
AcDbEntity
  8
0
100
AcDbLine
 62
7
  6
CONTINUOUS
 10
110.6056367303
 20
233.0314255763
 11
105.4094843076
 21
236.0314255763
  0
LINE
  5
24B
100
AcDbEntity
  8
00_COMPONENTS_1_1
100
AcDbLine
 62
7
  6
CONTINUOUS
 10
98.8270799141
 20
230.3903857965
 11
98.8763339675
 21
230.3502696104
  0
LINE
  5
24C
100
AcDbEntity
  8
00_COMPONENTS_1_1
100
AcDbLine
 62
7
  6
CONTINUOUS
 10
114.2152143456
 20
233.5178382337
 11
114.1637870703
 21
233.5597303896
  0
LINE
  5
24D
100
AcDbEntity
  8
00_COMPONENTS_1_1
100
AcDbLine
 62
7
  6
CONTINUOUS
 10
101.7162397378
 20
233.558399794
 11
101.7878745767
 21
233.4563573811
  0
LINE
  5
24E
100
AcDbEntity
  8
00_COMPONENTS_1_1
100
AcDbLine
 62
7
  6
CONTINUOUS
 10
111.3238813001
 20
230.351600206
 11
111.2522464612
 21
230.4536426189
  0
LINE
  5
24F
100
AcDbEntity
  8
00_COMPONENTS_1_1
100
AcDbLine
 62
7
  6
CONTINUOUS
 10
107.5824843447
 20
235.3648279546
 11
110.2858583595
 21
230.6824468091
  0
LINE
  5
250
100
AcDbEntity
  8
00_COMPONENTS_1_1
100
AcDbLine
 62
7
  6
CONTINUOUS
 10
107.6211018732
 20
235.3979404332
 11
110.2728191357
 21
230.8050314072
  0
LINE
  5
251
100
AcDbEntity
  8
00_COMPONENTS_1_1
100
AcDbLine
 62
7
  6
CONTINUOUS
 10
110.5234168505
 20
230.8350850481
 11
107.9098837746
 21
235.3618571227
  0
LINE
  5
252
100
AcDbEntity
  8
00_COMPONENTS_1_1
100
AcDbLine
 62
7
  6
CONTINUOUS
 10
110.7159123567
 20
230.8602211667
 11
108.0983820888
 21
235.3939165812
  0
LINE
  5
253
100
AcDbEntity
  8
00_COMPONENTS_1_1
100
AcDbLine
 62
7
  6
CONTINUOUS
 10
108.211825805
 20
235.37477657
 11
110.8107946767
 21
230.873230437
  0
LINE
  5
254
100
AcDbEntity
  8
00_COMPONENTS_1_1
100
AcDbLine
 62
7
  6
CONTINUOUS
 10
108.002277216
 20
235.3395233775
 11
110.5964860952
 21
230.8444237886
  0
LWPOLYLINE
  5
255
100
AcDbEntity
  8
00_COMPONENTS_1_1
100
AcDbPolyline
 62
7
  6
CONTINUOUS
 90
4
 70
0
 10
105.0378338778
 20
885.3400930726
 10
105.0367005549
 20
885.3365779909
 10
105.0363467171
 20
885.3330726477
 10
105.0352133941
 20
885.3295575661
  0
LINE
  5
256
100
AcDbEntity
  8
00_COMPONENTS_3
100
AcDbLine
 62
7
  6
CONTINUOUS
 10
724.7800605189
 20
139.455
 11
88.2600605189
 21
139.455
  0
LINE
  5
257
100
AcDbEntity
  8
00_COMPONENTS_3
100
AcDbLine
 62
7
  6
CONTINUOUS
 10
90.5200605189
 20
139.9786519478
 11
88.5218665526
 21
139.9786519478
  0
LINE
  5
258
100
AcDbEntity
  8
00_COMPONENTS_3
100
AcDbLine
 62
7
  6
CONTINUOUS
 10
722.5200605189
 20
139.9786519478
 11
724.5182544852
 21
139.9786519478
  0
LINE
  5
259
100
AcDbEntity
  8
00_COMPONENTS_3
100
AcDbLine
 62
7
  6
CONTINUOUS
 10
93.3484876436
 20
140.0135620777
 11
719.6916333942
 21
140.0135620777
  0
LINE
  5
25A
100
AcDbEntity
  8
00_COMPONENTS_7
100
AcDbLine
 62
7
  6
CONTINUOUS
 10
721.0215834514
 20
142.955
 11
92.0185375865
 21
142.955
  0
LINE
  5
25B
100
AcDbEntity
  8
00_COMPONENTS_7
100
AcDbLine
 62
7
  6
CONTINUOUS
 10
720.1461267795
 20
143.8304566718
 11
92.8939942583
 21
143.8304566718
  0
LINE
  5
25C
100
AcDbEntity
  8
00_COMPONENTS_7
100
AcDbLine
 62
7
  6
CONTINUOUS
 10
92.8939942583
 20
145.8292383259
 11
720.1461267795
 21
145.8292383259
  0
LINE
  5
25D
100
AcDbEntity
  8
00_COMPONENTS_7
100
AcDbLine
 62
7
  6
CONTINUOUS
 10
90.3955171908
 20
146.3289337394
 11
92.3942988448
 21
146.3289337394
  0
LINE
  5
25E
100
AcDbEntity
  8
00_COMPONENTS_7
100
AcDbLine
 62
7
  6
CONTINUOUS
 10
720.645822193
 20
146.3289337394
 11
722.6446038471
 21
146.3289337394
  0
LINE
  5
25F
100
AcDbEntity
  8
00_COMPONENTS_7
100
AcDbLine
 62
7
  6
CONTINUOUS
 10
696.5200605189
 20
155.955
 11
659.5200605189
 21
155.955
  0
LINE
  5
260
100
AcDbEntity
  8
00_COMPONENTS_7
100
AcDbLine
 62
7
  6
CONTINUOUS
 10
659.5200605189
 20
168.955
 11
696.5200605189
 21
168.955
  0
LINE
  5
261
100
AcDbEntity
  8
00_COMPONENTS_1_1
100
AcDbLine
 62
7
  6
CONTINUOUS
 10
108.417585444
 20
235.4183904211
 11
111.0240353743
 21
230.9038867148
  0
LINE
  5
262
100
AcDbEntity
  8
00_COMPONENTS_3
100
AcDbLine
 62
7
  6
CONTINUOUS
 10
701.2681245043
 20
200.9764436034
 11
703.4705913714
 21
201.0555312956
  0
LINE
  5
263
100
AcDbEntity
  8
00_COMPONENTS_7
100
AcDbLine
 62
7
  6
CONTINUOUS
 10
699.7200605189
 20
200.355
 11
720.645822193
 21
200.355
  0
LINE
  5
264
100
AcDbEntity
  8
00_COMPONENTS_7
100
AcDbLine
 62
7
  6
CONTINUOUS
 10
699.7200605189
 20
200.5461111111
 11
720.3200605189
 21
200.5461111111
  0
LINE
  5
265
100
AcDbEntity
  8
00_COMPONENTS_7
100
AcDbLine
 62
7
  6
CONTINUOUS
 10
720.3200605189
 20
200.655
 11
723.5200605189
 21
200.655
  0
LINE
  5
266
100
AcDbEntity
  8
00_COMPONENTS_3
100
AcDbLine
 62
7
  6
CONTINUOUS
 10
720.5392138217
 20
201.0555312956
 11
703.4705913713
 21
201.0555312956
  0
LWPOLYLINE
  5
267
100
AcDbEntity
  8
00_COMPONENTS_1_1
100
AcDbPolyline
 62
7
  6
CONTINUOUS
 90
4
 70
0
 10
108.0049076437
 20
235.3295575661
 10
108.0037743208
 20
235.3330726477
 10
108.003420483
 20
235.3365779909
 10
108.00228716
 20
235.3400930726
  0
LINE
  5
268
100
AcDbEntity
  8
0
100
AcDbLine
 62
7
  6
CONTINUOUS
 10
93.4076764225
 20
244.1563927715
 11
93.2213255692
 21
250.9063927715
  0
LINE
  5
269
100
AcDbEntity
  8
00_COMPONENTS_3
100
AcDbLine
 62
7
  6
CONTINUOUS
 10
88.2600605189
 20
139.455
 11
88.2600605189
 21
137.4548476923
  0
LINE
  5
26A
100
AcDbEntity
  8
00_COMPONENTS_3
100
AcDbLine
 62
7
420
48875
  6
CONTINUOUS
 10
88.2600605189
 20
133.455
 11
88.2600605189
 21
137.4548476923
  0
LINE
  5
26B
100
AcDbEntity
  8
00_COMPONENTS_3
100
AcDbLine
 62
7
420
48875
  6
CONTINUOUS
 10
88.2600605189
 20
139.455
 11
88.2600605189
 21
974.455
  0
LINE
  5
26C
100
AcDbEntity
  8
00_COMPONENTS_3
100
AcDbLine
 62
7
420
48875
  6
CONTINUOUS
 10
88.2600605189
 20
976.4551523077
 11
88.2600605189
 21
980.455
  0
LINE
  5
26D
100
AcDbEntity
  8
00_COMPONENTS_3
100
AcDbLine
 62
7
  6
CONTINUOUS
 10
88.2600605189
 20
974.455
 11
88.2600605189
 21
976.4551523077
  0
LINE
  5
26E
100
AcDbEntity
  8
00_COMPONENTS_3
100
AcDbLine
 62
7
  6
CONTINUOUS
 10
88.5218665527
 20
973.9313480521
 11
88.5218665527
 21
139.9786519478
  0
LINE
  5
26F
100
AcDbEntity
  8
00_COMPONENTS_3
100
AcDbLine
 62
7
420
24575
  6
CONTINUOUS
 10
88.5663735784
 20
980.1486869405
 11
88.5663735784
 21
977.1946191709
  0
LINE
  5
270
100
AcDbEntity
  8
00_COMPONENTS_3
100
AcDbLine
 62
7
420
24575
  6
CONTINUOUS
 10
88.5663735784
 20
133.7613130595
 11
88.5663735784
 21
136.7153276584
  0
LINE
  5
271
100
AcDbEntity
  8
00_COMPONENTS_7
100
AcDbLine
 62
7
  6
CONTINUOUS
 10
89.5200605189
 20
145.4534770675
 11
89.5200605189
 21
968.4565229324
  0
LINE
  5
272
100
AcDbEntity
  8
00_COMPONENTS_7
100
AcDbLine
 62
7
  6
CONTINUOUS
 10
90.3955171908
 20
146.3289337394
 11
90.3955171908
 21
967.5810662606
  0
LINE
  5
273
100
AcDbEntity
  8
00_COMPONENTS_3
100
AcDbLine
 62
7
  6
CONTINUOUS
 10
90.5200605189
 20
139.9786519478
 11
90.5200605189
 21
143.575558016
  0
LINE
  5
274
100
AcDbEntity
  8
00_COMPONENTS_3
100
AcDbLine
 62
7
  6
CONTINUOUS
 10
90.5200605189
 20
970.334441984
 11
90.5200605189
 21
973.9313480522
  0
LINE
  5
275
100
AcDbEntity
  8
00_COMPONENTS_7
100
AcDbLine
 62
7
  6
CONTINUOUS
 10
92.3942988448
 20
967.5810662606
 11
92.3942988448
 21
146.3289337394
  0
LINE
  5
276
100
AcDbEntity
  8
00_COMPONENTS_7
100
AcDbLine
 62
7
  6
CONTINUOUS
 10
92.8939942583
 20
970.0795433281
 11
92.8939942583
 21
968.0807616741
  0
LINE
  5
277
100
AcDbEntity
  8
00_COMPONENTS_7
100
AcDbLine
 62
7
  6
CONTINUOUS
 10
92.8939942583
 20
145.8292383259
 11
92.8939942583
 21
143.8304566719
  0
LINE
  5
278
100
AcDbEntity
  8
0
100
AcDbLine
 62
7
  6
CONTINUOUS
 10
93.0200605189
 20
900.955
 11
93.0200605189
 21
862.955
  0
LINE
  5
279
100
AcDbEntity
  8
0
100
AcDbLine
 62
7
  6
CONTINUOUS
 10
93.0200605189
 20
250.955
 11
93.0200605189
 21
212.955
  0
LINE
  5
27A
100
AcDbEntity
  8
00_COMPONENTS_3
100
AcDbLine
 62
7
  6
CONTINUOUS
 10
93.3484876436
 20
973.8964379223
 11
93.3484876436
 21
970.955
  0
LINE
  5
27B
100
AcDbEntity
  8
00_COMPONENTS_3
100
AcDbLine
 62
7
  6
CONTINUOUS
 10
93.3484876436
 20
142.955
 11
93.3484876436
 21
140.0135620777
  0
LINE
  5
27C
100
AcDbEntity
  8
0
100
AcDbLine
 62
7
  6
CONTINUOUS
 10
93.2213255692
 20
863.0036072285
 11
93.4076764225
 21
869.7536072285
  0
LINE
  5
27D
100
AcDbEntity
  8
00_COMPONENTS_3
100
AcDbLine
 62
7
  6
CONTINUOUS
 10
723.5182144562
 20
255.948716794
 11
722.5379954758
 21
255.8605326296
  0
LINE
  5
27E
100
AcDbEntity
  8
00_COMPONENTS_1_1
100
AcDbLine
 62
7
  6
CONTINUOUS
 10
106.5200608067
 20
228.5800055013
 11
109.7412984532
 21
228.6362269173
  0
LINE
  5
27F
100
AcDbEntity
  8
00_COMPONENTS_1_1
100
AcDbLine
 62
7
  6
CONTINUOUS
 10
109.6576990085
 20
228.8347676836
 11
106.5200605189
 21
228.7800272087
  0
LINE
  5
280
100
AcDbEntity
  8
00_COMPONENTS_1_1
100
AcDbLine
 62
7
  6
CONTINUOUS
 10
106.5200605189
 20
228.8686897946
 11
109.6200042796
 21
228.9228288275
  0
LINE
  5
281
100
AcDbEntity
  8
00_COMPONENTS_1_1
100
AcDbLine
 62
7
  6
CONTINUOUS
 10
106.5200607183
 20
228.9800114272
 11
109.5719665985
 21
229.0332712188
  0
LINE
  5
282
100
AcDbEntity
  8
00_COMPONENTS_1_1
100
AcDbLine
 62
7
  6
CONTINUOUS
 10
106.520060519
 20
229.0479627999
 11
109.5423604163
 21
229.1007444495
  0
LINE
  5
283
100
AcDbEntity
  8
00_COMPONENTS_1_1
100
AcDbLine
 62
7
  6
CONTINUOUS
 10
109.4389617773
 20
229.330949611
 11
106.5200605189
 21
229.28
  0
LINE
  5
284
100
AcDbEntity
  8
00_COMPONENTS_1_1
100
AcDbLine
 62
7
  6
CONTINUOUS
 10
109.550725282
 20
229.3829004502
 11
106.5200605189
 21
229.33
  0
LINE
  5
285
100
AcDbEntity
  8
00_COMPONENTS_1_1
100
AcDbLine
 62
7
  6
CONTINUOUS
 10
106.5200605189
 20
235.3502640162
 11
105.3799979991
 21
235.3303537917
  0
LINE
  5
286
100
AcDbEntity
  8
00_COMPONENTS_1_1
100
AcDbLine
 62
7
  6
CONTINUOUS
 10
98.8763339675
 20
230.3502696104
 11
101.7162368
 21
230.3507138919
  0
LINE
  5
287
100
AcDbEntity
  8
00_COMPONENTS_1_1
100
AcDbLine
 62
7
  6
CONTINUOUS
 10
112.8446158393
 20
230.455
 11
111.2522495511
 21
230.4545482921
  0
LINE
  5
288
100
AcDbEntity
  8
00_COMPONENTS_1_1
100
AcDbLine
 62
7
  6
CONTINUOUS
 10
100.1955051986
 20
233.455
 11
101.7878714867
 21
233.4554517079
  0
LINE
  5
289
100
AcDbEntity
  8
00_COMPONENTS_1_1
100
AcDbLine
 62
7
  6
CONTINUOUS
 10
114.1637870703
 20
233.5597303896
 11
111.3238842379
 21
233.5592861081
  0
LINE
  5
28A
100
AcDbEntity
  8
0
100
AcDbLine
 62
7
  6
CONTINUOUS
 10
119.0200605189
 20
211.955
 11
94.0200605189
 21
211.955
  0
LINE
  5
28B
100
AcDbEntity
  8
0
100
AcDbLine
 62
7
  6
CONTINUOUS
 10
93.2213255692
 20
213.0036072285
 11
119.8187954687
 21
213.0036072285
  0
LINE
  5
28C
100
AcDbEntity
  8
0
100
AcDbLine
 62
7
  6
CONTINUOUS
 10
119.6324446154
 20
219.7536072285
 11
93.4076764225
 21
219.7536072285
  0
LINE
  5
28D
100
AcDbEntity
  8
0
100
AcDbLine
 62
7
  6
CONTINUOUS
 10
119.6263615331
 20
220.2050000135
 11
93.4137595048
 21
220.2049999939
  0
LINE
  5
28E
100
AcDbEntity
  8
00_COMPONENTS_1_1
100
AcDbLine
 62
7
  6
CONTINUOUS
 10
114.1113480119
 20
230.3921617663
 11
113.2407402952
 21
230.3921617663
  0
LINE
  5
28F
100
AcDbEntity
  8
00_COMPONENTS_1_1
100
AcDbLine
 62
7
  6
CONTINUOUS
 10
99.7993807427
 20
230.3921617663
 11
98.928773026
 21
230.3921617663
  0
LINE
  5
290
100
AcDbEntity
  8
00_COMPONENTS_1_1
100
AcDbLine
 62
7
  6
CONTINUOUS
 10
98.8249066922
 20
233.5178382337
 11
99.7993807427
 21
233.5178382337
  0
LINE
  5
291
100
AcDbEntity
  8
00_COMPONENTS_1_1
100
AcDbLine
 62
7
  6
CONTINUOUS
 10
113.2407402952
 20
233.5178382337
 11
114.2152143456
 21
233.5178382337
  0
LINE
  5
292
100
AcDbEntity
  8
0
100
AcDbLine
 62
7
  6
CONTINUOUS
 10
119.6263615331
 20
243.705
 11
93.4137595048
 21
243.705
  0
LINE
  5
293
100
AcDbEntity
  8
00_COMPONENTS_1_1
100
AcDbLine
 62
7
  6
CONTINUOUS
 10
111.3238842379
 20
230.3507138919
 11
114.1637870703
 21
230.3502696104
  0
LINE
  5
294
100
AcDbEntity
  8
00_COMPONENTS_1_1
100
AcDbLine
 62
7
  6
CONTINUOUS
 10
101.7162368
 20
233.5592861081
 11
98.8763339675
 21
233.5597303896
  0
LINE
  5
295
100
AcDbEntity
  8
00_COMPONENTS_1_1
100
AcDbLine
 62
7
  6
CONTINUOUS
 10
101.7878714867
 20
230.4545482921
 11
100.1955051986
 21
230.455
  0
LINE
  5
296
100
AcDbEntity
  8
00_COMPONENTS_1_1
100
AcDbLine
 62
7
  6
CONTINUOUS
 10
111.2522495512
 20
233.4554517079
 11
112.8446158393
 21
233.455
  0
LWPOLYLINE
  5
297
100
AcDbEntity
  8
00_COMPONENTS_1_1
100
AcDbPolyline
 62
7
  6
CONTINUOUS
 90
4
 70
0
 10
114.1113480119
 20
230.3921617663
 10
114.1637263417
 20
230.3919139036
 10
114.2001101923
 20
230.3912724156
 10
114.2130411238
 20
230.3903857965
  0
LINE
  5
298
100
AcDbEntity
  8
00_COMPONENTS_1_1
100
AcDbLine
 62
7
  6
CONTINUOUS
 10
106.5200605189
 20
228.58
 11
103.2988231543
 21
228.6362269073
  0
LINE
  5
299
100
AcDbEntity
  8
00_COMPONENTS_1_1
100
AcDbLine
 62
7
  6
CONTINUOUS
 10
106.5200605189
 20
228.7800272087
 11
103.3824220293
 21
228.8347676836
  0
LINE
  5
29A
100
AcDbEntity
  8
00_COMPONENTS_1_1
100
AcDbLine
 62
7
  6
CONTINUOUS
 10
103.4201167583
 20
228.9228288275
 11
106.5200605189
 21
228.8686897946
  0
LINE
  5
29B
100
AcDbEntity
  8
00_COMPONENTS_1_1
100
AcDbLine
 62
7
  6
CONTINUOUS
 10
106.520060519
 20
228.98
 11
103.4681552374
 21
229.0332712048
  0
LINE
  5
29C
100
AcDbEntity
  8
00_COMPONENTS_1_1
100
AcDbLine
 62
7
  6
CONTINUOUS
 10
103.4977606216
 20
229.1007444495
 11
106.520060519
 21
229.0479627999
  0
LINE
  5
29D
100
AcDbEntity
  8
00_COMPONENTS_1_1
100
AcDbLine
 62
7
  6
CONTINUOUS
 10
103.6011175241
 20
229.3309960379
 11
106.5200605189
 21
229.2800152351
  0
LINE
  5
29E
100
AcDbEntity
  8
00_COMPONENTS_1_1
100
AcDbLine
 62
7
  6
CONTINUOUS
 10
106.5200605189
 20
229.33
 11
103.4893957559
 21
229.3829004502
  0
LINE
  5
29F
100
AcDbEntity
  8
00_COMPONENTS_1_1
100
AcDbLine
 62
7
  6
CONTINUOUS
 10
107.6601230388
 20
235.3303537917
 11
106.5200605189
 21
235.3502640162
  0
LINE
  5
2A0
100
AcDbEntity
  8
00_COMPONENTS_1_1
100
AcDbLine
 62
7
  6
CONTINUOUS
 10
107.6224370388
 20
235.4008418427
 11
108.0983579852
 21
235.3925356885
  0
LINE
  5
2A1
100
AcDbEntity
  8
00_COMPONENTS_1_1
100
AcDbLine
 62
7
  6
CONTINUOUS
 10
105.1302372632
 20
235.3618571227
 11
104.8282952329
 21
235.37477657
  0
LINE
  5
2A2
100
AcDbEntity
  8
00_COMPONENTS_3
100
AcDbLine
 62
7
  6
CONTINUOUS
 10
722.5379954758
 20
201.0494673704
 11
723.5182144562
 21
200.961283206
  0
LINE
  5
2A3
100
AcDbEntity
  8
0
100
AcDbLine
 62
7
  6
CONTINUOUS
 10
93.4076764225
 20
894.1563927715
 11
93.2213255692
 21
900.9063927715
  0
LINE
  5
2A4
100
AcDbEntity
  8
0
100
AcDbLine
 62
7
  6
CONTINUOUS
 10
119.6324446154
 20
219.7536072285
 11
119.8187954687
 21
213.0036072285
  0
LINE
  5
2A5
100
AcDbEntity
  8
0
100
AcDbLine
 62
7
  6
CONTINUOUS
 10
119.6324446154
 20
869.7536072285
 11
119.8187954687
 21
863.0036072285
  0
LINE
  5
2A6
100
AcDbEntity
  8
0
100
AcDbLine
 62
7
  6
CONTINUOUS
 10
93.4137595048
 20
220.2049999939
 11
93.4137595048
 21
243.705
  0
LINE
  5
2A7
100
AcDbEntity
  8
0
100
AcDbLine
 62
7
  6
CONTINUOUS
 10
93.4137595048
 20
870.2049999939
 11
93.4137595048
 21
893.705
  0
LINE
  5
2A8
100
AcDbEntity
  8
0
100
AcDbLine
 62
7
  6
CONTINUOUS
 10
103.5450605189
 20
228.955
 11
103.5450605189
 21
234.955
  0
LINE
  5
2A9
100
AcDbEntity
  8
0
100
AcDbLine
 62
7
  6
CONTINUOUS
 10
103.5450605189
 20
878.955
 11
103.5450605189
 21
884.955
  0
LINE
  5
2AA
100
AcDbEntity
  8
0
100
AcDbLine
 62
7
  6
CONTINUOUS
 10
103.8450605189
 20
885.2253210851
 11
103.8450605189
 21
878.6846789148
  0
LINE
  5
2AB
100
AcDbEntity
  8
0
100
AcDbLine
 62
7
  6
CONTINUOUS
 10
103.8450605189
 20
235.2253210851
 11
103.8450605189
 21
228.6846789148
  0
LINE
  5
2AC
100
AcDbEntity
  8
00_COMPONENTS_1_1
100
AcDbLine
 62
7
  6
CONTINUOUS
 10
106.5200606996
 20
885.4522844245
 11
106.5200603382
 21
885.3502536634
  0
LINE
  5
2AD
100
AcDbEntity
  8
00_COMPONENTS_1_1
100
AcDbLine
 62
7
  6
CONTINUOUS
 10
106.5200602312
 20
228.5800055013
 11
106.5200607847
 21
229.2800304621
  0
LINE
  5
2AE
100
AcDbEntity
  8
00_COMPONENTS_1_1
100
AcDbLine
 62
7
  6
CONTINUOUS
 10
106.5200607847
 20
879.2800304621
 11
106.5200602312
 21
878.5800055013
  0
LINE
  5
2AF
100
AcDbEntity
  8
00_COMPONENTS_1_1
100
AcDbLine
 62
7
  6
CONTINUOUS
 10
106.5200606996
 20
235.4522844245
 11
106.5200603382
 21
235.3502536634
  0
LINE
  5
2B0
100
AcDbEntity
  8
0
100
AcDbLine
 62
7
  6
CONTINUOUS
 10
119.6263615331
 20
893.705
 11
119.6263615331
 21
870.2050000135
  0
LINE
  5
2B1
100
AcDbEntity
  8
0
100
AcDbLine
 62
7
  6
CONTINUOUS
 10
119.6263615331
 20
243.705
 11
119.6263615331
 21
220.2050000135
  0
LINE
  5
2B2
100
AcDbEntity
  8
0
100
AcDbLine
 62
7
  6
CONTINUOUS
 10
120.0200605189
 20
212.955
 11
120.0200605189
 21
250.9550002564
  0
LINE
  5
2B3
100
AcDbEntity
  8
0
100
AcDbLine
 62
7
  6
CONTINUOUS
 10
120.0200605189
 20
862.955
 11
120.0200605189
 21
900.9550002564
  0
LINE
  5
2B4
100
AcDbEntity
  8
0
100
AcDbLine
 62
7
  6
CONTINUOUS
 10
93.2213255692
 20
213.0036072285
 11
93.4076764225
 21
219.7536072285
  0
LINE
  5
2B5
100
AcDbEntity
  8
0
100
AcDbLine
 62
7
  6
CONTINUOUS
 10
119.8187954687
 20
900.9063927715
 11
119.6324446154
 21
894.1563927715
  0
LINE
  5
2B6
100
AcDbEntity
  8
0
100
AcDbLine
 62
7
  6
CONTINUOUS
 10
119.8187954687
 20
250.9063927715
 11
119.6324446154
 21
244.1563927715
  0
LWPOLYLINE
  5
2B7
100
AcDbEntity
  8
00_COMPONENTS_1_1
100
AcDbPolyline
 62
7
  6
CONTINUOUS
 90
4
 70
0
 10
98.8270799141
 20
230.3903857965
 10
98.8401422061
 20
230.3912762488
 10
98.8763501486
 20
230.3919134347
 10
98.9287730259
 20
230.3921617663
  0
LINE
  5
2B8
100
AcDbEntity
  8
00_COMPONENTS_1_1
100
AcDbLine
 62
7
  6
CONTINUOUS
 10
108.211825805
 20
235.37477657
 11
107.9098837746
 21
235.3618571227
  0
LINE
  5
2B9
100
AcDbEntity
  8
0
100
AcDbLine
 62
7
  6
CONTINUOUS
 10
93.4076764225
 20
244.1563927715
 11
119.6324446154
 21
244.1563927715
  0
LINE
  5
2BA
100
AcDbEntity
  8
0
100
AcDbLine
 62
7
  6
CONTINUOUS
 10
119.8187954687
 20
250.9063927715
 11
93.2213255692
 21
250.9063927715
  0
LINE
  5
2BB
100
AcDbEntity
  8
0
100
AcDbLine
 62
7
  6
CONTINUOUS
 10
94.0200605189
 20
251.955
 11
119.0200605189
 21
251.955
  0
LINE
  5
2BC
100
AcDbEntity
  8
00_COMPONENTS_3
100
AcDbLine
 62
7
  6
CONTINUOUS
 10
720.5392138217
 20
255.8544687043
 11
703.4705913714
 21
255.8544687043
  0
LINE
  5
2BD
100
AcDbEntity
  8
00_COMPONENTS_7
100
AcDbLine
 62
7
  6
CONTINUOUS
 10
720.3200605189
 20
256.255
 11
723.5200605189
 21
256.255
  0
LINE
  5
2BE
100
AcDbEntity
  8
00_COMPONENTS_7
100
AcDbLine
 62
7
  6
CONTINUOUS
 10
699.7200605189
 20
256.3638888889
 11
720.3200605189
 21
256.3638888889
  0
LINE
  5
2BF
100
AcDbEntity
  8
00_COMPONENTS_7
100
AcDbLine
 62
7
  6
CONTINUOUS
 10
699.7200605189
 20
256.555
 11
720.6458618339
 21
256.555
  0
LINE
  5
2C0
100
AcDbEntity
  8
00_COMPONENTS_3
100
AcDbLine
 62
7
  6
CONTINUOUS
 10
703.4705913714
 20
255.8544687043
 11
701.2681245043
 21
255.9335563966
  0
LWPOLYLINE
  5
2C1
100
AcDbEntity
  8
00_COMPONENTS_1_1
100
AcDbPolyline
 62
7
  6
CONTINUOUS
 90
4
 70
0
 10
105.0378338778
 20
235.3400930726
 10
105.0367005549
 20
235.3365779909
 10
105.0363467171
 20
235.3330726477
 10
105.0352133941
 20
235.3295575661
  0
LINE
  5
2C2
100
AcDbEntity
  8
00_COMPONENTS_7
100
AcDbLine
 62
7
  6
CONTINUOUS
 10
723.5200605189
 20
857.655
 11
722.6446052309
 21
857.3764471182
  0
LINE
  5
2C3
100
AcDbEntity
  8
00_COMPONENTS_7
100
AcDbLine
 62
7
  6
CONTINUOUS
 10
723.5200605189
 20
256.2549999999
 11
722.6446038471
 21
256.5335533221
  0
LWPOLYLINE
  5
2C4
100
AcDbEntity
  8
00_COMPONENTS_1_1
100
AcDbPolyline
 62
7
  6
CONTINUOUS
 90
4
 70
0
 10
108.0049076437
 20
885.3295575661
 10
108.0037743208
 20
885.3330726477
 10
108.003420483
 20
885.3365779909
 10
108.00228716
 20
885.3400930726
  0
LINE
  5
2C5
100
AcDbEntity
  8
00_COMPONENTS_3
100
AcDbLine
 62
7
  6
CONTINUOUS
 10
88.5218665527
 20
139.9786519478
 11
88.2600605189
 21
139.455
  0
LINE
  5
2C6
100
AcDbEntity
  8
00_COMPONENTS_1_1
100
AcDbLine
 62
7
  6
CONTINUOUS
 10
102.7542626783
 20
230.6824468091
 11
105.4562093353
 21
235.36565204
  0
LINE
  5
2C7
100
AcDbEntity
  8
00_COMPONENTS_1_1
100
AcDbLine
 62
7
  6
CONTINUOUS
 10
102.4436349427
 20
230.8444237886
 11
105.0378438219
 21
235.3395233775
  0
LINE
  5
2C8
100
AcDbEntity
  8
00_COMPONENTS_1_1
100
AcDbLine
 62
7
  6
CONTINUOUS
 10
102.7673019022
 20
230.8050314072
 11
105.4177215666
 21
235.3986896018
  0
LINE
  5
2C9
100
AcDbEntity
  8
00_COMPONENTS_1_1
100
AcDbLine
 62
7
  6
CONTINUOUS
 10
102.0160859511
 20
230.9038872125
 11
104.6225355832
 21
235.4183904026
  0
LINE
  5
2CA
100
AcDbEntity
  8
00_COMPONENTS_1_1
100
AcDbLine
 62
7
  6
CONTINUOUS
 10
102.2293263612
 20
230.873230437
 11
104.8282952329
 21
235.37477657
  0
LINE
  5
2CB
100
AcDbEntity
  8
00_COMPONENTS_1_1
100
AcDbLine
 62
7
  6
CONTINUOUS
 10
104.9417389491
 20
235.3939165812
 11
102.3242086812
 21
230.8602211667
  0
LINE
  5
2CC
100
AcDbEntity
  8
00_COMPONENTS_1_1
100
AcDbLine
 62
7
  6
CONTINUOUS
 10
105.1302372632
 20
235.3618571227
 11
102.5167041874
 21
230.8350850481
  0
LINE
  5
2CD
100
AcDbEntity
  8
00_COMPONENTS_1_1
100
AcDbLine
 62
7
  6
CONTINUOUS
 10
105.4117617835
 20
235.382373606
 11
102.7673019022
 21
230.8050314072
  0
LINE
  5
2CE
100
AcDbEntity
  8
00_COMPONENTS_1_1
100
AcDbLine
 62
7
  6
CONTINUOUS
 10
105.4487212323
 20
235.3460895816
 11
102.7542626783
 21
230.6824468091
  0
LINE
  5
2CF
100
AcDbEntity
  8
00_COMPONENTS_7
100
AcDbLine
 62
7
  6
CONTINUOUS
 10
721.0215834514
 20
970.955
 11
720.1461267795
 21
970.0795433281
  0
LINE
  5
2D0
100
AcDbEntity
  8
00_COMPONENTS_7
100
AcDbLine
 62
7
  6
CONTINUOUS
 10
722.6446038471
 20
967.5810662606
 11
723.5200605189
 21
968.4565229324
  0
LINE
  5
2D1
100
AcDbEntity
  8
00_COMPONENTS_7
100
AcDbLine
 62
7
  6
CONTINUOUS
 10
720.1461267795
 20
143.8304566718
 11
721.0215834514
 21
142.955
  0
LINE
  5
2D2
100
AcDbEntity
  8
00_COMPONENTS_7
100
AcDbLine
 62
7
  6
CONTINUOUS
 10
723.5200605189
 20
145.4534770675
 11
722.6446038471
 21
146.3289337394
  0
LINE
  5
2D3
100
AcDbEntity
  8
00_COMPONENTS_1_1
100
AcDbLine
 62
7
  6
CONTINUOUS
 10
107.5824843447
 20
885.3648279546
 11
110.2858583595
 21
880.6824468091
  0
LINE
  5
2D4
100
AcDbEntity
  8
00_COMPONENTS_1_1
100
AcDbLine
 62
7
  6
CONTINUOUS
 10
107.6211018732
 20
885.3979404332
 11
110.2728191357
 21
880.8050314072
  0
LINE
  5
2D5
100
AcDbEntity
  8
00_COMPONENTS_1_1
100
AcDbLine
 62
7
  6
CONTINUOUS
 10
110.5234168505
 20
880.8350850481
 11
107.9098837746
 21
885.3618571227
  0
LINE
  5
2D6
100
AcDbEntity
  8
00_COMPONENTS_1_1
100
AcDbLine
 62
7
  6
CONTINUOUS
 10
110.7159123567
 20
880.8602211667
 11
108.0983820888
 21
885.3939165812
  0
LINE
  5
2D7
100
AcDbEntity
  8
00_COMPONENTS_1_1
100
AcDbLine
 62
7
  6
CONTINUOUS
 10
108.211825805
 20
885.37477657
 11
110.8107946767
 21
880.873230437
  0
LINE
  5
2D8
100
AcDbEntity
  8
00_COMPONENTS_1_1
100
AcDbLine
 62
7
  6
CONTINUOUS
 10
108.417585444
 20
885.4183904211
 11
111.0240353743
 21
880.9038867148
  0
LINE
  5
2D9
100
AcDbEntity
  8
00_COMPONENTS_1_1
100
AcDbLine
 62
7
  6
CONTINUOUS
 10
108.002277216
 20
885.3395233775
 11
110.5964860952
 21
880.8444237886
  0
LINE
  5
2DA
100
AcDbEntity
  8
00_COMPONENTS_3
100
AcDbLine
 62
7
  6
CONTINUOUS
 10
88.5218665527
 20
973.9313480521
 11
88.2600605189
 21
974.455
  0
LINE
  5
2DB
100
AcDbEntity
  8
00_COMPONENTS_1_1
100
AcDbLine
 62
7
  6
CONTINUOUS
 10
101.7878745767
 20
230.4536426189
 11
101.7162397378
 21
230.351600206
  0
LINE
  5
2DC
100
AcDbEntity
  8
00_COMPONENTS_1_1
100
AcDbLine
 62
7
  6
CONTINUOUS
 10
111.2522464612
 20
233.4563573811
 11
111.3238813001
 21
233.558399794
  0
LINE
  5
2DD
100
AcDbEntity
  8
00_COMPONENTS_1_1
100
AcDbLine
 62
7
  6
CONTINUOUS
 10
101.7162397378
 20
883.558399794
 11
101.7878745767
 21
883.4563573811
  0
LINE
  5
2DE
100
AcDbEntity
  8
00_COMPONENTS_1_1
100
AcDbLine
 62
7
  6
CONTINUOUS
 10
111.3238813001
 20
880.351600206
 11
111.2522464612
 21
880.4536426189
  0
LINE
  5
2DF
100
AcDbEntity
  8
00_COMPONENTS_3
100
AcDbLine
 62
7
420
3604575
  6
CONTINUOUS
 10
406.5200605189
 20
980.4551261619
 11
406.5200605189
 21
133.4548738382
  0
LINE
  5
2E0
100
AcDbEntity
  8
00_COMPONENTS_3
100
AcDbLine
 62
7
420
3604575
  6
CONTINUOUS
 10
409.5200605189
 20
980.4551261619
 11
409.5200605189
 21
133.4548738382
  0
LINE
  5
2E1
100
AcDbEntity
  8
00_COMPONENTS_3
100
AcDbLine
 62
7
420
48875
  6
CONTINUOUS
 10
88.2600605189
 20
556.955
 11
724.7800605189
 21
556.955
  0
LINE
  5
2E2
100
AcDbEntity
  8
00_COMPONENTS_7
100
AcDbLine
 62
7
  6
CONTINUOUS
 10
90.3955171908
 20
146.3289337394
 11
89.5200605189
 21
145.4534770675
  0
LINE
  5
2E3
100
AcDbEntity
  8
00_COMPONENTS_7
100
AcDbLine
 62
7
  6
CONTINUOUS
 10
92.0185375865
 20
142.955
 11
92.8939942583
 21
143.8304566718
  0
LINE
  5
2E4
100
AcDbEntity
  8
00_COMPONENTS_1_1
100
AcDbLine
 62
7
  6
CONTINUOUS
 10
98.8763339675
 20
233.5597303896
 11
98.8249066922
 21
233.5178382337
  0
LINE
  5
2E5
100
AcDbEntity
  8
00_COMPONENTS_1_1
100
AcDbLine
 62
7
  6
CONTINUOUS
 10
114.1637870703
 20
230.3502696104
 11
114.2130411238
 21
230.3903857965
  0
LINE
  5
2E6
100
AcDbEntity
  8
00_COMPONENTS_1_1
100
AcDbLine
 62
7
  6
CONTINUOUS
 10
98.8270799141
 20
880.3903857965
 11
98.8763339675
 21
880.3502696104
  0
LINE
  5
2E7
100
AcDbEntity
  8
00_COMPONENTS_1_1
100
AcDbLine
 62
7
  6
CONTINUOUS
 10
114.2152143456
 20
883.5178382337
 11
114.1637870703
 21
883.5597303896
  0
LINE
  5
2E8
100
AcDbEntity
  8
00_COMPONENTS_7
100
AcDbLine
 62
7
  6
CONTINUOUS
 10
89.5200605189
 20
968.4565229324
 11
90.3955171908
 21
967.5810662606
  0
LINE
  5
2E9
100
AcDbEntity
  8
00_COMPONENTS_7
100
AcDbLine
 62
7
  6
CONTINUOUS
 10
92.8939942583
 20
970.0795433281
 11
92.0185375865
 21
970.955
  0
LINE
  5
2EA
100
AcDbEntity
  8
00_COMPONENTS_3
100
AcDbLine
 62
7
  6
CONTINUOUS
 10
724.5182544852
 20
973.9313480521
 11
724.7800605189
 21
974.455
  0
LINE
  5
2EB
100
AcDbEntity
  8
00_COMPONENTS_3
100
AcDbLine
 62
7
  6
CONTINUOUS
 10
724.5182544852
 20
139.9786519478
 11
724.7800605189
 21
139.455
  0
LINE
  5
2EC
100
AcDbEntity
  8
0
100
AcDbLine
 62
7
  6
CONTINUOUS
 10
110.6897416572
 20
231.2735425874
 11
105.0253793807
 21
228.0032215023
  0
LINE
  5
2ED
100
AcDbEntity
  8
0
100
AcDbLine
 62
7
  6
CONTINUOUS
 10
105.4094843076
 20
227.8785744237
 11
110.6056367303
 21
230.8785744237
  0
LINE
  5
2EE
100
AcDbEntity
  8
0
100
AcDbLine
 62
7
  6
CONTINUOUS
 10
105.0253793807
 20
885.9067784977
 11
110.6897416572
 21
882.6364574125
  0
LINE
  5
2EF
100
AcDbEntity
  8
0
100
AcDbLine
 62
7
  6
CONTINUOUS
 10
110.6056367303
 20
883.0314255763
 11
105.4094843076
 21
886.0314255763
  0
LINE
  5
2F0
100
AcDbEntity
  8
00_COMPONENTS_7
100
AcDbLine
 62
7
  6
CONTINUOUS
 10
659.5200605189
 20
155.955
 11
659.5200605189
 21
168.955
  0
LINE
  5
2F1
100
AcDbEntity
  8
00_COMPONENTS_7
100
AcDbLine
 62
7
  6
CONTINUOUS
 10
696.5200605189
 20
168.955
 11
696.5200605189
 21
155.955
  0
LINE
  5
2F2
100
AcDbEntity
  8
00_COMPONENTS_7
100
AcDbLine
 62
7
  6
CONTINUOUS
 10
699.7200605189
 20
913.555
 11
699.7200605189
 21
857.355
  0
LINE
  5
2F3
100
AcDbEntity
  8
00_COMPONENTS_7
100
AcDbLine
 62
7
  6
CONTINUOUS
 10
699.7200605189
 20
200.355
 11
699.7200605189
 21
256.555
  0
LINE
  5
2F4
100
AcDbEntity
  8
00_COMPONENTS_3
100
AcDbLine
 62
7
  6
CONTINUOUS
 10
701.2681245043
 20
912.9335563966
 11
701.2681245043
 21
857.9764436034
  0
LINE
  5
2F5
100
AcDbEntity
  8
00_COMPONENTS_3
100
AcDbLine
 62
7
  6
CONTINUOUS
 10
701.2681245043
 20
255.9335563966
 11
701.2681245043
 21
200.9764436034
  0
LINE
  5
2F6
100
AcDbEntity
  8
00_COMPONENTS_3
100
AcDbLine
 62
7
  6
CONTINUOUS
 10
703.4705913713
 20
912.8544687044
 11
703.4705913713
 21
858.0555312956
  0
LINE
  5
2F7
100
AcDbEntity
  8
00_COMPONENTS_3
100
AcDbLine
 62
7
  6
CONTINUOUS
 10
703.4705913713
 20
201.0555312956
 11
703.4705913713
 21
255.8544687044
  0
LINE
  5
2F8
100
AcDbEntity
  8
00_COMPONENTS_3
100
AcDbLine
 62
7
  6
CONTINUOUS
 10
719.6916333942
 20
140.0135620777
 11
719.6916333942
 21
142.955
  0
LINE
  5
2F9
100
AcDbEntity
  8
00_COMPONENTS_3
100
AcDbLine
 62
7
  6
CONTINUOUS
 10
719.6916333942
 20
200.5461111111
 11
719.6916333942
 21
200.955
  0
LINE
  5
2FA
100
AcDbEntity
  8
00_COMPONENTS_3
100
AcDbLine
 62
7
  6
CONTINUOUS
 10
719.6916333942
 20
255.955
 11
719.6916333942
 21
256.255
  0
LINE
  5
2FB
100
AcDbEntity
  8
00_COMPONENTS_3
100
AcDbLine
 62
7
  6
CONTINUOUS
 10
719.6916333942
 20
857.5461111111
 11
719.6916333942
 21
857.955
  0
LINE
  5
2FC
100
AcDbEntity
  8
00_COMPONENTS_3
100
AcDbLine
 62
7
  6
CONTINUOUS
 10
719.6916333942
 20
912.955
 11
719.6916333942
 21
913.3638888889
  0
LINE
  5
2FD
100
AcDbEntity
  8
00_COMPONENTS_3
100
AcDbLine
 62
7
  6
CONTINUOUS
 10
719.6916333942
 20
970.955
 11
719.6916333942
 21
973.8964379223
  0
LINE
  5
2FE
100
AcDbEntity
  8
00_COMPONENTS_7
100
AcDbLine
 62
7
  6
CONTINUOUS
 10
720.1461267795
 20
143.8304566719
 11
720.1461267795
 21
145.8292383259
  0
LINE
  5
2FF
100
AcDbEntity
  8
00_COMPONENTS_7
100
AcDbLine
 62
7
  6
CONTINUOUS
 10
720.1461267795
 20
968.0807616741
 11
720.1461267795
 21
970.0795433281
  0
LINE
  5
300
100
AcDbEntity
  8
00_COMPONENTS_7
100
AcDbLine
 62
7
  6
CONTINUOUS
 10
720.3200605189
 20
857.655
 11
720.3200605189
 21
857.5461111111
  0
LINE
  5
301
100
AcDbEntity
  8
00_COMPONENTS_7
100
AcDbLine
 62
7
  6
CONTINUOUS
 10
720.3200605189
 20
256.3638888889
 11
720.3200605189
 21
256.255
  0
LINE
  5
302
100
AcDbEntity
  8
00_COMPONENTS_7
100
AcDbLine
 62
7
  6
CONTINUOUS
 10
720.3200605189
 20
200.5461111111
 11
720.3200605189
 21
200.655
  0
LINE
  5
303
100
AcDbEntity
  8
00_COMPONENTS_7
100
AcDbLine
 62
7
  6
CONTINUOUS
 10
720.3200605189
 20
913.255
 11
720.3200605189
 21
913.3638888889
  0
LINE
  5
304
100
AcDbEntity
  8
00_COMPONENTS_3
100
AcDbLine
 62
7
  6
CONTINUOUS
 10
720.5392138217
 20
201.0555312956
 11
720.5392138217
 21
255.8544687044
  0
LINE
  5
305
100
AcDbEntity
  8
00_COMPONENTS_3
100
AcDbLine
 62
7
  6
CONTINUOUS
 10
720.5392138217
 20
858.0555312956
 11
720.5392138217
 21
912.8544687044
  0
LINE
  5
306
100
AcDbEntity
  8
00_COMPONENTS_7
100
AcDbLine
 62
7
  6
CONTINUOUS
 10
720.645822193
 20
146.3289337394
 11
720.645822193
 21
200.355
  0
LINE
  5
307
100
AcDbEntity
  8
00_COMPONENTS_7
100
AcDbLine
 62
7
  6
CONTINUOUS
 10
720.645822193
 20
256.555
 11
720.645822193
 21
857.355
  0
LINE
  5
308
100
AcDbEntity
  8
00_COMPONENTS_7
100
AcDbLine
 62
7
  6
CONTINUOUS
 10
720.645822193
 20
913.555
 11
720.645822193
 21
967.5810662606
  0
LINE
  5
309
100
AcDbEntity
  8
00_COMPONENTS_3
100
AcDbLine
 62
7
  6
CONTINUOUS
 10
722.5200605189
 20
973.9313480522
 11
722.5200605189
 21
970.3344417606
  0
LINE
  5
30A
100
AcDbEntity
  8
00_COMPONENTS_3
100
AcDbLine
 62
7
  6
CONTINUOUS
 10
722.5200605189
 20
913.2549999999
 11
722.5200605189
 21
912.948716794
  0
LINE
  5
30B
100
AcDbEntity
  8
00_COMPONENTS_3
100
AcDbLine
 62
7
  6
CONTINUOUS
 10
722.5200605189
 20
857.961283206
 11
722.5200605189
 21
857.655
  0
LINE
  5
30C
100
AcDbEntity
  8
00_COMPONENTS_3
100
AcDbLine
 62
7
  6
CONTINUOUS
 10
722.5200605189
 20
256.255
 11
722.5200605189
 21
255.948716794
  0
LINE
  5
30D
100
AcDbEntity
  8
00_COMPONENTS_3
100
AcDbLine
 62
7
  6
CONTINUOUS
 10
722.5200605189
 20
200.961283206
 11
722.5200605189
 21
200.655
  0
LINE
  5
30E
100
AcDbEntity
  8
00_COMPONENTS_3
100
AcDbLine
 62
7
  6
CONTINUOUS
 10
722.5200605189
 20
143.5755582394
 11
722.5200605189
 21
139.9786519478
  0
LINE
  5
30F
100
AcDbEntity
  8
00_COMPONENTS_3
100
AcDbLine
 62
7
  6
CONTINUOUS
 10
722.5379954758
 20
912.8605326296
 11
722.5379954758
 21
858.0494673704
  0
LINE
  5
310
100
AcDbEntity
  8
00_COMPONENTS_3
100
AcDbLine
 62
7
  6
CONTINUOUS
 10
722.5379954758
 20
255.8605326296
 11
722.5379954758
 21
201.0494673704
  0
LINE
  5
311
100
AcDbEntity
  8
00_COMPONENTS_7
100
AcDbLine
 62
7
  6
CONTINUOUS
 10
722.6446038471
 20
967.5810662606
 11
722.6446038471
 21
913.5335533221
  0
LINE
  5
312
100
AcDbEntity
  8
00_COMPONENTS_7
100
AcDbLine
 62
7
  6
CONTINUOUS
 10
722.6446038471
 20
857.3764466779
 11
722.6446038471
 21
256.5335533221
  0
LINE
  5
313
100
AcDbEntity
  8
00_COMPONENTS_7
100
AcDbLine
 62
7
  6
CONTINUOUS
 10
722.6446038471
 20
200.3764466779
 11
722.6446038471
 21
146.3289337394
  0
LINE
  5
314
100
AcDbEntity
  8
00_COMPONENTS_3
100
AcDbLine
 62
7
  6
CONTINUOUS
 10
723.5182144561
 20
912.948716794
 11
723.5182144561
 21
857.961283206
  0
LINE
  5
315
100
AcDbEntity
  8
00_COMPONENTS_3
100
AcDbLine
 62
7
  6
CONTINUOUS
 10
723.5182144561
 20
200.961283206
 11
723.5182144561
 21
255.948716794
  0
LINE
  5
316
100
AcDbEntity
  8
00_COMPONENTS_7
100
AcDbLine
 62
7
  6
CONTINUOUS
 10
723.5200605189
 20
968.4565229324
 11
723.5200605189
 21
913.2549999999
  0
LINE
  5
317
100
AcDbEntity
  8
00_COMPONENTS_7
100
AcDbLine
 62
7
  6
CONTINUOUS
 10
723.5200605189
 20
857.655
 11
723.5200605189
 21
256.2549999999
  0
LINE
  5
318
100
AcDbEntity
  8
00_COMPONENTS_7
100
AcDbLine
 62
7
  6
CONTINUOUS
 10
723.5200605189
 20
200.655
 11
723.5200605189
 21
145.4534770675
  0
LINE
  5
319
100
AcDbEntity
  8
00_COMPONENTS_3
100
AcDbLine
 62
7
420
24575
  6
CONTINUOUS
 10
724.4737474594
 20
136.7153244697
 11
724.4737474594
 21
133.7613130595
  0
LINE
  5
31A
100
AcDbEntity
  8
00_COMPONENTS_3
100
AcDbLine
 62
7
420
24575
  6
CONTINUOUS
 10
724.4737474594
 20
977.1946191709
 11
724.4737474594
 21
980.1486869405
  0
LINE
  5
31B
100
AcDbEntity
  8
00_COMPONENTS_3
100
AcDbLine
 62
7
  6
CONTINUOUS
 10
724.5182544852
 20
139.9786519478
 11
724.5182544852
 21
973.9313480521
  0
LINE
  5
31C
100
AcDbEntity
  8
00_COMPONENTS_3
100
AcDbLine
 62
7
  6
CONTINUOUS
 10
724.7800605189
 20
976.4551523077
 11
724.7800605189
 21
974.455
  0
LINE
  5
31D
100
AcDbEntity
  8
00_COMPONENTS_3
100
AcDbLine
 62
7
420
48875
  6
CONTINUOUS
 10
724.7800605189
 20
137.4548476923
 11
724.7800605189
 21
133.455
  0
LINE
  5
31E
100
AcDbEntity
  8
00_COMPONENTS_3
100
AcDbLine
 62
7
  6
CONTINUOUS
 10
724.7800605189
 20
137.4548476923
 11
724.7800605189
 21
139.455
  0
LINE
  5
31F
100
AcDbEntity
  8
00_COMPONENTS_3
100
AcDbLine
 62
7
420
48875
  6
CONTINUOUS
 10
724.7800605189
 20
139.455
 11
724.7800605189
 21
974.455
  0
LINE
  5
320
100
AcDbEntity
  8
00_COMPONENTS_3
100
AcDbLine
 62
7
420
48875
  6
CONTINUOUS
 10
724.7800605189
 20
976.4551523077
 11
724.7800605189
 21
980.455
  0
LINE
  5
321
100
AcDbEntity
  8
00_COMPONENTS_3
100
AcDbLine
 62
7
  6
CONTINUOUS
 10
701.2681245043
 20
857.9764436034
 11
703.4705913714
 21
858.0555312956
  0
LINE
  5
322
100
AcDbEntity
  8
00_COMPONENTS_7
100
AcDbLine
 62
7
  6
CONTINUOUS
 10
699.7200605189
 20
857.355
 11
720.645822193
 21
857.355
  0
LINE
  5
323
100
AcDbEntity
  8
00_COMPONENTS_7
100
AcDbLine
 62
7
  6
CONTINUOUS
 10
699.7200605189
 20
857.5461111111
 11
720.3200605189
 21
857.5461111111
  0
LINE
  5
324
100
AcDbEntity
  8
00_COMPONENTS_7
100
AcDbLine
 62
7
  6
CONTINUOUS
 10
720.3200605189
 20
857.655
 11
723.5200605189
 21
857.655
  0
LINE
  5
325
100
AcDbEntity
  8
00_COMPONENTS_3
100
AcDbLine
 62
7
  6
CONTINUOUS
 10
720.5392138217
 20
858.0555312956
 11
703.4705913713
 21
858.0555312956
  0
LINE
  5
326
100
AcDbEntity
  8
0
100
AcDbLine
 62
7
  6
CONTINUOUS
 10
119.0200605189
 20
861.955
 11
94.0200605189
 21
861.955
  0
LINE
  5
327
100
AcDbEntity
  8
0
100
AcDbLine
 62
7
  6
CONTINUOUS
 10
93.2213255692
 20
863.0036072285
 11
119.8187954687
 21
863.0036072285
  0
LINE
  5
328
100
AcDbEntity
  8
0
100
AcDbLine
 62
7
  6
CONTINUOUS
 10
119.6324446154
 20
869.7536072285
 11
93.4076764225
 21
869.7536072285
  0
LINE
  5
329
100
AcDbEntity
  8
0
100
AcDbLine
 62
7
  6
CONTINUOUS
 10
119.6263615331
 20
870.2050000135
 11
93.4137595048
 21
870.2049999939
  0
LWPOLYLINE
  5
32A
100
AcDbEntity
  8
00_COMPONENTS_1_1
100
AcDbPolyline
 62
7
  6
CONTINUOUS
 90
4
 70
0
 10
114.1113480119
 20
880.3921617663
 10
114.1637263417
 20
880.3919139036
 10
114.2001101923
 20
880.3912724156
 10
114.2130411238
 20
880.3903857965
  0
LINE
  5
32B
100
AcDbEntity
  8
00_COMPONENTS_1_1
100
AcDbLine
 62
7
  6
CONTINUOUS
 10
106.5200605189
 20
878.58
 11
103.2988231543
 21
878.6362269073
  0
LINE
  5
32C
100
AcDbEntity
  8
00_COMPONENTS_1_1
100
AcDbLine
 62
7
  6
CONTINUOUS
 10
106.5200605189
 20
878.7800272087
 11
103.3824220293
 21
878.8347676836
  0
LINE
  5
32D
100
AcDbEntity
  8
00_COMPONENTS_1_1
100
AcDbLine
 62
7
  6
CONTINUOUS
 10
103.4201167583
 20
878.9228288275
 11
106.5200605189
 21
878.8686897946
  0
LINE
  5
32E
100
AcDbEntity
  8
00_COMPONENTS_1_1
100
AcDbLine
 62
7
  6
CONTINUOUS
 10
106.520060519
 20
878.98
 11
103.4681552374
 21
879.0332712048
  0
LINE
  5
32F
100
AcDbEntity
  8
00_COMPONENTS_1_1
100
AcDbLine
 62
7
  6
CONTINUOUS
 10
103.4977606216
 20
879.1007444495
 11
106.520060519
 21
879.0479627999
  0
LINE
  5
330
100
AcDbEntity
  8
00_COMPONENTS_1_1
100
AcDbLine
 62
7
  6
CONTINUOUS
 10
103.6011175241
 20
879.3309960379
 11
106.5200605189
 21
879.2800152351
  0
LINE
  5
331
100
AcDbEntity
  8
00_COMPONENTS_1_1
100
AcDbLine
 62
7
  6
CONTINUOUS
 10
106.5200605189
 20
879.33
 11
103.4893957559
 21
879.3829004502
  0
LINE
  5
332
100
AcDbEntity
  8
00_COMPONENTS_1_1
100
AcDbLine
 62
7
  6
CONTINUOUS
 10
105.1302372632
 20
885.3618571227
 11
104.8282952329
 21
885.37477657
  0
LINE
  5
333
100
AcDbEntity
  8
00_COMPONENTS_3
100
AcDbLine
 62
7
  6
CONTINUOUS
 10
723.5182144562
 20
912.948716794
 11
722.5379954758
 21
912.8605326296
  0
LWPOLYLINE
  5
334
100
AcDbEntity
  8
00_COMPONENTS_1_1
100
AcDbPolyline
 62
7
  6
CONTINUOUS
 90
4
 70
0
 10
98.8270799141
 20
880.3903857965
 10
98.8401422061
 20
880.3912762488
 10
98.8763501486
 20
880.3919134347
 10
98.9287730259
 20
880.3921617663
  0
LINE
  5
335
100
AcDbEntity
  8
00_COMPONENTS_1_1
100
AcDbLine
 62
7
  6
CONTINUOUS
 10
108.211825805
 20
885.37477657
 11
107.9098837746
 21
885.3618571227
  0
LINE
  5
336
100
AcDbEntity
  8
00_COMPONENTS_1_1
100
AcDbLine
 62
7
  6
CONTINUOUS
 10
106.5200608067
 20
878.5800055013
 11
109.7412984532
 21
878.6362269173
  0
LINE
  5
337
100
AcDbEntity
  8
00_COMPONENTS_1_1
100
AcDbLine
 62
7
  6
CONTINUOUS
 10
109.6576990085
 20
878.8347676836
 11
106.5200605189
 21
878.7800272087
  0
LINE
  5
338
100
AcDbEntity
  8
00_COMPONENTS_1_1
100
AcDbLine
 62
7
  6
CONTINUOUS
 10
106.5200605189
 20
878.8686897946
 11
109.6200042796
 21
878.9228288275
  0
LINE
  5
339
100
AcDbEntity
  8
00_COMPONENTS_1_1
100
AcDbLine
 62
7
  6
CONTINUOUS
 10
106.5200607183
 20
878.9800114272
 11
109.5719665985
 21
879.0332712188
  0
LINE
  5
33A
100
AcDbEntity
  8
00_COMPONENTS_1_1
100
AcDbLine
 62
7
  6
CONTINUOUS
 10
106.520060519
 20
879.0479627999
 11
109.5423604163
 21
879.1007444495
  0
LINE
  5
33B
100
AcDbEntity
  8
00_COMPONENTS_1_1
100
AcDbLine
 62
7
  6
CONTINUOUS
 10
109.4389617773
 20
879.330949611
 11
106.5200605189
 21
879.28
  0
LINE
  5
33C
100
AcDbEntity
  8
00_COMPONENTS_1_1
100
AcDbLine
 62
7
  6
CONTINUOUS
 10
109.550725282
 20
879.3829004502
 11
106.5200605189
 21
879.33
  0
LINE
  5
33D
100
AcDbEntity
  8
00_COMPONENTS_1_1
100
AcDbLine
 62
7
  6
CONTINUOUS
 10
106.5200605189
 20
885.3502640162
 11
105.3799979991
 21
885.3303537917
  0
LINE
  5
33E
100
AcDbEntity
  8
00_COMPONENTS_1_1
100
AcDbLine
 62
7
  6
CONTINUOUS
 10
98.8763339675
 20
880.3502696104
 11
101.7162368
 21
880.3507138919
  0
LINE
  5
33F
100
AcDbEntity
  8
00_COMPONENTS_1_1
100
AcDbLine
 62
7
  6
CONTINUOUS
 10
112.8446158393
 20
880.455
 11
111.2522495511
 21
880.4545482921
  0
LINE
  5
340
100
AcDbEntity
  8
00_COMPONENTS_1_1
100
AcDbLine
 62
7
  6
CONTINUOUS
 10
100.1955051986
 20
883.455
 11
101.7878714867
 21
883.4554517079
  0
LINE
  5
341
100
AcDbEntity
  8
00_COMPONENTS_1_1
100
AcDbLine
 62
7
  6
CONTINUOUS
 10
114.1637870703
 20
883.5597303896
 11
111.3238842379
 21
883.5592861081
  0
LINE
  5
342
100
AcDbEntity
  8
00_COMPONENTS_1_1
100
AcDbLine
 62
7
  6
CONTINUOUS
 10
114.1113480119
 20
880.3921617663
 11
113.2407402952
 21
880.3921617663
  0
LINE
  5
343
100
AcDbEntity
  8
00_COMPONENTS_1_1
100
AcDbLine
 62
7
  6
CONTINUOUS
 10
99.7993807427
 20
880.3921617663
 11
98.928773026
 21
880.3921617663
  0
LINE
  5
344
100
AcDbEntity
  8
00_COMPONENTS_1_1
100
AcDbLine
 62
7
  6
CONTINUOUS
 10
98.8249066922
 20
883.5178382337
 11
99.7993807427
 21
883.5178382337
  0
LINE
  5
345
100
AcDbEntity
  8
00_COMPONENTS_1_1
100
AcDbLine
 62
7
  6
CONTINUOUS
 10
113.2407402952
 20
883.5178382337
 11
114.2152143456
 21
883.5178382337
  0
LINE
  5
346
100
AcDbEntity
  8
0
100
AcDbLine
 62
7
  6
CONTINUOUS
 10
119.6263615331
 20
893.705
 11
93.4137595048
 21
893.705
  0
LINE
  5
347
100
AcDbEntity
  8
0
100
AcDbLine
 62
7
  6
CONTINUOUS
 10
93.4076764225
 20
894.1563927715
 11
119.6324446154
 21
894.1563927715
  0
LINE
  5
348
100
AcDbEntity
  8
0
100
AcDbLine
 62
7
  6
CONTINUOUS
 10
119.8187954687
 20
900.9063927715
 11
93.2213255692
 21
900.9063927715
  0
LINE
  5
349
100
AcDbEntity
  8
0
100
AcDbLine
 62
7
  6
CONTINUOUS
 10
94.0200605189
 20
901.955
 11
119.0200605189
 21
901.955
  0
LINE
  5
34A
100
AcDbEntity
  8
00_COMPONENTS_3
100
AcDbLine
 62
7
  6
CONTINUOUS
 10
720.5392138217
 20
912.8544687043
 11
703.4705913714
 21
912.8544687043
  0
LINE
  5
34B
100
AcDbEntity
  8
00_COMPONENTS_7
100
AcDbLine
 62
7
  6
CONTINUOUS
 10
720.3200605189
 20
913.255
 11
723.5200605189
 21
913.255
  0
LINE
  5
34C
100
AcDbEntity
  8
00_COMPONENTS_7
100
AcDbLine
 62
7
  6
CONTINUOUS
 10
699.7200605189
 20
913.3638888889
 11
720.3200605189
 21
913.3638888889
  0
LINE
  5
34D
100
AcDbEntity
  8
00_COMPONENTS_7
100
AcDbLine
 62
7
  6
CONTINUOUS
 10
699.7200605189
 20
913.555
 11
720.6458618339
 21
913.555
  0
LINE
  5
34E
100
AcDbEntity
  8
00_COMPONENTS_1_1
100
AcDbLine
 62
7
  6
CONTINUOUS
 10
111.3238842379
 20
880.3507138919
 11
114.1637870703
 21
880.3502696104
  0
LINE
  5
34F
100
AcDbEntity
  8
00_COMPONENTS_1_1
100
AcDbLine
 62
7
  6
CONTINUOUS
 10
101.7162368
 20
883.5592861081
 11
98.8763339675
 21
883.5597303896
  0
LINE
  5
350
100
AcDbEntity
  8
00_COMPONENTS_1_1
100
AcDbLine
 62
7
  6
CONTINUOUS
 10
101.7878714867
 20
880.4545482921
 11
100.1955051986
 21
880.455
  0
LINE
  5
351
100
AcDbEntity
  8
00_COMPONENTS_1_1
100
AcDbLine
 62
7
  6
CONTINUOUS
 10
111.2522495512
 20
883.4554517079
 11
112.8446158393
 21
883.455
  0
LINE
  5
352
100
AcDbEntity
  8
00_COMPONENTS_1_1
100
AcDbLine
 62
7
  6
CONTINUOUS
 10
107.6601230388
 20
885.3303537917
 11
106.5200605189
 21
885.3502640162
  0
LINE
  5
353
100
AcDbEntity
  8
00_COMPONENTS_1_1
100
AcDbLine
 62
7
  6
CONTINUOUS
 10
107.6224370388
 20
885.4008418427
 11
108.0983579852
 21
885.3925356885
  0
LINE
  5
354
100
AcDbEntity
  8
00_COMPONENTS_3
100
AcDbLine
 62
7
  6
CONTINUOUS
 10
722.5379954758
 20
858.0494673704
 11
723.5182144562
 21
857.961283206
  0
LINE
  5
355
100
AcDbEntity
  8
00_COMPONENTS_3
100
AcDbLine
 62
7
  6
CONTINUOUS
 10
703.4705913714
 20
912.8544687043
 11
701.2681245043
 21
912.9335563966
  0
LINE
  5
356
100
AcDbEntity
  8
00_COMPONENTS_7
100
AcDbLine
 62
7
  6
CONTINUOUS
 10
722.6446038471
 20
967.5810662606
 11
720.645822193
 21
967.5810662606
  0
LINE
  5
357
100
AcDbEntity
  8
00_COMPONENTS_7
100
AcDbLine
 62
7
  6
CONTINUOUS
 10
92.3942988448
 20
967.5810662606
 11
90.3955171908
 21
967.5810662606
  0
LINE
  5
358
100
AcDbEntity
  8
00_COMPONENTS_7
100
AcDbLine
 62
7
  6
CONTINUOUS
 10
720.1461267795
 20
968.0807616741
 11
92.8939942583
 21
968.0807616741
  0
LINE
  5
359
100
AcDbEntity
  8
00_COMPONENTS_7
100
AcDbLine
 62
7
  6
CONTINUOUS
 10
92.8939942583
 20
970.0795433281
 11
720.1461267795
 21
970.0795433281
  0
LINE
  5
35A
100
AcDbEntity
  8
00_COMPONENTS_7
100
AcDbLine
 62
7
  6
CONTINUOUS
 10
92.0185375865
 20
970.955
 11
721.0215834514
 21
970.955
  0
LINE
  5
35B
100
AcDbEntity
  8
00_COMPONENTS_3
100
AcDbLine
 62
7
  6
CONTINUOUS
 10
93.3484876436
 20
973.8964379223
 11
719.6916333942
 21
973.8964379223
  0
LINE
  5
35C
100
AcDbEntity
  8
00_COMPONENTS_3
100
AcDbLine
 62
7
  6
CONTINUOUS
 10
90.5200605189
 20
973.9313480521
 11
88.5218665527
 21
973.9313480521
  0
LINE
  5
35D
100
AcDbEntity
  8
00_COMPONENTS_3
100
AcDbLine
 62
7
  6
CONTINUOUS
 10
722.5200605189
 20
973.9313480522
 11
724.5182544852
 21
973.9313480522
  0
LINE
  5
35E
100
AcDbEntity
  8
00_COMPONENTS_3
100
AcDbLine
 62
7
  6
CONTINUOUS
 10
724.7800605189
 20
974.455
 11
88.2600605189
 21
974.455
  0
LINE
  5
35F
100
AcDbEntity
  8
00_COMPONENTS_3
100
AcDbLine
 62
7
420
24575
  6
CONTINUOUS
 10
724.4737474594
 20
980.1486869405
 11
721.5196796899
 21
980.1486869405
  0
LINE
  5
360
100
AcDbEntity
  8
00_COMPONENTS_3
100
AcDbLine
 62
7
420
24575
  6
CONTINUOUS
 10
91.520441348
 20
980.1486869405
 11
88.5663735783
 21
980.1486869405
  0
LINE
  5
361
100
AcDbEntity
  8
00_COMPONENTS_3
100
AcDbLine
 62
7
420
48875
  6
CONTINUOUS
 10
724.7800605189
 20
980.455
 11
720.7802128266
 21
980.455
  0
LINE
  5
362
100
AcDbEntity
  8
00_COMPONENTS_3
100
AcDbLine
 62
7
420
48875
  6
CONTINUOUS
 10
92.2599082112
 20
980.455
 11
88.2600605189
 21
980.455
  0
LINE
  5
363
100
AcDbEntity
  8
00_COMPONENTS_3
100
AcDbLine
 62
7
  6
CONTINUOUS
 10
92.2599082112
 20
980.455
 11
720.7802128266
 21
980.455
  0
LINE
  5
364
100
AcDbEntity
  8
00_COMPONENTS_7
100
AcDbLine
 62
7
  6
CONTINUOUS
 10
723.5200605189
 20
200.655
 11
722.6446052309
 21
200.3764471182
  0
LINE
  5
365
100
AcDbEntity
  8
00_COMPONENTS_7
100
AcDbLine
 62
7
  6
CONTINUOUS
 10
723.5200605189
 20
913.2549999999
 11
722.6446038471
 21
913.5335533221
  0
ARC
  5
366
100
AcDbEntity
  8
0
100
AcDbCircle
 62
7
  6
CONTINUOUS
 10
96.4352966103
 20
231.955
 40
2.6847639086
100
AcDbArc
 50
326.0334818218
 51
33.9665181782
  0
ARC
  5
367
100
AcDbEntity
  8
0
100
AcDbCircle
 62
7
  6
CONTINUOUS
 10
94.0200605189
 20
212.955
 40
1.0
100
AcDbArc
 50
179.9999970709
 51
270.0
  0
ARC
  5
368
100
AcDbEntity
  8
0
100
AcDbCircle
 62
7
  6
CONTINUOUS
 10
94.0200605189
 20
250.955
 40
1.0
100
AcDbArc
 50
90.0
 51
179.9999559513
  0
ARC
  5
369
100
AcDbEntity
  8
0
100
AcDbCircle
 62
7
  6
CONTINUOUS
 10
96.4352966103
 20
881.955
 40
2.6847639086
100
AcDbArc
 50
326.0334818218
 51
33.9665181782
  0
ARC
  5
36A
100
AcDbEntity
  8
0
100
AcDbCircle
 62
7
  6
CONTINUOUS
 10
94.0200605189
 20
862.955
 40
1.0
100
AcDbArc
 50
179.9999970709
 51
270.0
  0
ARC
  5
36B
100
AcDbEntity
  8
0
100
AcDbCircle
 62
7
  6
CONTINUOUS
 10
94.0200605189
 20
900.955
 40
1.0
100
AcDbArc
 50
90.0
 51
179.9999559513
  0
CIRCLE
  5
36C
100
AcDbEntity
  8
0
100
AcDbCircle
 62
7
  6
CONTINUOUS
 10
106.5200605189
 20
231.955
 40
8.5332662348
  0
CIRCLE
  5
36D
100
AcDbEntity
  8
0
100
AcDbCircle
 62
7
  6
CONTINUOUS
 10
106.5200605189
 20
231.955
 40
8.3340272952
  0
CIRCLE
  5
36E
100
AcDbEntity
  8
0
100
AcDbCircle
 62
7
  6
CONTINUOUS
 10
106.5200605189
 20
231.955
 40
8.15
  0
CIRCLE
  5
36F
100
AcDbEntity
  8
0
100
AcDbCircle
 62
7
  6
CONTINUOUS
 10
106.5200605189
 20
231.955
 40
8.05
  0
ARC
  5
370
100
AcDbEntity
  8
0
100
AcDbCircle
 62
7
  6
CONTINUOUS
 10
106.5200605189
 20
231.955
 40
8.0
100
AcDbArc
 50
190.8069228749
 51
169.1930771251
  0
CIRCLE
  5
371
100
AcDbEntity
  8
00_COMPONENTS_1_1
100
AcDbCircle
 62
7
  6
CONTINUOUS
 10
106.5200605189
 20
231.955
 40
7.9482849568
  0
CIRCLE
  5
372
100
AcDbEntity
  8
00_COMPONENTS_1_1
100
AcDbCircle
 62
7
  6
CONTINUOUS
 10
106.5200605189
 20
231.955
 40
7.9150898701
  0
CIRCLE
  5
373
100
AcDbEntity
  8
00_COMPONENTS_1_1
100
AcDbCircle
 62
7
  6
CONTINUOUS
 10
106.5200605189
 20
231.955
 40
7.851790137
  0
ARC
  5
374
100
AcDbEntity
  8
00_COMPONENTS_1_1
100
AcDbCircle
 62
7
  6
CONTINUOUS
 10
106.5200605189
 20
231.955
 40
7.8103594806
100
AcDbArc
 50
11.8565327519
 51
168.1434672481
  0
ARC
  5
375
100
AcDbEntity
  8
00_COMPONENTS_1_1
100
AcDbCircle
 62
7
  6
CONTINUOUS
 10
106.5200605189
 20
231.955
 40
7.8103594806
100
AcDbArc
 50
191.8565327519
 51
348.1434672481
  0
ARC
  5
376
100
AcDbEntity
  8
00_COMPONENTS_1_1
100
AcDbCircle
 62
7
  6
CONTINUOUS
 10
106.5200605189
 20
231.955
 40
7.7504908971
100
AcDbArc
 50
191.6330989339
 51
348.3669010661
  0
CIRCLE
  5
377
100
AcDbEntity
  8
0
100
AcDbCircle
 62
7
  6
CONTINUOUS
 10
106.5200605189
 20
231.955
 40
7.4
  0
CIRCLE
  5
378
100
AcDbEntity
  8
0
100
AcDbCircle
 62
7
  6
CONTINUOUS
 10
106.5200605189
 20
231.955
 40
7.1
  0
ARC
  5
379
100
AcDbEntity
  8
00_COMPONENTS_1_1
100
AcDbCircle
 62
7
  6
CONTINUOUS
 10
106.5200605189
 20
231.955
 40
6.9
100
AcDbArc
 50
13.0909989348
 51
166.9090010652
  0
ARC
  5
37A
100
AcDbEntity
  8
00_COMPONENTS_1_1
100
AcDbCircle
 62
7
  6
CONTINUOUS
 10
106.5200605189
 20
231.955
 40
6.9
100
AcDbArc
 50
193.0909989348
 51
346.9090010652
  0
ARC
  5
37B
100
AcDbEntity
  8
00_COMPONENTS_1_1
100
AcDbCircle
 62
7
  6
CONTINUOUS
 10
106.5200605189
 20
231.955
 40
6.5
100
AcDbArc
 50
13.3423637971
 51
166.6576362029
  0
ARC
  5
37C
100
AcDbEntity
  8
00_COMPONENTS_1_1
100
AcDbCircle
 62
7
  6
CONTINUOUS
 10
106.5200605189
 20
231.955
 40
6.5
100
AcDbArc
 50
193.3423637971
 51
346.6576362029
  0
ARC
  5
37D
100
AcDbEntity
  8
00_COMPONENTS_1_1
100
AcDbCircle
 62
7
  6
CONTINUOUS
 10
106.5200605189
 20
231.955
 40
4.8047303896
100
AcDbArc
 50
22.6567079996
 51
157.3445766649
  0
ARC
  5
37E
100
AcDbEntity
  8
00_COMPONENTS_1_1
100
AcDbCircle
 62
7
  6
CONTINUOUS
 10
106.5200605189
 20
231.955
 40
4.8047303896
100
AcDbArc
 50
202.6567079996
 51
337.3445766649
  0
ARC
  5
37F
100
AcDbEntity
  8
00_COMPONENTS_1_1
100
AcDbCircle
 62
7
  6
CONTINUOUS
 10
106.5200605189
 20
231.955
 40
4.7
100
AcDbArc
 50
21.8708355889
 51
158.1307742823
  0
ARC
  5
380
100
AcDbEntity
  8
00_COMPONENTS_1_1
100
AcDbCircle
 62
7
  6
CONTINUOUS
 10
106.5200605189
 20
231.955
 40
4.7
100
AcDbArc
 50
201.8708355889
 51
338.1307742823
  0
ARC
  5
381
100
AcDbEntity
  8
00_COMPONENTS_1_1
100
AcDbCircle
 62
7
  6
CONTINUOUS
 10
106.5200605189
 20
231.955
 40
4.625
100
AcDbArc
 50
193.1362588713
 51
225.8544284963
  0
ARC
  5
382
100
AcDbEntity
  8
00_COMPONENTS_1_1
100
AcDbCircle
 62
7
  6
CONTINUOUS
 10
106.5200605189
 20
231.955
 40
4.625
100
AcDbArc
 50
314.1455715037
 51
346.8637411287
  0
ARC
  5
383
100
AcDbEntity
  8
00_COMPONENTS_1_1
100
AcDbCircle
 62
7
  6
CONTINUOUS
 10
106.5200605189
 20
231.955
 40
4.425
100
AcDbArc
 50
315.1593669346
 51
345.8496214819
  0
ARC
  5
384
100
AcDbEntity
  8
00_COMPONENTS_1_1
100
AcDbCircle
 62
7
  6
CONTINUOUS
 10
106.5200605189
 20
231.955
 40
4.425
100
AcDbArc
 50
194.1503785182
 51
224.8406330654
  0
ARC
  5
385
100
AcDbEntity
  8
00_COMPONENTS_1_1
100
AcDbCircle
 62
7
  6
CONTINUOUS
 10
106.5200605189
 20
231.955
 40
4.3363248654
100
AcDbArc
 50
194.6235433738
 51
224.3667885845
  0
ARC
  5
386
100
AcDbEntity
  8
00_COMPONENTS_1_1
100
AcDbCircle
 62
7
  6
CONTINUOUS
 10
106.5200605189
 20
231.955
 40
4.3363248654
100
AcDbArc
 50
315.6332114155
 51
345.3764566262
  0
ARC
  5
387
100
AcDbEntity
  8
0
100
AcDbCircle
 62
7
  6
CONTINUOUS
 10
106.5200605189
 20
231.955
 40
4.225
100
AcDbArc
 50
105.2397298961
 51
134.7602701039
  0
ARC
  5
388
100
AcDbEntity
  8
0
100
AcDbCircle
 62
7
  6
CONTINUOUS
 10
106.5200605189
 20
231.955
 40
4.225
100
AcDbArc
 50
225.2397298961
 51
254.7602701039
  0
ARC
  5
389
100
AcDbEntity
  8
0
100
AcDbCircle
 62
7
  6
CONTINUOUS
 10
106.5200605189
 20
231.955
 40
4.225
100
AcDbArc
 50
345.2397298961
 51
14.7602701039
  0
ARC
  5
38A
100
AcDbEntity
  8
00_COMPONENTS_1_1
100
AcDbCircle
 62
7
  6
CONTINUOUS
 10
106.5200605189
 20
231.955
 40
4.225
100
AcDbArc
 50
316.2483829527
 51
344.7602701039
  0
ARC
  5
38B
100
AcDbEntity
  8
00_COMPONENTS_1_1
100
AcDbCircle
 62
7
  6
CONTINUOUS
 10
106.5200605189
 20
231.955
 40
4.225
100
AcDbArc
 50
195.2397298961
 51
223.7516170473
  0
ARC
  5
38C
100
AcDbEntity
  8
00_COMPONENTS_1_1
100
AcDbCircle
 62
7
  6
CONTINUOUS
 10
106.5200605189
 20
231.955
 40
4.1570508076
100
AcDbArc
 50
195.6286446894
 51
223.3620321742
  0
ARC
  5
38D
100
AcDbEntity
  8
00_COMPONENTS_1_1
100
AcDbCircle
 62
7
  6
CONTINUOUS
 10
106.5200605189
 20
231.955
 40
4.1570508076
100
AcDbArc
 50
316.6379678258
 51
344.3713553106
  0
ARC
  5
38E
100
AcDbEntity
  8
00_COMPONENTS_1_1
100
AcDbCircle
 62
7
  6
CONTINUOUS
 10
106.5200605189
 20
231.955
 40
3.975
100
AcDbArc
 50
319.6790149903
 51
341.3286586463
  0
ARC
  5
38F
100
AcDbEntity
  8
00_COMPONENTS_1_1
100
AcDbCircle
 62
7
  6
CONTINUOUS
 10
106.5200605189
 20
231.955
 40
3.975
100
AcDbArc
 50
198.6713413537
 51
220.3209850097
  0
ARC
  5
390
100
AcDbEntity
  8
00_COMPONENTS_1_1
100
AcDbCircle
 62
7
  6
CONTINUOUS
 10
106.5200605189
 20
231.955
 40
3.925
100
AcDbArc
 50
197.0367860867
 51
221.9550873958
  0
ARC
  5
391
100
AcDbEntity
  8
00_COMPONENTS_1_1
100
AcDbCircle
 62
7
  6
CONTINUOUS
 10
106.5200605189
 20
231.955
 40
3.925
100
AcDbArc
 50
318.0449126042
 51
342.9632139133
  0
CIRCLE
  5
392
100
AcDbEntity
  8
00_COMPONENTS_1_1
100
AcDbCircle
 62
7
  6
CONTINUOUS
 10
106.5200605189
 20
231.955
 40
1.5
  0
CIRCLE
  5
393
100
AcDbEntity
  8
00_COMPONENTS_1_1
100
AcDbCircle
 62
7
  6
CONTINUOUS
 10
106.5200605189
 20
231.955
 40
1.3952696104
  0
ARC
  5
394
100
AcDbEntity
  8
0
100
AcDbCircle
 62
7
  6
CONTINUOUS
 10
119.0200605189
 20
212.955
 40
1.0
100
AcDbArc
 50
270.0
 51
0.0000021001
  0
ARC
  5
395
100
AcDbEntity
  8
0
100
AcDbCircle
 62
7
  6
CONTINUOUS
 10
119.0200605189
 20
250.955
 40
1.0
100
AcDbArc
 50
0.0000440693
 51
90.0
  0
CIRCLE
  5
396
100
AcDbEntity
  8
0
100
AcDbCircle
 62
7
  6
CONTINUOUS
 10
106.5200605189
 20
881.955
 40
8.5332662348
  0
CIRCLE
  5
397
100
AcDbEntity
  8
0
100
AcDbCircle
 62
7
  6
CONTINUOUS
 10
106.5200605189
 20
881.955
 40
8.3340272952
  0
CIRCLE
  5
398
100
AcDbEntity
  8
0
100
AcDbCircle
 62
7
  6
CONTINUOUS
 10
106.5200605189
 20
881.955
 40
8.15
  0
CIRCLE
  5
399
100
AcDbEntity
  8
0
100
AcDbCircle
 62
7
  6
CONTINUOUS
 10
106.5200605189
 20
881.955
 40
8.05
  0
ARC
  5
39A
100
AcDbEntity
  8
0
100
AcDbCircle
 62
7
  6
CONTINUOUS
 10
106.5200605189
 20
881.955
 40
8.0
100
AcDbArc
 50
190.8069228749
 51
169.1930771251
  0
CIRCLE
  5
39B
100
AcDbEntity
  8
00_COMPONENTS_1_1
100
AcDbCircle
 62
7
  6
CONTINUOUS
 10
106.5200605189
 20
881.955
 40
7.9482849568
  0
CIRCLE
  5
39C
100
AcDbEntity
  8
00_COMPONENTS_1_1
100
AcDbCircle
 62
7
  6
CONTINUOUS
 10
106.5200605189
 20
881.955
 40
7.9150898701
  0
CIRCLE
  5
39D
100
AcDbEntity
  8
00_COMPONENTS_1_1
100
AcDbCircle
 62
7
  6
CONTINUOUS
 10
106.5200605189
 20
881.955
 40
7.851790137
  0
ARC
  5
39E
100
AcDbEntity
  8
00_COMPONENTS_1_1
100
AcDbCircle
 62
7
  6
CONTINUOUS
 10
106.5200605189
 20
881.955
 40
7.8103594806
100
AcDbArc
 50
11.8565327519
 51
168.1434672481
  0
ARC
  5
39F
100
AcDbEntity
  8
00_COMPONENTS_1_1
100
AcDbCircle
 62
7
  6
CONTINUOUS
 10
106.5200605189
 20
881.955
 40
7.8103594806
100
AcDbArc
 50
191.8565327519
 51
348.1434672481
  0
ARC
  5
3A0
100
AcDbEntity
  8
00_COMPONENTS_1_1
100
AcDbCircle
 62
7
  6
CONTINUOUS
 10
106.5200605189
 20
881.955
 40
7.7504908971
100
AcDbArc
 50
191.6330989339
 51
348.3669010661
  0
CIRCLE
  5
3A1
100
AcDbEntity
  8
0
100
AcDbCircle
 62
7
  6
CONTINUOUS
 10
106.5200605189
 20
881.955
 40
7.4
  0
CIRCLE
  5
3A2
100
AcDbEntity
  8
0
100
AcDbCircle
 62
7
  6
CONTINUOUS
 10
106.5200605189
 20
881.955
 40
7.1
  0
ARC
  5
3A3
100
AcDbEntity
  8
00_COMPONENTS_1_1
100
AcDbCircle
 62
7
  6
CONTINUOUS
 10
106.5200605189
 20
881.955
 40
6.9
100
AcDbArc
 50
13.0909989348
 51
166.9090010652
  0
ARC
  5
3A4
100
AcDbEntity
  8
00_COMPONENTS_1_1
100
AcDbCircle
 62
7
  6
CONTINUOUS
 10
106.5200605189
 20
881.955
 40
6.9
100
AcDbArc
 50
193.0909989348
 51
346.9090010652
  0
ARC
  5
3A5
100
AcDbEntity
  8
00_COMPONENTS_1_1
100
AcDbCircle
 62
7
  6
CONTINUOUS
 10
106.5200605189
 20
881.955
 40
6.5
100
AcDbArc
 50
13.3423637971
 51
166.6576362029
  0
ARC
  5
3A6
100
AcDbEntity
  8
00_COMPONENTS_1_1
100
AcDbCircle
 62
7
  6
CONTINUOUS
 10
106.5200605189
 20
881.955
 40
6.5
100
AcDbArc
 50
193.3423637971
 51
346.6576362029
  0
ARC
  5
3A7
100
AcDbEntity
  8
00_COMPONENTS_1_1
100
AcDbCircle
 62
7
  6
CONTINUOUS
 10
106.5200605189
 20
881.955
 40
4.8047303896
100
AcDbArc
 50
22.6567079996
 51
157.3445766649
  0
ARC
  5
3A8
100
AcDbEntity
  8
00_COMPONENTS_1_1
100
AcDbCircle
 62
7
  6
CONTINUOUS
 10
106.5200605189
 20
881.955
 40
4.8047303896
100
AcDbArc
 50
202.6567079996
 51
337.3445766649
  0
ARC
  5
3A9
100
AcDbEntity
  8
00_COMPONENTS_1_1
100
AcDbCircle
 62
7
  6
CONTINUOUS
 10
106.5200605189
 20
881.955
 40
4.7
100
AcDbArc
 50
21.8708355889
 51
158.1307742823
  0
ARC
  5
3AA
100
AcDbEntity
  8
00_COMPONENTS_1_1
100
AcDbCircle
 62
7
  6
CONTINUOUS
 10
106.5200605189
 20
881.955
 40
4.7
100
AcDbArc
 50
201.8708355889
 51
338.1307742823
  0
ARC
  5
3AB
100
AcDbEntity
  8
00_COMPONENTS_1_1
100
AcDbCircle
 62
7
  6
CONTINUOUS
 10
106.5200605189
 20
881.955
 40
4.625
100
AcDbArc
 50
193.1362588713
 51
225.8544284963
  0
ARC
  5
3AC
100
AcDbEntity
  8
00_COMPONENTS_1_1
100
AcDbCircle
 62
7
  6
CONTINUOUS
 10
106.5200605189
 20
881.955
 40
4.625
100
AcDbArc
 50
314.1455715037
 51
346.8637411287
  0
ARC
  5
3AD
100
AcDbEntity
  8
00_COMPONENTS_1_1
100
AcDbCircle
 62
7
  6
CONTINUOUS
 10
106.5200605189
 20
881.955
 40
4.425
100
AcDbArc
 50
315.1593669346
 51
345.8496214819
  0
ARC
  5
3AE
100
AcDbEntity
  8
00_COMPONENTS_1_1
100
AcDbCircle
 62
7
  6
CONTINUOUS
 10
106.5200605189
 20
881.955
 40
4.425
100
AcDbArc
 50
194.1503785182
 51
224.8406330654
  0
ARC
  5
3AF
100
AcDbEntity
  8
00_COMPONENTS_1_1
100
AcDbCircle
 62
7
  6
CONTINUOUS
 10
106.5200605189
 20
881.955
 40
4.3363248654
100
AcDbArc
 50
194.6235433738
 51
224.3667885845
  0
ARC
  5
3B0
100
AcDbEntity
  8
00_COMPONENTS_1_1
100
AcDbCircle
 62
7
  6
CONTINUOUS
 10
106.5200605189
 20
881.955
 40
4.3363248654
100
AcDbArc
 50
315.6332114155
 51
345.3764566262
  0
ARC
  5
3B1
100
AcDbEntity
  8
0
100
AcDbCircle
 62
7
  6
CONTINUOUS
 10
106.5200605189
 20
881.955
 40
4.225
100
AcDbArc
 50
105.2397298961
 51
134.7602701039
  0
ARC
  5
3B2
100
AcDbEntity
  8
0
100
AcDbCircle
 62
7
  6
CONTINUOUS
 10
106.5200605189
 20
881.955
 40
4.225
100
AcDbArc
 50
225.2397298961
 51
254.7602701039
  0
ARC
  5
3B3
100
AcDbEntity
  8
0
100
AcDbCircle
 62
7
  6
CONTINUOUS
 10
106.5200605189
 20
881.955
 40
4.225
100
AcDbArc
 50
345.2397298961
 51
14.7602701039
  0
ARC
  5
3B4
100
AcDbEntity
  8
00_COMPONENTS_1_1
100
AcDbCircle
 62
7
  6
CONTINUOUS
 10
106.5200605189
 20
881.955
 40
4.225
100
AcDbArc
 50
316.2483829527
 51
344.7602701039
  0
ARC
  5
3B5
100
AcDbEntity
  8
00_COMPONENTS_1_1
100
AcDbCircle
 62
7
  6
CONTINUOUS
 10
106.5200605189
 20
881.955
 40
4.225
100
AcDbArc
 50
195.2397298961
 51
223.7516170473
  0
ARC
  5
3B6
100
AcDbEntity
  8
00_COMPONENTS_1_1
100
AcDbCircle
 62
7
  6
CONTINUOUS
 10
106.5200605189
 20
881.955
 40
4.1570508076
100
AcDbArc
 50
195.6286446894
 51
223.3620321742
  0
ARC
  5
3B7
100
AcDbEntity
  8
00_COMPONENTS_1_1
100
AcDbCircle
 62
7
  6
CONTINUOUS
 10
106.5200605189
 20
881.955
 40
4.1570508076
100
AcDbArc
 50
316.6379678258
 51
344.3713553106
  0
ARC
  5
3B8
100
AcDbEntity
  8
00_COMPONENTS_1_1
100
AcDbCircle
 62
7
  6
CONTINUOUS
 10
106.5200605189
 20
881.955
 40
3.975
100
AcDbArc
 50
319.6790149903
 51
341.3286586463
  0
ARC
  5
3B9
100
AcDbEntity
  8
00_COMPONENTS_1_1
100
AcDbCircle
 62
7
  6
CONTINUOUS
 10
106.5200605189
 20
881.955
 40
3.975
100
AcDbArc
 50
198.6713413537
 51
220.3209850097
  0
ARC
  5
3BA
100
AcDbEntity
  8
00_COMPONENTS_1_1
100
AcDbCircle
 62
7
  6
CONTINUOUS
 10
106.5200605189
 20
881.955
 40
3.925
100
AcDbArc
 50
197.0367860867
 51
221.9550873958
  0
ARC
  5
3BB
100
AcDbEntity
  8
00_COMPONENTS_1_1
100
AcDbCircle
 62
7
  6
CONTINUOUS
 10
106.5200605189
 20
881.955
 40
3.925
100
AcDbArc
 50
318.0449126042
 51
342.9632139133
  0
CIRCLE
  5
3BC
100
AcDbEntity
  8
00_COMPONENTS_1_1
100
AcDbCircle
 62
7
  6
CONTINUOUS
 10
106.5200605189
 20
881.955
 40
1.5
  0
CIRCLE
  5
3BD
100
AcDbEntity
  8
00_COMPONENTS_1_1
100
AcDbCircle
 62
7
  6
CONTINUOUS
 10
106.5200605189
 20
881.955
 40
1.3952696104
  0
ARC
  5
3BE
100
AcDbEntity
  8
0
100
AcDbCircle
 62
7
  6
CONTINUOUS
 10
119.0200605189
 20
862.955
 40
1.0
100
AcDbArc
 50
270.0
 51
0.0000021001
  0
ARC
  5
3BF
100
AcDbEntity
  8
0
100
AcDbCircle
 62
7
  6
CONTINUOUS
 10
119.0200605189
 20
900.955
 40
1.0
100
AcDbArc
 50
0.0000440693
 51
90.0
  0
SPLINE
  5
3C0
100
AcDbEntity
  8
00_COMPONENTS_7
100
AcDbSpline
 62
7
  6
CONTINUOUS
 70
0
 71
3
 72
9
 73
5
 74
0
 42
0.0000001
 43
0.0000001
 44
0.0000000001
 40
0.0
 40
0.0
 40
0.0
 40
0.0
 40
0.5
 40
1.0
 40
1.0
 40
1.0
 40
1.0
 10
723.5200605189
 20
968.456377932
 30
0.0
 10
723.5200605189
 20
969.0938608939
 30
0.0
 10
722.9872902079
 20
970.4222296889
 30
0.0
 10
721.6589214128
 20
970.955
 30
0.0
 10
721.021438451
 20
970.955
 30
0.0
  0
SPLINE
  5
3C1
100
AcDbEntity
  8
00_COMPONENTS_7
100
AcDbSpline
 62
7
  6
CONTINUOUS
 70
0
 71
3
 72
9
 73
5
 74
0
 42
0.0000001
 43
0.0000001
 44
0.0000000001
 40
0.0
 40
0.0
 40
0.0
 40
0.0
 40
0.5
 40
1.0
 40
1.0
 40
1.0
 40
1.0
 10
721.021438451
 20
142.955
 30
0.0
 10
721.6589214128
 20
142.955
 30
0.0
 10
722.9872902079
 20
143.487770311
 30
0.0
 10
723.5200605189
 20
144.8161391061
 30
0.0
 10
723.5200605189
 20
145.453622068
 30
0.0
  0
SPLINE
  5
3C2
100
AcDbEntity
  8
00_COMPONENTS_7
100
AcDbSpline
 62
7
  6
CONTINUOUS
 70
0
 71
3
 72
9
 73
5
 74
0
 42
0.0000001
 43
0.0000001
 44
0.0000000001
 40
0.0
 40
0.0
 40
0.0
 40
0.0
 40
0.5
 40
1.0
 40
1.0
 40
1.0
 40
1.0
 10
89.5200605189
 20
145.4536213315
 30
0.0
 10
89.520060519
 20
144.8161385698
 30
0.0
 10
90.0528308028
 20
143.4877702839
 30
0.0
 10
91.3811990887
 20
142.955
 30
0.0
 10
92.0186818504
 20
142.955
 30
0.0
  0
SPLINE
  5
3C3
100
AcDbEntity
  8
00_COMPONENTS_7
100
AcDbSpline
 62
7
  6
CONTINUOUS
 70
0
 71
3
 72
9
 73
5
 74
0
 42
0.0000001
 43
0.0000001
 44
0.0000000001
 40
0.0
 40
0.0
 40
0.0
 40
0.0
 40
0.5
 40
1.0
 40
1.0
 40
1.0
 40
1.0
 10
92.0186818504
 20
970.955
 30
0.0
 10
91.3811990887
 20
970.955
 30
0.0
 10
90.0528308028
 20
970.4222297161
 30
0.0
 10
89.5200605189
 20
969.0938614302
 30
0.0
 10
89.5200605189
 20
968.4563786685
 30
0.0
  0
SPLINE
  5
3C4
100
AcDbEntity
  8
00_COMPONENTS_7
100
AcDbSpline
 62
7
  6
CONTINUOUS
 70
0
 71
3
 72
9
 73
5
 74
0
 42
0.0000001
 43
0.0000001
 44
0.0000000001
 40
0.0
 40
0.0
 40
0.0
 40
0.0
 40
0.4999999576
 40
1.0
 40
1.0
 40
1.0
 40
1.0
 10
92.8939942583
 20
145.8292383259
 30
0.0
 10
92.7674522382
 20
145.8292383317
 30
0.0
 10
92.5111105865
 20
145.9460500442
 30
0.0
 10
92.3942988517
 20
146.2023916978
 30
0.0
 10
92.3942988449
 20
146.3289337394
 30
0.0
  0
SPLINE
  5
3C5
100
AcDbEntity
  8
00_COMPONENTS_7
100
AcDbSpline
 62
7
  6
CONTINUOUS
 70
0
 71
3
 72
9
 73
5
 74
0
 42
0.0000001
 43
0.0000001
 44
0.0000000001
 40
0.0
 40
0.0
 40
0.0
 40
0.0
 40
0.4999999576
 40
1.0
 40
1.0
 40
1.0
 40
1.0
 10
92.3942988448
 20
967.5810662606
 30
0.0
 10
92.3942988506
 20
967.7076082807
 30
0.0
 10
92.5111105631
 20
967.9639499325
 30
0.0
 10
92.7674522168
 20
968.0807616672
 30
0.0
 10
92.8939942583
 20
968.0807616741
 30
0.0
  0
SPLINE
  5
3C6
100
AcDbEntity
  8
00_COMPONENTS_7
100
AcDbSpline
 62
7
  6
CONTINUOUS
 70
0
 71
3
 72
9
 73
5
 74
0
 42
0.0000001
 43
0.0000001
 44
0.0000000001
 40
0.0
 40
0.0
 40
0.0
 40
0.0
 40
0.4999999576
 40
1.0
 40
1.0
 40
1.0
 40
1.0
 10
720.1461267795
 20
968.0807616741
 30
0.0
 10
720.2726687996
 20
968.0807616683
 30
0.0
 10
720.5290104514
 20
967.9639499558
 30
0.0
 10
720.6458221862
 20
967.7076083022
 30
0.0
 10
720.645822193
 20
967.5810662606
 30
0.0
  0
SPLINE
  5
3C7
100
AcDbEntity
  8
00_COMPONENTS_7
100
AcDbSpline
 62
7
  6
CONTINUOUS
 70
0
 71
3
 72
9
 73
5
 74
0
 42
0.0000001
 43
0.0000001
 44
0.0000000001
 40
0.0
 40
0.0
 40
0.0
 40
0.0
 40
0.4999999576
 40
1.0
 40
1.0
 40
1.0
 40
1.0
 10
720.6458221931
 20
146.3289337394
 30
0.0
 10
720.6458221873
 20
146.2023917193
 30
0.0
 10
720.5290104747
 20
145.9460500675
 30
0.0
 10
720.2726688211
 20
145.8292383327
 30
0.0
 10
720.1461267795
 20
145.8292383259
 30
0.0
  0
SPLINE
  5
3C8
100
AcDbEntity
  8
00_COMPONENTS_7
100
AcDbSpline
 62
7
  6
CONTINUOUS
 70
0
 71
3
 72
9
 73
5
 74
0
 42
0.0000001
 43
0.0000001
 44
0.0000000001
 40
0.0
 40
0.0
 40
0.0
 40
0.0
 40
0.5000000264
 40
1.0
 40
1.0
 40
1.0
 40
1.0
 10
722.644603847
 20
146.3289337394
 30
0.0
 10
722.6439830352
 20
145.6916651943
 30
0.0
 10
722.1102984507
 20
144.3647619888
 30
0.0
 10
720.7833952573
 20
143.8310774849
 30
0.0
 10
720.1461267795
 20
143.8304566719
 30
0.0
  0
SPLINE
  5
3C9
100
AcDbEntity
  8
00_COMPONENTS_7
100
AcDbSpline
 62
7
  6
CONTINUOUS
 70
0
 71
3
 72
9
 73
5
 74
0
 42
0.0000001
 43
0.0000001
 44
0.0000000001
 40
0.0
 40
0.0
 40
0.0
 40
0.0
 40
0.5000000264
 40
1.0
 40
1.0
 40
1.0
 40
1.0
 10
92.8939942584
 20
143.8304566719
 30
0.0
 10
92.2567257132
 20
143.8310774837
 30
0.0
 10
90.9298225077
 20
144.3647620682
 30
0.0
 10
90.3961380038
 20
145.6916652616
 30
0.0
 10
90.3955171908
 20
146.3289337394
 30
0.0
  0
SPLINE
  5
3CA
100
AcDbEntity
  8
00_COMPONENTS_7
100
AcDbSpline
 62
7
  6
CONTINUOUS
 70
0
 71
3
 72
9
 73
5
 74
0
 42
0.0000001
 43
0.0000001
 44
0.0000000001
 40
0.0
 40
0.0
 40
0.0
 40
0.0
 40
0.5000000264
 40
1.0
 40
1.0
 40
1.0
 40
1.0
 10
90.3955171908
 20
967.5810662605
 30
0.0
 10
90.3961380027
 20
968.2183348057
 30
0.0
 10
90.9298225871
 20
969.5452380112
 30
0.0
 10
92.2567257805
 20
970.0789225151
 30
0.0
 10
92.8939942583
 20
970.0795433281
 30
0.0
  0
SPLINE
  5
3CB
100
AcDbEntity
  8
00_COMPONENTS_7
100
AcDbSpline
 62
7
  6
CONTINUOUS
 70
0
 71
3
 72
9
 73
5
 74
0
 42
0.0000001
 43
0.0000001
 44
0.0000000001
 40
0.0
 40
0.0
 40
0.0
 40
0.0
 40
0.5000000264
 40
1.0
 40
1.0
 40
1.0
 40
1.0
 10
720.1461267795
 20
970.0795433281
 30
0.0
 10
720.7833953246
 20
970.0789225163
 30
0.0
 10
722.1102985302
 20
969.5452379318
 30
0.0
 10
722.6439830341
 20
968.2183347384
 30
0.0
 10
722.644603847
 20
967.5810662606
 30
0.0
  0
SPLINE
  5
3CC
100
AcDbEntity
  8
00_COMPONENTS_1_1
100
AcDbSpline
 62
7
  6
CONTINUOUS
 70
0
 71
3
 72
9
 73
5
 74
0
 42
0.0000001
 43
0.0000001
 44
0.0000000001
 40
0.0
 40
0.0
 40
0.0
 40
0.0
 40
0.4989974079
 40
1.0
 40
1.0
 40
1.0
 40
1.0
 10
101.7878714867
 20
883.4554517079
 30
0.0
 10
101.8656546806
 20
883.4551863318
 30
0.0
 10
102.0253495409
 20
883.50316253
 30
0.0
 10
102.1289905264
 20
883.6333090799
 30
0.0
 10
102.1584987192
 20
883.7056159625
 30
0.0
  0
SPLINE
  5
3CD
100
AcDbEntity
  8
00_COMPONENTS_1_1
100
AcDbSpline
 62
7
  6
CONTINUOUS
 70
0
 71
3
 72
9
 73
5
 74
0
 42
0.0000001
 43
0.0000001
 44
0.0000000001
 40
0.0
 40
0.0
 40
0.0
 40
0.0
 40
0.5045336841
 40
1.0
 40
1.0
 40
1.0
 40
1.0
 10
110.8815731272
 20
883.7057385103
 30
0.0
 10
110.9112973411
 20
883.6329022896
 30
0.0
 10
111.0153146959
 20
883.5027600031
 30
0.0
 10
111.1749958689
 20
883.4551881384
 30
0.0
 10
111.2522495512
 20
883.4554517079
 30
0.0
  0
SPLINE
  5
3CE
100
AcDbEntity
  8
00_COMPONENTS_1_1
100
AcDbSpline
 62
7
  6
CONTINUOUS
 70
0
 71
3
 72
9
 73
5
 74
0
 42
0.0000001
 43
0.0000001
 44
0.0000000001
 40
0.0
 40
0.0
 40
0.0
 40
0.0
 40
0.4989974079
 40
1.0
 40
1.0
 40
1.0
 40
1.0
 10
111.2522495511
 20
880.4545482921
 30
0.0
 10
111.1744663573
 20
880.4548136682
 30
0.0
 10
111.014771497
 20
880.4068374699
 30
0.0
 10
110.9111305115
 20
880.27669092
 30
0.0
 10
110.8816223187
 20
880.2043840375
 30
0.0
  0
SPLINE
  5
3CF
100
AcDbEntity
  8
00_COMPONENTS_1_1
100
AcDbSpline
 62
7
  6
CONTINUOUS
 70
0
 71
3
 72
9
 73
5
 74
0
 42
0.0000001
 43
0.0000001
 44
0.0000000001
 40
0.0
 40
0.0
 40
0.0
 40
0.0
 40
0.5045336841
 40
1.0
 40
1.0
 40
1.0
 40
1.0
 10
102.1585479107
 20
880.2042614897
 30
0.0
 10
102.1288236967
 20
880.2770977103
 30
0.0
 10
102.024806342
 20
880.4072399969
 30
0.0
 10
101.8651251689
 20
880.4548118616
 30
0.0
 10
101.7878714867
 20
880.4545482921
 30
0.0
  0
LINE
  5
3D0
100
AcDbEntity
  8
00_COMPONENTS_1_1
100
AcDbLine
 62
7
  6
CONTINUOUS
 10
104.9417630527
 20
885.3925356885
 11
105.4176839991
 21
885.4008418427
  0
LINE
  5
3D1
100
AcDbEntity
  8
00_COMPONENTS_1_1
100
AcDbLine
 62
7
  6
CONTINUOUS
 10
105.1302537914
 20
885.3609102266
 11
105.3475691482
 21
885.3647030525
  0
LINE
  5
3D2
100
AcDbEntity
  8
00_COMPONENTS_1_1
100
AcDbLine
 62
7
  6
CONTINUOUS
 10
106.5200603382
 20
885.4522857541
 11
104.6225181542
 21
885.4194407914
  0
LINE
  5
3D3
100
AcDbEntity
  8
00_COMPONENTS_1_1
100
AcDbLine
 62
7
  6
CONTINUOUS
 10
104.9417389491
 20
885.3939165812
 11
104.7208379387
 21
885.3949808112
  0
SPLINE
  5
3D4
100
AcDbEntity
  8
00_COMPONENTS_1_1
100
AcDbSpline
 62
7
  6
CONTINUOUS
 70
0
 71
3
 72
8
 73
4
 74
0
 42
0.0000001
 43
0.0000001
 44
0.0000000001
 40
0.0
 40
0.0
 40
0.0
 40
0.0
 40
1.0
 40
1.0
 40
1.0
 40
1.0
 10
102.3242089752
 20
880.860221676
 30
0.0
 10
102.2558886425
 20
880.8694446581
 30
0.0
 10
102.1875670107
 20
880.8786863533
 30
0.0
 10
102.1193721357
 20
880.8887952738
 30
0.0
  0
LINE
  5
3D5
100
AcDbEntity
  8
00_COMPONENTS_1_1
100
AcDbLine
 62
7
  6
CONTINUOUS
 10
108.4176039279
 20
885.4194394608
 11
106.5200606996
 21
885.4522844245
  0
LINE
  5
3D6
100
AcDbEntity
  8
00_COMPONENTS_1_1
100
AcDbLine
 62
7
  6
CONTINUOUS
 10
107.5839282307
 20
885.3665989361
 11
107.8012435875
 21
885.3628061102
  0
LINE
  5
3D7
100
AcDbEntity
  8
00_COMPONENTS_1_1
100
AcDbLine
 62
7
  6
CONTINUOUS
 10
108.4293380073
 20
885.3956442496
 11
108.2084369968
 21
885.3945800196
  0
SPLINE
  5
3D8
100
AcDbEntity
  8
00_COMPONENTS_1_1
100
AcDbSpline
 62
7
  6
CONTINUOUS
 70
0
 71
3
 72
8
 73
4
 74
0
 42
0.0000001
 43
0.0000001
 44
0.0000000001
 40
0.0
 40
0.0
 40
0.0
 40
0.0
 40
1.0
 40
1.0
 40
1.0
 40
1.0
 10
111.0240353743
 20
880.9038867148
 30
0.0
 10
110.9554120595
 20
880.8937143018
 30
0.0
 10
110.8867874967
 20
880.8835232068
 30
0.0
 10
110.8180379362
 20
880.8742422989
 30
0.0
  0
SPLINE
  5
3D9
100
AcDbEntity
  8
00_COMPONENTS_1_1
100
AcDbSpline
 62
7
  6
CONTINUOUS
 70
0
 71
3
 72
8
 73
4
 74
0
 42
0.0000001
 43
0.0000001
 44
0.0000000001
 40
0.0
 40
0.0
 40
0.0
 40
0.0
 40
1.0
 40
1.0
 40
1.0
 40
1.0
 10
109.7412984532
 20
878.6362269173
 30
0.0
 10
109.7147681428
 20
878.70004731
 30
0.0
 10
109.6882550211
 20
878.7638791469
 30
0.0
 10
109.6608984363
 20
878.8273497477
 30
0.0
  0
SPLINE
  5
3DA
100
AcDbEntity
  8
00_COMPONENTS_1_1
100
AcDbSpline
 62
7
  6
CONTINUOUS
 70
0
 71
3
 72
8
 73
4
 74
0
 42
0.0000001
 43
0.0000001
 44
0.0000000001
 40
0.0
 40
0.0
 40
0.0
 40
0.0
 40
1.0
 40
1.0
 40
1.0
 40
1.0
 10
103.4201173501
 20
878.9228288172
 30
0.0
 10
103.3927263981
 20
878.8592784346
 30
0.0
 10
103.3653527468
 20
878.7957164593
 30
0.0
 10
103.3387890947
 20
878.7318158508
 30
0.0
  0
SPLINE
  5
3DB
100
AcDbEntity
  8
00_COMPONENTS_1_1
100
AcDbSpline
 62
7
  6
CONTINUOUS
 70
0
 71
3
 72
9
 73
5
 74
0
 42
0.0000001
 43
0.0000001
 44
0.0000000001
 40
0.0
 40
0.0
 40
0.0
 40
0.0
 40
0.5
 40
1.0
 40
1.0
 40
1.0
 40
1.0
 10
105.3799979991
 20
885.3303537917
 30
0.0
 10
105.3225287648
 20
885.330218348
 30
0.0
 10
105.2075904696
 20
885.3308280334
 30
0.0
 10
105.0926521744
 20
885.3314377189
 30
0.0
 10
105.0351829401
 20
885.3313022751
 30
0.0
  0
LINE
  5
3DC
100
AcDbEntity
  8
00_COMPONENTS_1_1
100
AcDbLine
 62
7
  6
CONTINUOUS
 10
105.0378438219
 20
885.3395233775
 11
105.4487212323
 21
885.3460895816
  0
LINE
  5
3DD
100
AcDbEntity
  8
00_COMPONENTS_1_1
100
AcDbLine
 62
7
  6
CONTINUOUS
 10
107.5913998056
 20
885.3460895816
 11
108.002277216
 21
885.3395233775
  0
SPLINE
  5
3DE
100
AcDbEntity
  8
00_COMPONENTS_1_1
100
AcDbSpline
 62
7
  6
CONTINUOUS
 70
0
 71
3
 72
8
 73
4
 74
0
 42
0.0000001
 43
0.0000001
 44
0.0000000001
 40
0.0
 40
0.0
 40
0.0
 40
0.0
 40
1.0
 40
1.0
 40
1.0
 40
1.0
 10
102.2293260929
 20
880.8732299723
 30
0.0
 10
102.2930808219
 20
880.8643551345
 30
0.0
 10
102.3568366557
 20
880.8554617729
 30
0.0
 10
102.4207005659
 20
880.8474101154
 30
0.0
  0
SPLINE
  5
3DF
100
AcDbEntity
  8
00_COMPONENTS_1_1
100
AcDbSpline
 62
7
  6
CONTINUOUS
 70
0
 71
3
 72
10
 73
6
 74
0
 42
0.0000001
 43
0.0000001
 44
0.0000000001
 40
0.0
 40
0.0
 40
0.0
 40
0.0
 40
0.3325451808
 40
0.6674548192
 40
1.0
 40
1.0
 40
1.0
 40
1.0
 10
104.8282952329
 20
885.37477657
 30
0.0
 10
104.8929672556
 20
885.3759054244
 30
0.0
 10
105.0227809498
 20
885.3775931941
 30
0.0
 10
105.2172760666
 20
885.3795569818
 30
0.0
 10
105.3470897608
 20
885.3812447516
 30
0.0
 10
105.4117617835
 20
885.382373606
 30
0.0
  0
SPLINE
  5
3E0
100
AcDbEntity
  8
00_COMPONENTS_1_1
100
AcDbSpline
 62
7
  6
CONTINUOUS
 70
0
 71
3
 72
10
 73
6
 74
0
 42
0.0000001
 43
0.0000001
 44
0.0000000001
 40
0.0
 40
0.0
 40
0.0
 40
0.0
 40
0.3325451808
 40
0.6674548192
 40
1.0
 40
1.0
 40
1.0
 40
1.0
 10
107.6283592543
 20
885.382373606
 30
0.0
 10
107.6930312771
 20
885.3812447516
 30
0.0
 10
107.8228449713
 20
885.3795569818
 30
0.0
 10
108.0173400881
 20
885.3775931941
 30
0.0
 10
108.1471537823
 20
885.3759054244
 30
0.0
 10
108.211825805
 20
885.37477657
 30
0.0
  0
SPLINE
  5
3E1
100
AcDbEntity
  8
00_COMPONENTS_1_1
100
AcDbSpline
 62
7
  6
CONTINUOUS
 70
0
 71
3
 72
8
 73
4
 74
0
 42
0.0000001
 43
0.0000001
 44
0.0000000001
 40
0.0
 40
0.0
 40
0.0
 40
0.0
 40
1.0
 40
1.0
 40
1.0
 40
1.0
 10
110.5234165763
 20
880.8350855231
 30
0.0
 10
110.5873851668
 20
880.8431503934
 30
0.0
 10
110.6513549236
 20
880.8512339677
 30
0.0
 10
110.7152141539
 20
880.8601233669
 30
0.0
  0
SPLINE
  5
3E2
100
AcDbEntity
  8
00_COMPONENTS_1_1
100
AcDbSpline
 62
7
  6
CONTINUOUS
 70
0
 71
3
 72
8
 73
4
 74
0
 42
0.0000001
 43
0.0000001
 44
0.0000000001
 40
0.0
 40
0.0
 40
0.0
 40
0.0
 40
1.0
 40
1.0
 40
1.0
 40
1.0
 10
109.6576995411
 20
878.8347676928
 30
0.0
 10
109.6324651815
 20
878.8939869922
 30
0.0
 10
109.6072461486
 20
878.9532167901
 30
0.0
 10
109.5812497823
 20
879.0121055604
 30
0.0
  0
SPLINE
  5
3E3
100
AcDbEntity
  8
00_COMPONENTS_1_1
100
AcDbSpline
 62
7
  6
CONTINUOUS
 70
0
 71
3
 72
8
 73
4
 74
0
 42
0.0000001
 43
0.0000001
 44
0.0000000001
 40
0.0
 40
0.0
 40
0.0
 40
0.0
 40
1.0
 40
1.0
 40
1.0
 40
1.0
 10
103.4977611698
 20
879.10074444
 30
0.0
 10
103.4717221857
 20
879.0417590912
 30
0.0
 10
103.4456986365
 20
878.9827631046
 30
0.0
 10
103.4204229081
 20
878.9234466852
 30
0.0
  0
SPLINE
  5
3E4
100
AcDbEntity
  8
00_COMPONENTS_1_1
100
AcDbSpline
 62
7
  6
CONTINUOUS
 70
0
 71
3
 72
9
 73
5
 74
0
 42
0.0000001
 43
0.0000001
 44
0.0000000001
 40
0.0
 40
0.0
 40
0.0
 40
0.0
 40
0.5
 40
1.0
 40
1.0
 40
1.0
 40
1.0
 10
108.0049380978
 20
885.3313022751
 30
0.0
 10
107.9474688635
 20
885.3314377189
 30
0.0
 10
107.8325305683
 20
885.3308280334
 30
0.0
 10
107.7175922731
 20
885.330218348
 30
0.0
 10
107.6601230388
 20
885.3303537917
 30
0.0
  0
SPLINE
  5
3E5
100
AcDbEntity
  8
00_COMPONENTS_1_1
100
AcDbSpline
 62
7
  6
CONTINUOUS
 70
0
 71
3
 72
8
 73
4
 74
0
 42
0.0000001
 43
0.0000001
 44
0.0000000001
 40
0.0
 40
0.0
 40
0.0
 40
0.0
 40
1.0
 40
1.0
 40
1.0
 40
1.0
 10
110.5964864998
 20
880.8444230882
 30
0.0
 10
110.5243016495
 20
880.8350733671
 30
0.0
 10
110.4521139664
 20
880.8256980555
 30
0.0
 10
110.3797913712
 20
880.8174814798
 30
0.0
  0
SPLINE
  5
3E6
100
AcDbEntity
  8
00_COMPONENTS_1_1
100
AcDbSpline
 62
7
  6
CONTINUOUS
 70
0
 71
3
 72
8
 73
4
 74
0
 42
0.0000001
 43
0.0000001
 44
0.0000000001
 40
0.0
 40
0.0
 40
0.0
 40
0.0
 40
1.0
 40
1.0
 40
1.0
 40
1.0
 10
109.5719665985
 20
879.0332712188
 30
0.0
 10
109.5429442205
 20
879.0996244235
 30
0.0
 10
109.5139462169
 20
879.1659949374
 30
0.0
 10
109.4838866421
 20
879.2318847557
 30
0.0
  0
SPLINE
  5
3E7
100
AcDbEntity
  8
00_COMPONENTS_1_1
100
AcDbSpline
 62
7
  6
CONTINUOUS
 70
0
 71
3
 72
8
 73
4
 74
0
 42
0.0000001
 43
0.0000001
 44
0.0000000001
 40
0.0
 40
0.0
 40
0.0
 40
0.0
 40
1.0
 40
1.0
 40
1.0
 40
1.0
 10
102.767302318
 20
880.8050321275
 30
0.0
 10
102.6956353128
 20
880.8131742535
 30
0.0
 10
102.6239653978
 20
880.8213419744
 30
0.0
 10
102.5524348891
 20
880.8306069721
 30
0.0
  0
SPLINE
  5
3E8
100
AcDbEntity
  8
00_COMPONENTS_1_1
100
AcDbSpline
 62
7
  6
CONTINUOUS
 70
0
 71
3
 72
8
 73
4
 74
0
 42
0.0000001
 43
0.0000001
 44
0.0000000001
 40
0.0
 40
0.0
 40
0.0
 40
0.0
 40
1.0
 40
1.0
 40
1.0
 40
1.0
 10
103.4681544262
 20
879.033271219
 30
0.0
 10
103.4973241087
 20
879.0999612024
 30
0.0
 10
103.526473314
 20
879.1666667997
 30
0.0
 10
103.5566854576
 20
879.2328910448
 30
0.0
  0
SPLINE
  5
3E9
100
AcDbEntity
  8
00_COMPONENTS_1_1
100
AcDbSpline
 62
7
  6
CONTINUOUS
 70
0
 71
3
 72
9
 73
5
 74
0
 42
0.0000001
 43
0.0000001
 44
0.0000000001
 40
0.0
 40
0.0
 40
0.0
 40
0.0
 40
0.3098925045
 40
1.0
 40
1.0
 40
1.0
 40
1.0
 10
99.7993807427
 20
883.5178382337
 30
0.0
 10
99.8417029099
 20
883.5178382337
 30
0.0
 10
99.9520636665
 20
883.4980599465
 30
0.0
 10
100.2315732493
 20
883.6023647452
 30
0.0
 10
100.2090137388
 20
883.5108562078
 30
0.0
  0
SPLINE
  5
3EA
100
AcDbEntity
  8
00_COMPONENTS_1_1
100
AcDbSpline
 62
7
  6
CONTINUOUS
 70
0
 71
3
 72
9
 73
5
 74
0
 42
0.0000001
 43
0.0000001
 44
0.0000000001
 40
0.0
 40
0.0
 40
0.0
 40
0.0
 40
0.4068028399
 40
1.0
 40
1.0
 40
1.0
 40
1.0
 10
112.8311072991
 20
883.5108562078
 30
0.0
 10
112.8178083149
 20
883.56480111
 30
0.0
 10
113.0732864687
 20
883.4807897142
 30
0.0
 10
113.1597230532
 20
883.5178382337
 30
0.0
 10
113.2407402952
 20
883.5178382337
 30
0.0
  0
SPLINE
  5
3EB
100
AcDbEntity
  8
00_COMPONENTS_1_1
100
AcDbSpline
 62
7
  6
CONTINUOUS
 70
0
 71
3
 72
9
 73
5
 74
0
 42
0.0000001
 43
0.0000001
 44
0.0000000001
 40
0.0
 40
0.0
 40
0.0
 40
0.0
 40
0.4984726295
 40
1.0
 40
1.0
 40
1.0
 40
1.0
 10
102.0858633975
 20
883.8058126433
 30
0.0
 10
102.056549333
 20
883.73447085
 30
0.0
 10
101.9519409464
 20
883.6065216867
 30
0.0
 10
101.7938385786
 20
883.5595433232
 30
0.0
 10
101.7162368
 20
883.5592861081
 30
0.0
  0
LINE
  5
3EC
100
AcDbEntity
  8
00_COMPONENTS_1_1
100
AcDbLine
 62
7
  6
CONTINUOUS
 10
102.1595476276
 20
883.7051893153
 11
102.0848598731
 21
883.8063428254
  0
LINE
  5
3ED
100
AcDbEntity
  8
00_COMPONENTS_1_1
100
AcDbLine
 62
7
  6
CONTINUOUS
 10
110.9552611647
 20
883.8063428254
 11
110.8805734103
 21
883.7051893153
  0
SPLINE
  5
3EE
100
AcDbEntity
  8
00_COMPONENTS_1_1
100
AcDbSpline
 62
7
  6
CONTINUOUS
 70
0
 71
3
 72
9
 73
5
 74
0
 42
0.0000001
 43
0.0000001
 44
0.0000000001
 40
0.0
 40
0.0
 40
0.0
 40
0.0
 40
0.5002915171
 40
1.0
 40
1.0
 40
1.0
 40
1.0
 10
110.9542161422
 20
883.8059120652
 30
0.0
 10
110.9836435617
 20
883.7342943992
 30
0.0
 10
111.0884385025
 20
883.6063338426
 30
0.0
 10
111.2465471034
 20
883.559542446
 30
0.0
 10
111.3238842379
 20
883.5592861081
 30
0.0
  0
SPLINE
  5
3EF
100
AcDbEntity
  8
00_COMPONENTS_1_1
100
AcDbSpline
 62
7
  6
CONTINUOUS
 70
0
 71
3
 72
9
 73
5
 74
0
 42
0.0000001
 43
0.0000001
 44
0.0000000001
 40
0.0
 40
0.0
 40
0.0
 40
0.0
 40
0.3098925045
 40
1.0
 40
1.0
 40
1.0
 40
1.0
 10
113.2407402952
 20
880.3921617663
 30
0.0
 10
113.198418128
 20
880.3921617663
 30
0.0
 10
113.0880573714
 20
880.4119400535
 30
0.0
 10
112.8085477886
 20
880.3076352548
 30
0.0
 10
112.8311072991
 20
880.3991437922
 30
0.0
  0
SPLINE
  5
3F0
100
AcDbEntity
  8
00_COMPONENTS_1_1
100
AcDbSpline
 62
7
  6
CONTINUOUS
 70
0
 71
3
 72
9
 73
5
 74
0
 42
0.0000001
 43
0.0000001
 44
0.0000000001
 40
0.0
 40
0.0
 40
0.0
 40
0.0
 40
0.4068028399
 40
1.0
 40
1.0
 40
1.0
 40
1.0
 10
100.2090137388
 20
880.3991437922
 30
0.0
 10
100.222312723
 20
880.34519889
 30
0.0
 10
99.9668345691
 20
880.4292102857
 30
0.0
 10
99.8803979847
 20
880.3921617663
 30
0.0
 10
99.7993807427
 20
880.3921617663
 30
0.0
  0
SPLINE
  5
3F1
100
AcDbEntity
  8
00_COMPONENTS_1_1
100
AcDbSpline
 62
7
  6
CONTINUOUS
 70
0
 71
3
 72
9
 73
5
 74
0
 42
0.0000001
 43
0.0000001
 44
0.0000000001
 40
0.0
 40
0.0
 40
0.0
 40
0.0
 40
0.4984726295
 40
1.0
 40
1.0
 40
1.0
 40
1.0
 10
110.9542576404
 20
880.1041873567
 30
0.0
 10
110.9835717049
 20
880.17552915
 30
0.0
 10
111.0881800915
 20
880.3034783133
 30
0.0
 10
111.2462824593
 20
880.3504566768
 30
0.0
 10
111.3238842379
 20
880.3507138919
 30
0.0
  0
SPLINE
  5
3F2
100
AcDbEntity
  8
00_COMPONENTS_1_1
100
AcDbSpline
 62
7
  6
CONTINUOUS
 70
0
 71
3
 72
9
 73
5
 74
0
 42
0.0000001
 43
0.0000001
 44
0.0000000001
 40
0.0
 40
0.0
 40
0.0
 40
0.0
 40
0.5002915171
 40
1.0
 40
1.0
 40
1.0
 40
1.0
 10
102.0859048957
 20
880.1040879348
 30
0.0
 10
102.0564774762
 20
880.1757056008
 30
0.0
 10
101.9516825354
 20
880.3036661574
 30
0.0
 10
101.7935739345
 20
880.350457554
 30
0.0
 10
101.7162368
 20
880.3507138919
 30
0.0
  0
LINE
  5
3F3
100
AcDbEntity
  8
00_COMPONENTS_1_1
100
AcDbLine
 62
7
  6
CONTINUOUS
 10
102.0848598731
 20
880.1036571746
 11
102.1595476276
 21
880.2048106847
  0
LINE
  5
3F4
100
AcDbEntity
  8
00_COMPONENTS_1_1
100
AcDbLine
 62
7
  6
CONTINUOUS
 10
110.8805734103
 20
880.2048106847
 11
110.9552611647
 21
880.1036571746
  0
SPLINE
  5
3F5
100
AcDbEntity
  8
00_COMPONENTS_1_1
100
AcDbSpline
 62
7
  6
CONTINUOUS
 70
0
 71
3
 72
9
 73
5
 74
0
 42
0.0000001
 43
0.0000001
 44
0.0000000001
 40
0.0
 40
0.0
 40
0.0
 40
0.0
 40
0.4989974079
 40
1.0
 40
1.0
 40
1.0
 40
1.0
 10
101.7878714867
 20
233.4554517079
 30
0.0
 10
101.8656546806
 20
233.4551863318
 30
0.0
 10
102.0253495409
 20
233.50316253
 30
0.0
 10
102.1289905264
 20
233.6333090799
 30
0.0
 10
102.1584987192
 20
233.7056159625
 30
0.0
  0
SPLINE
  5
3F6
100
AcDbEntity
  8
00_COMPONENTS_1_1
100
AcDbSpline
 62
7
  6
CONTINUOUS
 70
0
 71
3
 72
9
 73
5
 74
0
 42
0.0000001
 43
0.0000001
 44
0.0000000001
 40
0.0
 40
0.0
 40
0.0
 40
0.0
 40
0.5045336841
 40
1.0
 40
1.0
 40
1.0
 40
1.0
 10
110.8815731272
 20
233.7057385103
 30
0.0
 10
110.9112973411
 20
233.6329022896
 30
0.0
 10
111.0153146959
 20
233.5027600031
 30
0.0
 10
111.1749958689
 20
233.4551881384
 30
0.0
 10
111.2522495512
 20
233.4554517079
 30
0.0
  0
SPLINE
  5
3F7
100
AcDbEntity
  8
00_COMPONENTS_1_1
100
AcDbSpline
 62
7
  6
CONTINUOUS
 70
0
 71
3
 72
9
 73
5
 74
0
 42
0.0000001
 43
0.0000001
 44
0.0000000001
 40
0.0
 40
0.0
 40
0.0
 40
0.0
 40
0.4989974079
 40
1.0
 40
1.0
 40
1.0
 40
1.0
 10
111.2522495511
 20
230.4545482921
 30
0.0
 10
111.1744663573
 20
230.4548136682
 30
0.0
 10
111.014771497
 20
230.4068374699
 30
0.0
 10
110.9111305115
 20
230.27669092
 30
0.0
 10
110.8816223187
 20
230.2043840375
 30
0.0
  0
SPLINE
  5
3F8
100
AcDbEntity
  8
00_COMPONENTS_1_1
100
AcDbSpline
 62
7
  6
CONTINUOUS
 70
0
 71
3
 72
9
 73
5
 74
0
 42
0.0000001
 43
0.0000001
 44
0.0000000001
 40
0.0
 40
0.0
 40
0.0
 40
0.0
 40
0.5045336841
 40
1.0
 40
1.0
 40
1.0
 40
1.0
 10
102.1585479107
 20
230.2042614897
 30
0.0
 10
102.1288236967
 20
230.2770977103
 30
0.0
 10
102.024806342
 20
230.4072399969
 30
0.0
 10
101.8651251689
 20
230.4548118616
 30
0.0
 10
101.7878714867
 20
230.4545482921
 30
0.0
  0
LINE
  5
3F9
100
AcDbEntity
  8
00_COMPONENTS_1_1
100
AcDbLine
 62
7
  6
CONTINUOUS
 10
104.9417630527
 20
235.3925356885
 11
105.4176839991
 21
235.4008418427
  0
LINE
  5
3FA
100
AcDbEntity
  8
00_COMPONENTS_1_1
100
AcDbLine
 62
7
  6
CONTINUOUS
 10
105.1302537914
 20
235.3609102266
 11
105.3475691482
 21
235.3647030525
  0
LINE
  5
3FB
100
AcDbEntity
  8
00_COMPONENTS_1_1
100
AcDbLine
 62
7
  6
CONTINUOUS
 10
106.5200603382
 20
235.4522857541
 11
104.6225181542
 21
235.4194407914
  0
LINE
  5
3FC
100
AcDbEntity
  8
00_COMPONENTS_1_1
100
AcDbLine
 62
7
  6
CONTINUOUS
 10
104.9417389491
 20
235.3939165812
 11
104.7208379387
 21
235.3949808112
  0
SPLINE
  5
3FD
100
AcDbEntity
  8
00_COMPONENTS_1_1
100
AcDbSpline
 62
7
  6
CONTINUOUS
 70
0
 71
3
 72
8
 73
4
 74
0
 42
0.0000001
 43
0.0000001
 44
0.0000000001
 40
0.0
 40
0.0
 40
0.0
 40
0.0
 40
1.0
 40
1.0
 40
1.0
 40
1.0
 10
102.3242089752
 20
230.860221676
 30
0.0
 10
102.2558886425
 20
230.8694446581
 30
0.0
 10
102.1875670107
 20
230.8786863533
 30
0.0
 10
102.1193721357
 20
230.8887952738
 30
0.0
  0
LINE
  5
3FE
100
AcDbEntity
  8
00_COMPONENTS_1_1
100
AcDbLine
 62
7
  6
CONTINUOUS
 10
108.4176039279
 20
235.4194394608
 11
106.5200606996
 21
235.4522844245
  0
LINE
  5
3FF
100
AcDbEntity
  8
00_COMPONENTS_1_1
100
AcDbLine
 62
7
  6
CONTINUOUS
 10
107.5839282307
 20
235.3665989361
 11
107.8012435875
 21
235.3628061102
  0
LINE
  5
400
100
AcDbEntity
  8
00_COMPONENTS_1_1
100
AcDbLine
 62
7
  6
CONTINUOUS
 10
108.4293380073
 20
235.3956442496
 11
108.2084369968
 21
235.3945800196
  0
SPLINE
  5
401
100
AcDbEntity
  8
00_COMPONENTS_1_1
100
AcDbSpline
 62
7
  6
CONTINUOUS
 70
0
 71
3
 72
8
 73
4
 74
0
 42
0.0000001
 43
0.0000001
 44
0.0000000001
 40
0.0
 40
0.0
 40
0.0
 40
0.0
 40
1.0
 40
1.0
 40
1.0
 40
1.0
 10
111.0240353743
 20
230.9038867148
 30
0.0
 10
110.9554120595
 20
230.8937143018
 30
0.0
 10
110.8867874967
 20
230.8835232068
 30
0.0
 10
110.8180379362
 20
230.8742422989
 30
0.0
  0
SPLINE
  5
402
100
AcDbEntity
  8
00_COMPONENTS_1_1
100
AcDbSpline
 62
7
  6
CONTINUOUS
 70
0
 71
3
 72
8
 73
4
 74
0
 42
0.0000001
 43
0.0000001
 44
0.0000000001
 40
0.0
 40
0.0
 40
0.0
 40
0.0
 40
1.0
 40
1.0
 40
1.0
 40
1.0
 10
109.7412984532
 20
228.6362269173
 30
0.0
 10
109.7147681428
 20
228.70004731
 30
0.0
 10
109.6882550211
 20
228.7638791469
 30
0.0
 10
109.6608984363
 20
228.8273497477
 30
0.0
  0
SPLINE
  5
403
100
AcDbEntity
  8
00_COMPONENTS_1_1
100
AcDbSpline
 62
7
  6
CONTINUOUS
 70
0
 71
3
 72
8
 73
4
 74
0
 42
0.0000001
 43
0.0000001
 44
0.0000000001
 40
0.0
 40
0.0
 40
0.0
 40
0.0
 40
1.0
 40
1.0
 40
1.0
 40
1.0
 10
103.4201173501
 20
228.9228288172
 30
0.0
 10
103.3927263981
 20
228.8592784346
 30
0.0
 10
103.3653527468
 20
228.7957164593
 30
0.0
 10
103.3387890947
 20
228.7318158508
 30
0.0
  0
SPLINE
  5
404
100
AcDbEntity
  8
00_COMPONENTS_1_1
100
AcDbSpline
 62
7
  6
CONTINUOUS
 70
0
 71
3
 72
9
 73
5
 74
0
 42
0.0000001
 43
0.0000001
 44
0.0000000001
 40
0.0
 40
0.0
 40
0.0
 40
0.0
 40
0.5
 40
1.0
 40
1.0
 40
1.0
 40
1.0
 10
105.3799979991
 20
235.3303537917
 30
0.0
 10
105.3225287648
 20
235.330218348
 30
0.0
 10
105.2075904696
 20
235.3308280334
 30
0.0
 10
105.0926521744
 20
235.3314377189
 30
0.0
 10
105.0351829401
 20
235.3313022751
 30
0.0
  0
LINE
  5
405
100
AcDbEntity
  8
00_COMPONENTS_1_1
100
AcDbLine
 62
7
  6
CONTINUOUS
 10
105.0378438219
 20
235.3395233775
 11
105.4487212323
 21
235.3460895816
  0
LINE
  5
406
100
AcDbEntity
  8
00_COMPONENTS_1_1
100
AcDbLine
 62
7
  6
CONTINUOUS
 10
107.5913998056
 20
235.3460895816
 11
108.002277216
 21
235.3395233775
  0
SPLINE
  5
407
100
AcDbEntity
  8
00_COMPONENTS_1_1
100
AcDbSpline
 62
7
  6
CONTINUOUS
 70
0
 71
3
 72
8
 73
4
 74
0
 42
0.0000001
 43
0.0000001
 44
0.0000000001
 40
0.0
 40
0.0
 40
0.0
 40
0.0
 40
1.0
 40
1.0
 40
1.0
 40
1.0
 10
102.2293260929
 20
230.8732299723
 30
0.0
 10
102.2930808219
 20
230.8643551345
 30
0.0
 10
102.3568366557
 20
230.8554617729
 30
0.0
 10
102.4207005659
 20
230.8474101154
 30
0.0
  0
SPLINE
  5
408
100
AcDbEntity
  8
00_COMPONENTS_1_1
100
AcDbSpline
 62
7
  6
CONTINUOUS
 70
0
 71
3
 72
10
 73
6
 74
0
 42
0.0000001
 43
0.0000001
 44
0.0000000001
 40
0.0
 40
0.0
 40
0.0
 40
0.0
 40
0.3325451808
 40
0.6674548192
 40
1.0
 40
1.0
 40
1.0
 40
1.0
 10
104.8282952329
 20
235.37477657
 30
0.0
 10
104.8929672556
 20
235.3759054244
 30
0.0
 10
105.0227809498
 20
235.3775931941
 30
0.0
 10
105.2172760666
 20
235.3795569818
 30
0.0
 10
105.3470897608
 20
235.3812447516
 30
0.0
 10
105.4117617835
 20
235.382373606
 30
0.0
  0
SPLINE
  5
409
100
AcDbEntity
  8
00_COMPONENTS_1_1
100
AcDbSpline
 62
7
  6
CONTINUOUS
 70
0
 71
3
 72
10
 73
6
 74
0
 42
0.0000001
 43
0.0000001
 44
0.0000000001
 40
0.0
 40
0.0
 40
0.0
 40
0.0
 40
0.3325451808
 40
0.6674548192
 40
1.0
 40
1.0
 40
1.0
 40
1.0
 10
107.6283592543
 20
235.382373606
 30
0.0
 10
107.6930312771
 20
235.3812447516
 30
0.0
 10
107.8228449713
 20
235.3795569818
 30
0.0
 10
108.0173400881
 20
235.3775931941
 30
0.0
 10
108.1471537823
 20
235.3759054244
 30
0.0
 10
108.211825805
 20
235.37477657
 30
0.0
  0
SPLINE
  5
40A
100
AcDbEntity
  8
00_COMPONENTS_1_1
100
AcDbSpline
 62
7
  6
CONTINUOUS
 70
0
 71
3
 72
8
 73
4
 74
0
 42
0.0000001
 43
0.0000001
 44
0.0000000001
 40
0.0
 40
0.0
 40
0.0
 40
0.0
 40
1.0
 40
1.0
 40
1.0
 40
1.0
 10
110.5234165763
 20
230.8350855231
 30
0.0
 10
110.5873851668
 20
230.8431503934
 30
0.0
 10
110.6513549236
 20
230.8512339677
 30
0.0
 10
110.7152141539
 20
230.8601233669
 30
0.0
  0
SPLINE
  5
40B
100
AcDbEntity
  8
00_COMPONENTS_1_1
100
AcDbSpline
 62
7
  6
CONTINUOUS
 70
0
 71
3
 72
8
 73
4
 74
0
 42
0.0000001
 43
0.0000001
 44
0.0000000001
 40
0.0
 40
0.0
 40
0.0
 40
0.0
 40
1.0
 40
1.0
 40
1.0
 40
1.0
 10
109.6576995411
 20
228.8347676928
 30
0.0
 10
109.6324651815
 20
228.8939869922
 30
0.0
 10
109.6072461486
 20
228.9532167901
 30
0.0
 10
109.5812497823
 20
229.0121055604
 30
0.0
  0
SPLINE
  5
40C
100
AcDbEntity
  8
00_COMPONENTS_1_1
100
AcDbSpline
 62
7
  6
CONTINUOUS
 70
0
 71
3
 72
8
 73
4
 74
0
 42
0.0000001
 43
0.0000001
 44
0.0000000001
 40
0.0
 40
0.0
 40
0.0
 40
0.0
 40
1.0
 40
1.0
 40
1.0
 40
1.0
 10
103.4977611698
 20
229.10074444
 30
0.0
 10
103.4717221857
 20
229.0417590912
 30
0.0
 10
103.4456986365
 20
228.9827631046
 30
0.0
 10
103.4204229081
 20
228.9234466852
 30
0.0
  0
SPLINE
  5
40D
100
AcDbEntity
  8
00_COMPONENTS_1_1
100
AcDbSpline
 62
7
  6
CONTINUOUS
 70
0
 71
3
 72
9
 73
5
 74
0
 42
0.0000001
 43
0.0000001
 44
0.0000000001
 40
0.0
 40
0.0
 40
0.0
 40
0.0
 40
0.5
 40
1.0
 40
1.0
 40
1.0
 40
1.0
 10
108.0049380978
 20
235.3313022751
 30
0.0
 10
107.9474688635
 20
235.3314377189
 30
0.0
 10
107.8325305683
 20
235.3308280334
 30
0.0
 10
107.7175922731
 20
235.330218348
 30
0.0
 10
107.6601230388
 20
235.3303537917
 30
0.0
  0
SPLINE
  5
40E
100
AcDbEntity
  8
00_COMPONENTS_1_1
100
AcDbSpline
 62
7
  6
CONTINUOUS
 70
0
 71
3
 72
8
 73
4
 74
0
 42
0.0000001
 43
0.0000001
 44
0.0000000001
 40
0.0
 40
0.0
 40
0.0
 40
0.0
 40
1.0
 40
1.0
 40
1.0
 40
1.0
 10
110.5964864998
 20
230.8444230882
 30
0.0
 10
110.5243016495
 20
230.8350733671
 30
0.0
 10
110.4521139664
 20
230.8256980555
 30
0.0
 10
110.3797913712
 20
230.8174814798
 30
0.0
  0
SPLINE
  5
40F
100
AcDbEntity
  8
00_COMPONENTS_1_1
100
AcDbSpline
 62
7
  6
CONTINUOUS
 70
0
 71
3
 72
8
 73
4
 74
0
 42
0.0000001
 43
0.0000001
 44
0.0000000001
 40
0.0
 40
0.0
 40
0.0
 40
0.0
 40
1.0
 40
1.0
 40
1.0
 40
1.0
 10
109.5719665985
 20
229.0332712188
 30
0.0
 10
109.5429442205
 20
229.0996244235
 30
0.0
 10
109.5139462169
 20
229.1659949374
 30
0.0
 10
109.4838866421
 20
229.2318847557
 30
0.0
  0
SPLINE
  5
410
100
AcDbEntity
  8
00_COMPONENTS_1_1
100
AcDbSpline
 62
7
  6
CONTINUOUS
 70
0
 71
3
 72
8
 73
4
 74
0
 42
0.0000001
 43
0.0000001
 44
0.0000000001
 40
0.0
 40
0.0
 40
0.0
 40
0.0
 40
1.0
 40
1.0
 40
1.0
 40
1.0
 10
102.767302318
 20
230.8050321275
 30
0.0
 10
102.6956353128
 20
230.8131742535
 30
0.0
 10
102.6239653978
 20
230.8213419744
 30
0.0
 10
102.5524348891
 20
230.8306069721
 30
0.0
  0
SPLINE
  5
411
100
AcDbEntity
  8
00_COMPONENTS_1_1
100
AcDbSpline
 62
7
  6
CONTINUOUS
 70
0
 71
3
 72
8
 73
4
 74
0
 42
0.0000001
 43
0.0000001
 44
0.0000000001
 40
0.0
 40
0.0
 40
0.0
 40
0.0
 40
1.0
 40
1.0
 40
1.0
 40
1.0
 10
103.4681544262
 20
229.033271219
 30
0.0
 10
103.4973241087
 20
229.0999612024
 30
0.0
 10
103.526473314
 20
229.1666667997
 30
0.0
 10
103.5566854576
 20
229.2328910448
 30
0.0
  0
SPLINE
  5
412
100
AcDbEntity
  8
00_COMPONENTS_1_1
100
AcDbSpline
 62
7
  6
CONTINUOUS
 70
0
 71
3
 72
9
 73
5
 74
0
 42
0.0000001
 43
0.0000001
 44
0.0000000001
 40
0.0
 40
0.0
 40
0.0
 40
0.0
 40
0.3098925045
 40
1.0
 40
1.0
 40
1.0
 40
1.0
 10
99.7993807427
 20
233.5178382337
 30
0.0
 10
99.8417029099
 20
233.5178382337
 30
0.0
 10
99.9520636665
 20
233.4980599465
 30
0.0
 10
100.2315732493
 20
233.6023647452
 30
0.0
 10
100.2090137388
 20
233.5108562078
 30
0.0
  0
SPLINE
  5
413
100
AcDbEntity
  8
00_COMPONENTS_1_1
100
AcDbSpline
 62
7
  6
CONTINUOUS
 70
0
 71
3
 72
9
 73
5
 74
0
 42
0.0000001
 43
0.0000001
 44
0.0000000001
 40
0.0
 40
0.0
 40
0.0
 40
0.0
 40
0.4068028399
 40
1.0
 40
1.0
 40
1.0
 40
1.0
 10
112.8311072991
 20
233.5108562078
 30
0.0
 10
112.8178083149
 20
233.56480111
 30
0.0
 10
113.0732864687
 20
233.4807897142
 30
0.0
 10
113.1597230532
 20
233.5178382337
 30
0.0
 10
113.2407402952
 20
233.5178382337
 30
0.0
  0
SPLINE
  5
414
100
AcDbEntity
  8
00_COMPONENTS_1_1
100
AcDbSpline
 62
7
  6
CONTINUOUS
 70
0
 71
3
 72
9
 73
5
 74
0
 42
0.0000001
 43
0.0000001
 44
0.0000000001
 40
0.0
 40
0.0
 40
0.0
 40
0.0
 40
0.4984726295
 40
1.0
 40
1.0
 40
1.0
 40
1.0
 10
102.0858633975
 20
233.8058126433
 30
0.0
 10
102.056549333
 20
233.73447085
 30
0.0
 10
101.9519409464
 20
233.6065216867
 30
0.0
 10
101.7938385786
 20
233.5595433232
 30
0.0
 10
101.7162368
 20
233.5592861081
 30
0.0
  0
LINE
  5
415
100
AcDbEntity
  8
00_COMPONENTS_1_1
100
AcDbLine
 62
7
  6
CONTINUOUS
 10
102.1595476276
 20
233.7051893153
 11
102.0848598731
 21
233.8063428254
  0
LINE
  5
416
100
AcDbEntity
  8
00_COMPONENTS_1_1
100
AcDbLine
 62
7
  6
CONTINUOUS
 10
110.9552611647
 20
233.8063428254
 11
110.8805734103
 21
233.7051893153
  0
SPLINE
  5
417
100
AcDbEntity
  8
00_COMPONENTS_1_1
100
AcDbSpline
 62
7
  6
CONTINUOUS
 70
0
 71
3
 72
9
 73
5
 74
0
 42
0.0000001
 43
0.0000001
 44
0.0000000001
 40
0.0
 40
0.0
 40
0.0
 40
0.0
 40
0.5002915171
 40
1.0
 40
1.0
 40
1.0
 40
1.0
 10
110.9542161422
 20
233.8059120652
 30
0.0
 10
110.9836435617
 20
233.7342943992
 30
0.0
 10
111.0884385025
 20
233.6063338426
 30
0.0
 10
111.2465471034
 20
233.559542446
 30
0.0
 10
111.3238842379
 20
233.5592861081
 30
0.0
  0
SPLINE
  5
418
100
AcDbEntity
  8
00_COMPONENTS_1_1
100
AcDbSpline
 62
7
  6
CONTINUOUS
 70
0
 71
3
 72
9
 73
5
 74
0
 42
0.0000001
 43
0.0000001
 44
0.0000000001
 40
0.0
 40
0.0
 40
0.0
 40
0.0
 40
0.3098925045
 40
1.0
 40
1.0
 40
1.0
 40
1.0
 10
113.2407402952
 20
230.3921617663
 30
0.0
 10
113.198418128
 20
230.3921617663
 30
0.0
 10
113.0880573714
 20
230.4119400535
 30
0.0
 10
112.8085477886
 20
230.3076352548
 30
0.0
 10
112.8311072991
 20
230.3991437922
 30
0.0
  0
SPLINE
  5
419
100
AcDbEntity
  8
00_COMPONENTS_1_1
100
AcDbSpline
 62
7
  6
CONTINUOUS
 70
0
 71
3
 72
9
 73
5
 74
0
 42
0.0000001
 43
0.0000001
 44
0.0000000001
 40
0.0
 40
0.0
 40
0.0
 40
0.0
 40
0.4068028399
 40
1.0
 40
1.0
 40
1.0
 40
1.0
 10
100.2090137388
 20
230.3991437922
 30
0.0
 10
100.222312723
 20
230.34519889
 30
0.0
 10
99.9668345691
 20
230.4292102857
 30
0.0
 10
99.8803979847
 20
230.3921617663
 30
0.0
 10
99.7993807427
 20
230.3921617663
 30
0.0
  0
SPLINE
  5
41A
100
AcDbEntity
  8
00_COMPONENTS_1_1
100
AcDbSpline
 62
7
  6
CONTINUOUS
 70
0
 71
3
 72
9
 73
5
 74
0
 42
0.0000001
 43
0.0000001
 44
0.0000000001
 40
0.0
 40
0.0
 40
0.0
 40
0.0
 40
0.4984726295
 40
1.0
 40
1.0
 40
1.0
 40
1.0
 10
110.9542576404
 20
230.1041873567
 30
0.0
 10
110.9835717049
 20
230.17552915
 30
0.0
 10
111.0881800915
 20
230.3034783133
 30
0.0
 10
111.2462824593
 20
230.3504566768
 30
0.0
 10
111.3238842379
 20
230.3507138919
 30
0.0
  0
SPLINE
  5
41B
100
AcDbEntity
  8
00_COMPONENTS_1_1
100
AcDbSpline
 62
7
  6
CONTINUOUS
 70
0
 71
3
 72
9
 73
5
 74
0
 42
0.0000001
 43
0.0000001
 44
0.0000000001
 40
0.0
 40
0.0
 40
0.0
 40
0.0
 40
0.5002915171
 40
1.0
 40
1.0
 40
1.0
 40
1.0
 10
102.0859048957
 20
230.1040879348
 30
0.0
 10
102.0564774762
 20
230.1757056008
 30
0.0
 10
101.9516825354
 20
230.3036661574
 30
0.0
 10
101.7935739345
 20
230.350457554
 30
0.0
 10
101.7162368
 20
230.3507138919
 30
0.0
  0
LINE
  5
41C
100
AcDbEntity
  8
00_COMPONENTS_1_1
100
AcDbLine
 62
7
  6
CONTINUOUS
 10
102.0848598731
 20
230.1036571746
 11
102.1595476276
 21
230.2048106847
  0
LINE
  5
41D
100
AcDbEntity
  8
00_COMPONENTS_1_1
100
AcDbLine
 62
7
  6
CONTINUOUS
 10
110.8805734103
 20
230.2048106847
 11
110.9552611647
 21
230.1036571746
  0
ELLIPSE
  5
41E
100
AcDbEntity
  8
0
100
AcDbEllipse
 62
7
  6
CONTINUOUS
 10
93.2825265095
 20
893.705
 30
0.0
 11
0.0
 21
1.5
 31
0.0
 40
0.0874886635
 41
-1.5707963268
 42
-1.2651301761
  0
ELLIPSE
  5
41F
100
AcDbEntity
  8
0
100
AcDbEllipse
 62
7
  6
CONTINUOUS
 10
119.7575945284
 20
893.705
 30
0.0
 11
-0.0
 21
1.5
 31
0.0
 40
0.0874886635
 41
1.2651301761
 42
1.5707963268
  0
ELLIPSE
  5
420
100
AcDbEntity
  8
0
100
AcDbEllipse
 62
7
  6
CONTINUOUS
 10
93.0961756562
 20
900.455
 30
0.0
 11
0.0
 21
1.5
 31
0.0
 40
0.0874886635
 41
-1.2651301761
 42
-0.7891625446
  0
ELLIPSE
  5
421
100
AcDbEntity
  8
0
100
AcDbEllipse
 62
7
  6
CONTINUOUS
 10
93.0961756562
 20
863.455
 30
0.0
 11
0.0
 21
1.5
 31
0.0
 40
0.0874886635
 41
-2.352430109
 42
-1.8764624775
  0
ELLIPSE
  5
422
100
AcDbEntity
  8
0
100
AcDbEllipse
 62
7
  6
CONTINUOUS
 10
119.9439453817
 20
863.455
 30
0.0
 11
0.0
 21
1.5
 31
0.0
 40
0.0874886635
 41
-4.4067228297
 42
-3.9307551982
  0
ELLIPSE
  5
423
100
AcDbEntity
  8
0
100
AcDbEllipse
 62
7
  6
CONTINUOUS
 10
119.9439453817
 20
900.455
 30
0.0
 11
0.0
 21
1.5
 31
0.0
 40
0.0874886635
 41
0.7891625446
 42
1.2651301761
  0
ELLIPSE
  5
424
100
AcDbEntity
  8
0
100
AcDbEllipse
 62
7
  6
CONTINUOUS
 10
93.2825265095
 20
870.205
 30
0.0
 11
0.0
 21
1.5
 31
0.0
 40
0.0874886635
 41
-1.8764624775
 42
-1.5707963389
  0
ELLIPSE
  5
425
100
AcDbEntity
  8
0
100
AcDbEllipse
 62
7
  6
CONTINUOUS
 10
119.7575945284
 20
870.205
 30
0.0
 11
0.0
 21
1.5
 31
0.0
 40
0.0874886635
 41
1.5707962999
 42
1.8764624775
  0
ELLIPSE
  5
426
100
AcDbEntity
  8
0
100
AcDbEllipse
 62
7
  6
CONTINUOUS
 10
93.2825265095
 20
243.705
 30
0.0
 11
0.0
 21
1.5
 31
0.0
 40
0.0874886635
 41
-1.5707963268
 42
-1.2651301761
  0
ELLIPSE
  5
427
100
AcDbEntity
  8
0
100
AcDbEllipse
 62
7
  6
CONTINUOUS
 10
119.7575945284
 20
243.705
 30
0.0
 11
0.0
 21
1.5
 31
0.0
 40
0.0874886635
 41
1.2651301761
 42
1.5707963268
  0
ELLIPSE
  5
428
100
AcDbEntity
  8
0
100
AcDbEllipse
 62
7
  6
CONTINUOUS
 10
93.0961756562
 20
250.455
 30
0.0
 11
0.0
 21
1.5
 31
0.0
 40
0.0874886635
 41
-1.2651301761
 42
-0.7891625446
  0
ELLIPSE
  5
429
100
AcDbEntity
  8
0
100
AcDbEllipse
 62
7
  6
CONTINUOUS
 10
93.0961756562
 20
213.455
 30
0.0
 11
0.0
 21
1.5
 31
0.0
 40
0.0874886635
 41
-2.352430109
 42
-1.8764624775
  0
ELLIPSE
  5
42A
100
AcDbEntity
  8
0
100
AcDbEllipse
 62
7
  6
CONTINUOUS
 10
119.9439453817
 20
213.455
 30
0.0
 11
0.0
 21
1.5
 31
0.0
 40
0.0874886635
 41
-4.4067228297
 42
-3.9307551982
  0
ELLIPSE
  5
42B
100
AcDbEntity
  8
0
100
AcDbEllipse
 62
7
  6
CONTINUOUS
 10
119.9439453817
 20
250.455
 30
0.0
 11
0.0
 21
1.5
 31
0.0
 40
0.0874886635
 41
0.7891625446
 42
1.2651301761
  0
ELLIPSE
  5
42C
100
AcDbEntity
  8
0
100
AcDbEllipse
 62
7
  6
CONTINUOUS
 10
93.2825265095
 20
220.205
 30
0.0
 11
0.0
 21
1.5
 31
0.0
 40
0.0874886635
 41
-1.8764624775
 42
-1.5707963389
  0
ELLIPSE
  5
42D
100
AcDbEntity
  8
0
100
AcDbEllipse
 62
7
  6
CONTINUOUS
 10
119.7575945284
 20
220.205
 30
0.0
 11
-0.0
 21
1.5
 31
0.0
 40
0.0874886635
 41
1.5707962999
 42
1.8764624775
  0
ELLIPSE
  5
42E
100
AcDbEntity
  8
00_COMPONENTS_7
100
AcDbEllipse
 62
7
  6
CONTINUOUS
 10
720.645822193
 20
857.3772222222
 30
0.0
 11
2.0
 21
-0.0
 31
0.0
 40
0.0111111111
 41
-1.5707765064
 42
-0.0348867591
  0
ELLIPSE
  5
42F
100
AcDbEntity
  8
00_COMPONENTS_7
100
AcDbEllipse
 62
7
  6
CONTINUOUS
 10
720.645822193
 20
200.3772222222
 30
0.0
 11
2.0
 21
0.0
 31
0.0
 40
0.0111111111
 41
-1.5707765064
 42
-0.0348867591
  0
ELLIPSE
  5
430
100
AcDbEntity
  8
00_COMPONENTS_7
100
AcDbEllipse
 62
7
  6
CONTINUOUS
 10
720.645822193
 20
256.5327777778
 30
0.0
 11
2.0
 21
0.0
 31
0.0
 40
0.0111111111
 41
0.0348867591
 42
1.5707765064
  0
ELLIPSE
  5
431
100
AcDbEntity
  8
00_COMPONENTS_7
100
AcDbEllipse
 62
7
  6
CONTINUOUS
 10
720.645822193
 20
913.5327777778
 30
0.0
 11
2.0
 21
-0.0
 31
0.0
 40
0.0111111111
 41
0.0348867591
 42
1.5707765064
  0
ELLIPSE
  5
432
100
AcDbEntity
  8
00_COMPONENTS_3
100
AcDbEllipse
 62
7
  6
CONTINUOUS
 10
92.2602128325
 20
976.4548476864
 30
0.0
 11
-2.8286425245
 21
2.8286425245
 31
0.0
 40
0.9999238505
 41
-0.7853600872
 42
0.7853600872
  0
ELLIPSE
  5
433
100
AcDbEntity
  8
00_COMPONENTS_3
100
AcDbEllipse
 62
7
  6
CONTINUOUS
 10
720.7799082054
 20
976.4548476865
 30
0.0
 11
2.8286425245
 21
2.8286425245
 31
0.0
 40
0.9999238505
 41
-0.7853600872
 42
0.7853600872
  0
ELLIPSE
  5
434
100
AcDbEntity
  8
00_COMPONENTS_3
100
AcDbEllipse
 62
7
  6
CONTINUOUS
 10
92.2602128325
 20
137.4551523136
 30
0.0
 11
2.8286425245
 21
2.8286425245
 31
0.0
 40
0.9999238505
 41
2.3562325664
 42
3.9269527408
  0
ELLIPSE
  5
435
100
AcDbEntity
  8
00_COMPONENTS_3
100
AcDbEllipse
 62
7
  6
CONTINUOUS
 10
720.7799082054
 20
137.4551523135
 30
0.0
 11
-2.8286425245
 21
2.8286425245
 31
0.0
 40
0.9999238505
 41
2.3562325664
 42
3.9269527408
  0
ELLIPSE
  5
436
100
AcDbEntity
  8
00_COMPONENTS_3
100
AcDbEllipse
 62
7
  6
CONTINUOUS
 10
699.2757351081
 20
912.9330087791
 30
0.0
 11
2.0
 21
0.0
 31
0.0
 40
0.003141603
 41
0.0872664626
 42
1.3398495376
  0
ELLIPSE
  5
437
100
AcDbEntity
  8
00_COMPONENTS_3
100
AcDbEllipse
 62
7
  6
CONTINUOUS
 10
720.5392138217
 20
912.8607519103
 30
0.0
 11
2.0
 21
0.0
 31
0.0
 40
0.003141603
 41
-1.5707963268
 42
-0.034906585
  0
ELLIPSE
  5
438
100
AcDbEntity
  8
00_COMPONENTS_3
100
AcDbEllipse
 62
7
  6
CONTINUOUS
 10
720.5392138217
 20
255.8607519103
 30
0.0
 11
2.0
 21
-0.0
 31
0.0
 40
0.003141603
 41
-1.5707963268
 42
-0.034906585
  0
ELLIPSE
  5
439
100
AcDbEntity
  8
00_COMPONENTS_3
100
AcDbEllipse
 62
7
  6
CONTINUOUS
 10
720.5392138217
 20
201.0492480897
 30
0.0
 11
2.0
 21
0.0
 31
0.0
 40
0.003141603
 41
0.034906585
 42
1.5707963268
  0
ELLIPSE
  5
43A
100
AcDbEntity
  8
00_COMPONENTS_3
100
AcDbEllipse
 62
7
  6
CONTINUOUS
 10
699.2757351081
 20
200.9769912209
 30
0.0
 11
2.0
 21
-0.0
 31
0.0
 40
0.003141603
 41
-1.3398210762
 42
-0.0872664626
  0
ELLIPSE
  5
43B
100
AcDbEntity
  8
00_COMPONENTS_3
100
AcDbEllipse
 62
7
  6
CONTINUOUS
 10
699.2757351081
 20
255.9330087791
 30
0.0
 11
2.0
 21
-0.0
 31
0.0
 40
0.003141603
 41
0.0872664626
 42
1.3396418953
  0
ELLIPSE
  5
43C
100
AcDbEntity
  8
00_COMPONENTS_3
100
AcDbEllipse
 62
7
  6
CONTINUOUS
 10
90.5200605189
 20
973.8789828574
 30
0.0
 11
3.0
 21
-0.0
 31
0.0
 40
0.0174550649
 41
0.3398369095
 42
1.5707963268
  0
ELLIPSE
  5
43D
100
AcDbEntity
  8
00_COMPONENTS_3
100
AcDbEllipse
 62
7
  6
CONTINUOUS
 10
722.5200605189
 20
973.8789828574
 30
0.0
 11
3.0
 21
0.0
 31
0.0
 40
0.0174550649
 41
1.5707963268
 42
2.8017557441
  0
ELLIPSE
  5
43E
100
AcDbEntity
  8
00_COMPONENTS_3
100
AcDbEllipse
 62
7
  6
CONTINUOUS
 10
699.2757351081
 20
857.9769912209
 30
0.0
 11
2.0
 21
0.0
 31
0.0
 40
0.003141603
 41
4.9435919488
 42
6.1959188446
  0
ELLIPSE
  5
43F
100
AcDbEntity
  8
00_COMPONENTS_3
100
AcDbEllipse
 62
7
  6
CONTINUOUS
 10
720.5392138217
 20
858.0492480897
 30
0.0
 11
2.0
 21
0.0
 31
0.0
 40
0.003141603
 41
0.034906585
 42
1.5707963268
  0
ELLIPSE
  5
440
100
AcDbEntity
  8
00_COMPONENTS_3
100
AcDbEllipse
 62
7
  6
CONTINUOUS
 10
90.5200605189
 20
140.0310171426
 30
0.0
 11
3.0
 21
-0.0
 31
0.0
 40
0.0174550649
 41
-1.5707963268
 42
-0.3398369095
  0
ELLIPSE
  5
441
100
AcDbEntity
  8
00_COMPONENTS_3
100
AcDbEllipse
 62
7
  6
CONTINUOUS
 10
722.5200605189
 20
140.0310171426
 30
0.0
 11
3.0
 21
-0.0
 31
0.0
 40
0.0174550649
 41
-2.8017557441
 42
-1.5707963268
  0
ENDSEC
  0
SECTION
  2
OBJECTS
  0
DICTIONARY
  5
C
100
AcDbDictionary
280
0
281
1
  3
ACAD_GROUP
350
D
  3
ACAD_MLINESTYLE
350
17
  3
ACAD_LAYOUT
350
1A
  3
ACAD_PLOTSETTINGS
350
19
  3
ACAD_PLOTSTYLENAME
350
E
  0
DICTIONARY
  5
D
102
{ACAD_REACTORS
330
C
102
}
100
AcDbDictionary
280
0
281
1
  0
ACDBDICTIONARYWDFLT
  5
E
102
{ACAD_REACTORS
330
C
102
}
100
AcDbDictionary
281
1
  3
Normal
350
F
100
AcDbDictionaryWithDefault
340
F
  0
DICTIONARY
  5
17
102
{ACAD_REACTORS
330
C
102
}
100
AcDbDictionary
280
0
281
1
  3
Standard
350
18
  0
DICTIONARY
  5
19
102
{ACAD_REACTORS
330
C
102
}
100
AcDbDictionary
281
1
  0
DICTIONARY
  5
1A
102
{ACAD_REACTORS
330
C
102
}
100
AcDbDictionary
281
1
  3
Model
350
442
  3
Layout1
350
443
  0
ACDBPLACEHOLDER
  5
F
102
{ACAD_REACTORS
330
E
102
}
  0
MLINESTYLE
  5
18
102
{ACAD_REACTORS
330
17
102
}
100
AcDbMlineStyle
  2
STANDARD
 70
0
  3

 62
256
 51
90.0
 52
90.0
 71
2
 49
0.5
 62
256
  6
BYLAYER
 49
-0.5
 62
256
  6
BYLAYER
  0
LAYOUT
  5
442
102
{ACAD_REACTORS
330
1A
102
}
100
AcDbPlotSettings
  1

  2
none_device
  4

  6

 40
0.0
 41
0.0
 42
0.0
 43
0.0
 44
210.0
 45
297.0
 46
0.0
 47
0.0
 48
0.0
 49
0.0
140
0.0
141
0.0
142
1.0
143
1.0
 70
1024
 72
1
 73
0
 74
0
  7

 75
0
147
1.0
148
0.0
149
0.0
100
AcDbLayout
  1
Model
 70
0
 71
0
 10
0.0
 20
0.0
 11
210.0
 21
297.0
 12
0.0
 22
0.0
 32
0.0
 14
0.0
 24
0.0
 34
0.0
 15
0.0
 25
0.0
 35
0.0
146
0.0
 13
0.0
 23
0.0
 33
0.0
 16
1.0
 26
0.0
 36
0.0
 17
0.0
 27
1.0
 37
0.0
 76
0
330
22E
345
0
346
0
  0
LAYOUT
  5
443
102
{ACAD_REACTORS
330
1A
102
}
100
AcDbPlotSettings
  1

  2
none_device
  4

  6

 40
0.0
 41
0.0
 42
0.0
 43
0.0
 44
210.0
 45
297.0
 46
0.0
 47
0.0
 48
0.0
 49
0.0
140
0.0
141
0.0
142
1.0
143
1.0
 70
0
 72
1
 73
0
 74
0
  7

 75
0
147
1.0
148
0.0
149
0.0
100
AcDbLayout
  1
Layout1
 70
0
 71
1
 10
0.0
 20
0.0
 11
210.0
 21
297.0
 12
0.0
 22
0.0
 32
0.0
 14
0.0
 24
0.0
 34
0.0
 15
0.0
 25
0.0
 35
0.0
146
0.0
 13
0.0
 23
0.0
 33
0.0
 16
1.0
 26
0.0
 36
0.0
 17
0.0
 27
1.0
 37
0.0
 76
0
330
22F
345
0
346
0
  0
ENDSEC
  0
EOF
