999
DXF file: C:\Users\sesa63760\Dev\_Creo\CAD\MCADUE0003169_3D-CAD\drw0001_5.dxf
999
Pro/ENGINEER 2019471 by Parametric Technology Corporation
  0
SECTION
  2
HEADER
  9
$ACADVER
  1
AC1024
  9
$DWGCODEPAGE
  3
ANSI_1252
  9
$EXTMAX
 10
390.1520653155
 20
551.7864923748
 30
0.0
  9
$EXTMIN
 10
0.0
 20
0.0
 30
0.0
  9
$LIMMIN
 10
0.0
 20
0.0
  9
$LIMMAX
 10
390.1520653155
 20
551.7864923748
  9
$VIEWCTR
 10
195.0760326577
 20
275.8932461874
  9
$VIEWSIZE
 40
551.7864923748
  9
$CLAYER
  8
0
  9
$LTSCALE
 40
35.9683046881
  9
$CELTYPE
  6
BYLAYER
  9
$DIMSCALE
 40
1.0
  9
$DIMASZ
 40
4.6446674442
  9
$DIMEXO
 40
1.0
  9
$DIMDLI
 40
24.8508286936
  9
$DIMEXE
 40
1.0
  9
$DIMCEN
 40
5.8857225853
  9
$DIMLFAC
 40
1.0
  9
$DIMBLK
  1
_FILLED
  9
$DIMALT
 70
0
  9
$DIMALTF
 40
0.0393700787
  9
$DIMTXT
 40
6.5025344219
  9
$DIMTOL
 70
1
  9
$DIMLIM
 70
0
  9
$DIMTFAC
 40
1.0
  9
$DIMTP
 40
0.01
  9
$DIMTM
 40
0.01
  9
$DIMGAP
 40
0.625
  9
$DIMDSEP
 70
46
  9
$AUNITS
 70
0
  9
$PDMODE
 70
3
  9
$PDSIZE
 40
0.3125
  9
$HANDSEED
  5
347
  9
$TILEMODE
 70
1
  9
$MEASUREMENT
 70
1
  9
$INSUNITS
 70
4
  0
ENDSEC
  0
SECTION
  2
CLASSES
  0
CLASS
  1
ACDBDICTIONARYWDFLT
  2
AcDbDictionaryWithDefault
  3
AutoCAD 2000
 90
0
 91
1
280
0
281
0
  0
CLASS
  1
ACDBPLACEHOLDER
  2
AcDbPlaceHolder
  3
AutoCAD 2000
 90
0
 91
1
280
0
281
0
  0
CLASS
  1
LAYOUT
  2
AcDbLayout
  3
AutoCAD 2000
 90
0
 91
0
280
0
281
0
  0
ENDSEC
  0
SECTION
  2
TABLES
  0
TABLE
  2
VPORT
  5
8
100
AcDbSymbolTable
 70
2
  0
VPORT
  5
1F4
100
AcDbSymbolTableRecord
100
AcDbViewportTableRecord
  2
*ACTIVE
 70
0
 10
0.0
 20
0.0
 11
1.0
 21
1.0
 12
195.0760326577
 22
275.8932461874
 13
0.0
 23
0.0
 14
1.0
 24
1.0
 15
0.0
 25
0.0
 16
0.0
 26
0.0
 36
1.0
 17
0.0
 27
0.0
 37
0.0
 40
551.7864923748
 41
0.7070707071
 42
50.0
 43
0.0
 44
0.0
 50
0.0
 51
0.0
 71
0
 72
100
 73
1
 74
1
 75
0
 76
0
 77
0
 78
0
  0
ENDTAB
  0
TABLE
  2
LTYPE
  5
5
100
AcDbSymbolTable
 70
6
  0
LTYPE
  5
14
100
AcDbSymbolTableRecord
100
AcDbLinetypeTableRecord
  2
BYBLOCK
 70
0
  3

 72
65
 73
0
 40
0.0
  0
LTYPE
  5
15
100
AcDbSymbolTableRecord
100
AcDbLinetypeTableRecord
  2
BYLAYER
 70
0
  3

 72
65
 73
0
 40
0.0
  0
LTYPE
  5
16
100
AcDbSymbolTableRecord
100
AcDbLinetypeTableRecord
  2
CONTINUOUS
 70
64
  3
Solid line
 72
65
 73
0
 40
0.0
  0
LTYPE
  5
1F5
100
AcDbSymbolTableRecord
100
AcDbLinetypeTableRecord
  2
CENTER
 70
64
  3
____ _ ____ _ ____ _ ____ _ ____ _ ____ _ ____
 72
65
 73
4
 40
0.6
 49
0.375
 74
0
 49
-0.075
 74
0
 49
0.075
 74
0
 49
-0.075
 74
0
  0
LTYPE
  5
1F6
100
AcDbSymbolTableRecord
100
AcDbLinetypeTableRecord
  2
HIDDEN
 70
64
  3
- - - - - - - - - - - - - - - - - - - -
 72
65
 73
2
 40
0.2
 49
0.1
 74
0
 49
-0.1
 74
0
  0
LTYPE
  5
1F7
100
AcDbSymbolTableRecord
100
AcDbLinetypeTableRecord
  2
PHANTOM
 70
64
  3
_____ _ _ _____ _ _ _____ _ _ _____
 72
65
 73
6
 40
0.8
 49
0.45
 74
0
 49
-0.05
 74
0
 49
0.1
 74
0
 49
-0.05
 74
0
 49
0.1
 74
0
 49
-0.05
 74
0
  0
LTYPE
  5
1F8
100
AcDbSymbolTableRecord
100
AcDbLinetypeTableRecord
  2
DOT
 70
64
  3
. . . . . . . . . . . . . . . . . . . .
 72
65
 73
2
 40
0.2
 49
0.1
 74
0
 49
-0.1
 74
0
  0
LTYPE
  5
1F9
100
AcDbSymbolTableRecord
100
AcDbLinetypeTableRecord
  2
DASHED
 70
64
  3
- - - - - - - - - - - - - - - - - - - -
 72
65
 73
2
 40
0.2
 49
0.1
 74
0
 49
-0.1
 74
0
  0
ENDTAB
  0
TABLE
  2
LAYER
  5
2
100
AcDbSymbolTable
 70
36
  0
LAYER
  5
10
100
AcDbSymbolTableRecord
100
AcDbLayerTableRecord
  2
0
 70
0
 62
7
  6
CONTINUOUS
370
-3
390
F
  0
LAYER
  5
1FA
100
AcDbSymbolTableRecord
100
AcDbLayerTableRecord
  2
DEFAULT_1
 70
0
 62
7
  6
CENTER
370
-3
390
F
  0
LAYER
  5
1FB
100
AcDbSymbolTableRecord
100
AcDbLayerTableRecord
  2
DEFAULT_2
 70
0
 62
8
  6
HIDDEN
370
-3
390
F
  0
LAYER
  5
1FC
100
AcDbSymbolTableRecord
100
AcDbLayerTableRecord
  2
DEFAULT_3
 70
0
 62
7
  6
PHANTOM
370
-3
390
F
  0
LAYER
  5
1FD
100
AcDbSymbolTableRecord
100
AcDbLayerTableRecord
  2
00_COMPONENTS
 70
0
 62
7
  6
CONTINUOUS
370
-3
390
F
  0
LAYER
  5
1FE
100
AcDbSymbolTableRecord
100
AcDbLayerTableRecord
  2
01_1_DEFAULT_DATUMS
 70
0
 62
7
  6
CONTINUOUS
370
-3
390
F
  0
LAYER
  5
1FF
100
AcDbSymbolTableRecord
100
AcDbLayerTableRecord
  2
01_PLANES
 70
0
 62
7
  6
CONTINUOUS
370
-3
390
F
  0
LAYER
  5
200
100
AcDbSymbolTableRecord
100
AcDbLayerTableRecord
  2
02_COORD_SYS
 70
0
 62
7
  6
CONTINUOUS
370
-3
390
F
  0
LAYER
  5
201
100
AcDbSymbolTableRecord
100
AcDbLayerTableRecord
  2
03_AXES
 70
0
 62
7
  6
CONTINUOUS
370
-3
390
F
  0
LAYER
  5
202
100
AcDbSymbolTableRecord
100
AcDbLayerTableRecord
  2
04_POINTS
 70
0
 62
7
  6
CONTINUOUS
370
-3
390
F
  0
LAYER
  5
203
100
AcDbSymbolTableRecord
100
AcDbLayerTableRecord
  2
05_CURVES
 70
0
 62
7
  6
CONTINUOUS
370
-3
390
F
  0
LAYER
  5
204
100
AcDbSymbolTableRecord
100
AcDbLayerTableRecord
  2
06_SURFS
 70
0
 62
7
  6
CONTINUOUS
370
-3
390
F
  0
LAYER
  5
205
100
AcDbSymbolTableRecord
100
AcDbLayerTableRecord
  2
07_COSMETICS
 70
0
 62
7
  6
CONTINUOUS
370
-3
390
F
  0
LAYER
  5
206
100
AcDbSymbolTableRecord
100
AcDbLayerTableRecord
  2
10_NOTES
 70
0
 62
7
  6
CONTINUOUS
370
-3
390
F
  0
LAYER
  5
207
100
AcDbSymbolTableRecord
100
AcDbLayerTableRecord
  2
11_NOTES_PUB
 70
0
 62
7
  6
CONTINUOUS
370
-3
390
F
  0
LAYER
  5
208
100
AcDbSymbolTableRecord
100
AcDbLayerTableRecord
  2
13_REF_GTOL
 70
0
 62
7
  6
CONTINUOUS
370
-3
390
F
  0
LAYER
  5
209
100
AcDbSymbolTableRecord
100
AcDbLayerTableRecord
  2
16_MISC
 70
0
 62
7
  6
CONTINUOUS
370
-3
390
F
  0
LAYER
  5
20A
100
AcDbSymbolTableRecord
100
AcDbLayerTableRecord
  2
17_NO_PRINT
 70
0
 62
7
  6
CONTINUOUS
370
-3
390
F
  0
LAYER
  5
20B
100
AcDbSymbolTableRecord
100
AcDbLayerTableRecord
  2
18_DATUM_CAMS_JOINTS
 70
0
 62
7
  6
CONTINUOUS
370
-3
390
F
  0
LAYER
  5
20C
100
AcDbSymbolTableRecord
100
AcDbLayerTableRecord
  2
19_DATUM_FUNCTIONAL
 70
0
 62
7
  6
CONTINUOUS
370
-3
390
F
  0
LAYER
  5
20D
100
AcDbSymbolTableRecord
100
AcDbLayerTableRecord
  2
20_DATUM_KINEMATIC_SCHEME
 70
0
 62
7
  6
CONTINUOUS
370
-3
390
F
  0
LAYER
  5
20E
100
AcDbSymbolTableRecord
100
AcDbLayerTableRecord
  2
_1
 70
0
 62
7
  6
CONTINUOUS
370
-3
390
F
  0
ENDTAB
  0
TABLE
  2
STYLE
  5
3
100
AcDbSymbolTable
 70
1
  0
STYLE
  5
11
100
AcDbSymbolTableRecord
100
AcDbTextStyleTableRecord
  2
STANDARD
 70
0
 40
0.0
 41
0.8
 50
0.0
 71
0
 42
0.2
  3
txt
  4

  0
STYLE
  5
20F
100
AcDbSymbolTableRecord
100
AcDbTextStyleTableRecord
  2
TEXTSTYLE_1
 70
0
 40
0.0
 41
0.8
 50
0.0
 71
0
 42
0.2
  3
gdt
  4

  0
ENDTAB
  0
TABLE
  2
VIEW
  5
6
100
AcDbSymbolTable
 70
0
  0
ENDTAB
  0
TABLE
  2
UCS
  5
7
100
AcDbSymbolTable
 70
0
  0
ENDTAB
  0
TABLE
  2
APPID
  5
9
100
AcDbSymbolTable
 70
1
  0
APPID
  5
210
100
AcDbSymbolTableRecord
100
AcDbRegAppTableRecord
  2
ACAD
 70
0
  0
ENDTAB
  0
TABLE
  2
BLOCK_RECORD
  5
1
100
AcDbSymbolTable
 70
0
  0
BLOCK_RECORD
  5
211
100
AcDbSymbolTableRecord
100
AcDbBlockTableRecord
  2
*Model_Space
  0
BLOCK_RECORD
  5
212
100
AcDbSymbolTableRecord
100
AcDbBlockTableRecord
  2
*Paper_Space
  0
BLOCK_RECORD
  5
213
100
AcDbSymbolTableRecord
100
AcDbBlockTableRecord
  2
_FILLED
  0
ENDTAB
  0
TABLE
  2
DIMSTYLE
  5
A
100
AcDbSymbolTable
 70
1
100
AcDbDimStyleTable
 71
0
  0
DIMSTYLE
105
214
100
AcDbSymbolTableRecord
100
AcDbDimStyleTableRecord
  2
STANDARD
 70
0
  3

  4

 40
1.0
 41
4.6446674442
 42
1.0
 43
0.38
 44
1.0
 45
0.0
 46
0.0
 47
0.01
 48
0.01
140
6.5025344219
141
0.09
142
0.0
143
25.4
144
1.0
145
0.0
146
1.0
147
0.625
 71
1
 72
0
 73
0
 74
0
 75
0
 76
0
 77
1
 78
8
 79
2
170
0
171
1
172
0
173
0
174
0
175
0
176
0
177
0
178
0
270
2
179
2
271
2
272
2
273
2
274
2
275
0
280
0
281
0
282
0
283
1
284
8
285
0
286
0
287
3
288
0
340
11
278
46
341
213
342
213
343
213
344
213
  0
ENDTAB
  0
ENDSEC
  0
SECTION
  2
BLOCKS
  0
BLOCK
  5
20
100
AcDbEntity
  8
0
100
AcDbBlockBegin
  2
*Model_Space
 70
0
 10
0.0
 20
0.0
 30
0.0
  3
*Model_Space
  1

  0
ENDBLK
  5
21
100
AcDbEntity
  8
0
100
AcDbBlockEnd
  0
BLOCK
  5
1C
100
AcDbEntity
  8
0
100
AcDbBlockBegin
  2
*Paper_Space
 70
0
 10
0.0
 20
0.0
 30
0.0
  3
*Paper_Space
  1

  0
ENDBLK
  5
1D
100
AcDbEntity
  8
0
100
AcDbBlockEnd
  0
BLOCK
  5
215
100
AcDbEntity
  8
0
100
AcDbBlockBegin
  2
_FILLED
 70
64
 10
0.0
 20
0.0
  3
_FILLED
  1

  0
SOLID
  5
216
100
AcDbEntity
  8
0
  6
BYBLOCK
 62
0
100
AcDbTrace
 10
0.0
 20
0.0
 11
-1.0
 21
0.25
 12
-1.0
 22
-0.25
 13
-1.0
 23
-0.25
  0
ENDBLK
  5
217
100
AcDbEntity
  8
0
  6
BYBLOCK
 62
0
100
AcDbBlockEnd
  0
ENDSEC
  0
SECTION
  2
ENTITIES
  0
LINE
  5
218
100
AcDbEntity
  8
_1
100
AcDbLine
 62
7
  6
CONTINUOUS
 10
47.9790827667
 20
226.568627451
 11
47.9790827667
 21
326.568627451
  0
LINE
  5
219
100
AcDbEntity
  8
_1
100
AcDbLine
 62
7
  6
CONTINUOUS
 10
47.9891207162
 20
326.568627451
 11
47.9891207162
 21
286.568627451
  0
LINE
  5
21A
100
AcDbEntity
  8
_1
100
AcDbLine
 62
7
  6
CONTINUOUS
 10
47.9891207162
 20
266.568627451
 11
47.9891207162
 21
226.568627451
  0
LINE
  5
21B
100
AcDbEntity
  8
_1
100
AcDbLine
 62
7
  6
CONTINUOUS
 10
48.4790827667
 20
286.568627451
 11
48.4790827667
 21
266.568627451
  0
LINE
  5
21C
100
AcDbEntity
  8
_1
100
AcDbLine
 62
7
  6
CONTINUOUS
 10
50.2045001316
 20
226.568627451
 11
50.2045001316
 21
326.568627451
  0
LINE
  5
21D
100
AcDbEntity
  8
_1
100
AcDbLine
 62
7
  6
CONTINUOUS
 10
50.4790827667
 20
226.568627451
 11
50.4790827667
 21
326.568627451
  0
LINE
  5
21E
100
AcDbEntity
  8
_1
100
AcDbLine
 62
7
  6
CONTINUOUS
 10
75.4790827667
 20
326.568627451
 11
75.4790827667
 21
313.068627451
  0
LINE
  5
21F
100
AcDbEntity
  8
_1
100
AcDbLine
 62
7
  6
CONTINUOUS
 10
75.4790827667
 20
240.068627451
 11
75.4790827667
 21
226.568627451
  0
LINE
  5
220
100
AcDbEntity
  8
_1
100
AcDbLine
 62
7
  6
CONTINUOUS
 10
82.7290827667
 20
236.818627451
 11
82.7290827667
 21
240.068627451
  0
LINE
  5
221
100
AcDbEntity
  8
_1
100
AcDbLine
 62
7
  6
CONTINUOUS
 10
82.7290827667
 20
313.068627451
 11
82.7290827667
 21
316.318627451
  0
LINE
  5
222
100
AcDbEntity
  8
_1
100
AcDbLine
 62
7
  6
CONTINUOUS
 10
92.4790827667
 20
226.568627451
 11
92.4790827667
 21
240.068627451
  0
LINE
  5
223
100
AcDbEntity
  8
_1
100
AcDbLine
 62
7
  6
CONTINUOUS
 10
92.4790827667
 20
313.068627451
 11
92.4790827667
 21
326.568627451
  0
LINE
  5
224
100
AcDbEntity
  8
_1
100
AcDbLine
 62
7
  6
CONTINUOUS
 10
108.4790827667
 20
251.068627451
 11
108.4790827667
 21
255.8590159328
  0
LINE
  5
225
100
AcDbEntity
  8
_1
100
AcDbLine
 62
7
  6
CONTINUOUS
 10
108.4790827667
 20
297.2651236006
 11
108.4790827667
 21
302.068627451
  0
LINE
  5
226
100
AcDbEntity
  8
_1
100
AcDbLine
 62
7
  6
CONTINUOUS
 10
110.4790827667
 20
326.568627451
 11
110.4790827667
 21
313.068627451
  0
LINE
  5
227
100
AcDbEntity
  8
_1
100
AcDbLine
 62
7
  6
CONTINUOUS
 10
110.4790827667
 20
240.068627451
 11
110.4790827667
 21
226.568627451
  0
LINE
  5
228
100
AcDbEntity
  8
_1
100
AcDbLine
 62
7
  6
CONTINUOUS
 10
120.5340827667
 20
234.568627451
 11
120.5340827667
 21
230.568627451
  0
LINE
  5
229
100
AcDbEntity
  8
_1
100
AcDbLine
 62
7
  6
CONTINUOUS
 10
120.5340827667
 20
318.568627451
 11
120.5340827667
 21
322.568627451
  0
LINE
  5
22A
100
AcDbEntity
  8
_1
100
AcDbLine
 62
7
  6
CONTINUOUS
 10
125.9790827667
 20
298.9747606427
 11
125.9790827667
 21
294.157584319
  0
LINE
  5
22B
100
AcDbEntity
  8
_1
100
AcDbLine
 62
7
  6
CONTINUOUS
 10
125.9790827667
 20
292.3435329204
 11
125.9790827667
 21
260.7937183605
  0
LINE
  5
22C
100
AcDbEntity
  8
_1
100
AcDbLine
 62
7
  6
CONTINUOUS
 10
125.9790827667
 20
258.9747606427
 11
125.9790827667
 21
254.157584319
  0
LINE
  5
22D
100
AcDbEntity
  8
_1
100
AcDbLine
 62
7
  6
CONTINUOUS
 10
125.9790827667
 20
252.3435329204
 11
125.9790827667
 21
229.068627451
  0
LINE
  5
22E
100
AcDbEntity
  8
_1
100
AcDbLine
 62
7
  6
CONTINUOUS
 10
125.9790827667
 20
300.7937183605
 11
125.9790827667
 21
324.068627451
  0
LINE
  5
22F
100
AcDbEntity
  8
_1
100
AcDbLine
 62
7
  6
CONTINUOUS
 10
127.9790827667
 20
231.068627451
 11
127.9790827667
 21
240.068627451
  0
LINE
  5
230
100
AcDbEntity
  8
_1
100
AcDbLine
 62
7
  6
CONTINUOUS
 10
127.9790827667
 20
251.0693619263
 11
127.9790827667
 21
253.1118544304
  0
LINE
  5
231
100
AcDbEntity
  8
_1
100
AcDbLine
 62
7
  6
CONTINUOUS
 10
127.9790827667
 20
260.0254305998
 11
127.9790827667
 21
262.0678929757
  0
LINE
  5
232
100
AcDbEntity
  8
_1
100
AcDbLine
 62
7
  6
CONTINUOUS
 10
127.9790827667
 20
291.0693619263
 11
127.9790827667
 21
293.1118544304
  0
LINE
  5
233
100
AcDbEntity
  8
_1
100
AcDbLine
 62
7
  6
CONTINUOUS
 10
127.9790827667
 20
300.0254305998
 11
127.9790827667
 21
302.0678929757
  0
LINE
  5
234
100
AcDbEntity
  8
_1
100
AcDbLine
 62
7
  6
CONTINUOUS
 10
127.9790827667
 20
313.068627451
 11
127.9790827667
 21
322.068627451
  0
LINE
  5
235
100
AcDbEntity
  8
_1
100
AcDbLine
 62
7
  6
CONTINUOUS
 10
130.4790827667
 20
229.368627451
 11
130.4790827667
 21
323.768627451
  0
LINE
  5
236
100
AcDbEntity
  8
_1
100
AcDbLine
 62
7
  6
CONTINUOUS
 10
130.5790827667
 20
252.568627451
 11
130.5790827667
 21
300.568627451
  0
LINE
  5
237
100
AcDbEntity
  8
_1
100
AcDbLine
 62
7
  6
CONTINUOUS
 10
140.4790827667
 20
255.568627451
 11
140.4790827667
 21
297.568627451
  0
LINE
  5
238
100
AcDbEntity
  8
_1
100
AcDbLine
 62
7
  6
CONTINUOUS
 10
151.4790827667
 20
326.568627451
 11
151.4790827667
 21
324.068627451
  0
LINE
  5
239
100
AcDbEntity
  8
_1
100
AcDbLine
 62
7
  6
CONTINUOUS
 10
151.4790827667
 20
229.068627451
 11
151.4790827667
 21
226.568627451
  0
LINE
  5
23A
100
AcDbEntity
  8
_1
100
AcDbLine
 62
7
  6
CONTINUOUS
 10
154.4790827667
 20
226.568627451
 11
154.4790827667
 21
229.068627451
  0
LINE
  5
23B
100
AcDbEntity
  8
_1
100
AcDbLine
 62
7
  6
CONTINUOUS
 10
154.4790827667
 20
324.068627451
 11
154.4790827667
 21
326.568627451
  0
LINE
  5
23C
100
AcDbEntity
  8
_1
100
AcDbLine
 62
7
  6
CONTINUOUS
 10
47.9891207162
 20
226.568627451
 11
154.4790827667
 21
226.568627451
  0
LINE
  5
23D
100
AcDbEntity
  8
_1
100
AcDbLine
 62
7
  6
CONTINUOUS
 10
246.4790827667
 20
226.568627451
 11
352.9690448171
 21
226.568627451
  0
LINE
  5
23E
100
AcDbEntity
  8
_1
100
AcDbLine
 62
7
  6
CONTINUOUS
 10
75.4790827667
 20
229.068627451
 11
92.4790827667
 21
229.068627451
  0
LINE
  5
23F
100
AcDbEntity
  8
_1
100
AcDbLine
 62
7
  6
CONTINUOUS
 10
110.4790827667
 20
229.068627451
 11
125.9790827667
 21
229.068627451
  0
LINE
  5
240
100
AcDbEntity
  8
_1
100
AcDbLine
 62
7
  6
CONTINUOUS
 10
129.9425186688
 20
229.068627451
 11
154.4790827667
 21
229.068627451
  0
LINE
  5
241
100
AcDbEntity
  8
_1
100
AcDbLine
 62
7
  6
CONTINUOUS
 10
246.4790827667
 20
229.068627451
 11
271.0156130863
 21
229.068627451
  0
LINE
  5
242
100
AcDbEntity
  8
_1
100
AcDbLine
 62
7
  6
CONTINUOUS
 10
274.9790827667
 20
229.068627451
 11
290.4790827667
 21
229.068627451
  0
LINE
  5
243
100
AcDbEntity
  8
_1
100
AcDbLine
 62
7
  6
CONTINUOUS
 10
308.4790827667
 20
229.068627451
 11
325.4790827667
 21
229.068627451
  0
LINE
  5
244
100
AcDbEntity
  8
_1
100
AcDbLine
 62
7
  6
CONTINUOUS
 10
274.9790827667
 20
229.368627451
 11
274.056650479
 21
229.368627451
  0
LINE
  5
245
100
AcDbEntity
  8
_1
100
AcDbLine
 62
7
  6
CONTINUOUS
 10
130.4790827667
 20
229.368627451
 11
130.0230032835
 21
229.368627451
  0
LINE
  5
246
100
AcDbEntity
  8
_1
100
AcDbLine
 62
7
  6
CONTINUOUS
 10
126.9016064763
 20
229.368627451
 11
125.9790827667
 21
229.368627451
  0
LINE
  5
247
100
AcDbEntity
  8
_1
100
AcDbLine
 62
7
  6
CONTINUOUS
 10
270.4790827667
 20
229.368627451
 11
270.9351335383
 21
229.368627451
  0
LINE
  5
248
100
AcDbEntity
  8
_1
100
AcDbLine
 62
7
  6
CONTINUOUS
 10
290.4790827667
 20
230.568627451
 11
280.4240827667
 21
230.568627451
  0
LINE
  5
249
100
AcDbEntity
  8
_1
100
AcDbLine
 62
7
  6
CONTINUOUS
 10
120.5340827667
 20
230.568627451
 11
110.4790827667
 21
230.568627451
  0
LINE
  5
24A
100
AcDbEntity
  8
_1
100
AcDbLine
 62
7
  6
CONTINUOUS
 10
350.4790827667
 20
231.068627451
 11
325.4790827667
 21
231.068627451
  0
LINE
  5
24B
100
AcDbEntity
  8
_1
100
AcDbLine
 62
7
  6
CONTINUOUS
 10
308.4790827667
 20
231.068627451
 11
290.4790827667
 21
231.068627451
  0
LINE
  5
24C
100
AcDbEntity
  8
_1
100
AcDbLine
 62
7
  6
CONTINUOUS
 10
125.9790827667
 20
231.068627451
 11
120.5340827667
 21
231.068627451
  0
LINE
  5
24D
100
AcDbEntity
  8
_1
100
AcDbLine
 62
7
  6
CONTINUOUS
 10
110.4790827667
 20
231.068627451
 11
50.4790827667
 21
231.068627451
  0
LINE
  5
24E
100
AcDbEntity
  8
_1
100
AcDbLine
 62
7
  6
CONTINUOUS
 10
308.4790827667
 20
231.568627451
 11
325.4790827667
 21
231.568627451
  0
LINE
  5
24F
100
AcDbEntity
  8
_1
100
AcDbLine
 62
7
  6
CONTINUOUS
 10
325.4790827667
 20
233.568627451
 11
308.4790827667
 21
233.568627451
  0
LINE
  5
250
100
AcDbEntity
  8
_1
100
AcDbLine
 62
7
  6
CONTINUOUS
 10
110.4790827667
 20
234.568627451
 11
120.5340598507
 21
234.568627451
  0
LINE
  5
251
100
AcDbEntity
  8
_1
100
AcDbLine
 62
7
  6
CONTINUOUS
 10
280.4241056826
 20
234.568627451
 11
290.4790827667
 21
234.568627451
  0
LINE
  5
252
100
AcDbEntity
  8
_1
100
AcDbLine
 62
7
  6
CONTINUOUS
 10
75.4790827667
 20
236.318627451
 11
82.2290827667
 21
236.318627451
  0
LINE
  5
253
100
AcDbEntity
  8
_1
100
AcDbLine
 62
7
  6
CONTINUOUS
 10
318.7290827667
 20
236.318627451
 11
325.4790827667
 21
236.318627451
  0
LINE
  5
254
100
AcDbEntity
  8
_1
100
AcDbLine
 62
7
  6
CONTINUOUS
 10
127.9790827667
 20
236.3439933047
 11
130.4790827667
 21
236.3439933047
  0
LINE
  5
255
100
AcDbEntity
  8
_1
100
AcDbLine
 62
7
  6
CONTINUOUS
 10
270.4790827667
 20
236.3439933047
 11
272.9790827667
 21
236.3439933047
  0
LINE
  5
256
100
AcDbEntity
  8
_1
100
AcDbLine
 62
7
  6
CONTINUOUS
 10
272.9790827667
 20
236.5439933047
 11
270.4790827667
 21
236.5439933047
  0
LINE
  5
257
100
AcDbEntity
  8
_1
100
AcDbLine
 62
7
  6
CONTINUOUS
 10
127.9790827667
 20
236.5439933047
 11
130.4790827667
 21
236.5439933047
  0
LINE
  5
258
100
AcDbEntity
  8
_1
100
AcDbLine
 62
7
  6
CONTINUOUS
 10
325.4790827667
 20
240.068627451
 11
308.4790827667
 21
240.068627451
  0
LINE
  5
259
100
AcDbEntity
  8
_1
100
AcDbLine
 62
7
  6
CONTINUOUS
 10
290.4790827667
 20
240.068627451
 11
270.4790827667
 21
240.068627451
  0
LINE
  5
25A
100
AcDbEntity
  8
_1
100
AcDbLine
 62
7
  6
CONTINUOUS
 10
130.4790827667
 20
240.068627451
 11
110.4790827667
 21
240.068627451
  0
LINE
  5
25B
100
AcDbEntity
  8
_1
100
AcDbLine
 62
7
  6
CONTINUOUS
 10
92.4790827667
 20
240.068627451
 11
75.4790827667
 21
240.068627451
  0
LINE
  5
25C
100
AcDbEntity
  8
_1
100
AcDbLine
 62
7
  6
CONTINUOUS
 10
47.9790827667
 20
246.0686275396
 11
45.4790827667
 21
246.0686276646
  0
LINE
  5
25D
100
AcDbEntity
  8
_1
100
AcDbLine
 62
7
  6
CONTINUOUS
 10
355.4790827667
 20
246.0686292403
 11
352.9790827667
 21
246.0686293653
  0
LINE
  5
25E
100
AcDbEntity
  8
_1
100
AcDbLine
 62
7
  6
CONTINUOUS
 10
101.32466137
 20
248.568627451
 11
105.9790827667
 21
248.568627451
  0
LINE
  5
25F
100
AcDbEntity
  8
_1
100
AcDbLine
 62
7
  6
CONTINUOUS
 10
294.9790827667
 20
248.568627451
 11
299.6334187056
 21
248.568627451
  0
LINE
  5
260
100
AcDbEntity
  8
_1
100
AcDbLine
 62
7
  6
CONTINUOUS
 10
272.9790827667
 20
251.0693619263
 11
270.4790827667
 21
251.0693619263
  0
LINE
  5
261
100
AcDbEntity
  8
_1
100
AcDbLine
 62
7
  6
CONTINUOUS
 10
130.4790827667
 20
251.0693619263
 11
127.9790827667
 21
251.0693619263
  0
LINE
  5
262
100
AcDbEntity
  8
_1
100
AcDbLine
 62
7
  6
CONTINUOUS
 10
130.4790827667
 20
252.568627451
 11
137.4790827667
 21
252.568627451
  0
LINE
  5
263
100
AcDbEntity
  8
_1
100
AcDbLine
 62
7
  6
CONTINUOUS
 10
263.4790827667
 20
252.568627451
 11
270.3790827667
 21
252.568627451
  0
LINE
  5
264
100
AcDbEntity
  8
_1
100
AcDbLine
 62
7
  6
CONTINUOUS
 10
127.9790827667
 20
262.0678929757
 11
130.4790827667
 21
262.0678929757
  0
LINE
  5
265
100
AcDbEntity
  8
_1
100
AcDbLine
 62
7
  6
CONTINUOUS
 10
270.4790827667
 20
262.0678929757
 11
272.9790827667
 21
262.0678929757
  0
LINE
  5
266
100
AcDbEntity
  8
_1
100
AcDbLine
 62
7
  6
CONTINUOUS
 10
47.9790827667
 20
264.0686275396
 11
45.4790827667
 21
264.0686276646
  0
LINE
  5
267
100
AcDbEntity
  8
_1
100
AcDbLine
 62
7
  6
CONTINUOUS
 10
355.4790827667
 20
264.0686292403
 11
352.9790827667
 21
264.0686293653
  0
LINE
  5
268
100
AcDbEntity
  8
_1
100
AcDbLine
 62
7
  6
CONTINUOUS
 10
47.9891207162
 20
266.568627451
 11
48.4790827667
 21
266.568627451
  0
LINE
  5
269
100
AcDbEntity
  8
_1
100
AcDbLine
 62
7
  6
CONTINUOUS
 10
352.4790827667
 20
266.568627451
 11
352.9690448171
 21
266.568627451
  0
LINE
  5
26A
100
AcDbEntity
  8
_1
100
AcDbLine
 62
7
  6
CONTINUOUS
 10
48.4790827667
 20
267.6594569715
 11
47.9790827667
 21
267.6594569715
  0
LINE
  5
26B
100
AcDbEntity
  8
_1
100
AcDbLine
 62
7
  6
CONTINUOUS
 10
352.4790827667
 20
267.6594569715
 11
352.9790827667
 21
267.6594569715
  0
LINE
  5
26C
100
AcDbEntity
  8
_1
100
AcDbLine
 62
7
  6
CONTINUOUS
 10
48.4790827667
 20
268.7502864921
 11
47.9790827667
 21
268.7502864921
  0
LINE
  5
26D
100
AcDbEntity
  8
_1
100
AcDbLine
 62
7
  6
CONTINUOUS
 10
352.4790827667
 20
268.7502864921
 11
352.9790827667
 21
268.7502864921
  0
LINE
  5
26E
100
AcDbEntity
  8
_1
100
AcDbLine
 62
7
  6
CONTINUOUS
 10
48.4790827667
 20
269.8411160126
 11
47.9790827667
 21
269.8411160126
  0
LINE
  5
26F
100
AcDbEntity
  8
_1
100
AcDbLine
 62
7
  6
CONTINUOUS
 10
352.4790827667
 20
269.8411160126
 11
352.9790827667
 21
269.8411160126
  0
LINE
  5
270
100
AcDbEntity
  8
_1
100
AcDbLine
 62
7
  6
CONTINUOUS
 10
48.4790827667
 20
270.9319455331
 11
47.9790827667
 21
270.9319455331
  0
LINE
  5
271
100
AcDbEntity
  8
_1
100
AcDbLine
 62
7
  6
CONTINUOUS
 10
352.4790827667
 20
270.9319455331
 11
352.9790827667
 21
270.9319455331
  0
LINE
  5
272
100
AcDbEntity
  8
_1
100
AcDbLine
 62
7
  6
CONTINUOUS
 10
47.9790827667
 20
272.0227750536
 11
48.4790827667
 21
272.0227750536
  0
LINE
  5
273
100
AcDbEntity
  8
_1
100
AcDbLine
 62
7
  6
CONTINUOUS
 10
352.4790827667
 20
272.0227750536
 11
352.9790827667
 21
272.0227750536
  0
LINE
  5
274
100
AcDbEntity
  8
_1
100
AcDbLine
 62
7
  6
CONTINUOUS
 10
61.4790827667
 20
273.068627451
 11
64.4790827667
 21
273.068627451
  0
LINE
  5
275
100
AcDbEntity
  8
_1
100
AcDbLine
 62
7
  6
CONTINUOUS
 10
336.4790827667
 20
273.068627451
 11
339.4790827667
 21
273.068627451
  0
LINE
  5
276
100
AcDbEntity
  8
_1
100
AcDbLine
 62
7
  6
CONTINUOUS
 10
48.4790827667
 20
273.1136045742
 11
47.9790827667
 21
273.1136045742
  0
LINE
  5
277
100
AcDbEntity
  8
_1
100
AcDbLine
 62
7
  6
CONTINUOUS
 10
352.4790827667
 20
273.1136045742
 11
352.9790827667
 21
273.1136045742
  0
LINE
  5
278
100
AcDbEntity
  8
_1
100
AcDbLine
 62
7
  6
CONTINUOUS
 10
48.4790827667
 20
274.2044340947
 11
47.9790827667
 21
274.2044340947
  0
LINE
  5
279
100
AcDbEntity
  8
_1
100
AcDbLine
 62
7
  6
CONTINUOUS
 10
352.4790827667
 20
274.2044340947
 11
352.9790827667
 21
274.2044340947
  0
LINE
  5
27A
100
AcDbEntity
  8
_1
100
AcDbLine
 62
7
  6
CONTINUOUS
 10
48.4790827667
 20
275.2952636152
 11
47.9790827667
 21
275.2952636152
  0
LINE
  5
27B
100
AcDbEntity
  8
_1
100
AcDbLine
 62
7
  6
CONTINUOUS
 10
352.4790827667
 20
275.2952636152
 11
352.9790827667
 21
275.2952636152
  0
LINE
  5
27C
100
AcDbEntity
  8
_1
100
AcDbLine
 62
7
  6
CONTINUOUS
 10
48.4790827667
 20
276.3860931358
 11
47.9790827667
 21
276.3860931358
  0
LINE
  5
27D
100
AcDbEntity
  8
_1
100
AcDbLine
 62
7
  6
CONTINUOUS
 10
352.4790827667
 20
276.3860931358
 11
352.9790827667
 21
276.3860931358
  0
LINE
  5
27E
100
AcDbEntity
  8
_1
100
AcDbLine
 62
7
  6
CONTINUOUS
 10
48.4790827667
 20
276.568627451
 11
47.9790827667
 21
276.568627451
  0
LINE
  5
27F
100
AcDbEntity
  8
_1
100
AcDbLine
 62
7
  6
CONTINUOUS
 10
352.4790827667
 20
276.568627451
 11
352.9790827667
 21
276.568627451
  0
LINE
  5
280
100
AcDbEntity
  8
_1
100
AcDbLine
 62
7
  6
CONTINUOUS
 10
48.4790827667
 20
276.7511617662
 11
47.9790827667
 21
276.7511617662
  0
LINE
  5
281
100
AcDbEntity
  8
_1
100
AcDbLine
 62
7
  6
CONTINUOUS
 10
352.4790827667
 20
276.7511617662
 11
352.9790827667
 21
276.7511617662
  0
LINE
  5
282
100
AcDbEntity
  8
_1
100
AcDbLine
 62
7
  6
CONTINUOUS
 10
48.4790827667
 20
277.8419912868
 11
47.9790827667
 21
277.8419912868
  0
LINE
  5
283
100
AcDbEntity
  8
_1
100
AcDbLine
 62
7
  6
CONTINUOUS
 10
352.4790827667
 20
277.8419912867
 11
352.9790827667
 21
277.8419912867
  0
LINE
  5
284
100
AcDbEntity
  8
_1
100
AcDbLine
 62
7
  6
CONTINUOUS
 10
48.4790827667
 20
278.9328208073
 11
47.9790827667
 21
278.9328208073
  0
LINE
  5
285
100
AcDbEntity
  8
_1
100
AcDbLine
 62
7
  6
CONTINUOUS
 10
352.4790827667
 20
278.9328208073
 11
352.9790827667
 21
278.9328208073
  0
LINE
  5
286
100
AcDbEntity
  8
_1
100
AcDbLine
 62
7
  6
CONTINUOUS
 10
48.4790827667
 20
280.0236503278
 11
47.9790827667
 21
280.0236503278
  0
LINE
  5
287
100
AcDbEntity
  8
_1
100
AcDbLine
 62
7
  6
CONTINUOUS
 10
352.4790827667
 20
280.0236503278
 11
352.9790827667
 21
280.0236503278
  0
LINE
  5
288
100
AcDbEntity
  8
_1
100
AcDbLine
 62
7
  6
CONTINUOUS
 10
339.4790827667
 20
280.068627451
 11
336.4790827667
 21
280.068627451
  0
LINE
  5
289
100
AcDbEntity
  8
_1
100
AcDbLine
 62
7
  6
CONTINUOUS
 10
64.4790827667
 20
280.068627451
 11
61.4790827667
 21
280.068627451
  0
LINE
  5
28A
100
AcDbEntity
  8
_1
100
AcDbLine
 62
7
  6
CONTINUOUS
 10
352.9790827667
 20
281.1144798483
 11
352.4790827667
 21
281.1144798483
  0
LINE
  5
28B
100
AcDbEntity
  8
_1
100
AcDbLine
 62
7
  6
CONTINUOUS
 10
48.4790827667
 20
281.1144798483
 11
47.9790827667
 21
281.1144798483
  0
LINE
  5
28C
100
AcDbEntity
  8
_1
100
AcDbLine
 62
7
  6
CONTINUOUS
 10
47.9790827667
 20
282.0686275396
 11
45.4790827667
 21
282.0686276646
  0
LINE
  5
28D
100
AcDbEntity
  8
_1
100
AcDbLine
 62
7
  6
CONTINUOUS
 10
355.4790827667
 20
282.0686292403
 11
352.9790827667
 21
282.0686293653
  0
LINE
  5
28E
100
AcDbEntity
  8
_1
100
AcDbLine
 62
7
  6
CONTINUOUS
 10
48.4790827667
 20
282.2053093689
 11
47.9790827667
 21
282.2053093689
  0
LINE
  5
28F
100
AcDbEntity
  8
_1
100
AcDbLine
 62
7
  6
CONTINUOUS
 10
352.4790827667
 20
282.2053093689
 11
352.9790827667
 21
282.2053093689
  0
LINE
  5
290
100
AcDbEntity
  8
_1
100
AcDbLine
 62
7
  6
CONTINUOUS
 10
48.4790827667
 20
283.2961388894
 11
47.9790827667
 21
283.2961388894
  0
LINE
  5
291
100
AcDbEntity
  8
_1
100
AcDbLine
 62
7
  6
CONTINUOUS
 10
352.4790827667
 20
283.2961388894
 11
352.9790827667
 21
283.2961388894
  0
LINE
  5
292
100
AcDbEntity
  8
_1
100
AcDbLine
 62
7
  6
CONTINUOUS
 10
48.4790827667
 20
284.3869684099
 11
47.9790827667
 21
284.3869684099
  0
LINE
  5
293
100
AcDbEntity
  8
_1
100
AcDbLine
 62
7
  6
CONTINUOUS
 10
352.4790827667
 20
284.3869684099
 11
352.9790827667
 21
284.3869684099
  0
LINE
  5
294
100
AcDbEntity
  8
_1
100
AcDbLine
 62
7
  6
CONTINUOUS
 10
48.4790827667
 20
285.4777979305
 11
47.9790827667
 21
285.4777979305
  0
LINE
  5
295
100
AcDbEntity
  8
_1
100
AcDbLine
 62
7
  6
CONTINUOUS
 10
352.4790827667
 20
285.4777979305
 11
352.9790827667
 21
285.4777979305
  0
LINE
  5
296
100
AcDbEntity
  8
_1
100
AcDbLine
 62
7
  6
CONTINUOUS
 10
352.9690448171
 20
286.568627451
 11
352.4790827667
 21
286.568627451
  0
LINE
  5
297
100
AcDbEntity
  8
_1
100
AcDbLine
 62
7
  6
CONTINUOUS
 10
48.4790827667
 20
286.568627451
 11
47.9891207162
 21
286.568627451
  0
LINE
  5
298
100
AcDbEntity
  8
_1
100
AcDbLine
 62
7
  6
CONTINUOUS
 10
272.9790827667
 20
291.0693619263
 11
270.4790827667
 21
291.0693619263
  0
LINE
  5
299
100
AcDbEntity
  8
_1
100
AcDbLine
 62
7
  6
CONTINUOUS
 10
130.4790827667
 20
291.0693619263
 11
127.9790827667
 21
291.0693619263
  0
LINE
  5
29A
100
AcDbEntity
  8
_1
100
AcDbLine
 62
7
  6
CONTINUOUS
 10
47.9790827667
 20
300.0686275396
 11
45.4790827667
 21
300.0686276646
  0
LINE
  5
29B
100
AcDbEntity
  8
_1
100
AcDbLine
 62
7
  6
CONTINUOUS
 10
355.4790827667
 20
300.0686292403
 11
352.9790827667
 21
300.0686293653
  0
LINE
  5
29C
100
AcDbEntity
  8
_1
100
AcDbLine
 62
7
  6
CONTINUOUS
 10
137.4790827667
 20
300.568627451
 11
130.5790827667
 21
300.568627451
  0
LINE
  5
29D
100
AcDbEntity
  8
_1
100
AcDbLine
 62
7
  6
CONTINUOUS
 10
263.4790827667
 20
300.568627451
 11
270.4790827667
 21
300.568627451
  0
LINE
  5
29E
100
AcDbEntity
  8
_1
100
AcDbLine
 62
7
  6
CONTINUOUS
 10
127.9790827667
 20
302.0678929757
 11
130.4790827667
 21
302.0678929757
  0
LINE
  5
29F
100
AcDbEntity
  8
_1
100
AcDbLine
 62
7
  6
CONTINUOUS
 10
270.4790827667
 20
302.0678929757
 11
272.9790827667
 21
302.0678929757
  0
LINE
  5
2A0
100
AcDbEntity
  8
_1
100
AcDbLine
 62
7
  6
CONTINUOUS
 10
299.6335041633
 20
304.568627451
 11
294.9790827667
 21
304.568627451
  0
LINE
  5
2A1
100
AcDbEntity
  8
_1
100
AcDbLine
 62
7
  6
CONTINUOUS
 10
105.9790827667
 20
304.568627451
 11
101.3247468278
 21
304.568627451
  0
LINE
  5
2A2
100
AcDbEntity
  8
_1
100
AcDbLine
 62
7
  6
CONTINUOUS
 10
75.4790827667
 20
313.068627451
 11
92.4790827667
 21
313.068627451
  0
LINE
  5
2A3
100
AcDbEntity
  8
_1
100
AcDbLine
 62
7
  6
CONTINUOUS
 10
110.4790827667
 20
313.068627451
 11
130.4790827667
 21
313.068627451
  0
LINE
  5
2A4
100
AcDbEntity
  8
_1
100
AcDbLine
 62
7
  6
CONTINUOUS
 10
270.4790827667
 20
313.068627451
 11
290.4790827667
 21
313.068627451
  0
LINE
  5
2A5
100
AcDbEntity
  8
_1
100
AcDbLine
 62
7
  6
CONTINUOUS
 10
308.4790827667
 20
313.068627451
 11
325.4790827667
 21
313.068627451
  0
LINE
  5
2A6
100
AcDbEntity
  8
_1
100
AcDbLine
 62
7
  6
CONTINUOUS
 10
272.9790827667
 20
316.5932615973
 11
270.4790827667
 21
316.5932615973
  0
LINE
  5
2A7
100
AcDbEntity
  8
_1
100
AcDbLine
 62
7
  6
CONTINUOUS
 10
127.9790827667
 20
316.5932615973
 11
130.4790827667
 21
316.5932615973
  0
LINE
  5
2A8
100
AcDbEntity
  8
_1
100
AcDbLine
 62
7
  6
CONTINUOUS
 10
272.9790827667
 20
316.7932615973
 11
270.4790827667
 21
316.7932615973
  0
LINE
  5
2A9
100
AcDbEntity
  8
_1
100
AcDbLine
 62
7
  6
CONTINUOUS
 10
130.4790827667
 20
316.7932615973
 11
127.9790827667
 21
316.7932615973
  0
LINE
  5
2AA
100
AcDbEntity
  8
_1
100
AcDbLine
 62
7
  6
CONTINUOUS
 10
325.4790827667
 20
316.818627451
 11
318.7290827667
 21
316.818627451
  0
LINE
  5
2AB
100
AcDbEntity
  8
_1
100
AcDbLine
 62
7
  6
CONTINUOUS
 10
82.2290827667
 20
316.818627451
 11
75.4790827667
 21
316.818627451
  0
LINE
  5
2AC
100
AcDbEntity
  8
_1
100
AcDbLine
 62
7
  6
CONTINUOUS
 10
290.4790827667
 20
318.568627451
 11
280.4241056826
 21
318.568627451
  0
LINE
  5
2AD
100
AcDbEntity
  8
_1
100
AcDbLine
 62
7
  6
CONTINUOUS
 10
120.5340598507
 20
318.568627451
 11
110.4790827667
 21
318.568627451
  0
LINE
  5
2AE
100
AcDbEntity
  8
_1
100
AcDbLine
 62
7
  6
CONTINUOUS
 10
75.4790827667
 20
319.568627451
 11
92.4790827667
 21
319.568627451
  0
LINE
  5
2AF
100
AcDbEntity
  8
_1
100
AcDbLine
 62
7
  6
CONTINUOUS
 10
246.4790827667
 20
326.568627451
 11
246.4790827667
 21
324.068627451
  0
LINE
  5
2B0
100
AcDbEntity
  8
_1
100
AcDbLine
 62
7
  6
CONTINUOUS
 10
246.4790827667
 20
229.068627451
 11
246.4790827667
 21
226.568627451
  0
LINE
  5
2B1
100
AcDbEntity
  8
_1
100
AcDbLine
 62
7
  6
CONTINUOUS
 10
249.4790827667
 20
226.568627451
 11
249.4790827667
 21
229.068627451
  0
LINE
  5
2B2
100
AcDbEntity
  8
_1
100
AcDbLine
 62
7
  6
CONTINUOUS
 10
249.4790827667
 20
324.068627451
 11
249.4790827667
 21
326.568627451
  0
LINE
  5
2B3
100
AcDbEntity
  8
_1
100
AcDbLine
 62
7
  6
CONTINUOUS
 10
92.4790827667
 20
321.568627451
 11
75.4790827667
 21
321.568627451
  0
LINE
  5
2B4
100
AcDbEntity
  8
_1
100
AcDbLine
 62
7
  6
CONTINUOUS
 10
50.4790827667
 20
322.068627451
 11
75.4790827667
 21
322.068627451
  0
LINE
  5
2B5
100
AcDbEntity
  8
_1
100
AcDbLine
 62
7
  6
CONTINUOUS
 10
92.4790827667
 20
322.068627451
 11
110.4790827667
 21
322.068627451
  0
LINE
  5
2B6
100
AcDbEntity
  8
_1
100
AcDbLine
 62
7
  6
CONTINUOUS
 10
274.9790827667
 20
322.068627451
 11
280.4240827667
 21
322.068627451
  0
LINE
  5
2B7
100
AcDbEntity
  8
_1
100
AcDbLine
 62
7
  6
CONTINUOUS
 10
290.4790827667
 20
322.068627451
 11
350.4790827667
 21
322.068627451
  0
LINE
  5
2B8
100
AcDbEntity
  8
_1
100
AcDbLine
 62
7
  6
CONTINUOUS
 10
110.4790827667
 20
322.568627451
 11
120.5340827667
 21
322.568627451
  0
LINE
  5
2B9
100
AcDbEntity
  8
_1
100
AcDbLine
 62
7
  6
CONTINUOUS
 10
280.4240827667
 20
322.568627451
 11
290.4790827667
 21
322.568627451
  0
LINE
  5
2BA
100
AcDbEntity
  8
_1
100
AcDbLine
 62
7
  6
CONTINUOUS
 10
130.4790827667
 20
323.768627451
 11
130.023031995
 21
323.768627451
  0
LINE
  5
2BB
100
AcDbEntity
  8
_1
100
AcDbLine
 62
7
  6
CONTINUOUS
 10
125.9790827667
 20
323.768627451
 11
126.9015150543
 21
323.768627451
  0
LINE
  5
2BC
100
AcDbEntity
  8
_1
100
AcDbLine
 62
7
  6
CONTINUOUS
 10
270.4790827667
 20
323.768627451
 11
270.9351622499
 21
323.768627451
  0
LINE
  5
2BD
100
AcDbEntity
  8
_1
100
AcDbLine
 62
7
  6
CONTINUOUS
 10
274.0565590571
 20
323.768627451
 11
274.9790827667
 21
323.768627451
  0
LINE
  5
2BE
100
AcDbEntity
  8
_1
100
AcDbLine
 62
7
  6
CONTINUOUS
 10
325.4790827667
 20
324.068627451
 11
308.4790827667
 21
324.068627451
  0
LINE
  5
2BF
100
AcDbEntity
  8
_1
100
AcDbLine
 62
7
  6
CONTINUOUS
 10
290.4790827667
 20
324.068627451
 11
274.9790827667
 21
324.068627451
  0
LINE
  5
2C0
100
AcDbEntity
  8
_1
100
AcDbLine
 62
7
  6
CONTINUOUS
 10
125.9790827667
 20
324.068627451
 11
110.4790827667
 21
324.068627451
  0
LINE
  5
2C1
100
AcDbEntity
  8
_1
100
AcDbLine
 62
7
  6
CONTINUOUS
 10
92.4790827667
 20
324.068627451
 11
75.4790827667
 21
324.068627451
  0
LINE
  5
2C2
100
AcDbEntity
  8
_1
100
AcDbLine
 62
7
  6
CONTINUOUS
 10
129.9425524471
 20
324.068627451
 11
154.4790827667
 21
324.068627451
  0
LINE
  5
2C3
100
AcDbEntity
  8
_1
100
AcDbLine
 62
7
  6
CONTINUOUS
 10
246.4790827667
 20
324.068627451
 11
271.0156468646
 21
324.068627451
  0
LINE
  5
2C4
100
AcDbEntity
  8
_1
100
AcDbLine
 62
7
  6
CONTINUOUS
 10
47.9891207162
 20
326.568627451
 11
154.4790827667
 21
326.568627451
  0
LINE
  5
2C5
100
AcDbEntity
  8
_1
100
AcDbLine
 62
7
  6
CONTINUOUS
 10
246.4790827667
 20
326.568627451
 11
352.9690448171
 21
326.568627451
  0
LINE
  5
2C6
100
AcDbEntity
  8
_1
100
AcDbLine
 62
7
  6
CONTINUOUS
 10
260.4790827667
 20
297.568627451
 11
260.4790827667
 21
255.568627451
  0
LINE
  5
2C7
100
AcDbEntity
  8
_1
100
AcDbLine
 62
7
  6
CONTINUOUS
 10
270.3790827667
 20
300.568627451
 11
270.3790827667
 21
252.568627451
  0
LINE
  5
2C8
100
AcDbEntity
  8
_1
100
AcDbLine
 62
7
  6
CONTINUOUS
 10
270.4790827667
 20
229.368627451
 11
270.4790827667
 21
323.768627451
  0
LINE
  5
2C9
100
AcDbEntity
  8
_1
100
AcDbLine
 62
7
  6
CONTINUOUS
 10
272.9790827667
 20
322.068627451
 11
272.9790827667
 21
313.068627451
  0
LINE
  5
2CA
100
AcDbEntity
  8
_1
100
AcDbLine
 62
7
  6
CONTINUOUS
 10
272.9790827667
 20
302.0678929757
 11
272.9790827667
 21
300.0254004716
  0
LINE
  5
2CB
100
AcDbEntity
  8
_1
100
AcDbLine
 62
7
  6
CONTINUOUS
 10
272.9790827667
 20
293.1118243022
 11
272.9790827667
 21
291.0693619263
  0
LINE
  5
2CC
100
AcDbEntity
  8
_1
100
AcDbLine
 62
7
  6
CONTINUOUS
 10
272.9790827667
 20
262.0678929757
 11
272.9790827667
 21
260.0254004716
  0
LINE
  5
2CD
100
AcDbEntity
  8
_1
100
AcDbLine
 62
7
  6
CONTINUOUS
 10
272.9790827667
 20
253.1118243022
 11
272.9790827667
 21
251.0693619263
  0
LINE
  5
2CE
100
AcDbEntity
  8
_1
100
AcDbLine
 62
7
  6
CONTINUOUS
 10
272.9790827667
 20
240.068627451
 11
272.9790827667
 21
231.068627451
  0
LINE
  5
2CF
100
AcDbEntity
  8
_1
100
AcDbLine
 62
7
  6
CONTINUOUS
 10
274.9790827667
 20
229.068627451
 11
274.9790827667
 21
252.3435365415
  0
LINE
  5
2D0
100
AcDbEntity
  8
_1
100
AcDbLine
 62
7
  6
CONTINUOUS
 10
274.9790827667
 20
254.1624942593
 11
274.9790827667
 21
258.979670583
  0
LINE
  5
2D1
100
AcDbEntity
  8
_1
100
AcDbLine
 62
7
  6
CONTINUOUS
 10
274.9790827667
 20
260.7937219816
 11
274.9790827667
 21
292.3435365415
  0
LINE
  5
2D2
100
AcDbEntity
  8
_1
100
AcDbLine
 62
7
  6
CONTINUOUS
 10
274.9790827667
 20
294.1624942593
 11
274.9790827667
 21
298.979670583
  0
LINE
  5
2D3
100
AcDbEntity
  8
_1
100
AcDbLine
 62
7
  6
CONTINUOUS
 10
274.9790827667
 20
300.7937219816
 11
274.9790827667
 21
324.068627451
  0
LINE
  5
2D4
100
AcDbEntity
  8
_1
100
AcDbLine
 62
7
  6
CONTINUOUS
 10
280.4240827667
 20
234.568627451
 11
280.4240827667
 21
230.568627451
  0
LINE
  5
2D5
100
AcDbEntity
  8
_1
100
AcDbLine
 62
7
  6
CONTINUOUS
 10
280.4240827667
 20
318.568627451
 11
280.4240827667
 21
322.568627451
  0
LINE
  5
2D6
100
AcDbEntity
  8
_1
100
AcDbLine
 62
7
  6
CONTINUOUS
 10
290.4790827667
 20
226.568627451
 11
290.4790827667
 21
240.068627451
  0
LINE
  5
2D7
100
AcDbEntity
  8
_1
100
AcDbLine
 62
7
  6
CONTINUOUS
 10
290.4790827667
 20
313.068627451
 11
290.4790827667
 21
326.568627451
  0
LINE
  5
2D8
100
AcDbEntity
  8
_1
100
AcDbLine
 62
7
  6
CONTINUOUS
 10
292.4790827667
 20
302.068627451
 11
292.4790827667
 21
297.2782389692
  0
LINE
  5
2D9
100
AcDbEntity
  8
_1
100
AcDbLine
 62
7
  6
CONTINUOUS
 10
292.4790827667
 20
255.8721313014
 11
292.4790827667
 21
251.068627451
  0
LINE
  5
2DA
100
AcDbEntity
  8
_1
100
AcDbLine
 62
7
  6
CONTINUOUS
 10
308.4790827667
 20
326.568627451
 11
308.4790827667
 21
313.068627451
  0
LINE
  5
2DB
100
AcDbEntity
  8
_1
100
AcDbLine
 62
7
  6
CONTINUOUS
 10
308.4790827667
 20
240.068627451
 11
308.4790827667
 21
226.568627451
  0
LINE
  5
2DC
100
AcDbEntity
  8
_1
100
AcDbLine
 62
7
  6
CONTINUOUS
 10
318.2290827667
 20
316.318627451
 11
318.2290827667
 21
313.068627451
  0
LINE
  5
2DD
100
AcDbEntity
  8
_1
100
AcDbLine
 62
7
  6
CONTINUOUS
 10
318.2290827667
 20
240.068627451
 11
318.2290827667
 21
236.818627451
  0
LINE
  5
2DE
100
AcDbEntity
  8
_1
100
AcDbLine
 62
7
  6
CONTINUOUS
 10
325.4790827667
 20
226.568627451
 11
325.4790827667
 21
240.068627451
  0
LINE
  5
2DF
100
AcDbEntity
  8
_1
100
AcDbLine
 62
7
  6
CONTINUOUS
 10
325.4790827667
 20
313.068627451
 11
325.4790827667
 21
326.568627451
  0
LINE
  5
2E0
100
AcDbEntity
  8
_1
100
AcDbLine
 62
7
  6
CONTINUOUS
 10
350.4790827667
 20
226.568627451
 11
350.4790827667
 21
326.568627451
  0
LINE
  5
2E1
100
AcDbEntity
  8
_1
100
AcDbLine
 62
7
  6
CONTINUOUS
 10
350.7536654017
 20
326.568627451
 11
350.7536654017
 21
226.568627451
  0
LINE
  5
2E2
100
AcDbEntity
  8
_1
100
AcDbLine
 62
7
  6
CONTINUOUS
 10
352.4790827667
 20
266.568627451
 11
352.4790827667
 21
286.568627451
  0
LINE
  5
2E3
100
AcDbEntity
  8
_1
100
AcDbLine
 62
7
  6
CONTINUOUS
 10
352.9690448171
 20
226.568627451
 11
352.9690448171
 21
266.568627451
  0
LINE
  5
2E4
100
AcDbEntity
  8
_1
100
AcDbLine
 62
7
  6
CONTINUOUS
 10
352.9690448171
 20
286.568627451
 11
352.9690448171
 21
326.568627451
  0
LINE
  5
2E5
100
AcDbEntity
  8
_1
100
AcDbLine
 62
7
  6
CONTINUOUS
 10
352.9790827667
 20
226.568627451
 11
352.9790827667
 21
326.568627451
  0
ARC
  5
2E6
100
AcDbEntity
  8
_1
100
AcDbCircle
 62
7
  6
CONTINUOUS
 10
57.5790827666
 20
246.068627451
 40
12.1
100
AcDbArc
 50
144.3060230524
 51
180.0000000001
  0
ARC
  5
2E7
100
AcDbEntity
  8
_1
100
AcDbCircle
 62
7
  6
CONTINUOUS
 10
57.5790827666
 20
264.068627451
 40
12.1
100
AcDbArc
 50
142.2212870068
 51
142.9226162978
  0
ARC
  5
2E8
100
AcDbEntity
  8
_1
100
AcDbCircle
 62
7
  6
CONTINUOUS
 10
57.5790827666
 20
264.068627451
 40
12.1
100
AcDbArc
 50
144.3060230524
 51
180.0000000001
  0
ARC
  5
2E9
100
AcDbEntity
  8
_1
100
AcDbCircle
 62
7
  6
CONTINUOUS
 10
125.4790827667
 20
256.568627451
 40
7.36
100
AcDbArc
 50
86.1046234658
 51
90.0977744152
  0
ARC
  5
2EA
100
AcDbEntity
  8
_1
100
AcDbCircle
 62
7
  6
CONTINUOUS
 10
125.4790827667
 20
256.568627451
 40
7.36
100
AcDbArc
 50
269.9022255848
 51
273.8953765342
  0
CIRCLE
  5
2EB
100
AcDbEntity
  8
_1
100
AcDbCircle
 62
7
  6
CONTINUOUS
 10
105.4790827667
 20
251.568627451
 40
5.25
  0
ARC
  5
2EC
100
AcDbEntity
  8
_1
100
AcDbCircle
 62
7
  6
CONTINUOUS
 10
125.9790827667
 20
231.068627451
 40
4.5
100
AcDbArc
 50
270.0
 51
360.0
  0
ARC
  5
2ED
100
AcDbEntity
  8
_1
100
AcDbCircle
 62
7
  6
CONTINUOUS
 10
125.4790827667
 20
256.568627451
 40
4.36
100
AcDbArc
 50
269.951112828
 51
90.048887172
  0
ARC
  5
2EE
100
AcDbEntity
  8
_1
100
AcDbCircle
 62
7
  6
CONTINUOUS
 10
137.4790827667
 20
255.568627451
 40
3.0
100
AcDbArc
 50
270.0
 51
360.0
  0
ARC
  5
2EF
100
AcDbEntity
  8
_1
100
AcDbCircle
 62
7
  6
CONTINUOUS
 10
105.9790827667
 20
251.068627451
 40
2.5
100
AcDbArc
 50
270.0
 51
360.0
  0
CIRCLE
  5
2F0
100
AcDbEntity
  8
_1
100
AcDbCircle
 62
7
  6
CONTINUOUS
 10
125.4790827667
 20
256.568627451
 40
2.5
  0
ARC
  5
2F1
100
AcDbEntity
  8
_1
100
AcDbCircle
 62
7
  6
CONTINUOUS
 10
125.9790827667
 20
231.068627451
 40
2.0
100
AcDbArc
 50
270.0
 51
360.0
  0
ARC
  5
2F2
100
AcDbEntity
  8
_1
100
AcDbCircle
 62
7
  6
CONTINUOUS
 10
122.0340827667
 20
230.568627451
 40
1.5
100
AcDbArc
 50
180.0
 51
270.0
  0
ARC
  5
2F3
100
AcDbEntity
  8
_1
100
AcDbCircle
 62
7
  6
CONTINUOUS
 10
125.4690827667
 20
262.4286189186
 40
1.5
100
AcDbArc
 50
90.097774415
 51
270.2398728717
  0
ARC
  5
2F4
100
AcDbEntity
  8
_1
100
AcDbCircle
 62
7
  6
CONTINUOUS
 10
125.4690827667
 20
250.7086359834
 40
1.5
100
AcDbArc
 50
89.7601271283
 51
269.902225585
  0
ARC
  5
2F5
100
AcDbEntity
  8
_1
100
AcDbCircle
 62
7
  6
CONTINUOUS
 10
82.2290827667
 20
236.818627451
 40
0.5
100
AcDbArc
 50
270.0
 51
360.0
  0
ARC
  5
2F6
100
AcDbEntity
  8
_1
100
AcDbCircle
 62
7
  6
CONTINUOUS
 10
57.5790827666
 20
282.068627451
 40
12.1
100
AcDbArc
 50
142.3299339827
 51
180.0000000001
  0
ARC
  5
2F7
100
AcDbEntity
  8
_1
100
AcDbCircle
 62
7
  6
CONTINUOUS
 10
57.5790827666
 20
300.068627451
 40
12.1
100
AcDbArc
 50
144.3060230524
 51
180.0000000001
  0
ARC
  5
2F8
100
AcDbEntity
  8
_1
100
AcDbCircle
 62
7
  6
CONTINUOUS
 10
125.4790827667
 20
296.568627451
 40
7.36
100
AcDbArc
 50
86.1046234658
 51
90.0977744152
  0
ARC
  5
2F9
100
AcDbEntity
  8
_1
100
AcDbCircle
 62
7
  6
CONTINUOUS
 10
125.4790827667
 20
296.568627451
 40
7.36
100
AcDbArc
 50
269.9022255848
 51
273.8953765342
  0
CIRCLE
  5
2FA
100
AcDbEntity
  8
_1
100
AcDbCircle
 62
7
  6
CONTINUOUS
 10
105.4790827667
 20
301.568627451
 40
5.25
  0
CIRCLE
  5
2FB
100
AcDbEntity
  8
_1
100
AcDbCircle
 62
7
  6
CONTINUOUS
 10
64.4790827667
 20
276.568627451
 40
5.25
  0
ARC
  5
2FC
100
AcDbEntity
  8
_1
100
AcDbCircle
 62
7
  6
CONTINUOUS
 10
64.4790827667
 20
276.568627451
 40
5.2000002376
100
AcDbArc
 50
139.8417346223
 51
221.0968845575
  0
ARC
  5
2FD
100
AcDbEntity
  8
_1
100
AcDbCircle
 62
7
  6
CONTINUOUS
 10
125.9790827667
 20
322.068627451
 40
4.5
100
AcDbArc
 50
0.0
 51
90.0
  0
ARC
  5
2FE
100
AcDbEntity
  8
_1
100
AcDbCircle
 62
7
  6
CONTINUOUS
 10
125.4790827667
 20
296.568627451
 40
4.36
100
AcDbArc
 50
269.951112828
 51
90.048887172
  0
ARC
  5
2FF
100
AcDbEntity
  8
_1
100
AcDbCircle
 62
7
  6
CONTINUOUS
 10
61.4790827667
 20
276.568627451
 40
3.5
100
AcDbArc
 50
90.0
 51
106.0161854953
  0
ARC
  5
300
100
AcDbEntity
  8
_1
100
AcDbCircle
 62
7
  6
CONTINUOUS
 10
61.4790827667
 20
276.568627451
 40
3.5
100
AcDbArc
 50
254.03319974
 51
270.0
  0
ARC
  5
301
100
AcDbEntity
  8
_1
100
AcDbCircle
 62
7
  6
CONTINUOUS
 10
64.4790827667
 20
276.568627451
 40
3.5
100
AcDbArc
 50
270.0
 51
90.0
  0
ARC
  5
302
100
AcDbEntity
  8
_1
100
AcDbCircle
 62
7
  6
CONTINUOUS
 10
137.4790827667
 20
297.568627451
 40
3.0
100
AcDbArc
 50
0.0
 51
90.0
  0
CIRCLE
  5
303
100
AcDbEntity
  8
_1
100
AcDbCircle
 62
7
  6
CONTINUOUS
 10
64.4790827667
 20
276.568627451
 40
2.7
  0
ARC
  5
304
100
AcDbEntity
  8
_1
100
AcDbCircle
 62
7
  6
CONTINUOUS
 10
105.9790827667
 20
302.068627451
 40
2.5
100
AcDbArc
 50
0.0
 51
90.0
  0
CIRCLE
  5
305
100
AcDbEntity
  8
_1
100
AcDbCircle
 62
7
  6
CONTINUOUS
 10
125.4790827667
 20
296.568627451
 40
2.5
  0
ARC
  5
306
100
AcDbEntity
  8
_1
100
AcDbCircle
 62
7
  6
CONTINUOUS
 10
125.9790827667
 20
322.068627451
 40
2.0
100
AcDbArc
 50
0.0
 51
90.0
  0
ARC
  5
307
100
AcDbEntity
  8
_1
100
AcDbCircle
 62
7
  6
CONTINUOUS
 10
122.0340827667
 20
322.568627451
 40
1.5
100
AcDbArc
 50
90.0
 51
180.0
  0
ARC
  5
308
100
AcDbEntity
  8
_1
100
AcDbCircle
 62
7
  6
CONTINUOUS
 10
125.4690827667
 20
302.4286189186
 40
1.5
100
AcDbArc
 50
90.0977744151
 51
270.2398728717
  0
ARC
  5
309
100
AcDbEntity
  8
_1
100
AcDbCircle
 62
7
  6
CONTINUOUS
 10
125.4690827667
 20
290.7086359834
 40
1.5
100
AcDbArc
 50
89.7601271283
 51
269.902225585
  0
ARC
  5
30A
100
AcDbEntity
  8
_1
100
AcDbCircle
 62
7
  6
CONTINUOUS
 10
82.2290827667
 20
316.318627451
 40
0.5
100
AcDbArc
 50
0.0
 51
90.0
  0
ARC
  5
30B
100
AcDbEntity
  8
_1
100
AcDbCircle
 62
7
  6
CONTINUOUS
 10
343.3790827668
 20
264.0686274511
 40
12.0999999999
100
AcDbArc
 50
0.0
 51
37.6568149119
  0
ARC
  5
30C
100
AcDbEntity
  8
_1
100
AcDbCircle
 62
7
  6
CONTINUOUS
 10
343.3790827668
 20
246.0686274511
 40
12.0999999999
100
AcDbArc
 50
0.0
 51
35.6936524736
  0
ARC
  5
30D
100
AcDbEntity
  8
_1
100
AcDbCircle
 62
7
  6
CONTINUOUS
 10
275.4790827667
 20
256.568627451
 40
7.36
100
AcDbArc
 50
266.1046234658
 51
270.0977744152
  0
ARC
  5
30E
100
AcDbEntity
  8
_1
100
AcDbCircle
 62
7
  6
CONTINUOUS
 10
275.4790827667
 20
256.568627451
 40
7.36
100
AcDbArc
 50
89.9022255848
 51
93.8953765342
  0
CIRCLE
  5
30F
100
AcDbEntity
  8
_1
100
AcDbCircle
 62
7
  6
CONTINUOUS
 10
295.4790827667
 20
251.568627451
 40
5.25
  0
ARC
  5
310
100
AcDbEntity
  8
_1
100
AcDbCircle
 62
7
  6
CONTINUOUS
 10
274.9790827667
 20
231.068627451
 40
4.5
100
AcDbArc
 50
180.0
 51
270.0
  0
ARC
  5
311
100
AcDbEntity
  8
_1
100
AcDbCircle
 62
7
  6
CONTINUOUS
 10
275.4790827667
 20
256.568627451
 40
4.36
100
AcDbArc
 50
89.951112828
 51
270.048887172
  0
ARC
  5
312
100
AcDbEntity
  8
_1
100
AcDbCircle
 62
7
  6
CONTINUOUS
 10
263.4790827667
 20
255.568627451
 40
3.0
100
AcDbArc
 50
180.0
 51
270.0
  0
ARC
  5
313
100
AcDbEntity
  8
_1
100
AcDbCircle
 62
7
  6
CONTINUOUS
 10
294.9790827667
 20
251.068627451
 40
2.5
100
AcDbArc
 50
180.0
 51
270.0
  0
CIRCLE
  5
314
100
AcDbEntity
  8
_1
100
AcDbCircle
 62
7
  6
CONTINUOUS
 10
275.4790827667
 20
256.568627451
 40
2.5
  0
ARC
  5
315
100
AcDbEntity
  8
_1
100
AcDbCircle
 62
7
  6
CONTINUOUS
 10
274.9790827667
 20
231.068627451
 40
2.0
100
AcDbArc
 50
180.0
 51
270.0
  0
ARC
  5
316
100
AcDbEntity
  8
_1
100
AcDbCircle
 62
7
  6
CONTINUOUS
 10
278.9240827667
 20
230.568627451
 40
1.5
100
AcDbArc
 50
270.0
 51
360.0
  0
ARC
  5
317
100
AcDbEntity
  8
_1
100
AcDbCircle
 62
7
  6
CONTINUOUS
 10
275.4890827667
 20
250.7086359834
 40
1.5
100
AcDbArc
 50
270.097774415
 51
90.2398728717
  0
ARC
  5
318
100
AcDbEntity
  8
_1
100
AcDbCircle
 62
7
  6
CONTINUOUS
 10
275.4890827667
 20
262.4286189186
 40
1.5
100
AcDbArc
 50
269.7601271283
 51
89.902225585
  0
ARC
  5
319
100
AcDbEntity
  8
_1
100
AcDbCircle
 62
7
  6
CONTINUOUS
 10
318.7290827667
 20
236.818627451
 40
0.5
100
AcDbArc
 50
180.0
 51
270.0
  0
ARC
  5
31A
100
AcDbEntity
  8
_1
100
AcDbCircle
 62
7
  6
CONTINUOUS
 10
275.4790827667
 20
296.568627451
 40
7.36
100
AcDbArc
 50
266.1046234658
 51
270.0977744152
  0
ARC
  5
31B
100
AcDbEntity
  8
_1
100
AcDbCircle
 62
7
  6
CONTINUOUS
 10
275.4790827667
 20
296.568627451
 40
7.36
100
AcDbArc
 50
89.9022255848
 51
93.8953765342
  0
ARC
  5
31C
100
AcDbEntity
  8
_1
100
AcDbCircle
 62
7
  6
CONTINUOUS
 10
275.4790827667
 20
296.568627451
 40
4.36
100
AcDbArc
 50
89.951112828
 51
270.048887172
  0
ARC
  5
31D
100
AcDbEntity
  8
_1
100
AcDbCircle
 62
7
  6
CONTINUOUS
 10
263.4790827667
 20
297.568627451
 40
3.0
100
AcDbArc
 50
90.0
 51
180.0
  0
CIRCLE
  5
31E
100
AcDbEntity
  8
_1
100
AcDbCircle
 62
7
  6
CONTINUOUS
 10
275.4790827667
 20
296.568627451
 40
2.5
  0
ARC
  5
31F
100
AcDbEntity
  8
_1
100
AcDbCircle
 62
7
  6
CONTINUOUS
 10
275.4890827667
 20
290.7086359834
 40
1.5
100
AcDbArc
 50
270.097774415
 51
90.2398728717
  0
CIRCLE
  5
320
100
AcDbEntity
  8
_1
100
AcDbCircle
 62
7
  6
CONTINUOUS
 10
295.4790827667
 20
301.568627451
 40
5.25
  0
ARC
  5
321
100
AcDbEntity
  8
_1
100
AcDbCircle
 62
7
  6
CONTINUOUS
 10
274.9790827667
 20
322.068627451
 40
4.5
100
AcDbArc
 50
90.0
 51
180.0
  0
ARC
  5
322
100
AcDbEntity
  8
_1
100
AcDbCircle
 62
7
  6
CONTINUOUS
 10
294.9790827667
 20
302.068627451
 40
2.5
100
AcDbArc
 50
90.0
 51
180.0
  0
ARC
  5
323
100
AcDbEntity
  8
_1
100
AcDbCircle
 62
7
  6
CONTINUOUS
 10
274.9790827667
 20
322.068627451
 40
2.0
100
AcDbArc
 50
90.0
 51
180.0
  0
ARC
  5
324
100
AcDbEntity
  8
_1
100
AcDbCircle
 62
7
  6
CONTINUOUS
 10
278.9240827667
 20
322.568627451
 40
1.5
100
AcDbArc
 50
0.0
 51
90.0
  0
ARC
  5
325
100
AcDbEntity
  8
_1
100
AcDbCircle
 62
7
  6
CONTINUOUS
 10
275.4890827667
 20
302.4286189186
 40
1.5
100
AcDbArc
 50
269.7601271283
 51
89.902225585
  0
ARC
  5
326
100
AcDbEntity
  8
_1
100
AcDbCircle
 62
7
  6
CONTINUOUS
 10
343.3790827668
 20
282.0686274511
 40
12.0999999999
100
AcDbArc
 50
0.0
 51
37.4096967726
  0
CIRCLE
  5
327
100
AcDbEntity
  8
_1
100
AcDbCircle
 62
7
  6
CONTINUOUS
 10
336.4790827667
 20
276.568627451
 40
5.25
  0
ARC
  5
328
100
AcDbEntity
  8
_1
100
AcDbCircle
 62
7
  6
CONTINUOUS
 10
336.4790827667
 20
276.568627451
 40
5.199974607
100
AcDbArc
 50
319.8432161077
 51
41.0955182311
  0
ARC
  5
329
100
AcDbEntity
  8
_1
100
AcDbCircle
 62
7
  6
CONTINUOUS
 10
339.4790827667
 20
276.568627451
 40
3.5
100
AcDbArc
 50
270.0
 51
286.0161854954
  0
ARC
  5
32A
100
AcDbEntity
  8
_1
100
AcDbCircle
 62
7
  6
CONTINUOUS
 10
339.4790827667
 20
276.568627451
 40
3.5
100
AcDbArc
 50
74.03319974
 51
90.0
  0
ARC
  5
32B
100
AcDbEntity
  8
_1
100
AcDbCircle
 62
7
  6
CONTINUOUS
 10
336.4790827667
 20
276.568627451
 40
3.5
100
AcDbArc
 50
90.0
 51
270.0
  0
CIRCLE
  5
32C
100
AcDbEntity
  8
_1
100
AcDbCircle
 62
7
  6
CONTINUOUS
 10
336.4790827667
 20
276.568627451
 40
2.7
  0
ARC
  5
32D
100
AcDbEntity
  8
_1
100
AcDbCircle
 62
7
  6
CONTINUOUS
 10
343.3790827668
 20
300.0686274511
 40
12.0999999999
100
AcDbArc
 50
0.0
 51
35.6936524736
  0
ARC
  5
32E
100
AcDbEntity
  8
_1
100
AcDbCircle
 62
7
  6
CONTINUOUS
 10
318.7290827667
 20
316.318627451
 40
0.5
100
AcDbArc
 50
90.0
 51
180.0
  0
SPLINE
  5
32F
100
AcDbEntity
  8
_1
100
AcDbSpline
 62
7
  6
CONTINUOUS
 70
0
 71
3
 72
10
 73
6
 74
0
 42
0.0000001
 43
0.0000001
 44
0.0000000001
 40
0.0
 40
0.0
 40
0.0
 40
0.0
 40
0.5480967652
 40
0.790691139
 40
1.0
 40
1.0
 40
1.0
 40
1.0
 10
274.9790827667
 20
322.068627451
 30
0.0
 10
274.6584644005
 20
322.2421226436
 30
0.0
 10
274.1945229748
 20
322.4910868938
 30
0.0
 10
273.6373280216
 20
322.8549453265
 30
0.0
 10
273.4028780154
 20
323.0451098252
 30
0.0
 10
273.3039716145
 20
323.1430816146
 30
0.0
  0
SPLINE
  5
330
100
AcDbEntity
  8
_1
100
AcDbSpline
 62
7
  6
CONTINUOUS
 70
0
 71
3
 72
9
 73
5
 74
0
 42
0.0000001
 43
0.0000001
 44
0.0000000001
 40
0.0
 40
0.0
 40
0.0
 40
0.0
 40
0.2552318277
 40
1.0
 40
1.0
 40
1.0
 40
1.0
 10
274.9790827667
 20
322.068627451
 30
0.0
 10
275.1625959894
 20
322.2121922449
 30
0.0
 10
275.8515231799
 20
322.81353202
 30
0.0
 10
276.4317525336
 20
323.5284690293
 30
0.0
 10
276.826903089
 20
324.0817366714
 30
0.0
  0
SPLINE
  5
331
100
AcDbEntity
  8
_1
100
AcDbSpline
 62
7
  6
CONTINUOUS
 70
0
 71
3
 72
12
 73
8
 74
0
 42
0.0000001
 43
0.0000001
 44
0.0000000001
 40
0.0
 40
0.0
 40
0.0
 40
0.0
 40
0.2977644667
 40
0.5517697169
 40
0.6642495839
 40
0.7731833478
 40
1.0
 40
1.0
 40
1.0
 40
1.0
 10
274.9790827667
 20
303.9116241145
 30
0.0
 10
274.6793375593
 20
303.8830928448
 30
0.0
 10
274.1271227244
 20
303.769040637
 30
0.0
 10
273.5240660424
 20
303.4307075237
 30
0.0
 10
273.2141314201
 20
303.0566089981
 30
0.0
 10
273.0172742376
 20
302.6438098451
 30
0.0
 10
272.9790827667
 20
302.2972504255
 30
0.0
 10
272.9790827667
 20
302.0678929757
 30
0.0
  0
SPLINE
  5
332
100
AcDbEntity
  8
_1
100
AcDbSpline
 62
7
  6
CONTINUOUS
 70
0
 71
3
 72
12
 73
8
 74
0
 42
0.0000001
 43
0.0000001
 44
0.0000000001
 40
0.0
 40
0.0
 40
0.0
 40
0.0
 40
0.2268152569
 40
0.3357633821
 40
0.4482434127
 40
0.702250321
 40
1.0
 40
1.0
 40
1.0
 40
1.0
 10
272.9790827667
 20
291.0693619263
 30
0.0
 10
272.9790827667
 20
290.8400052807
 30
0.0
 10
273.0173112319
 20
290.4934462086
 30
0.0
 10
273.2141016345
 20
290.0805997193
 30
0.0
 10
273.5240720069
 20
289.7064942335
 30
0.0
 10
274.1271743309
 20
289.3682842605
 30
0.0
 10
274.6793516527
 20
289.2541607157
 30
0.0
 10
274.9790827667
 20
289.2256307875
 30
0.0
  0
SPLINE
  5
333
100
AcDbEntity
  8
_1
100
AcDbSpline
 62
7
  6
CONTINUOUS
 70
0
 71
3
 72
12
 73
8
 74
0
 42
0.0000001
 43
0.0000001
 44
0.0000000001
 40
0.0
 40
0.0
 40
0.0
 40
0.0
 40
0.2977644667
 40
0.5517697169
 40
0.6642495839
 40
0.7731833478
 40
1.0
 40
1.0
 40
1.0
 40
1.0
 10
274.9790827667
 20
263.9116241145
 30
0.0
 10
274.6793375593
 20
263.8830928448
 30
0.0
 10
274.1271227244
 20
263.769040637
 30
0.0
 10
273.5240660424
 20
263.4307075237
 30
0.0
 10
273.2141314201
 20
263.0566089981
 30
0.0
 10
273.0172742376
 20
262.6438098451
 30
0.0
 10
272.9790827667
 20
262.2972504255
 30
0.0
 10
272.9790827667
 20
262.0678929757
 30
0.0
  0
SPLINE
  5
334
100
AcDbEntity
  8
_1
100
AcDbSpline
 62
7
  6
CONTINUOUS
 70
0
 71
3
 72
12
 73
8
 74
0
 42
0.0000001
 43
0.0000001
 44
0.0000000001
 40
0.0
 40
0.0
 40
0.0
 40
0.0
 40
0.2268152569
 40
0.3357633821
 40
0.4482434127
 40
0.702250321
 40
1.0
 40
1.0
 40
1.0
 40
1.0
 10
272.9790827667
 20
251.0693619263
 30
0.0
 10
272.9790827667
 20
250.8400052807
 30
0.0
 10
273.0173112319
 20
250.4934462086
 30
0.0
 10
273.2141016345
 20
250.0805997193
 30
0.0
 10
273.5240720069
 20
249.7064942335
 30
0.0
 10
274.1271743309
 20
249.3682842605
 30
0.0
 10
274.6793516527
 20
249.2541607157
 30
0.0
 10
274.9790827667
 20
249.2256307875
 30
0.0
  0
SPLINE
  5
335
100
AcDbEntity
  8
_1
100
AcDbSpline
 62
7
  6
CONTINUOUS
 70
0
 71
3
 72
14
 73
10
 74
0
 42
0.0000001
 43
0.0000001
 44
0.0000000001
 40
0.0
 40
0.0
 40
0.0
 40
0.0
 40
0.3413087606
 40
0.4949779262
 40
0.6302328905
 40
0.7444232322
 40
0.838643001
 40
0.9196962855
 40
1.0
 40
1.0
 40
1.0
 40
1.0
 10
274.9790827667
 20
249.2256307875
 30
0.0
 10
274.3824869053
 20
249.2508694635
 30
0.0
 10
273.5172606486
 20
249.3250344483
 30
0.0
 10
272.432512472
 20
249.5275350085
 30
0.0
 10
271.7525132546
 20
249.720085366
 30
0.0
 10
271.1991006
 20
249.9613860389
 30
0.0
 10
270.783020912
 20
250.2614452671
 30
0.0
 10
270.525367865
 20
250.6415135482
 30
0.0
 10
270.4790827667
 20
250.9288682719
 30
0.0
 10
270.4790827667
 20
251.0693619263
 30
0.0
  0
SPLINE
  5
336
100
AcDbEntity
  8
_1
100
AcDbSpline
 62
7
  6
CONTINUOUS
 70
0
 71
3
 72
14
 73
10
 74
0
 42
0.0000001
 43
0.0000001
 44
0.0000000001
 40
0.0
 40
0.0
 40
0.0
 40
0.0
 40
0.3413087606
 40
0.4949779262
 40
0.6302328905
 40
0.7444232322
 40
0.838643001
 40
0.9196962855
 40
1.0
 40
1.0
 40
1.0
 40
1.0
 10
274.9790827667
 20
289.2256307875
 30
0.0
 10
274.3824869053
 20
289.2508694635
 30
0.0
 10
273.5172606486
 20
289.3250344483
 30
0.0
 10
272.432512472
 20
289.5275350085
 30
0.0
 10
271.7525132546
 20
289.720085366
 30
0.0
 10
271.1991006
 20
289.9613860389
 30
0.0
 10
270.783020912
 20
290.2614452671
 30
0.0
 10
270.525367865
 20
290.6415135482
 30
0.0
 10
270.4790827667
 20
290.9288682719
 30
0.0
 10
270.4790827667
 20
291.0693619263
 30
0.0
  0
SPLINE
  5
337
100
AcDbEntity
  8
_1
100
AcDbSpline
 62
7
  6
CONTINUOUS
 70
0
 71
3
 72
14
 73
10
 74
0
 42
0.0000001
 43
0.0000001
 44
0.0000000001
 40
0.0
 40
0.0
 40
0.0
 40
0.0
 40
0.0803061626
 40
0.1613535674
 40
0.2555750879
 40
0.3697703215
 40
0.5050255026
 40
0.6586946846
 40
1.0
 40
1.0
 40
1.0
 40
1.0
 10
270.4790827667
 20
262.0678929757
 30
0.0
 10
270.4790827667
 20
262.2083906772
 30
0.0
 10
270.5253519164
 20
262.4957463786
 30
0.0
 10
270.7830550379
 20
262.8757809124
 30
0.0
 10
271.1991270781
 20
263.1758279349
 30
0.0
 10
271.7524894934
 20
263.4172744583
 30
0.0
 10
272.4325236516
 20
263.6097679473
 30
0.0
 10
273.5172932221
 20
263.8120766257
 30
0.0
 10
274.3824939289
 20
263.8863857356
 30
0.0
 10
274.9790827667
 20
263.9116241145
 30
0.0
  0
SPLINE
  5
338
100
AcDbEntity
  8
_1
100
AcDbSpline
 62
7
  6
CONTINUOUS
 70
0
 71
3
 72
14
 73
10
 74
0
 42
0.0000001
 43
0.0000001
 44
0.0000000001
 40
0.0
 40
0.0
 40
0.0
 40
0.0
 40
0.0803061626
 40
0.1613535674
 40
0.2555750879
 40
0.3697703215
 40
0.5050255026
 40
0.6586946846
 40
1.0
 40
1.0
 40
1.0
 40
1.0
 10
270.4790827667
 20
302.0678929757
 30
0.0
 10
270.4790827667
 20
302.2083906772
 30
0.0
 10
270.5253519164
 20
302.4957463786
 30
0.0
 10
270.7830550379
 20
302.8757809124
 30
0.0
 10
271.1991270781
 20
303.1758279349
 30
0.0
 10
271.7524894934
 20
303.4172744583
 30
0.0
 10
272.4325236516
 20
303.6097679473
 30
0.0
 10
273.5172932221
 20
303.8120766257
 30
0.0
 10
274.3824939289
 20
303.8863857356
 30
0.0
 10
274.9790827667
 20
303.9116241145
 30
0.0
  0
SPLINE
  5
339
100
AcDbEntity
  8
_1
100
AcDbSpline
 62
7
  6
CONTINUOUS
 70
0
 71
3
 72
14
 73
10
 74
0
 42
0.0000001
 43
0.0000001
 44
0.0000000001
 40
0.0
 40
0.0
 40
0.0
 40
0.0
 40
0.0686815299
 40
0.1655791592
 40
0.2847103624
 40
0.4182763605
 40
0.5599656243
 40
0.7055354926
 40
1.0
 40
1.0
 40
1.0
 40
1.0
 10
278.6918477514
 20
324.068627451
 30
0.0
 10
278.5948585432
 20
324.0686274504
 30
0.0
 10
278.367796616
 20
323.9818565042
 30
0.0
 10
278.0275172113
 20
323.7733211721
 30
0.0
 10
277.6208109072
 20
323.4912356594
 30
0.0
 10
277.1626304496
 20
323.1753096088
 30
0.0
 10
276.6611894079
 20
322.8556517466
 30
0.0
 10
275.9445005193
 20
322.4536254209
 30
0.0
 10
275.3718494134
 20
322.2051903328
 30
0.0
 10
274.9790827667
 20
322.068627451
 30
0.0
  0
SPLINE
  5
33A
100
AcDbEntity
  8
_1
100
AcDbSpline
 62
7
  6
CONTINUOUS
 70
0
 71
3
 72
10
 73
6
 74
0
 42
0.0000001
 43
0.0000001
 44
0.0000000001
 40
0.0
 40
0.0
 40
0.0
 40
0.0
 40
0.5480967652
 40
0.790691139
 40
1.0
 40
1.0
 40
1.0
 40
1.0
 10
125.9790827667
 20
231.068627451
 30
0.0
 10
126.2997011328
 20
230.8951322584
 30
0.0
 10
126.7636425585
 20
230.6461680082
 30
0.0
 10
127.3208375117
 20
230.2823095755
 30
0.0
 10
127.555287518
 20
230.0921450768
 30
0.0
 10
127.6541939188
 20
229.9941732874
 30
0.0
  0
SPLINE
  5
33B
100
AcDbEntity
  8
_1
100
AcDbSpline
 62
7
  6
CONTINUOUS
 70
0
 71
3
 72
9
 73
5
 74
0
 42
0.0000001
 43
0.0000001
 44
0.0000000001
 40
0.0
 40
0.0
 40
0.0
 40
0.0
 40
0.2552318277
 40
1.0
 40
1.0
 40
1.0
 40
1.0
 10
125.9790827667
 20
231.068627451
 30
0.0
 10
125.795569544
 20
230.9250626571
 30
0.0
 10
125.1066423535
 20
230.3237228819
 30
0.0
 10
124.5264129995
 20
229.6087858729
 30
0.0
 10
124.1312624444
 20
229.0555182305
 30
0.0
  0
SPLINE
  5
33C
100
AcDbEntity
  8
_1
100
AcDbSpline
 62
7
  6
CONTINUOUS
 70
0
 71
3
 72
12
 73
8
 74
0
 42
0.0000001
 43
0.0000001
 44
0.0000000001
 40
0.0
 40
0.0
 40
0.0
 40
0.0
 40
0.2977644667
 40
0.5517697169
 40
0.6642495839
 40
0.7731833478
 40
1.0
 40
1.0
 40
1.0
 40
1.0
 10
125.9790827667
 20
249.2256307875
 30
0.0
 10
126.278827974
 20
249.2541620572
 30
0.0
 10
126.831042809
 20
249.368214265
 30
0.0
 10
127.4340994909
 20
249.7065473783
 30
0.0
 10
127.7440341133
 20
250.0806459039
 30
0.0
 10
127.9408912957
 20
250.4934450569
 30
0.0
 10
127.9790827667
 20
250.8400044765
 30
0.0
 10
127.9790827667
 20
251.0693619263
 30
0.0
  0
SPLINE
  5
33D
100
AcDbEntity
  8
_1
100
AcDbSpline
 62
7
  6
CONTINUOUS
 70
0
 71
3
 72
12
 73
8
 74
0
 42
0.0000001
 43
0.0000001
 44
0.0000000001
 40
0.0
 40
0.0
 40
0.0
 40
0.0
 40
0.2268152569
 40
0.3357633821
 40
0.4482434127
 40
0.702250321
 40
1.0
 40
1.0
 40
1.0
 40
1.0
 10
127.9790827667
 20
262.0678929757
 30
0.0
 10
127.9790827667
 20
262.2972496213
 30
0.0
 10
127.9408543015
 20
262.6438086934
 30
0.0
 10
127.7440638988
 20
263.0566551827
 30
0.0
 10
127.4340935265
 20
263.4307606685
 30
0.0
 10
126.8309912024
 20
263.7689706414
 30
0.0
 10
126.2788138807
 20
263.8830941863
 30
0.0
 10
125.9790827667
 20
263.9116241145
 30
0.0
  0
SPLINE
  5
33E
100
AcDbEntity
  8
_1
100
AcDbSpline
 62
7
  6
CONTINUOUS
 70
0
 71
3
 72
12
 73
8
 74
0
 42
0.0000001
 43
0.0000001
 44
0.0000000001
 40
0.0
 40
0.0
 40
0.0
 40
0.0
 40
0.2977644667
 40
0.5517697169
 40
0.6642495839
 40
0.7731833478
 40
1.0
 40
1.0
 40
1.0
 40
1.0
 10
125.9790827667
 20
289.2256307875
 30
0.0
 10
126.278827974
 20
289.2541620572
 30
0.0
 10
126.831042809
 20
289.368214265
 30
0.0
 10
127.4340994909
 20
289.7065473783
 30
0.0
 10
127.7440341133
 20
290.0806459039
 30
0.0
 10
127.9408912957
 20
290.4934450569
 30
0.0
 10
127.9790827667
 20
290.8400044765
 30
0.0
 10
127.9790827667
 20
291.0693619263
 30
0.0
  0
SPLINE
  5
33F
100
AcDbEntity
  8
_1
100
AcDbSpline
 62
7
  6
CONTINUOUS
 70
0
 71
3
 72
12
 73
8
 74
0
 42
0.0000001
 43
0.0000001
 44
0.0000000001
 40
0.0
 40
0.0
 40
0.0
 40
0.0
 40
0.2268152569
 40
0.3357633821
 40
0.4482434127
 40
0.702250321
 40
1.0
 40
1.0
 40
1.0
 40
1.0
 10
127.9790827667
 20
302.0678929757
 30
0.0
 10
127.9790827667
 20
302.2972496213
 30
0.0
 10
127.9408543015
 20
302.6438086934
 30
0.0
 10
127.7440638988
 20
303.0566551827
 30
0.0
 10
127.4340935265
 20
303.4307606685
 30
0.0
 10
126.8309912024
 20
303.7689706414
 30
0.0
 10
126.2788138807
 20
303.8830941863
 30
0.0
 10
125.9790827667
 20
303.9116241145
 30
0.0
  0
SPLINE
  5
340
100
AcDbEntity
  8
_1
100
AcDbSpline
 62
7
  6
CONTINUOUS
 70
0
 71
3
 72
14
 73
10
 74
0
 42
0.0000001
 43
0.0000001
 44
0.0000000001
 40
0.0
 40
0.0
 40
0.0
 40
0.0
 40
0.3413087606
 40
0.4949779262
 40
0.6302328905
 40
0.7444232322
 40
0.838643001
 40
0.9196962855
 40
1.0
 40
1.0
 40
1.0
 40
1.0
 10
125.9790827667
 20
303.9116241145
 30
0.0
 10
126.5756786281
 20
303.8863854385
 30
0.0
 10
127.4409048848
 20
303.8122204537
 30
0.0
 10
128.5256530614
 20
303.6097198934
 30
0.0
 10
129.2056522788
 20
303.417169536
 30
0.0
 10
129.7590649334
 20
303.1758688631
 30
0.0
 10
130.1751446214
 20
302.8758096349
 30
0.0
 10
130.4327976683
 20
302.4957413537
 30
0.0
 10
130.4790827667
 20
302.2083866301
 30
0.0
 10
130.4790827667
 20
302.0678929757
 30
0.0
  0
SPLINE
  5
341
100
AcDbEntity
  8
_1
100
AcDbSpline
 62
7
  6
CONTINUOUS
 70
0
 71
3
 72
14
 73
10
 74
0
 42
0.0000001
 43
0.0000001
 44
0.0000000001
 40
0.0
 40
0.0
 40
0.0
 40
0.0
 40
0.3413087606
 40
0.4949779262
 40
0.6302328905
 40
0.7444232322
 40
0.838643001
 40
0.9196962855
 40
1.0
 40
1.0
 40
1.0
 40
1.0
 10
125.9790827667
 20
263.9116241145
 30
0.0
 10
126.5756786281
 20
263.8863854385
 30
0.0
 10
127.4409048848
 20
263.8122204537
 30
0.0
 10
128.5256530614
 20
263.6097198934
 30
0.0
 10
129.2056522788
 20
263.417169536
 30
0.0
 10
129.7590649334
 20
263.1758688631
 30
0.0
 10
130.1751446214
 20
262.8758096349
 30
0.0
 10
130.4327976683
 20
262.4957413537
 30
0.0
 10
130.4790827667
 20
262.2083866301
 30
0.0
 10
130.4790827667
 20
262.0678929757
 30
0.0
  0
SPLINE
  5
342
100
AcDbEntity
  8
_1
100
AcDbSpline
 62
7
  6
CONTINUOUS
 70
0
 71
3
 72
14
 73
10
 74
0
 42
0.0000001
 43
0.0000001
 44
0.0000000001
 40
0.0
 40
0.0
 40
0.0
 40
0.0
 40
0.0803061626
 40
0.1613535674
 40
0.2555750879
 40
0.3697703215
 40
0.5050255026
 40
0.6586946846
 40
1.0
 40
1.0
 40
1.0
 40
1.0
 10
130.4790827667
 20
291.0693619263
 30
0.0
 10
130.4790827667
 20
290.9288642248
 30
0.0
 10
130.432813617
 20
290.6415085234
 30
0.0
 10
130.1751104955
 20
290.2614739895
 30
0.0
 10
129.7590384552
 20
289.9614269671
 30
0.0
 10
129.20567604
 20
289.7199804436
 30
0.0
 10
128.5256418817
 20
289.5274869547
 30
0.0
 10
127.4408723113
 20
289.3251782763
 30
0.0
 10
126.5756716045
 20
289.2508691664
 30
0.0
 10
125.9790827667
 20
289.2256307875
 30
0.0
  0
SPLINE
  5
343
100
AcDbEntity
  8
_1
100
AcDbSpline
 62
7
  6
CONTINUOUS
 70
0
 71
3
 72
14
 73
10
 74
0
 42
0.0000001
 43
0.0000001
 44
0.0000000001
 40
0.0
 40
0.0
 40
0.0
 40
0.0
 40
0.0803061626
 40
0.1613535674
 40
0.2555750879
 40
0.3697703215
 40
0.5050255026
 40
0.6586946846
 40
1.0
 40
1.0
 40
1.0
 40
1.0
 10
130.4790827667
 20
251.0693619263
 30
0.0
 10
130.4790827667
 20
250.9288642247
 30
0.0
 10
130.432813617
 20
250.6415085234
 30
0.0
 10
130.1751104955
 20
250.2614739895
 30
0.0
 10
129.7590384552
 20
249.9614269671
 30
0.0
 10
129.20567604
 20
249.7199804436
 30
0.0
 10
128.5256418817
 20
249.5274869547
 30
0.0
 10
127.4408723113
 20
249.3251782763
 30
0.0
 10
126.5756716045
 20
249.2508691664
 30
0.0
 10
125.9790827667
 20
249.2256307875
 30
0.0
  0
SPLINE
  5
344
100
AcDbEntity
  8
_1
100
AcDbSpline
 62
7
  6
CONTINUOUS
 70
0
 71
3
 72
14
 73
10
 74
0
 42
0.0000001
 43
0.0000001
 44
0.0000000001
 40
0.0
 40
0.0
 40
0.0
 40
0.0
 40
0.0686815299
 40
0.1655791592
 40
0.2847103624
 40
0.4182763605
 40
0.5599656243
 40
0.7055354926
 40
1.0
 40
1.0
 40
1.0
 40
1.0
 10
122.2663177819
 20
229.068627451
 30
0.0
 10
122.3633069901
 20
229.0686274516
 30
0.0
 10
122.5903689173
 20
229.1553983978
 30
0.0
 10
122.930648322
 20
229.3639337299
 30
0.0
 10
123.3373546262
 20
229.6460192425
 30
0.0
 10
123.7955350837
 20
229.9619452933
 30
0.0
 10
124.2969761254
 20
230.2816031554
 30
0.0
 10
125.013665014
 20
230.6836294811
 30
0.0
 10
125.5863161199
 20
230.9320645692
 30
0.0
 10
125.9790827667
 20
231.068627451
 30
0.0
  0
ENDSEC
  0
SECTION
  2
OBJECTS
  0
DICTIONARY
  5
C
100
AcDbDictionary
280
0
281
1
  3
ACAD_GROUP
350
D
  3
ACAD_MLINESTYLE
350
17
  3
ACAD_LAYOUT
350
1A
  3
ACAD_PLOTSETTINGS
350
19
  3
ACAD_PLOTSTYLENAME
350
E
  0
DICTIONARY
  5
D
102
{ACAD_REACTORS
330
C
102
}
100
AcDbDictionary
280
0
281
1
  0
ACDBDICTIONARYWDFLT
  5
E
102
{ACAD_REACTORS
330
C
102
}
100
AcDbDictionary
281
1
  3
Normal
350
F
100
AcDbDictionaryWithDefault
340
F
  0
DICTIONARY
  5
17
102
{ACAD_REACTORS
330
C
102
}
100
AcDbDictionary
280
0
281
1
  3
Standard
350
18
  0
DICTIONARY
  5
19
102
{ACAD_REACTORS
330
C
102
}
100
AcDbDictionary
281
1
  0
DICTIONARY
  5
1A
102
{ACAD_REACTORS
330
C
102
}
100
AcDbDictionary
281
1
  3
Model
350
345
  3
Layout1
350
346
  0
ACDBPLACEHOLDER
  5
F
102
{ACAD_REACTORS
330
E
102
}
  0
MLINESTYLE
  5
18
102
{ACAD_REACTORS
330
17
102
}
100
AcDbMlineStyle
  2
STANDARD
 70
0
  3

 62
256
 51
90.0
 52
90.0
 71
2
 49
0.5
 62
256
  6
BYLAYER
 49
-0.5
 62
256
  6
BYLAYER
  0
LAYOUT
  5
345
102
{ACAD_REACTORS
330
1A
102
}
100
AcDbPlotSettings
  1

  2
none_device
  4

  6

 40
0.0
 41
0.0
 42
0.0
 43
0.0
 44
210.0
 45
297.0
 46
0.0
 47
0.0
 48
0.0
 49
0.0
140
0.0
141
0.0
142
1.0
143
1.0
 70
1024
 72
1
 73
0
 74
0
  7

 75
0
147
1.0
148
0.0
149
0.0
100
AcDbLayout
  1
Model
 70
0
 71
0
 10
0.0
 20
0.0
 11
210.0
 21
297.0
 12
0.0
 22
0.0
 32
0.0
 14
0.0
 24
0.0
 34
0.0
 15
0.0
 25
0.0
 35
0.0
146
0.0
 13
0.0
 23
0.0
 33
0.0
 16
1.0
 26
0.0
 36
0.0
 17
0.0
 27
1.0
 37
0.0
 76
0
330
211
345
0
346
0
  0
LAYOUT
  5
346
102
{ACAD_REACTORS
330
1A
102
}
100
AcDbPlotSettings
  1

  2
none_device
  4

  6

 40
0.0
 41
0.0
 42
0.0
 43
0.0
 44
210.0
 45
297.0
 46
0.0
 47
0.0
 48
0.0
 49
0.0
140
0.0
141
0.0
142
1.0
143
1.0
 70
0
 72
1
 73
0
 74
0
  7

 75
0
147
1.0
148
0.0
149
0.0
100
AcDbLayout
  1
Layout1
 70
0
 71
1
 10
0.0
 20
0.0
 11
210.0
 21
297.0
 12
0.0
 22
0.0
 32
0.0
 14
0.0
 24
0.0
 34
0.0
 15
0.0
 25
0.0
 35
0.0
146
0.0
 13
0.0
 23
0.0
 33
0.0
 16
1.0
 26
0.0
 36
0.0
 17
0.0
 27
1.0
 37
0.0
 76
0
330
212
345
0
346
0
  0
ENDSEC
  0
EOF
