999
DXF file: C:\Users\sesa63760\Dev\_Creo\CAD\MCADUE0002315_3D-CAD\drw0001_4.dxf
999
Pro/ENGINEER 2019471 by Parametric Technology Corporation
  0
SECTION
  2
HEADER
  9
$ACADVER
  1
AC1024
  9
$DWGCODEPAGE
  3
ANSI_1252
  9
$EXTMAX
 10
636.0842360051
 20
899.6048480643
 30
0.0
  9
$EXTMIN
 10
0.0
 20
0.0
 30
0.0
  9
$LIMMIN
 10
0.0
 20
0.0
  9
$LIMMAX
 10
636.0842360051
 20
899.6048480643
  9
$VIEWCTR
 10
318.0421180025
 20
449.8024240322
  9
$VIEWSIZE
 40
899.6048480643
  9
$CLAYER
  8
0
  9
$LTSCALE
 40
58.6409086146
  9
$CELTYPE
  6
BYLAYER
  9
$DIMSCALE
 40
1.0
  9
$DIMASZ
 40
7.572431381
  9
$DIMEXO
 40
1.0
  9
$DIMDLI
 40
40.515536861
  9
$DIMEXE
 40
1.0
  9
$DIMCEN
 40
9.595785046
  9
$DIMLFAC
 40
1.0
  9
$DIMBLK
  1
_FILLED
  9
$DIMALT
 70
0
  9
$DIMALTF
 40
0.0393700787
  9
$DIMTXT
 40
10.6014039334
  9
$DIMTOL
 70
1
  9
$DIMLIM
 70
0
  9
$DIMTFAC
 40
1.0
  9
$DIMTP
 40
0.01
  9
$DIMTM
 40
0.01
  9
$DIMGAP
 40
0.625
  9
$DIMDSEP
 70
46
  9
$AUNITS
 70
0
  9
$PDMODE
 70
3
  9
$PDSIZE
 40
0.3125
  9
$HANDSEED
  5
5CD
  9
$TILEMODE
 70
1
  9
$MEASUREMENT
 70
1
  9
$INSUNITS
 70
4
  0
ENDSEC
  0
SECTION
  2
CLASSES
  0
CLASS
  1
ACDBDICTIONARYWDFLT
  2
AcDbDictionaryWithDefault
  3
AutoCAD 2000
 90
0
 91
1
280
0
281
0
  0
CLASS
  1
ACDBPLACEHOLDER
  2
AcDbPlaceHolder
  3
AutoCAD 2000
 90
0
 91
1
280
0
281
0
  0
CLASS
  1
LAYOUT
  2
AcDbLayout
  3
AutoCAD 2000
 90
0
 91
0
280
0
281
0
  0
ENDSEC
  0
SECTION
  2
TABLES
  0
TABLE
  2
VPORT
  5
8
100
AcDbSymbolTable
 70
2
  0
VPORT
  5
1F4
100
AcDbSymbolTableRecord
100
AcDbViewportTableRecord
  2
*ACTIVE
 70
0
 10
0.0
 20
0.0
 11
1.0
 21
1.0
 12
318.0421180025
 22
449.8024240322
 13
0.0
 23
0.0
 14
1.0
 24
1.0
 15
0.0
 25
0.0
 16
0.0
 26
0.0
 36
1.0
 17
0.0
 27
0.0
 37
0.0
 40
899.6048480643
 41
0.7070707071
 42
50.0
 43
0.0
 44
0.0
 50
0.0
 51
0.0
 71
0
 72
100
 73
1
 74
1
 75
0
 76
0
 77
0
 78
0
  0
ENDTAB
  0
TABLE
  2
LTYPE
  5
5
100
AcDbSymbolTable
 70
6
  0
LTYPE
  5
14
100
AcDbSymbolTableRecord
100
AcDbLinetypeTableRecord
  2
BYBLOCK
 70
0
  3

 72
65
 73
0
 40
0.0
  0
LTYPE
  5
15
100
AcDbSymbolTableRecord
100
AcDbLinetypeTableRecord
  2
BYLAYER
 70
0
  3

 72
65
 73
0
 40
0.0
  0
LTYPE
  5
16
100
AcDbSymbolTableRecord
100
AcDbLinetypeTableRecord
  2
CONTINUOUS
 70
64
  3
Solid line
 72
65
 73
0
 40
0.0
  0
LTYPE
  5
1F5
100
AcDbSymbolTableRecord
100
AcDbLinetypeTableRecord
  2
CENTER
 70
64
  3
____ _ ____ _ ____ _ ____ _ ____ _ ____ _ ____
 72
65
 73
4
 40
0.6
 49
0.375
 74
0
 49
-0.075
 74
0
 49
0.075
 74
0
 49
-0.075
 74
0
  0
LTYPE
  5
1F6
100
AcDbSymbolTableRecord
100
AcDbLinetypeTableRecord
  2
HIDDEN
 70
64
  3
- - - - - - - - - - - - - - - - - - - -
 72
65
 73
2
 40
0.2
 49
0.1
 74
0
 49
-0.1
 74
0
  0
LTYPE
  5
1F7
100
AcDbSymbolTableRecord
100
AcDbLinetypeTableRecord
  2
PHANTOM
 70
64
  3
_____ _ _ _____ _ _ _____ _ _ _____
 72
65
 73
6
 40
0.8
 49
0.45
 74
0
 49
-0.05
 74
0
 49
0.1
 74
0
 49
-0.05
 74
0
 49
0.1
 74
0
 49
-0.05
 74
0
  0
LTYPE
  5
1F8
100
AcDbSymbolTableRecord
100
AcDbLinetypeTableRecord
  2
DOT
 70
64
  3
. . . . . . . . . . . . . . . . . . . .
 72
65
 73
2
 40
0.2
 49
0.1
 74
0
 49
-0.1
 74
0
  0
LTYPE
  5
1F9
100
AcDbSymbolTableRecord
100
AcDbLinetypeTableRecord
  2
DASHED
 70
64
  3
- - - - - - - - - - - - - - - - - - - -
 72
65
 73
2
 40
0.2
 49
0.1
 74
0
 49
-0.1
 74
0
  0
ENDTAB
  0
TABLE
  2
LAYER
  5
2
100
AcDbSymbolTable
 70
36
  0
LAYER
  5
10
100
AcDbSymbolTableRecord
100
AcDbLayerTableRecord
  2
0
 70
0
 62
7
  6
CONTINUOUS
370
-3
390
F
  0
LAYER
  5
1FA
100
AcDbSymbolTableRecord
100
AcDbLayerTableRecord
  2
DEFAULT_1
 70
0
 62
7
  6
CENTER
370
-3
390
F
  0
LAYER
  5
1FB
100
AcDbSymbolTableRecord
100
AcDbLayerTableRecord
  2
DEFAULT_2
 70
0
 62
8
  6
HIDDEN
370
-3
390
F
  0
LAYER
  5
1FC
100
AcDbSymbolTableRecord
100
AcDbLayerTableRecord
  2
DEFAULT_3
 70
0
 62
7
  6
PHANTOM
370
-3
390
F
  0
LAYER
  5
1FD
100
AcDbSymbolTableRecord
100
AcDbLayerTableRecord
  2
00_COMPONENTS
 70
0
 62
7
  6
CONTINUOUS
370
-3
390
F
  0
LAYER
  5
1FE
100
AcDbSymbolTableRecord
100
AcDbLayerTableRecord
  2
01_1_DEFAULT_DATUMS
 70
0
 62
7
  6
CONTINUOUS
370
-3
390
F
  0
LAYER
  5
1FF
100
AcDbSymbolTableRecord
100
AcDbLayerTableRecord
  2
01_PLANES
 70
0
 62
7
  6
CONTINUOUS
370
-3
390
F
  0
LAYER
  5
200
100
AcDbSymbolTableRecord
100
AcDbLayerTableRecord
  2
02_COORD_SYS
 70
0
 62
7
  6
CONTINUOUS
370
-3
390
F
  0
LAYER
  5
201
100
AcDbSymbolTableRecord
100
AcDbLayerTableRecord
  2
03_AXES
 70
0
 62
7
  6
CONTINUOUS
370
-3
390
F
  0
LAYER
  5
202
100
AcDbSymbolTableRecord
100
AcDbLayerTableRecord
  2
04_POINTS
 70
0
 62
7
  6
CONTINUOUS
370
-3
390
F
  0
LAYER
  5
203
100
AcDbSymbolTableRecord
100
AcDbLayerTableRecord
  2
05_CURVES
 70
0
 62
7
  6
CONTINUOUS
370
-3
390
F
  0
LAYER
  5
204
100
AcDbSymbolTableRecord
100
AcDbLayerTableRecord
  2
06_SURFS
 70
0
 62
7
  6
CONTINUOUS
370
-3
390
F
  0
LAYER
  5
205
100
AcDbSymbolTableRecord
100
AcDbLayerTableRecord
  2
07_COSMETICS
 70
0
 62
7
  6
CONTINUOUS
370
-3
390
F
  0
LAYER
  5
206
100
AcDbSymbolTableRecord
100
AcDbLayerTableRecord
  2
10_NOTES
 70
0
 62
7
  6
CONTINUOUS
370
-3
390
F
  0
LAYER
  5
207
100
AcDbSymbolTableRecord
100
AcDbLayerTableRecord
  2
11_NOTES_PUB
 70
0
 62
7
  6
CONTINUOUS
370
-3
390
F
  0
LAYER
  5
208
100
AcDbSymbolTableRecord
100
AcDbLayerTableRecord
  2
13_REF_GTOL
 70
0
 62
7
  6
CONTINUOUS
370
-3
390
F
  0
LAYER
  5
209
100
AcDbSymbolTableRecord
100
AcDbLayerTableRecord
  2
16_MISC
 70
0
 62
7
  6
CONTINUOUS
370
-3
390
F
  0
LAYER
  5
20A
100
AcDbSymbolTableRecord
100
AcDbLayerTableRecord
  2
17_NO_PRINT
 70
0
 62
7
  6
CONTINUOUS
370
-3
390
F
  0
LAYER
  5
20B
100
AcDbSymbolTableRecord
100
AcDbLayerTableRecord
  2
18_DATUM_CAMS_JOINTS
 70
0
 62
7
  6
CONTINUOUS
370
-3
390
F
  0
LAYER
  5
20C
100
AcDbSymbolTableRecord
100
AcDbLayerTableRecord
  2
19_DATUM_FUNCTIONAL
 70
0
 62
7
  6
CONTINUOUS
370
-3
390
F
  0
LAYER
  5
20D
100
AcDbSymbolTableRecord
100
AcDbLayerTableRecord
  2
20_DATUM_KINEMATIC_SCHEME
 70
0
 62
7
  6
CONTINUOUS
370
-3
390
F
  0
ENDTAB
  0
TABLE
  2
STYLE
  5
3
100
AcDbSymbolTable
 70
1
  0
STYLE
  5
11
100
AcDbSymbolTableRecord
100
AcDbTextStyleTableRecord
  2
STANDARD
 70
0
 40
0.0
 41
0.8
 50
0.0
 71
0
 42
0.2
  3
txt
  4

  0
STYLE
  5
20E
100
AcDbSymbolTableRecord
100
AcDbTextStyleTableRecord
  2
TEXTSTYLE_1
 70
0
 40
0.0
 41
0.8
 50
0.0
 71
0
 42
0.2
  3
gdt
  4

  0
ENDTAB
  0
TABLE
  2
VIEW
  5
6
100
AcDbSymbolTable
 70
0
  0
ENDTAB
  0
TABLE
  2
UCS
  5
7
100
AcDbSymbolTable
 70
0
  0
ENDTAB
  0
TABLE
  2
APPID
  5
9
100
AcDbSymbolTable
 70
1
  0
APPID
  5
20F
100
AcDbSymbolTableRecord
100
AcDbRegAppTableRecord
  2
ACAD
 70
0
  0
ENDTAB
  0
TABLE
  2
BLOCK_RECORD
  5
1
100
AcDbSymbolTable
 70
0
  0
BLOCK_RECORD
  5
210
100
AcDbSymbolTableRecord
100
AcDbBlockTableRecord
  2
*Model_Space
  0
BLOCK_RECORD
  5
211
100
AcDbSymbolTableRecord
100
AcDbBlockTableRecord
  2
*Paper_Space
  0
BLOCK_RECORD
  5
212
100
AcDbSymbolTableRecord
100
AcDbBlockTableRecord
  2
_FILLED
  0
ENDTAB
  0
TABLE
  2
DIMSTYLE
  5
A
100
AcDbSymbolTable
 70
1
100
AcDbDimStyleTable
 71
0
  0
DIMSTYLE
105
213
100
AcDbSymbolTableRecord
100
AcDbDimStyleTableRecord
  2
STANDARD
 70
0
  3

  4

 40
1.0
 41
7.572431381
 42
1.0
 43
0.38
 44
1.0
 45
0.0
 46
0.0
 47
0.01
 48
0.01
140
10.6014039334
141
0.09
142
0.0
143
25.4
144
1.0
145
0.0
146
1.0
147
0.625
 71
1
 72
0
 73
0
 74
0
 75
0
 76
0
 77
1
 78
8
 79
2
170
0
171
1
172
0
173
0
174
0
175
0
176
0
177
0
178
0
270
2
179
2
271
2
272
2
273
2
274
2
275
0
280
0
281
0
282
0
283
1
284
8
285
0
286
0
287
3
288
0
340
11
278
46
341
212
342
212
343
212
344
212
  0
ENDTAB
  0
ENDSEC
  0
SECTION
  2
BLOCKS
  0
BLOCK
  5
20
100
AcDbEntity
  8
0
100
AcDbBlockBegin
  2
*Model_Space
 70
0
 10
0.0
 20
0.0
 30
0.0
  3
*Model_Space
  1

  0
ENDBLK
  5
21
100
AcDbEntity
  8
0
100
AcDbBlockEnd
  0
BLOCK
  5
1C
100
AcDbEntity
  8
0
100
AcDbBlockBegin
  2
*Paper_Space
 70
0
 10
0.0
 20
0.0
 30
0.0
  3
*Paper_Space
  1

  0
ENDBLK
  5
1D
100
AcDbEntity
  8
0
100
AcDbBlockEnd
  0
BLOCK
  5
214
100
AcDbEntity
  8
0
100
AcDbBlockBegin
  2
_FILLED
 70
64
 10
0.0
 20
0.0
  3
_FILLED
  1

  0
SOLID
  5
215
100
AcDbEntity
  8
0
  6
BYBLOCK
 62
0
100
AcDbTrace
 10
0.0
 20
0.0
 11
-1.0
 21
0.25
 12
-1.0
 22
-0.25
 13
-1.0
 23
-0.25
  0
ENDBLK
  5
216
100
AcDbEntity
  8
0
  6
BYBLOCK
 62
0
100
AcDbBlockEnd
  0
ENDSEC
  0
SECTION
  2
ENTITIES
  0
LINE
  5
217
100
AcDbEntity
  8
0
100
AcDbLine
 62
7
  6
CONTINUOUS
 10
70.8434786018
 20
446.9996547034
 11
70.8434786018
 21
433.9996547034
  0
LINE
  5
218
100
AcDbEntity
  8
0
100
AcDbLine
 62
7
  6
CONTINUOUS
 10
72.3434786018
 20
446.9996547034
 11
72.3434786018
 21
433.9996547034
  0
LINE
  5
219
100
AcDbEntity
  8
0
100
AcDbLine
 62
7
  6
CONTINUOUS
 10
73.3434786018
 20
447.9996547034
 11
73.3434786018
 21
449.4996547034
  0
LINE
  5
21A
100
AcDbEntity
  8
0
100
AcDbLine
 62
7
  6
CONTINUOUS
 10
73.8434786018
 20
447.9996547034
 11
73.8434786018
 21
449.4996547034
  0
LINE
  5
21B
100
AcDbEntity
  8
0
100
AcDbLine
 62
7
  6
CONTINUOUS
 10
74.8434786018
 20
447.9996547034
 11
74.8434786018
 21
449.4996547034
  0
LINE
  5
21C
100
AcDbEntity
  8
0
100
AcDbLine
 62
7
  6
CONTINUOUS
 10
89.3434786018
 20
449.4996547034
 11
89.3434786018
 21
449.6996547034
  0
LINE
  5
21D
100
AcDbEntity
  8
0
100
AcDbLine
 62
7
  6
CONTINUOUS
 10
101.1246879688
 20
446.2815141973
 11
101.0101452684
 21
447.9996547034
  0
LINE
  5
21E
100
AcDbEntity
  8
0
100
AcDbLine
 62
7
  6
CONTINUOUS
 10
102.3434786018
 20
449.4996547034
 11
102.3434786018
 21
449.6996547034
  0
LINE
  5
21F
100
AcDbEntity
  8
0
100
AcDbLine
 62
7
  6
CONTINUOUS
 10
90.5622692347
 20
446.2815141973
 11
90.6768119351
 21
447.9996547034
  0
LINE
  5
220
100
AcDbEntity
  8
0
100
AcDbLine
 62
7
  6
CONTINUOUS
 10
100.6434786018
 20
443.6996547034
 11
101.0834703815
 21
445.7236168901
  0
LINE
  5
221
100
AcDbEntity
  8
0
100
AcDbLine
 62
7
  6
CONTINUOUS
 10
91.0434786018
 20
443.6996547034
 11
90.603486822
 21
445.7236168901
  0
LINE
  5
222
100
AcDbEntity
  8
0
100
AcDbLine
 62
7
  6
CONTINUOUS
 10
119.3434786018
 20
449.4996547034
 11
119.3434786018
 21
449.6996547034
  0
LINE
  5
223
100
AcDbEntity
  8
0
100
AcDbLine
 62
7
  6
CONTINUOUS
 10
120.5622692347
 20
446.2815141973
 11
120.6768119351
 21
447.9996547034
  0
LINE
  5
224
100
AcDbEntity
  8
0
100
AcDbLine
 62
7
  6
CONTINUOUS
 10
131.1246879688
 20
446.2815141973
 11
131.0101452684
 21
447.9996547034
  0
LINE
  5
225
100
AcDbEntity
  8
0
100
AcDbLine
 62
7
  6
CONTINUOUS
 10
132.3434786018
 20
449.4996547034
 11
132.3434786018
 21
449.6996547034
  0
LINE
  5
226
100
AcDbEntity
  8
0
100
AcDbLine
 62
7
  6
CONTINUOUS
 10
130.6434786018
 20
443.6996547034
 11
131.0834703815
 21
445.7236168901
  0
LINE
  5
227
100
AcDbEntity
  8
0
100
AcDbLine
 62
7
  6
CONTINUOUS
 10
121.0434786018
 20
443.6996547034
 11
120.603486822
 21
445.7236168901
  0
LINE
  5
228
100
AcDbEntity
  8
0
100
AcDbLine
 62
7
  6
CONTINUOUS
 10
146.8434786018
 20
447.9996547034
 11
146.8434786018
 21
449.4996547034
  0
LINE
  5
229
100
AcDbEntity
  8
0
100
AcDbLine
 62
7
  6
CONTINUOUS
 10
147.8434786018
 20
447.9996547034
 11
147.8434786018
 21
449.4996547034
  0
LINE
  5
22A
100
AcDbEntity
  8
0
100
AcDbLine
 62
7
  6
CONTINUOUS
 10
148.3434786018
 20
449.4996547034
 11
148.3434786018
 21
447.9996547034
  0
LINE
  5
22B
100
AcDbEntity
  8
0
100
AcDbLine
 62
7
  6
CONTINUOUS
 10
149.3434786018
 20
433.9996547034
 11
149.3434786018
 21
446.9996547034
  0
LINE
  5
22C
100
AcDbEntity
  8
0
100
AcDbLine
 62
7
  6
CONTINUOUS
 10
150.8434786018
 20
433.9996547034
 11
150.8434786018
 21
448.9996547034
  0
LINE
  5
22D
100
AcDbEntity
  8
0
100
AcDbLine
 62
7
  6
CONTINUOUS
 10
175.8434786018
 20
433.9996547034
 11
175.8434786018
 21
448.9996547034
  0
LINE
  5
22E
100
AcDbEntity
  8
0
100
AcDbLine
 62
7
  6
CONTINUOUS
 10
200.8434786018
 20
433.9996547034
 11
200.8434786018
 21
448.9996547034
  0
LINE
  5
22F
100
AcDbEntity
  8
0
100
AcDbLine
 62
7
  6
CONTINUOUS
 10
202.3434786018
 20
435.4996547034
 11
202.3434786018
 21
448.4996547034
  0
LINE
  5
230
100
AcDbEntity
  8
0
100
AcDbLine
 62
7
  6
CONTINUOUS
 10
203.8434786018
 20
449.4996547034
 11
203.8434786018
 21
450.9996547034
  0
LINE
  5
231
100
AcDbEntity
  8
0
100
AcDbLine
 62
7
  6
CONTINUOUS
 10
217.8434786018
 20
459.0996547034
 11
217.8434786018
 21
456.4996547034
  0
LINE
  5
232
100
AcDbEntity
  8
0
100
AcDbLine
 62
7
  6
CONTINUOUS
 10
217.8434786018
 20
448.4996547034
 11
217.8434786018
 21
449.4996547034
  0
LINE
  5
233
100
AcDbEntity
  8
0
100
AcDbLine
 62
7
  6
CONTINUOUS
 10
219.3434786018
 20
450.9996547034
 11
219.3434786018
 21
451.1996547034
  0
LINE
  5
234
100
AcDbEntity
  8
0
100
AcDbLine
 62
7
  6
CONTINUOUS
 10
219.8434786018
 20
449.4996547034
 11
219.8434786018
 21
448.4996547034
  0
LINE
  5
235
100
AcDbEntity
  8
0
100
AcDbLine
 62
7
  6
CONTINUOUS
 10
219.8434786018
 20
439.1996547034
 11
219.8434786018
 21
440.1996547034
  0
LINE
  5
236
100
AcDbEntity
  8
0
100
AcDbLine
 62
7
  6
CONTINUOUS
 10
219.8434786018
 20
449.5496547034
 11
219.8434786018
 21
451.2996547034
  0
LINE
  5
237
100
AcDbEntity
  8
0
100
AcDbLine
 62
7
  6
CONTINUOUS
 10
220.6434786018
 20
445.4996547034
 11
220.6434786018
 21
455.4996547034
  0
LINE
  5
238
100
AcDbEntity
  8
0
100
AcDbLine
 62
7
  6
CONTINUOUS
 10
220.8434786018
 20
455.4996547034
 11
220.8434786018
 21
451.2996547034
  0
LINE
  5
239
100
AcDbEntity
  8
0
100
AcDbLine
 62
7
  6
CONTINUOUS
 10
220.8434786018
 20
451.2996547034
 11
220.8434786018
 21
448.4996547034
  0
LINE
  5
23A
100
AcDbEntity
  8
0
100
AcDbLine
 62
7
  6
CONTINUOUS
 10
220.8434786018
 20
448.4996547034
 11
220.8434786018
 21
446.4996547034
  0
LINE
  5
23B
100
AcDbEntity
  8
0
100
AcDbLine
 62
7
  6
CONTINUOUS
 10
222.6177522965
 20
440.1996546791
 11
222.6177522917
 21
439.1996547298
  0
LINE
  5
23C
100
AcDbEntity
  8
0
100
AcDbLine
 62
7
  6
CONTINUOUS
 10
223.5505853829
 20
439.1996547034
 11
223.5505853829
 21
440.1996547034
  0
LINE
  5
23D
100
AcDbEntity
  8
0
100
AcDbLine
 62
7
  6
CONTINUOUS
 10
224.2576921641
 20
440.1996547034
 11
224.2576921641
 21
439.1996547034
  0
LINE
  5
23E
100
AcDbEntity
  8
0
100
AcDbLine
 62
7
  6
CONTINUOUS
 10
220.5622692347
 20
447.7815141973
 11
220.6101452684
 21
448.4996547034
  0
LINE
  5
23F
100
AcDbEntity
  8
0
100
AcDbLine
 62
7
  6
CONTINUOUS
 10
219.8902589555
 20
440.3116394412
 11
220.126883402
 21
441.3260118068
  0
LINE
  5
240
100
AcDbEntity
  8
0
100
AcDbLine
 62
7
  6
CONTINUOUS
 10
221.0434786018
 20
445.1996547034
 11
220.603486822
 21
447.2236168901
  0
LINE
  5
241
100
AcDbEntity
  8
0
100
AcDbLine
 62
7
  6
CONTINUOUS
 10
231.0145368878
 20
449.4337804134
 11
231.0101452684
 21
449.4996547034
  0
LINE
  5
242
100
AcDbEntity
  8
0
100
AcDbLine
 62
7
  6
CONTINUOUS
 10
226.8434786018
 20
455.4996547034
 11
226.8434786018
 21
451.2996547034
  0
LINE
  5
243
100
AcDbEntity
  8
0
100
AcDbLine
 62
7
  6
CONTINUOUS
 10
226.8434786018
 20
451.2996547034
 11
226.8434786018
 21
448.4996547034
  0
LINE
  5
244
100
AcDbEntity
  8
0
100
AcDbLine
 62
7
  6
CONTINUOUS
 10
226.8434786018
 20
448.4996547034
 11
226.8434786018
 21
446.4996547034
  0
LINE
  5
245
100
AcDbEntity
  8
0
100
AcDbLine
 62
7
  6
CONTINUOUS
 10
227.0434786018
 20
445.4996547034
 11
227.0434786018
 21
455.4996547034
  0
LINE
  5
246
100
AcDbEntity
  8
0
100
AcDbLine
 62
7
  6
CONTINUOUS
 10
227.8434786018
 20
450.1552294719
 11
227.8434786018
 21
451.2996547034
  0
LINE
  5
247
100
AcDbEntity
  8
0
100
AcDbLine
 62
7
  6
CONTINUOUS
 10
228.6597893433
 20
450.4135463826
 11
228.6597893433
 21
449.8777277971
  0
LINE
  5
248
100
AcDbEntity
  8
0
100
AcDbLine
 62
7
  6
CONTINUOUS
 10
228.8434786018
 20
449.4996547034
 11
228.8434786018
 21
450.4135463826
  0
LINE
  5
249
100
AcDbEntity
  8
0
100
AcDbLine
 62
7
  6
CONTINUOUS
 10
228.8434677023
 20
438.7513934079
 11
228.8434783703
 21
439.1996546972
  0
LINE
  5
24A
100
AcDbEntity
  8
0
100
AcDbLine
 62
7
  6
CONTINUOUS
 10
229.8434786018
 20
459.0996547034
 11
229.8434786018
 21
456.4996547034
  0
LINE
  5
24B
100
AcDbEntity
  8
0
100
AcDbLine
 62
7
  6
CONTINUOUS
 10
229.8434786018
 20
441.1996547034
 11
229.8434786018
 21
447.4996547034
  0
LINE
  5
24C
100
AcDbEntity
  8
0
100
AcDbLine
 62
7
  6
CONTINUOUS
 10
230.8434786018
 20
441.1996547034
 11
230.8434786018
 21
447.4996547034
  0
LINE
  5
24D
100
AcDbEntity
  8
0
100
AcDbLine
 62
7
  6
CONTINUOUS
 10
231.2215516954
 20
441.1996547034
 11
231.2215516954
 21
442.2541402886
  0
LINE
  5
24E
100
AcDbEntity
  8
0
100
AcDbLine
 62
7
  6
CONTINUOUS
 10
231.2215516954
 20
446.8867617718
 11
231.2215516954
 21
447.4996547034
  0
LINE
  5
24F
100
AcDbEntity
  8
0
100
AcDbLine
 62
7
  6
CONTINUOUS
 10
231.7573702809
 20
447.4996547034
 11
231.7573702809
 21
446.8867617718
  0
LINE
  5
250
100
AcDbEntity
  8
0
100
AcDbLine
 62
7
  6
CONTINUOUS
 10
231.7573702809
 20
442.2541402886
 11
231.7573702809
 21
441.1996547034
  0
LINE
  5
251
100
AcDbEntity
  8
0
100
AcDbLine
 62
7
  6
CONTINUOUS
 10
232.3434786018
 20
450.9996547034
 11
232.3434786018
 21
451.1996547034
  0
LINE
  5
252
100
AcDbEntity
  8
0
100
AcDbLine
 62
7
  6
CONTINUOUS
 10
221.8025145119
 20
440.2901844278
 11
221.3967750382
 21
439.4711837491
  0
LINE
  5
253
100
AcDbEntity
  8
0
100
AcDbLine
 62
7
  6
CONTINUOUS
 10
227.3607512376
 20
449.6635463826
 11
227.2661283326
 21
449.4996547034
  0
LINE
  5
254
100
AcDbEntity
  8
0
100
AcDbLine
 62
7
  6
CONTINUOUS
 10
228.4415086959
 20
449.4996547034
 11
228.6597893433
 21
449.8777277971
  0
LINE
  5
255
100
AcDbEntity
  8
0
100
AcDbLine
 62
7
  6
CONTINUOUS
 10
220.126883402
 20
441.3260118068
 11
220.7477167147
 21
440.3117322217
  0
LINE
  5
256
100
AcDbEntity
  8
0
100
AcDbLine
 62
7
  6
CONTINUOUS
 10
221.4307316796
 20
440.5703728933
 11
220.8098910963
 21
441.5846908709
  0
LINE
  5
257
100
AcDbEntity
  8
0
100
AcDbLine
 62
7
  6
CONTINUOUS
 10
227.7077209862
 20
439.1996547034
 11
227.8023438912
 21
439.0357630242
  0
LINE
  5
258
100
AcDbEntity
  8
0
100
AcDbLine
 62
7
  6
CONTINUOUS
 10
225.8434786018
 20
445.4996547034
 11
226.8434786018
 21
446.4996547034
  0
LINE
  5
259
100
AcDbEntity
  8
0
100
AcDbLine
 62
7
  6
CONTINUOUS
 10
221.8434786018
 20
445.4996547034
 11
220.8434786018
 21
446.4996547034
  0
LINE
  5
25A
100
AcDbEntity
  8
0
100
AcDbLine
 62
7
  6
CONTINUOUS
 10
267.8434786018
 20
459.0996547034
 11
267.8434786018
 21
456.4996547034
  0
LINE
  5
25B
100
AcDbEntity
  8
0
100
AcDbLine
 62
7
  6
CONTINUOUS
 10
267.8434786018
 20
448.4996547034
 11
267.8434786018
 21
449.4996547034
  0
LINE
  5
25C
100
AcDbEntity
  8
0
100
AcDbLine
 62
7
  6
CONTINUOUS
 10
269.8434786018
 20
449.4996547034
 11
269.8434786018
 21
448.4996547034
  0
LINE
  5
25D
100
AcDbEntity
  8
0
100
AcDbLine
 62
7
  6
CONTINUOUS
 10
269.8434786018
 20
439.1996547034
 11
269.8434786018
 21
440.1996547034
  0
LINE
  5
25E
100
AcDbEntity
  8
0
100
AcDbLine
 62
7
  6
CONTINUOUS
 10
269.8434786018
 20
449.5496547034
 11
269.8434786018
 21
451.2996547034
  0
LINE
  5
25F
100
AcDbEntity
  8
0
100
AcDbLine
 62
7
  6
CONTINUOUS
 10
270.6434786018
 20
445.4996547034
 11
270.6434786018
 21
455.4996547034
  0
LINE
  5
260
100
AcDbEntity
  8
0
100
AcDbLine
 62
7
  6
CONTINUOUS
 10
270.8434786018
 20
455.4996547034
 11
270.8434786018
 21
451.2996547034
  0
LINE
  5
261
100
AcDbEntity
  8
0
100
AcDbLine
 62
7
  6
CONTINUOUS
 10
270.8434786018
 20
451.2996547034
 11
270.8434786018
 21
448.4996547034
  0
LINE
  5
262
100
AcDbEntity
  8
0
100
AcDbLine
 62
7
  6
CONTINUOUS
 10
270.8434786018
 20
448.4996547034
 11
270.8434786018
 21
446.4996547034
  0
LINE
  5
263
100
AcDbEntity
  8
0
100
AcDbLine
 62
7
  6
CONTINUOUS
 10
272.6177522965
 20
440.1996546791
 11
272.6177522917
 21
439.1996547298
  0
LINE
  5
264
100
AcDbEntity
  8
0
100
AcDbLine
 62
7
  6
CONTINUOUS
 10
273.5505853829
 20
439.1996547034
 11
273.5505853829
 21
440.1996547034
  0
LINE
  5
265
100
AcDbEntity
  8
0
100
AcDbLine
 62
7
  6
CONTINUOUS
 10
274.2576921641
 20
440.1996547034
 11
274.2576921641
 21
439.1996547034
  0
LINE
  5
266
100
AcDbEntity
  8
0
100
AcDbLine
 62
7
  6
CONTINUOUS
 10
276.8434786018
 20
455.4996547034
 11
276.8434786018
 21
451.2996547034
  0
LINE
  5
267
100
AcDbEntity
  8
0
100
AcDbLine
 62
7
  6
CONTINUOUS
 10
276.8434786018
 20
451.2996547034
 11
276.8434786018
 21
448.4996547034
  0
LINE
  5
268
100
AcDbEntity
  8
0
100
AcDbLine
 62
7
  6
CONTINUOUS
 10
276.8434786018
 20
448.4996547034
 11
276.8434786018
 21
446.4996547034
  0
LINE
  5
269
100
AcDbEntity
  8
0
100
AcDbLine
 62
7
  6
CONTINUOUS
 10
277.0434786018
 20
445.4996547034
 11
277.0434786018
 21
455.4996547034
  0
LINE
  5
26A
100
AcDbEntity
  8
0
100
AcDbLine
 62
7
  6
CONTINUOUS
 10
269.8902589555
 20
440.3116394412
 11
270.126883402
 21
441.3260118068
  0
LINE
  5
26B
100
AcDbEntity
  8
0
100
AcDbLine
 62
7
  6
CONTINUOUS
 10
230.8434786018
 20
442.4724208911
 11
231.2215516954
 21
442.2541402886
  0
LINE
  5
26C
100
AcDbEntity
  8
0
100
AcDbLine
 62
7
  6
CONTINUOUS
 10
231.0073702809
 20
443.5531783943
 11
230.8434786018
 21
443.6478012994
  0
LINE
  5
26D
100
AcDbEntity
  8
0
100
AcDbLine
 62
7
  6
CONTINUOUS
 10
270.126883402
 20
441.3260118068
 11
270.7477167147
 21
440.3117322217
  0
LINE
  5
26E
100
AcDbEntity
  8
0
100
AcDbLine
 62
7
  6
CONTINUOUS
 10
271.4307316796
 20
440.5703728933
 11
270.8098910963
 21
441.5846908709
  0
LINE
  5
26F
100
AcDbEntity
  8
0
100
AcDbLine
 62
7
  6
CONTINUOUS
 10
277.8434786018
 20
450.1552294719
 11
277.8434786018
 21
451.2996547034
  0
LINE
  5
270
100
AcDbEntity
  8
0
100
AcDbLine
 62
7
  6
CONTINUOUS
 10
278.6597893433
 20
450.4135463826
 11
278.6597893433
 21
449.8777277971
  0
LINE
  5
271
100
AcDbEntity
  8
0
100
AcDbLine
 62
7
  6
CONTINUOUS
 10
278.8434786018
 20
449.4996547034
 11
278.8434786018
 21
450.4135463826
  0
LINE
  5
272
100
AcDbEntity
  8
0
100
AcDbLine
 62
7
  6
CONTINUOUS
 10
278.8434677023
 20
438.7513934079
 11
278.8434783703
 21
439.1996546972
  0
LINE
  5
273
100
AcDbEntity
  8
0
100
AcDbLine
 62
7
  6
CONTINUOUS
 10
279.8434786018
 20
459.0996547034
 11
279.8434786018
 21
456.4996547034
  0
LINE
  5
274
100
AcDbEntity
  8
0
100
AcDbLine
 62
7
  6
CONTINUOUS
 10
279.8434786018
 20
441.1996547034
 11
279.8434786018
 21
447.4996547034
  0
LINE
  5
275
100
AcDbEntity
  8
0
100
AcDbLine
 62
7
  6
CONTINUOUS
 10
280.8434786018
 20
441.1996547034
 11
280.8434786018
 21
447.4996547034
  0
LINE
  5
276
100
AcDbEntity
  8
0
100
AcDbLine
 62
7
  6
CONTINUOUS
 10
281.2215516954
 20
441.1996547034
 11
281.2215516954
 21
442.2541402886
  0
LINE
  5
277
100
AcDbEntity
  8
0
100
AcDbLine
 62
7
  6
CONTINUOUS
 10
281.2215516954
 20
446.8867617718
 11
281.2215516954
 21
447.4996547034
  0
LINE
  5
278
100
AcDbEntity
  8
0
100
AcDbLine
 62
7
  6
CONTINUOUS
 10
281.7573702809
 20
447.4996547034
 11
281.7573702809
 21
446.8867617718
  0
LINE
  5
279
100
AcDbEntity
  8
0
100
AcDbLine
 62
7
  6
CONTINUOUS
 10
281.7573702809
 20
442.2541402886
 11
281.7573702809
 21
441.1996547034
  0
LINE
  5
27A
100
AcDbEntity
  8
0
100
AcDbLine
 62
7
  6
CONTINUOUS
 10
271.8025145119
 20
440.2901844278
 11
271.3967750382
 21
439.4711837491
  0
LINE
  5
27B
100
AcDbEntity
  8
0
100
AcDbLine
 62
7
  6
CONTINUOUS
 10
277.3607512376
 20
449.6635463826
 11
277.2661283326
 21
449.4996547034
  0
LINE
  5
27C
100
AcDbEntity
  8
0
100
AcDbLine
 62
7
  6
CONTINUOUS
 10
278.4415086959
 20
449.4996547034
 11
278.6597893433
 21
449.8777277971
  0
LINE
  5
27D
100
AcDbEntity
  8
0
100
AcDbLine
 62
7
  6
CONTINUOUS
 10
275.8434786018
 20
445.4996547034
 11
276.8434786018
 21
446.4996547034
  0
LINE
  5
27E
100
AcDbEntity
  8
0
100
AcDbLine
 62
7
  6
CONTINUOUS
 10
231.2215516954
 20
446.8867617718
 11
230.8434786018
 21
446.6684811694
  0
LINE
  5
27F
100
AcDbEntity
  8
0
100
AcDbLine
 62
7
  6
CONTINUOUS
 10
230.8434786018
 20
445.493100761
 11
231.0073702809
 21
445.5877236661
  0
LINE
  5
280
100
AcDbEntity
  8
0
100
AcDbLine
 62
7
  6
CONTINUOUS
 10
220.8098910963
 20
441.5846908709
 11
220.126883402
 21
441.3260118068
  0
LINE
  5
281
100
AcDbEntity
  8
0
100
AcDbLine
 62
7
  6
CONTINUOUS
 10
271.8434786018
 20
445.4996547034
 11
270.8434786018
 21
446.4996547034
  0
LINE
  5
282
100
AcDbEntity
  8
0
100
AcDbLine
 62
7
  6
CONTINUOUS
 10
277.7077209862
 20
439.1996547034
 11
277.8023438912
 21
439.0357630242
  0
LINE
  5
283
100
AcDbEntity
  8
0
100
AcDbLine
 62
7
  6
CONTINUOUS
 10
281.2215516954
 20
446.8867617718
 11
280.8434786018
 21
446.6684811694
  0
LINE
  5
284
100
AcDbEntity
  8
0
100
AcDbLine
 62
7
  6
CONTINUOUS
 10
280.8434786018
 20
445.493100761
 11
281.0073702809
 21
445.5877236661
  0
LINE
  5
285
100
AcDbEntity
  8
0
100
AcDbLine
 62
7
  6
CONTINUOUS
 10
220.7476696096
 20
440.3116984549
 11
221.430694922
 21
440.5703487237
  0
LINE
  5
286
100
AcDbEntity
  8
0
100
AcDbLine
 62
7
  6
CONTINUOUS
 10
578.8435067095
 20
438.3083802413
 11
579.4086757283
 21
438.3415717663
  0
LINE
  5
287
100
AcDbEntity
  8
0
100
AcDbLine
 62
7
  6
CONTINUOUS
 10
528.8435067095
 20
438.3083802413
 11
529.4086757283
 21
438.3415717663
  0
LINE
  5
288
100
AcDbEntity
  8
0
100
AcDbLine
 62
7
  6
CONTINUOUS
 10
478.8435067095
 20
438.3083802413
 11
479.4086757283
 21
438.3415717663
  0
LINE
  5
289
100
AcDbEntity
  8
0
100
AcDbLine
 62
7
  6
CONTINUOUS
 10
280.8434786018
 20
442.4724208911
 11
281.2215516954
 21
442.2541402886
  0
LINE
  5
28A
100
AcDbEntity
  8
0
100
AcDbLine
 62
7
  6
CONTINUOUS
 10
281.0073702809
 20
443.5531783943
 11
280.8434786018
 21
443.6478012994
  0
LINE
  5
28B
100
AcDbEntity
  8
0
100
AcDbLine
 62
7
  6
CONTINUOUS
 10
317.8434786018
 20
459.0996547034
 11
317.8434786018
 21
456.4996547034
  0
LINE
  5
28C
100
AcDbEntity
  8
0
100
AcDbLine
 62
7
  6
CONTINUOUS
 10
317.8434786018
 20
448.4996547034
 11
317.8434786018
 21
449.4996547034
  0
LINE
  5
28D
100
AcDbEntity
  8
0
100
AcDbLine
 62
7
  6
CONTINUOUS
 10
319.8434786018
 20
449.4996547034
 11
319.8434786018
 21
448.4996547034
  0
LINE
  5
28E
100
AcDbEntity
  8
0
100
AcDbLine
 62
7
  6
CONTINUOUS
 10
319.8434786018
 20
439.1996547034
 11
319.8434786018
 21
440.1996547034
  0
LINE
  5
28F
100
AcDbEntity
  8
0
100
AcDbLine
 62
7
  6
CONTINUOUS
 10
319.8434786018
 20
449.5496547034
 11
319.8434786018
 21
451.2996547034
  0
LINE
  5
290
100
AcDbEntity
  8
0
100
AcDbLine
 62
7
  6
CONTINUOUS
 10
320.6434786018
 20
445.4996547034
 11
320.6434786018
 21
455.4996547034
  0
LINE
  5
291
100
AcDbEntity
  8
0
100
AcDbLine
 62
7
  6
CONTINUOUS
 10
320.8434786018
 20
455.4996547034
 11
320.8434786018
 21
451.2996547034
  0
LINE
  5
292
100
AcDbEntity
  8
0
100
AcDbLine
 62
7
  6
CONTINUOUS
 10
320.8434786018
 20
451.2996547034
 11
320.8434786018
 21
448.4996547034
  0
LINE
  5
293
100
AcDbEntity
  8
0
100
AcDbLine
 62
7
  6
CONTINUOUS
 10
320.8434786018
 20
448.4996547034
 11
320.8434786018
 21
446.4996547034
  0
LINE
  5
294
100
AcDbEntity
  8
0
100
AcDbLine
 62
7
  6
CONTINUOUS
 10
322.6177522965
 20
440.1996546791
 11
322.6177522917
 21
439.1996547298
  0
LINE
  5
295
100
AcDbEntity
  8
0
100
AcDbLine
 62
7
  6
CONTINUOUS
 10
323.5505853829
 20
439.1996547034
 11
323.5505853829
 21
440.1996547034
  0
LINE
  5
296
100
AcDbEntity
  8
0
100
AcDbLine
 62
7
  6
CONTINUOUS
 10
324.2576921641
 20
440.1996547034
 11
324.2576921641
 21
439.1996547034
  0
LINE
  5
297
100
AcDbEntity
  8
0
100
AcDbLine
 62
7
  6
CONTINUOUS
 10
326.8434786018
 20
455.4996547034
 11
326.8434786018
 21
451.2996547034
  0
LINE
  5
298
100
AcDbEntity
  8
0
100
AcDbLine
 62
7
  6
CONTINUOUS
 10
326.8434786018
 20
451.2996547034
 11
326.8434786018
 21
448.4996547034
  0
LINE
  5
299
100
AcDbEntity
  8
0
100
AcDbLine
 62
7
  6
CONTINUOUS
 10
326.8434786018
 20
448.4996547034
 11
326.8434786018
 21
446.4996547034
  0
LINE
  5
29A
100
AcDbEntity
  8
0
100
AcDbLine
 62
7
  6
CONTINUOUS
 10
327.0434786018
 20
445.4996547034
 11
327.0434786018
 21
455.4996547034
  0
LINE
  5
29B
100
AcDbEntity
  8
0
100
AcDbLine
 62
7
  6
CONTINUOUS
 10
327.8434786018
 20
450.1552294719
 11
327.8434786018
 21
451.2996547034
  0
LINE
  5
29C
100
AcDbEntity
  8
0
100
AcDbLine
 62
7
  6
CONTINUOUS
 10
319.8902589555
 20
440.3116394412
 11
320.126883402
 21
441.3260118068
  0
LINE
  5
29D
100
AcDbEntity
  8
0
100
AcDbLine
 62
7
  6
CONTINUOUS
 10
321.8025145119
 20
440.2901844278
 11
321.3967750382
 21
439.4711837491
  0
LINE
  5
29E
100
AcDbEntity
  8
0
100
AcDbLine
 62
7
  6
CONTINUOUS
 10
327.3607512376
 20
449.6635463826
 11
327.2661283326
 21
449.4996547034
  0
LINE
  5
29F
100
AcDbEntity
  8
0
100
AcDbLine
 62
7
  6
CONTINUOUS
 10
328.4415086959
 20
449.4996547034
 11
328.6597893433
 21
449.8777277971
  0
LINE
  5
2A0
100
AcDbEntity
  8
0
100
AcDbLine
 62
7
  6
CONTINUOUS
 10
325.8434786018
 20
445.4996547034
 11
326.8434786018
 21
446.4996547034
  0
LINE
  5
2A1
100
AcDbEntity
  8
0
100
AcDbLine
 62
7
  6
CONTINUOUS
 10
270.8098910963
 20
441.5846908709
 11
270.126883402
 21
441.3260118068
  0
LINE
  5
2A2
100
AcDbEntity
  8
0
100
AcDbLine
 62
7
  6
CONTINUOUS
 10
270.7476696096
 20
440.3116984549
 11
271.430694922
 21
440.5703487237
  0
LINE
  5
2A3
100
AcDbEntity
  8
0
100
AcDbLine
 62
7
  6
CONTINUOUS
 10
428.8435067095
 20
438.3083802413
 11
429.4086757283
 21
438.3415717663
  0
LINE
  5
2A4
100
AcDbEntity
  8
0
100
AcDbLine
 62
7
  6
CONTINUOUS
 10
378.8435067095
 20
438.3083802413
 11
379.4086757283
 21
438.3415717663
  0
LINE
  5
2A5
100
AcDbEntity
  8
0
100
AcDbLine
 62
7
  6
CONTINUOUS
 10
328.8435067095
 20
438.3083802413
 11
329.4086757283
 21
438.3415717663
  0
LINE
  5
2A6
100
AcDbEntity
  8
0
100
AcDbLine
 62
7
  6
CONTINUOUS
 10
278.8435067095
 20
438.3083802413
 11
279.4086757283
 21
438.3415717663
  0
LINE
  5
2A7
100
AcDbEntity
  8
0
100
AcDbLine
 62
7
  6
CONTINUOUS
 10
228.8435067095
 20
438.3083802413
 11
229.4086757283
 21
438.3415717663
  0
LINE
  5
2A8
100
AcDbEntity
  8
0
100
AcDbLine
 62
7
  6
CONTINUOUS
 10
502.3434786018
 20
433.9996547034
 11
500.8434786018
 21
433.9996547034
  0
LINE
  5
2A9
100
AcDbEntity
  8
0
100
AcDbLine
 62
7
  6
CONTINUOUS
 10
72.3434786018
 20
433.9996547034
 11
70.8434786018
 21
433.9996547034
  0
LINE
  5
2AA
100
AcDbEntity
  8
0
100
AcDbLine
 62
7
  6
CONTINUOUS
 10
149.3434786018
 20
433.9996547034
 11
200.8434786018
 21
433.9996547034
  0
LINE
  5
2AB
100
AcDbEntity
  8
0
100
AcDbLine
 62
7
  6
CONTINUOUS
 10
579.3434786018
 20
433.9996547034
 11
580.8434786018
 21
433.9996547034
  0
LINE
  5
2AC
100
AcDbEntity
  8
0
100
AcDbLine
 62
7
  6
CONTINUOUS
 10
202.3434786018
 20
435.4996547034
 11
200.8434786018
 21
435.4996547034
  0
LINE
  5
2AD
100
AcDbEntity
  8
0
100
AcDbLine
 62
7
  6
CONTINUOUS
 10
219.8434786018
 20
439.1996547034
 11
220.0916635839
 21
439.1996547034
  0
LINE
  5
2AE
100
AcDbEntity
  8
0
100
AcDbLine
 62
7
  6
CONTINUOUS
 10
220.2500471047
 20
439.1996547034
 11
228.8434786018
 21
439.1996547034
  0
LINE
  5
2AF
100
AcDbEntity
  8
0
100
AcDbLine
 62
7
  6
CONTINUOUS
 10
269.8434786018
 20
439.1996547034
 11
270.0916635839
 21
439.1996547034
  0
LINE
  5
2B0
100
AcDbEntity
  8
0
100
AcDbLine
 62
7
  6
CONTINUOUS
 10
270.2500471047
 20
439.1996547034
 11
278.8434786018
 21
439.1996547034
  0
LINE
  5
2B1
100
AcDbEntity
  8
0
100
AcDbLine
 62
7
  6
CONTINUOUS
 10
319.8434786018
 20
439.1996547034
 11
320.0916635839
 21
439.1996547034
  0
LINE
  5
2B2
100
AcDbEntity
  8
0
100
AcDbLine
 62
7
  6
CONTINUOUS
 10
320.2500471047
 20
439.1996547034
 11
328.8434786018
 21
439.1996547034
  0
LINE
  5
2B3
100
AcDbEntity
  8
0
100
AcDbLine
 62
7
  6
CONTINUOUS
 10
369.8434786018
 20
439.1996547034
 11
370.0916635839
 21
439.1996547034
  0
LINE
  5
2B4
100
AcDbEntity
  8
0
100
AcDbLine
 62
7
  6
CONTINUOUS
 10
370.2500471047
 20
439.1996547034
 11
378.8434786018
 21
439.1996547034
  0
LINE
  5
2B5
100
AcDbEntity
  8
0
100
AcDbLine
 62
7
  6
CONTINUOUS
 10
419.8434786018
 20
439.1996547034
 11
420.0916635839
 21
439.1996547034
  0
LINE
  5
2B6
100
AcDbEntity
  8
0
100
AcDbLine
 62
7
  6
CONTINUOUS
 10
420.2500471047
 20
439.1996547034
 11
428.8434786018
 21
439.1996547034
  0
LINE
  5
2B7
100
AcDbEntity
  8
0
100
AcDbLine
 62
7
  6
CONTINUOUS
 10
469.8434786018
 20
439.1996547034
 11
470.0916635839
 21
439.1996547034
  0
LINE
  5
2B8
100
AcDbEntity
  8
0
100
AcDbLine
 62
7
  6
CONTINUOUS
 10
470.2500471047
 20
439.1996547034
 11
478.8434786018
 21
439.1996547034
  0
LINE
  5
2B9
100
AcDbEntity
  8
0
100
AcDbLine
 62
7
  6
CONTINUOUS
 10
519.8434786018
 20
439.1996547034
 11
520.0916635839
 21
439.1996547034
  0
LINE
  5
2BA
100
AcDbEntity
  8
0
100
AcDbLine
 62
7
  6
CONTINUOUS
 10
520.2500471047
 20
439.1996547034
 11
528.8434786018
 21
439.1996547034
  0
LINE
  5
2BB
100
AcDbEntity
  8
0
100
AcDbLine
 62
7
  6
CONTINUOUS
 10
569.8434786018
 20
439.1996547034
 11
570.0916635839
 21
439.1996547034
  0
LINE
  5
2BC
100
AcDbEntity
  8
0
100
AcDbLine
 62
7
  6
CONTINUOUS
 10
570.2500471047
 20
439.1996547034
 11
578.8434786018
 21
439.1996547034
  0
LINE
  5
2BD
100
AcDbEntity
  8
0
100
AcDbLine
 62
7
  6
CONTINUOUS
 10
578.8434786018
 20
440.1996547034
 11
572.6177185109
 21
440.1996547034
  0
LINE
  5
2BE
100
AcDbEntity
  8
0
100
AcDbLine
 62
7
  6
CONTINUOUS
 10
569.8994829912
 20
440.1996547034
 11
569.8434786018
 21
440.1996547034
  0
LINE
  5
2BF
100
AcDbEntity
  8
0
100
AcDbLine
 62
7
  6
CONTINUOUS
 10
528.8434786018
 20
440.1996547034
 11
522.6177185109
 21
440.1996547034
  0
LINE
  5
2C0
100
AcDbEntity
  8
0
100
AcDbLine
 62
7
  6
CONTINUOUS
 10
519.8994829912
 20
440.1996547034
 11
519.8434786018
 21
440.1996547034
  0
LINE
  5
2C1
100
AcDbEntity
  8
0
100
AcDbLine
 62
7
  6
CONTINUOUS
 10
478.8434786018
 20
440.1996547034
 11
472.6177185109
 21
440.1996547034
  0
LINE
  5
2C2
100
AcDbEntity
  8
0
100
AcDbLine
 62
7
  6
CONTINUOUS
 10
469.8994829912
 20
440.1996547034
 11
469.8434786018
 21
440.1996547034
  0
LINE
  5
2C3
100
AcDbEntity
  8
0
100
AcDbLine
 62
7
  6
CONTINUOUS
 10
428.8434786018
 20
440.1996547034
 11
422.6177185109
 21
440.1996547034
  0
LINE
  5
2C4
100
AcDbEntity
  8
0
100
AcDbLine
 62
7
  6
CONTINUOUS
 10
419.8994829912
 20
440.1996547034
 11
419.8434786018
 21
440.1996547034
  0
LINE
  5
2C5
100
AcDbEntity
  8
0
100
AcDbLine
 62
7
  6
CONTINUOUS
 10
378.8434786018
 20
440.1996547034
 11
372.6177185109
 21
440.1996547034
  0
LINE
  5
2C6
100
AcDbEntity
  8
0
100
AcDbLine
 62
7
  6
CONTINUOUS
 10
369.8994829912
 20
440.1996547034
 11
369.8434786018
 21
440.1996547034
  0
LINE
  5
2C7
100
AcDbEntity
  8
0
100
AcDbLine
 62
7
  6
CONTINUOUS
 10
328.8434786018
 20
440.1996547034
 11
322.6177185109
 21
440.1996547034
  0
LINE
  5
2C8
100
AcDbEntity
  8
0
100
AcDbLine
 62
7
  6
CONTINUOUS
 10
319.8994829912
 20
440.1996547034
 11
319.8434786018
 21
440.1996547034
  0
LINE
  5
2C9
100
AcDbEntity
  8
0
100
AcDbLine
 62
7
  6
CONTINUOUS
 10
278.8434786018
 20
440.1996547034
 11
272.6177185109
 21
440.1996547034
  0
LINE
  5
2CA
100
AcDbEntity
  8
0
100
AcDbLine
 62
7
  6
CONTINUOUS
 10
269.8994829912
 20
440.1996547034
 11
269.8434786018
 21
440.1996547034
  0
LINE
  5
2CB
100
AcDbEntity
  8
0
100
AcDbLine
 62
7
  6
CONTINUOUS
 10
228.8434786018
 20
440.1996547034
 11
222.6177185109
 21
440.1996547034
  0
LINE
  5
2CC
100
AcDbEntity
  8
0
100
AcDbLine
 62
7
  6
CONTINUOUS
 10
219.8994829912
 20
440.1996547034
 11
219.8434786018
 21
440.1996547034
  0
LINE
  5
2CD
100
AcDbEntity
  8
0
100
AcDbLine
 62
7
  6
CONTINUOUS
 10
570.7477167147
 20
440.3117322217
 11
569.8902589555
 21
440.3116394412
  0
LINE
  5
2CE
100
AcDbEntity
  8
0
100
AcDbLine
 62
7
  6
CONTINUOUS
 10
520.7477167147
 20
440.3117322217
 11
519.8902589555
 21
440.3116394412
  0
LINE
  5
2CF
100
AcDbEntity
  8
0
100
AcDbLine
 62
7
  6
CONTINUOUS
 10
470.7477167147
 20
440.3117322217
 11
469.8902589555
 21
440.3116394412
  0
LINE
  5
2D0
100
AcDbEntity
  8
0
100
AcDbLine
 62
7
  6
CONTINUOUS
 10
420.7477167147
 20
440.3117322217
 11
419.8902589555
 21
440.3116394412
  0
LINE
  5
2D1
100
AcDbEntity
  8
0
100
AcDbLine
 62
7
  6
CONTINUOUS
 10
370.7477167147
 20
440.3117322217
 11
369.8902589555
 21
440.3116394412
  0
LINE
  5
2D2
100
AcDbEntity
  8
0
100
AcDbLine
 62
7
  6
CONTINUOUS
 10
320.7477167147
 20
440.3117322217
 11
319.8902589555
 21
440.3116394412
  0
LINE
  5
2D3
100
AcDbEntity
  8
0
100
AcDbLine
 62
7
  6
CONTINUOUS
 10
270.7477167147
 20
440.3117322217
 11
269.8902589555
 21
440.3116394412
  0
LINE
  5
2D4
100
AcDbEntity
  8
0
100
AcDbLine
 62
7
  6
CONTINUOUS
 10
220.7477167147
 20
440.3117322217
 11
219.8902589555
 21
440.3116394412
  0
LINE
  5
2D5
100
AcDbEntity
  8
0
100
AcDbLine
 62
7
  6
CONTINUOUS
 10
229.8434786018
 20
441.1996547034
 11
231.7573702809
 21
441.1996547034
  0
LINE
  5
2D6
100
AcDbEntity
  8
0
100
AcDbLine
 62
7
  6
CONTINUOUS
 10
279.8434786018
 20
441.1996547034
 11
281.7573702809
 21
441.1996547034
  0
LINE
  5
2D7
100
AcDbEntity
  8
0
100
AcDbLine
 62
7
  6
CONTINUOUS
 10
329.8434786018
 20
441.1996547034
 11
331.7573702809
 21
441.1996547034
  0
LINE
  5
2D8
100
AcDbEntity
  8
0
100
AcDbLine
 62
7
  6
CONTINUOUS
 10
379.8434786018
 20
441.1996547034
 11
381.7573702809
 21
441.1996547034
  0
LINE
  5
2D9
100
AcDbEntity
  8
0
100
AcDbLine
 62
7
  6
CONTINUOUS
 10
429.8434786018
 20
441.1996547034
 11
431.7573702809
 21
441.1996547034
  0
LINE
  5
2DA
100
AcDbEntity
  8
0
100
AcDbLine
 62
7
  6
CONTINUOUS
 10
479.8434786018
 20
441.1996547034
 11
481.7573702809
 21
441.1996547034
  0
LINE
  5
2DB
100
AcDbEntity
  8
0
100
AcDbLine
 62
7
  6
CONTINUOUS
 10
529.8434786018
 20
441.1996547034
 11
531.7573702809
 21
441.1996547034
  0
LINE
  5
2DC
100
AcDbEntity
  8
0
100
AcDbLine
 62
7
  6
CONTINUOUS
 10
579.8434786018
 20
441.1996547034
 11
581.7573702809
 21
441.1996547034
  0
LINE
  5
2DD
100
AcDbEntity
  8
0
100
AcDbLine
 62
7
  6
CONTINUOUS
 10
581.7573702809
 20
442.2541402886
 11
581.2215516954
 21
442.2541402886
  0
LINE
  5
2DE
100
AcDbEntity
  8
0
100
AcDbLine
 62
7
  6
CONTINUOUS
 10
531.7573702809
 20
442.2541402886
 11
531.2215516954
 21
442.2541402886
  0
LINE
  5
2DF
100
AcDbEntity
  8
0
100
AcDbLine
 62
7
  6
CONTINUOUS
 10
481.7573702809
 20
442.2541402886
 11
481.2215516954
 21
442.2541402886
  0
LINE
  5
2E0
100
AcDbEntity
  8
0
100
AcDbLine
 62
7
  6
CONTINUOUS
 10
431.7573702809
 20
442.2541402886
 11
431.2215516954
 21
442.2541402886
  0
LINE
  5
2E1
100
AcDbEntity
  8
0
100
AcDbLine
 62
7
  6
CONTINUOUS
 10
381.7573702809
 20
442.2541402886
 11
381.2215516954
 21
442.2541402886
  0
LINE
  5
2E2
100
AcDbEntity
  8
0
100
AcDbLine
 62
7
  6
CONTINUOUS
 10
331.7573702809
 20
442.2541402886
 11
331.2215516954
 21
442.2541402886
  0
LINE
  5
2E3
100
AcDbEntity
  8
0
100
AcDbLine
 62
7
  6
CONTINUOUS
 10
281.7573702809
 20
442.2541402886
 11
281.2215516954
 21
442.2541402886
  0
LINE
  5
2E4
100
AcDbEntity
  8
0
100
AcDbLine
 62
7
  6
CONTINUOUS
 10
231.7573702809
 20
442.2541402886
 11
231.2215516954
 21
442.2541402886
  0
LINE
  5
2E5
100
AcDbEntity
  8
0
100
AcDbLine
 62
7
  6
CONTINUOUS
 10
91.0434786018
 20
443.6996547034
 11
100.6434786018
 21
443.6996547034
  0
LINE
  5
2E6
100
AcDbEntity
  8
0
100
AcDbLine
 62
7
  6
CONTINUOUS
 10
121.0434786018
 20
443.6996547034
 11
130.6434786018
 21
443.6996547034
  0
LINE
  5
2E7
100
AcDbEntity
  8
0
100
AcDbLine
 62
7
  6
CONTINUOUS
 10
551.0434786018
 20
443.6996547034
 11
560.6434786018
 21
443.6996547034
  0
LINE
  5
2E8
100
AcDbEntity
  8
0
100
AcDbLine
 62
7
  6
CONTINUOUS
 10
221.0434786018
 20
445.1996547034
 11
229.8434786018
 21
445.1996547034
  0
LINE
  5
2E9
100
AcDbEntity
  8
0
100
AcDbLine
 62
7
  6
CONTINUOUS
 10
577.0434786018
 20
445.4996547034
 11
575.8434786018
 21
445.4996547034
  0
LINE
  5
2EA
100
AcDbEntity
  8
0
100
AcDbLine
 62
7
  6
CONTINUOUS
 10
571.8434786018
 20
445.4996547034
 11
570.6434786018
 21
445.4996547034
  0
LINE
  5
2EB
100
AcDbEntity
  8
0
100
AcDbLine
 62
7
  6
CONTINUOUS
 10
527.0434786018
 20
445.4996547034
 11
525.8434786018
 21
445.4996547034
  0
LINE
  5
2EC
100
AcDbEntity
  8
0
100
AcDbLine
 62
7
  6
CONTINUOUS
 10
521.8434786018
 20
445.4996547034
 11
520.6434786018
 21
445.4996547034
  0
LINE
  5
2ED
100
AcDbEntity
  8
0
100
AcDbLine
 62
7
  6
CONTINUOUS
 10
477.0434786018
 20
445.4996547034
 11
475.8434786018
 21
445.4996547034
  0
LINE
  5
2EE
100
AcDbEntity
  8
0
100
AcDbLine
 62
7
  6
CONTINUOUS
 10
471.8434786018
 20
445.4996547034
 11
470.6434786018
 21
445.4996547034
  0
LINE
  5
2EF
100
AcDbEntity
  8
0
100
AcDbLine
 62
7
  6
CONTINUOUS
 10
427.0434786018
 20
445.4996547034
 11
425.8434786018
 21
445.4996547034
  0
LINE
  5
2F0
100
AcDbEntity
  8
0
100
AcDbLine
 62
7
  6
CONTINUOUS
 10
421.8434786018
 20
445.4996547034
 11
420.6434786018
 21
445.4996547034
  0
LINE
  5
2F1
100
AcDbEntity
  8
0
100
AcDbLine
 62
7
  6
CONTINUOUS
 10
377.0434786018
 20
445.4996547034
 11
375.8434786018
 21
445.4996547034
  0
LINE
  5
2F2
100
AcDbEntity
  8
0
100
AcDbLine
 62
7
  6
CONTINUOUS
 10
371.8434786018
 20
445.4996547034
 11
370.6434786018
 21
445.4996547034
  0
LINE
  5
2F3
100
AcDbEntity
  8
0
100
AcDbLine
 62
7
  6
CONTINUOUS
 10
327.0434786018
 20
445.4996547034
 11
325.8434786018
 21
445.4996547034
  0
LINE
  5
2F4
100
AcDbEntity
  8
0
100
AcDbLine
 62
7
  6
CONTINUOUS
 10
321.8434786018
 20
445.4996547034
 11
320.6434786018
 21
445.4996547034
  0
LINE
  5
2F5
100
AcDbEntity
  8
0
100
AcDbLine
 62
7
  6
CONTINUOUS
 10
277.0434786018
 20
445.4996547034
 11
275.8434786018
 21
445.4996547034
  0
LINE
  5
2F6
100
AcDbEntity
  8
0
100
AcDbLine
 62
7
  6
CONTINUOUS
 10
271.8434786018
 20
445.4996547034
 11
270.6434786018
 21
445.4996547034
  0
LINE
  5
2F7
100
AcDbEntity
  8
0
100
AcDbLine
 62
7
  6
CONTINUOUS
 10
227.0434786018
 20
445.4996547034
 11
225.8434786018
 21
445.4996547034
  0
LINE
  5
2F8
100
AcDbEntity
  8
0
100
AcDbLine
 62
7
  6
CONTINUOUS
 10
221.8434786018
 20
445.4996547034
 11
220.6434786018
 21
445.4996547034
  0
LINE
  5
2F9
100
AcDbEntity
  8
0
100
AcDbLine
 62
7
  6
CONTINUOUS
 10
221.8434786018
 20
445.4996547034
 11
225.8434786018
 21
445.4996547034
  0
LINE
  5
2FA
100
AcDbEntity
  8
0
100
AcDbLine
 62
7
  6
CONTINUOUS
 10
271.8434786018
 20
445.4996547034
 11
275.8434786018
 21
445.4996547034
  0
LINE
  5
2FB
100
AcDbEntity
  8
0
100
AcDbLine
 62
7
  6
CONTINUOUS
 10
321.8434786018
 20
445.4996547034
 11
325.8434786018
 21
445.4996547034
  0
LINE
  5
2FC
100
AcDbEntity
  8
0
100
AcDbLine
 62
7
  6
CONTINUOUS
 10
371.8434786018
 20
445.4996547034
 11
375.8434786018
 21
445.4996547034
  0
LINE
  5
2FD
100
AcDbEntity
  8
0
100
AcDbLine
 62
7
  6
CONTINUOUS
 10
421.8434786018
 20
445.4996547034
 11
425.8434786018
 21
445.4996547034
  0
LINE
  5
2FE
100
AcDbEntity
  8
0
100
AcDbLine
 62
7
  6
CONTINUOUS
 10
471.8434786018
 20
445.4996547034
 11
475.8434786018
 21
445.4996547034
  0
LINE
  5
2FF
100
AcDbEntity
  8
0
100
AcDbLine
 62
7
  6
CONTINUOUS
 10
521.8434786018
 20
445.4996547034
 11
525.8434786018
 21
445.4996547034
  0
LINE
  5
300
100
AcDbEntity
  8
0
100
AcDbLine
 62
7
  6
CONTINUOUS
 10
571.8434786018
 20
445.4996547034
 11
575.8434786018
 21
445.4996547034
  0
LINE
  5
301
100
AcDbEntity
  8
0
100
AcDbLine
 62
7
  6
CONTINUOUS
 10
561.0834703815
 20
445.7236168901
 11
550.6035737606
 21
445.7236168901
  0
LINE
  5
302
100
AcDbEntity
  8
0
100
AcDbLine
 62
7
  6
CONTINUOUS
 10
131.0834703815
 20
445.7236168901
 11
120.6035737606
 21
445.7236168901
  0
LINE
  5
303
100
AcDbEntity
  8
0
100
AcDbLine
 62
7
  6
CONTINUOUS
 10
101.0834703815
 20
445.7236168901
 11
90.6035737606
 21
445.7236168901
  0
LINE
  5
304
100
AcDbEntity
  8
0
100
AcDbLine
 62
7
  6
CONTINUOUS
 10
90.5623568571
 20
446.2815141973
 11
101.1246879688
 21
446.2815141973
  0
LINE
  5
305
100
AcDbEntity
  8
0
100
AcDbLine
 62
7
  6
CONTINUOUS
 10
120.5623568571
 20
446.2815141973
 11
131.1246879688
 21
446.2815141973
  0
LINE
  5
306
100
AcDbEntity
  8
0
100
AcDbLine
 62
7
  6
CONTINUOUS
 10
550.5623568571
 20
446.2815141973
 11
561.1246879688
 21
446.2815141973
  0
LINE
  5
307
100
AcDbEntity
  8
0
100
AcDbLine
 62
7
  6
CONTINUOUS
 10
220.8434786018
 20
446.4996547034
 11
226.8434786018
 21
446.4996547034
  0
LINE
  5
308
100
AcDbEntity
  8
0
100
AcDbLine
 62
7
  6
CONTINUOUS
 10
270.8434786018
 20
446.4996547034
 11
276.8434786018
 21
446.4996547034
  0
LINE
  5
309
100
AcDbEntity
  8
0
100
AcDbLine
 62
7
  6
CONTINUOUS
 10
320.8434786018
 20
446.4996547034
 11
326.8434786018
 21
446.4996547034
  0
LINE
  5
30A
100
AcDbEntity
  8
0
100
AcDbLine
 62
7
  6
CONTINUOUS
 10
370.8434786018
 20
446.4996547034
 11
376.8434786018
 21
446.4996547034
  0
LINE
  5
30B
100
AcDbEntity
  8
0
100
AcDbLine
 62
7
  6
CONTINUOUS
 10
420.8434786018
 20
446.4996547034
 11
426.8434786018
 21
446.4996547034
  0
LINE
  5
30C
100
AcDbEntity
  8
0
100
AcDbLine
 62
7
  6
CONTINUOUS
 10
470.8434786018
 20
446.4996547034
 11
476.8434786018
 21
446.4996547034
  0
LINE
  5
30D
100
AcDbEntity
  8
0
100
AcDbLine
 62
7
  6
CONTINUOUS
 10
520.8434786018
 20
446.4996547034
 11
526.8434786018
 21
446.4996547034
  0
LINE
  5
30E
100
AcDbEntity
  8
0
100
AcDbLine
 62
7
  6
CONTINUOUS
 10
570.8434786018
 20
446.4996547034
 11
576.8434786018
 21
446.4996547034
  0
LINE
  5
30F
100
AcDbEntity
  8
0
100
AcDbLine
 62
7
  6
CONTINUOUS
 10
231.2215516954
 20
446.8867617718
 11
231.7573702809
 21
446.8867617718
  0
LINE
  5
310
100
AcDbEntity
  8
0
100
AcDbLine
 62
7
  6
CONTINUOUS
 10
281.2215516954
 20
446.8867617718
 11
281.7573702809
 21
446.8867617718
  0
LINE
  5
311
100
AcDbEntity
  8
0
100
AcDbLine
 62
7
  6
CONTINUOUS
 10
331.2215516954
 20
446.8867617718
 11
331.7573702809
 21
446.8867617718
  0
LINE
  5
312
100
AcDbEntity
  8
0
100
AcDbLine
 62
7
  6
CONTINUOUS
 10
381.2215516954
 20
446.8867617718
 11
381.7573702809
 21
446.8867617718
  0
LINE
  5
313
100
AcDbEntity
  8
0
100
AcDbLine
 62
7
  6
CONTINUOUS
 10
431.2215516954
 20
446.8867617718
 11
431.7573702809
 21
446.8867617718
  0
LINE
  5
314
100
AcDbEntity
  8
0
100
AcDbLine
 62
7
  6
CONTINUOUS
 10
481.2215516954
 20
446.8867617718
 11
481.7573702809
 21
446.8867617718
  0
LINE
  5
315
100
AcDbEntity
  8
0
100
AcDbLine
 62
7
  6
CONTINUOUS
 10
531.2215516954
 20
446.8867617718
 11
531.7573702809
 21
446.8867617718
  0
LINE
  5
316
100
AcDbEntity
  8
0
100
AcDbLine
 62
7
  6
CONTINUOUS
 10
581.2215516954
 20
446.8867617718
 11
581.7573702809
 21
446.8867617718
  0
LINE
  5
317
100
AcDbEntity
  8
0
100
AcDbLine
 62
7
  6
CONTINUOUS
 10
229.8434786018
 20
447.2236168901
 11
226.8434786018
 21
447.2236168901
  0
LINE
  5
318
100
AcDbEntity
  8
0
100
AcDbLine
 62
7
  6
CONTINUOUS
 10
220.8434786018
 20
447.2236168901
 11
220.6035737606
 21
447.2236168901
  0
LINE
  5
319
100
AcDbEntity
  8
0
100
AcDbLine
 62
7
  6
CONTINUOUS
 10
581.7573702809
 20
447.4996547034
 11
579.8434786018
 21
447.4996547034
  0
LINE
  5
31A
100
AcDbEntity
  8
0
100
AcDbLine
 62
7
  6
CONTINUOUS
 10
531.7573702809
 20
447.4996547034
 11
529.8434786018
 21
447.4996547034
  0
LINE
  5
31B
100
AcDbEntity
  8
0
100
AcDbLine
 62
7
  6
CONTINUOUS
 10
481.7573702809
 20
447.4996547034
 11
479.8434786018
 21
447.4996547034
  0
LINE
  5
31C
100
AcDbEntity
  8
0
100
AcDbLine
 62
7
  6
CONTINUOUS
 10
431.7573702809
 20
447.4996547034
 11
429.8434786018
 21
447.4996547034
  0
LINE
  5
31D
100
AcDbEntity
  8
0
100
AcDbLine
 62
7
  6
CONTINUOUS
 10
381.7573702809
 20
447.4996547034
 11
379.8434786018
 21
447.4996547034
  0
LINE
  5
31E
100
AcDbEntity
  8
0
100
AcDbLine
 62
7
  6
CONTINUOUS
 10
331.7573702809
 20
447.4996547034
 11
329.8434786018
 21
447.4996547034
  0
LINE
  5
31F
100
AcDbEntity
  8
0
100
AcDbLine
 62
7
  6
CONTINUOUS
 10
281.7573702809
 20
447.4996547034
 11
279.8434786018
 21
447.4996547034
  0
LINE
  5
320
100
AcDbEntity
  8
0
100
AcDbLine
 62
7
  6
CONTINUOUS
 10
231.7573702809
 20
447.4996547034
 11
229.8434786018
 21
447.4996547034
  0
LINE
  5
321
100
AcDbEntity
  8
0
100
AcDbLine
 62
7
  6
CONTINUOUS
 10
220.5623568571
 20
447.7815141973
 11
220.8434786018
 21
447.7815141973
  0
LINE
  5
322
100
AcDbEntity
  8
0
100
AcDbLine
 62
7
  6
CONTINUOUS
 10
226.8434786018
 20
447.7815141973
 11
229.7900458386
 21
447.7815141973
  0
LINE
  5
323
100
AcDbEntity
  8
0
100
AcDbLine
 62
7
  6
CONTINUOUS
 10
570.8434786018
 20
447.9996547034
 11
531.6692067906
 21
447.9996547034
  0
LINE
  5
324
100
AcDbEntity
  8
0
100
AcDbLine
 62
7
  6
CONTINUOUS
 10
529.6847860168
 20
447.9996547034
 11
526.8434786018
 21
447.9996547034
  0
LINE
  5
325
100
AcDbEntity
  8
0
100
AcDbLine
 62
7
  6
CONTINUOUS
 10
73.3434786018
 20
447.9996547034
 11
148.3434786018
 21
447.9996547034
  0
LINE
  5
326
100
AcDbEntity
  8
0
100
AcDbLine
 62
7
  6
CONTINUOUS
 10
503.3434786018
 20
447.9996547034
 11
520.8434786018
 21
447.9996547034
  0
LINE
  5
327
100
AcDbEntity
  8
0
100
AcDbLine
 62
7
  6
CONTINUOUS
 10
576.8434786018
 20
447.9996547034
 11
578.3434786018
 21
447.9996547034
  0
LINE
  5
328
100
AcDbEntity
  8
0
100
AcDbLine
 62
7
  6
CONTINUOUS
 10
217.8434786018
 20
448.4996547034
 11
228.8434786018
 21
448.4996547034
  0
LINE
  5
329
100
AcDbEntity
  8
0
100
AcDbLine
 62
7
  6
CONTINUOUS
 10
267.8434786018
 20
448.4996547034
 11
278.8434786018
 21
448.4996547034
  0
LINE
  5
32A
100
AcDbEntity
  8
0
100
AcDbLine
 62
7
  6
CONTINUOUS
 10
317.8434786018
 20
448.4996547034
 11
328.8434786018
 21
448.4996547034
  0
LINE
  5
32B
100
AcDbEntity
  8
0
100
AcDbLine
 62
7
  6
CONTINUOUS
 10
367.8434786018
 20
448.4996547034
 11
378.8434786018
 21
448.4996547034
  0
LINE
  5
32C
100
AcDbEntity
  8
0
100
AcDbLine
 62
7
  6
CONTINUOUS
 10
417.8434786018
 20
448.4996547034
 11
428.8434786018
 21
448.4996547034
  0
LINE
  5
32D
100
AcDbEntity
  8
0
100
AcDbLine
 62
7
  6
CONTINUOUS
 10
467.8434786018
 20
448.4996547034
 11
478.8434786018
 21
448.4996547034
  0
LINE
  5
32E
100
AcDbEntity
  8
0
100
AcDbLine
 62
7
  6
CONTINUOUS
 10
517.8434786018
 20
448.4996547034
 11
528.8434786018
 21
448.4996547034
  0
LINE
  5
32F
100
AcDbEntity
  8
0
100
AcDbLine
 62
7
  6
CONTINUOUS
 10
567.8434786018
 20
448.4996547034
 11
578.8434786018
 21
448.4996547034
  0
LINE
  5
330
100
AcDbEntity
  8
0
100
AcDbLine
 62
7
  6
CONTINUOUS
 10
200.8434786018
 20
448.9996547034
 11
150.8434786018
 21
448.9996547034
  0
LINE
  5
331
100
AcDbEntity
  8
0
100
AcDbLine
 62
7
  6
CONTINUOUS
 10
330.8434786018
 20
442.4724208911
 11
331.2215516954
 21
442.2541402886
  0
LINE
  5
332
100
AcDbEntity
  8
0
100
AcDbLine
 62
7
  6
CONTINUOUS
 10
331.0073702809
 20
443.5531783943
 11
330.8434786018
 21
443.6478012994
  0
LINE
  5
333
100
AcDbEntity
  8
0
100
AcDbLine
 62
7
  6
CONTINUOUS
 10
321.8434786018
 20
445.4996547034
 11
320.8434786018
 21
446.4996547034
  0
LINE
  5
334
100
AcDbEntity
  8
0
100
AcDbLine
 62
7
  6
CONTINUOUS
 10
320.126883402
 20
441.3260118068
 11
320.7477167147
 21
440.3117322217
  0
LINE
  5
335
100
AcDbEntity
  8
0
100
AcDbLine
 62
7
  6
CONTINUOUS
 10
321.4307316796
 20
440.5703728933
 11
320.8098910963
 21
441.5846908709
  0
LINE
  5
336
100
AcDbEntity
  8
0
100
AcDbLine
 62
7
  6
CONTINUOUS
 10
327.7077209862
 20
439.1996547034
 11
327.8023438912
 21
439.0357630242
  0
LINE
  5
337
100
AcDbEntity
  8
0
100
AcDbLine
 62
7
  6
CONTINUOUS
 10
328.6597893433
 20
450.4135463826
 11
328.6597893433
 21
449.8777277971
  0
LINE
  5
338
100
AcDbEntity
  8
0
100
AcDbLine
 62
7
  6
CONTINUOUS
 10
328.8434786018
 20
449.4996547034
 11
328.8434786018
 21
450.4135463826
  0
LINE
  5
339
100
AcDbEntity
  8
0
100
AcDbLine
 62
7
  6
CONTINUOUS
 10
328.8434677023
 20
438.7513934079
 11
328.8434783703
 21
439.1996546972
  0
LINE
  5
33A
100
AcDbEntity
  8
0
100
AcDbLine
 62
7
  6
CONTINUOUS
 10
329.8434786018
 20
459.0996547034
 11
329.8434786018
 21
456.4996547034
  0
LINE
  5
33B
100
AcDbEntity
  8
0
100
AcDbLine
 62
7
  6
CONTINUOUS
 10
329.8434786018
 20
441.1996547034
 11
329.8434786018
 21
447.4996547034
  0
LINE
  5
33C
100
AcDbEntity
  8
0
100
AcDbLine
 62
7
  6
CONTINUOUS
 10
330.8434786018
 20
441.1996547034
 11
330.8434786018
 21
447.4996547034
  0
LINE
  5
33D
100
AcDbEntity
  8
0
100
AcDbLine
 62
7
  6
CONTINUOUS
 10
331.2215516954
 20
441.1996547034
 11
331.2215516954
 21
442.2541402886
  0
LINE
  5
33E
100
AcDbEntity
  8
0
100
AcDbLine
 62
7
  6
CONTINUOUS
 10
331.2215516954
 20
446.8867617718
 11
331.2215516954
 21
447.4996547034
  0
LINE
  5
33F
100
AcDbEntity
  8
0
100
AcDbLine
 62
7
  6
CONTINUOUS
 10
331.7573702809
 20
447.4996547034
 11
331.7573702809
 21
446.8867617718
  0
LINE
  5
340
100
AcDbEntity
  8
0
100
AcDbLine
 62
7
  6
CONTINUOUS
 10
331.7573702809
 20
442.2541402886
 11
331.7573702809
 21
441.1996547034
  0
LINE
  5
341
100
AcDbEntity
  8
0
100
AcDbLine
 62
7
  6
CONTINUOUS
 10
331.2215516954
 20
446.8867617718
 11
330.8434786018
 21
446.6684811694
  0
LINE
  5
342
100
AcDbEntity
  8
0
100
AcDbLine
 62
7
  6
CONTINUOUS
 10
330.8434786018
 20
445.493100761
 11
331.0073702809
 21
445.5877236661
  0
LINE
  5
343
100
AcDbEntity
  8
0
100
AcDbLine
 62
7
  6
CONTINUOUS
 10
320.8098910963
 20
441.5846908709
 11
320.126883402
 21
441.3260118068
  0
LINE
  5
344
100
AcDbEntity
  8
0
100
AcDbLine
 62
7
  6
CONTINUOUS
 10
320.7476696096
 20
440.3116984549
 11
321.430694922
 21
440.5703487237
  0
LINE
  5
345
100
AcDbEntity
  8
0
100
AcDbLine
 62
7
  6
CONTINUOUS
 10
148.3434786018
 20
449.4996547034
 11
73.3434786018
 21
449.4996547034
  0
LINE
  5
346
100
AcDbEntity
  8
0
100
AcDbLine
 62
7
  6
CONTINUOUS
 10
203.3434786018
 20
449.4996547034
 11
228.8434786018
 21
449.4996547034
  0
LINE
  5
347
100
AcDbEntity
  8
0
100
AcDbLine
 62
7
  6
CONTINUOUS
 10
230.9486625978
 20
449.4996547034
 11
278.8434786018
 21
449.4996547034
  0
LINE
  5
348
100
AcDbEntity
  8
0
100
AcDbLine
 62
7
  6
CONTINUOUS
 10
280.9486625978
 20
449.4996547034
 11
328.8434786018
 21
449.4996547034
  0
LINE
  5
349
100
AcDbEntity
  8
0
100
AcDbLine
 62
7
  6
CONTINUOUS
 10
330.9486625978
 20
449.4996547034
 11
378.8434786018
 21
449.4996547034
  0
LINE
  5
34A
100
AcDbEntity
  8
0
100
AcDbLine
 62
7
  6
CONTINUOUS
 10
380.9486625978
 20
449.4996547034
 11
428.8434786018
 21
449.4996547034
  0
LINE
  5
34B
100
AcDbEntity
  8
0
100
AcDbLine
 62
7
  6
CONTINUOUS
 10
430.9486625978
 20
449.4996547034
 11
478.8434786018
 21
449.4996547034
  0
LINE
  5
34C
100
AcDbEntity
  8
0
100
AcDbLine
 62
7
  6
CONTINUOUS
 10
480.9486625978
 20
449.4996547034
 11
528.8434786018
 21
449.4996547034
  0
LINE
  5
34D
100
AcDbEntity
  8
0
100
AcDbLine
 62
7
  6
CONTINUOUS
 10
530.9486625978
 20
449.4996547034
 11
578.8434786018
 21
449.4996547034
  0
LINE
  5
34E
100
AcDbEntity
  8
0
100
AcDbLine
 62
7
  6
CONTINUOUS
 10
219.8434786018
 20
449.5496547034
 11
227.294995846
 21
449.5496547034
  0
LINE
  5
34F
100
AcDbEntity
  8
0
100
AcDbLine
 62
7
  6
CONTINUOUS
 10
269.8434786018
 20
449.5496547034
 11
277.294995846
 21
449.5496547034
  0
LINE
  5
350
100
AcDbEntity
  8
0
100
AcDbLine
 62
7
  6
CONTINUOUS
 10
319.8434786018
 20
449.5496547034
 11
327.294995846
 21
449.5496547034
  0
LINE
  5
351
100
AcDbEntity
  8
0
100
AcDbLine
 62
7
  6
CONTINUOUS
 10
369.8434786018
 20
449.5496547034
 11
377.294995846
 21
449.5496547034
  0
LINE
  5
352
100
AcDbEntity
  8
0
100
AcDbLine
 62
7
  6
CONTINUOUS
 10
419.8434786018
 20
449.5496547034
 11
427.294995846
 21
449.5496547034
  0
LINE
  5
353
100
AcDbEntity
  8
0
100
AcDbLine
 62
7
  6
CONTINUOUS
 10
469.8434786018
 20
449.5496547034
 11
477.294995846
 21
449.5496547034
  0
LINE
  5
354
100
AcDbEntity
  8
0
100
AcDbLine
 62
7
  6
CONTINUOUS
 10
519.8434786018
 20
449.5496547034
 11
527.294995846
 21
449.5496547034
  0
LINE
  5
355
100
AcDbEntity
  8
0
100
AcDbLine
 62
7
  6
CONTINUOUS
 10
569.8434786018
 20
449.5496547034
 11
577.294995846
 21
449.5496547034
  0
LINE
  5
356
100
AcDbEntity
  8
0
100
AcDbLine
 62
7
  6
CONTINUOUS
 10
562.3434786018
 20
449.6996547034
 11
549.3434786018
 21
449.6996547034
  0
LINE
  5
357
100
AcDbEntity
  8
0
100
AcDbLine
 62
7
  6
CONTINUOUS
 10
132.3434786018
 20
449.6996547034
 11
119.3434786018
 21
449.6996547034
  0
LINE
  5
358
100
AcDbEntity
  8
0
100
AcDbLine
 62
7
  6
CONTINUOUS
 10
102.3434786018
 20
449.6996547034
 11
89.3434786018
 21
449.6996547034
  0
LINE
  5
359
100
AcDbEntity
  8
0
100
AcDbLine
 62
7
  6
CONTINUOUS
 10
578.8434786018
 20
449.8777277971
 11
578.6597893433
 21
449.8777277971
  0
LINE
  5
35A
100
AcDbEntity
  8
0
100
AcDbLine
 62
7
  6
CONTINUOUS
 10
528.8434786018
 20
449.8777277971
 11
528.6597893433
 21
449.8777277971
  0
LINE
  5
35B
100
AcDbEntity
  8
0
100
AcDbLine
 62
7
  6
CONTINUOUS
 10
478.8434786018
 20
449.8777277971
 11
478.6597893433
 21
449.8777277971
  0
LINE
  5
35C
100
AcDbEntity
  8
0
100
AcDbLine
 62
7
  6
CONTINUOUS
 10
428.8434786018
 20
449.8777277971
 11
428.6597893433
 21
449.8777277971
  0
LINE
  5
35D
100
AcDbEntity
  8
0
100
AcDbLine
 62
7
  6
CONTINUOUS
 10
378.8434786018
 20
449.8777277971
 11
378.6597893433
 21
449.8777277971
  0
LINE
  5
35E
100
AcDbEntity
  8
0
100
AcDbLine
 62
7
  6
CONTINUOUS
 10
328.8434786018
 20
449.8777277971
 11
328.6597893433
 21
449.8777277971
  0
LINE
  5
35F
100
AcDbEntity
  8
0
100
AcDbLine
 62
7
  6
CONTINUOUS
 10
278.8434786018
 20
449.8777277971
 11
278.6597893433
 21
449.8777277971
  0
LINE
  5
360
100
AcDbEntity
  8
0
100
AcDbLine
 62
7
  6
CONTINUOUS
 10
228.8434786018
 20
449.8777277971
 11
228.6597893433
 21
449.8777277971
  0
LINE
  5
361
100
AcDbEntity
  8
0
100
AcDbLine
 62
7
  6
CONTINUOUS
 10
228.6597893433
 20
450.4135463826
 11
228.8434786018
 21
450.4135463826
  0
LINE
  5
362
100
AcDbEntity
  8
0
100
AcDbLine
 62
7
  6
CONTINUOUS
 10
278.6597893433
 20
450.4135463826
 11
278.8434786018
 21
450.4135463826
  0
LINE
  5
363
100
AcDbEntity
  8
0
100
AcDbLine
 62
7
  6
CONTINUOUS
 10
328.6597893433
 20
450.4135463826
 11
328.8434786018
 21
450.4135463826
  0
LINE
  5
364
100
AcDbEntity
  8
0
100
AcDbLine
 62
7
  6
CONTINUOUS
 10
378.6597893433
 20
450.4135463826
 11
378.8434786018
 21
450.4135463826
  0
LINE
  5
365
100
AcDbEntity
  8
0
100
AcDbLine
 62
7
  6
CONTINUOUS
 10
428.6597893433
 20
450.4135463826
 11
428.8434786018
 21
450.4135463826
  0
LINE
  5
366
100
AcDbEntity
  8
0
100
AcDbLine
 62
7
  6
CONTINUOUS
 10
478.6597893433
 20
450.4135463826
 11
478.8434786018
 21
450.4135463826
  0
LINE
  5
367
100
AcDbEntity
  8
0
100
AcDbLine
 62
7
  6
CONTINUOUS
 10
528.6597893433
 20
450.4135463826
 11
528.8434786018
 21
450.4135463826
  0
LINE
  5
368
100
AcDbEntity
  8
0
100
AcDbLine
 62
7
  6
CONTINUOUS
 10
578.6597893433
 20
450.4135463826
 11
578.8434786018
 21
450.4135463826
  0
LINE
  5
369
100
AcDbEntity
  8
0
100
AcDbLine
 62
7
  6
CONTINUOUS
 10
203.3434786018
 20
450.9996547034
 11
219.8434786018
 21
450.9996547034
  0
LINE
  5
36A
100
AcDbEntity
  8
0
100
AcDbLine
 62
7
  6
CONTINUOUS
 10
227.8434786018
 20
450.9996547034
 11
269.8434786018
 21
450.9996547034
  0
LINE
  5
36B
100
AcDbEntity
  8
0
100
AcDbLine
 62
7
  6
CONTINUOUS
 10
277.8434786018
 20
450.9996547034
 11
319.8434786018
 21
450.9996547034
  0
LINE
  5
36C
100
AcDbEntity
  8
0
100
AcDbLine
 62
7
  6
CONTINUOUS
 10
327.8434786018
 20
450.9996547034
 11
369.8434786018
 21
450.9996547034
  0
LINE
  5
36D
100
AcDbEntity
  8
0
100
AcDbLine
 62
7
  6
CONTINUOUS
 10
377.8434786018
 20
450.9996547034
 11
419.8434786018
 21
450.9996547034
  0
LINE
  5
36E
100
AcDbEntity
  8
0
100
AcDbLine
 62
7
  6
CONTINUOUS
 10
427.8434786018
 20
450.9996547034
 11
469.8434786018
 21
450.9996547034
  0
LINE
  5
36F
100
AcDbEntity
  8
0
100
AcDbLine
 62
7
  6
CONTINUOUS
 10
477.8434786018
 20
450.9996547034
 11
519.8434786018
 21
450.9996547034
  0
LINE
  5
370
100
AcDbEntity
  8
0
100
AcDbLine
 62
7
  6
CONTINUOUS
 10
527.8434786018
 20
450.9996547034
 11
534.8434786018
 21
450.9996547034
  0
LINE
  5
371
100
AcDbEntity
  8
0
100
AcDbLine
 62
7
  6
CONTINUOUS
 10
232.3434786018
 20
451.1996547034
 11
227.8434786018
 21
451.1996547034
  0
LINE
  5
372
100
AcDbEntity
  8
0
100
AcDbLine
 62
7
  6
CONTINUOUS
 10
219.8434786018
 20
451.1996547034
 11
219.3434786018
 21
451.1996547034
  0
LINE
  5
373
100
AcDbEntity
  8
0
100
AcDbLine
 62
7
  6
CONTINUOUS
 10
577.8434786018
 20
451.2996547034
 11
569.8434786018
 21
451.2996547034
  0
LINE
  5
374
100
AcDbEntity
  8
0
100
AcDbLine
 62
7
  6
CONTINUOUS
 10
527.8434786018
 20
451.2996547034
 11
519.8434786018
 21
451.2996547034
  0
LINE
  5
375
100
AcDbEntity
  8
0
100
AcDbLine
 62
7
  6
CONTINUOUS
 10
477.8434786018
 20
451.2996547034
 11
469.8434786018
 21
451.2996547034
  0
LINE
  5
376
100
AcDbEntity
  8
0
100
AcDbLine
 62
7
  6
CONTINUOUS
 10
427.8434786018
 20
451.2996547034
 11
419.8434786018
 21
451.2996547034
  0
LINE
  5
377
100
AcDbEntity
  8
0
100
AcDbLine
 62
7
  6
CONTINUOUS
 10
377.8434786018
 20
451.2996547034
 11
369.8434786018
 21
451.2996547034
  0
LINE
  5
378
100
AcDbEntity
  8
0
100
AcDbLine
 62
7
  6
CONTINUOUS
 10
327.8434786018
 20
451.2996547034
 11
319.8434786018
 21
451.2996547034
  0
LINE
  5
379
100
AcDbEntity
  8
0
100
AcDbLine
 62
7
  6
CONTINUOUS
 10
277.8434786018
 20
451.2996547034
 11
269.8434786018
 21
451.2996547034
  0
LINE
  5
37A
100
AcDbEntity
  8
0
100
AcDbLine
 62
7
  6
CONTINUOUS
 10
227.8434786018
 20
451.2996547034
 11
219.8434786018
 21
451.2996547034
  0
LINE
  5
37B
100
AcDbEntity
  8
0
100
AcDbLine
 62
7
  6
CONTINUOUS
 10
218.8434785949
 20
455.4996547034
 11
228.8434786086
 21
455.4996547034
  0
LINE
  5
37C
100
AcDbEntity
  8
0
100
AcDbLine
 62
7
  6
CONTINUOUS
 10
268.8434785949
 20
455.4996547034
 11
278.8434786086
 21
455.4996547034
  0
LINE
  5
37D
100
AcDbEntity
  8
0
100
AcDbLine
 62
7
  6
CONTINUOUS
 10
318.8434785949
 20
455.4996547034
 11
328.8434786086
 21
455.4996547034
  0
LINE
  5
37E
100
AcDbEntity
  8
0
100
AcDbLine
 62
7
  6
CONTINUOUS
 10
368.8434785949
 20
455.4996547034
 11
378.8434786086
 21
455.4996547034
  0
LINE
  5
37F
100
AcDbEntity
  8
0
100
AcDbLine
 62
7
  6
CONTINUOUS
 10
418.8434785949
 20
455.4996547034
 11
428.8434786086
 21
455.4996547034
  0
LINE
  5
380
100
AcDbEntity
  8
0
100
AcDbLine
 62
7
  6
CONTINUOUS
 10
468.8434785949
 20
455.4996547034
 11
478.8434786086
 21
455.4996547034
  0
LINE
  5
381
100
AcDbEntity
  8
0
100
AcDbLine
 62
7
  6
CONTINUOUS
 10
518.8434785949
 20
455.4996547034
 11
528.8434786086
 21
455.4996547034
  0
LINE
  5
382
100
AcDbEntity
  8
0
100
AcDbLine
 62
7
  6
CONTINUOUS
 10
568.8434785949
 20
455.4996547034
 11
578.8434786086
 21
455.4996547034
  0
LINE
  5
383
100
AcDbEntity
  8
0
100
AcDbLine
 62
7
  6
CONTINUOUS
 10
217.8434786018
 20
456.4996547034
 11
229.8433873137
 21
456.4996547034
  0
LINE
  5
384
100
AcDbEntity
  8
0
100
AcDbLine
 62
7
  6
CONTINUOUS
 10
267.8434786018
 20
456.4996547034
 11
279.8433873137
 21
456.4996547034
  0
LINE
  5
385
100
AcDbEntity
  8
0
100
AcDbLine
 62
7
  6
CONTINUOUS
 10
317.8434786018
 20
456.4996547034
 11
329.8433873137
 21
456.4996547034
  0
LINE
  5
386
100
AcDbEntity
  8
0
100
AcDbLine
 62
7
  6
CONTINUOUS
 10
367.8434786018
 20
456.4996547034
 11
379.8433873137
 21
456.4996547034
  0
LINE
  5
387
100
AcDbEntity
  8
0
100
AcDbLine
 62
7
  6
CONTINUOUS
 10
417.8434786018
 20
456.4996547034
 11
429.8433873137
 21
456.4996547034
  0
LINE
  5
388
100
AcDbEntity
  8
0
100
AcDbLine
 62
7
  6
CONTINUOUS
 10
467.8434786018
 20
456.4996547034
 11
479.8433873137
 21
456.4996547034
  0
LINE
  5
389
100
AcDbEntity
  8
0
100
AcDbLine
 62
7
  6
CONTINUOUS
 10
517.8434786018
 20
456.4996547034
 11
529.8433873137
 21
456.4996547034
  0
LINE
  5
38A
100
AcDbEntity
  8
0
100
AcDbLine
 62
7
  6
CONTINUOUS
 10
567.8434786018
 20
456.4996547034
 11
579.8433873137
 21
456.4996547034
  0
LINE
  5
38B
100
AcDbEntity
  8
0
100
AcDbLine
 62
7
  6
CONTINUOUS
 10
579.8434786018
 20
459.0996547034
 11
567.8434786018
 21
459.0996547034
  0
LINE
  5
38C
100
AcDbEntity
  8
0
100
AcDbLine
 62
7
  6
CONTINUOUS
 10
529.8434786018
 20
459.0996547034
 11
517.8434786018
 21
459.0996547034
  0
LINE
  5
38D
100
AcDbEntity
  8
0
100
AcDbLine
 62
7
  6
CONTINUOUS
 10
479.8434786018
 20
459.0996547034
 11
467.8434786018
 21
459.0996547034
  0
LINE
  5
38E
100
AcDbEntity
  8
0
100
AcDbLine
 62
7
  6
CONTINUOUS
 10
429.8434786018
 20
459.0996547034
 11
417.8434786018
 21
459.0996547034
  0
LINE
  5
38F
100
AcDbEntity
  8
0
100
AcDbLine
 62
7
  6
CONTINUOUS
 10
379.8434786018
 20
459.0996547034
 11
367.8434786018
 21
459.0996547034
  0
LINE
  5
390
100
AcDbEntity
  8
0
100
AcDbLine
 62
7
  6
CONTINUOUS
 10
329.8434786018
 20
459.0996547034
 11
317.8434786018
 21
459.0996547034
  0
LINE
  5
391
100
AcDbEntity
  8
0
100
AcDbLine
 62
7
  6
CONTINUOUS
 10
279.8434786018
 20
459.0996547034
 11
267.8434786018
 21
459.0996547034
  0
LINE
  5
392
100
AcDbEntity
  8
0
100
AcDbLine
 62
7
  6
CONTINUOUS
 10
229.8434786018
 20
459.0996547034
 11
217.8434786018
 21
459.0996547034
  0
LINE
  5
393
100
AcDbEntity
  8
0
100
AcDbLine
 62
7
  6
CONTINUOUS
 10
576.8434786018
 20
460.0996547034
 11
576.5871366043
 21
460.0996547034
  0
LINE
  5
394
100
AcDbEntity
  8
0
100
AcDbLine
 62
7
  6
CONTINUOUS
 10
576.266143258
 20
460.0996547034
 11
574.1644719481
 21
460.0996547034
  0
LINE
  5
395
100
AcDbEntity
  8
0
100
AcDbLine
 62
7
  6
CONTINUOUS
 10
573.5224852554
 20
460.0996547034
 11
571.4208139455
 21
460.0996547034
  0
LINE
  5
396
100
AcDbEntity
  8
0
100
AcDbLine
 62
7
  6
CONTINUOUS
 10
571.0998205992
 20
460.0996547034
 11
570.8434786018
 21
460.0996547034
  0
LINE
  5
397
100
AcDbEntity
  8
0
100
AcDbLine
 62
7
  6
CONTINUOUS
 10
526.8434786018
 20
460.0996547034
 11
526.5871366043
 21
460.0996547034
  0
LINE
  5
398
100
AcDbEntity
  8
0
100
AcDbLine
 62
7
  6
CONTINUOUS
 10
526.266143258
 20
460.0996547034
 11
524.1644719481
 21
460.0996547034
  0
LINE
  5
399
100
AcDbEntity
  8
0
100
AcDbLine
 62
7
  6
CONTINUOUS
 10
523.5224852554
 20
460.0996547034
 11
521.4208139455
 21
460.0996547034
  0
LINE
  5
39A
100
AcDbEntity
  8
0
100
AcDbLine
 62
7
  6
CONTINUOUS
 10
521.0998205992
 20
460.0996547034
 11
520.8434786018
 21
460.0996547034
  0
LINE
  5
39B
100
AcDbEntity
  8
0
100
AcDbLine
 62
7
  6
CONTINUOUS
 10
476.8434786018
 20
460.0996547034
 11
476.5871366043
 21
460.0996547034
  0
LINE
  5
39C
100
AcDbEntity
  8
0
100
AcDbLine
 62
7
  6
CONTINUOUS
 10
476.266143258
 20
460.0996547034
 11
474.1644719481
 21
460.0996547034
  0
LINE
  5
39D
100
AcDbEntity
  8
0
100
AcDbLine
 62
7
  6
CONTINUOUS
 10
473.5224852554
 20
460.0996547034
 11
471.4208139455
 21
460.0996547034
  0
LINE
  5
39E
100
AcDbEntity
  8
0
100
AcDbLine
 62
7
  6
CONTINUOUS
 10
471.0998205992
 20
460.0996547034
 11
470.8434786018
 21
460.0996547034
  0
LINE
  5
39F
100
AcDbEntity
  8
0
100
AcDbLine
 62
7
  6
CONTINUOUS
 10
426.8434786018
 20
460.0996547034
 11
426.5871366043
 21
460.0996547034
  0
LINE
  5
3A0
100
AcDbEntity
  8
0
100
AcDbLine
 62
7
  6
CONTINUOUS
 10
426.266143258
 20
460.0996547034
 11
424.1644719481
 21
460.0996547034
  0
LINE
  5
3A1
100
AcDbEntity
  8
0
100
AcDbLine
 62
7
  6
CONTINUOUS
 10
423.5224852554
 20
460.0996547034
 11
421.4208139455
 21
460.0996547034
  0
LINE
  5
3A2
100
AcDbEntity
  8
0
100
AcDbLine
 62
7
  6
CONTINUOUS
 10
421.0998205992
 20
460.0996547034
 11
420.8434786018
 21
460.0996547034
  0
LINE
  5
3A3
100
AcDbEntity
  8
0
100
AcDbLine
 62
7
  6
CONTINUOUS
 10
376.8434786018
 20
460.0996547034
 11
376.5871366043
 21
460.0996547034
  0
LINE
  5
3A4
100
AcDbEntity
  8
0
100
AcDbLine
 62
7
  6
CONTINUOUS
 10
376.266143258
 20
460.0996547034
 11
374.1644719481
 21
460.0996547034
  0
LINE
  5
3A5
100
AcDbEntity
  8
0
100
AcDbLine
 62
7
  6
CONTINUOUS
 10
373.5224852554
 20
460.0996547034
 11
371.4208139455
 21
460.0996547034
  0
LINE
  5
3A6
100
AcDbEntity
  8
0
100
AcDbLine
 62
7
  6
CONTINUOUS
 10
371.0998205992
 20
460.0996547034
 11
370.8434786018
 21
460.0996547034
  0
LINE
  5
3A7
100
AcDbEntity
  8
0
100
AcDbLine
 62
7
  6
CONTINUOUS
 10
326.8434786018
 20
460.0996547034
 11
326.5871366043
 21
460.0996547034
  0
LINE
  5
3A8
100
AcDbEntity
  8
0
100
AcDbLine
 62
7
  6
CONTINUOUS
 10
326.266143258
 20
460.0996547034
 11
324.1644719481
 21
460.0996547034
  0
LINE
  5
3A9
100
AcDbEntity
  8
0
100
AcDbLine
 62
7
  6
CONTINUOUS
 10
323.5224852554
 20
460.0996547034
 11
321.4208139455
 21
460.0996547034
  0
LINE
  5
3AA
100
AcDbEntity
  8
0
100
AcDbLine
 62
7
  6
CONTINUOUS
 10
321.0998205992
 20
460.0996547034
 11
320.8434786018
 21
460.0996547034
  0
LINE
  5
3AB
100
AcDbEntity
  8
0
100
AcDbLine
 62
7
  6
CONTINUOUS
 10
276.8434786018
 20
460.0996547034
 11
276.5871366043
 21
460.0996547034
  0
LINE
  5
3AC
100
AcDbEntity
  8
0
100
AcDbLine
 62
7
  6
CONTINUOUS
 10
276.266143258
 20
460.0996547034
 11
274.1644719481
 21
460.0996547034
  0
LINE
  5
3AD
100
AcDbEntity
  8
0
100
AcDbLine
 62
7
  6
CONTINUOUS
 10
273.5224852554
 20
460.0996547034
 11
271.4208139455
 21
460.0996547034
  0
LINE
  5
3AE
100
AcDbEntity
  8
0
100
AcDbLine
 62
7
  6
CONTINUOUS
 10
271.0998205992
 20
460.0996547034
 11
270.8434786018
 21
460.0996547034
  0
LINE
  5
3AF
100
AcDbEntity
  8
0
100
AcDbLine
 62
7
  6
CONTINUOUS
 10
226.8434786018
 20
460.0996547034
 11
226.5871366043
 21
460.0996547034
  0
LINE
  5
3B0
100
AcDbEntity
  8
0
100
AcDbLine
 62
7
  6
CONTINUOUS
 10
226.266143258
 20
460.0996547034
 11
224.1644719481
 21
460.0996547034
  0
LINE
  5
3B1
100
AcDbEntity
  8
0
100
AcDbLine
 62
7
  6
CONTINUOUS
 10
223.5224852554
 20
460.0996547034
 11
221.4208139455
 21
460.0996547034
  0
LINE
  5
3B2
100
AcDbEntity
  8
0
100
AcDbLine
 62
7
  6
CONTINUOUS
 10
221.0998205992
 20
460.0996547034
 11
220.8434786018
 21
460.0996547034
  0
LINE
  5
3B3
100
AcDbEntity
  8
0
100
AcDbLine
 62
7
  6
CONTINUOUS
 10
375.8434786018
 20
445.4996547034
 11
376.8434786018
 21
446.4996547034
  0
LINE
  5
3B4
100
AcDbEntity
  8
0
100
AcDbLine
 62
7
  6
CONTINUOUS
 10
381.2215516954
 20
446.8867617718
 11
380.8434786018
 21
446.6684811694
  0
LINE
  5
3B5
100
AcDbEntity
  8
0
100
AcDbLine
 62
7
  6
CONTINUOUS
 10
380.8434786018
 20
445.493100761
 11
381.0073702809
 21
445.5877236661
  0
LINE
  5
3B6
100
AcDbEntity
  8
0
100
AcDbLine
 62
7
  6
CONTINUOUS
 10
370.8098910963
 20
441.5846908709
 11
370.126883402
 21
441.3260118068
  0
LINE
  5
3B7
100
AcDbEntity
  8
0
100
AcDbLine
 62
7
  6
CONTINUOUS
 10
370.7476696096
 20
440.3116984549
 11
371.430694922
 21
440.5703487237
  0
LINE
  5
3B8
100
AcDbEntity
  8
0
100
AcDbLine
 62
7
  6
CONTINUOUS
 10
380.8434786018
 20
442.4724208911
 11
381.2215516954
 21
442.2541402886
  0
LINE
  5
3B9
100
AcDbEntity
  8
0
100
AcDbLine
 62
7
  6
CONTINUOUS
 10
381.0073702809
 20
443.5531783943
 11
380.8434786018
 21
443.6478012994
  0
LINE
  5
3BA
100
AcDbEntity
  8
0
100
AcDbLine
 62
7
  6
CONTINUOUS
 10
371.8434786018
 20
445.4996547034
 11
370.8434786018
 21
446.4996547034
  0
LINE
  5
3BB
100
AcDbEntity
  8
0
100
AcDbLine
 62
7
  6
CONTINUOUS
 10
370.126883402
 20
441.3260118068
 11
370.7477167147
 21
440.3117322217
  0
LINE
  5
3BC
100
AcDbEntity
  8
0
100
AcDbLine
 62
7
  6
CONTINUOUS
 10
371.4307316796
 20
440.5703728933
 11
370.8098910963
 21
441.5846908709
  0
LINE
  5
3BD
100
AcDbEntity
  8
0
100
AcDbLine
 62
7
  6
CONTINUOUS
 10
367.8434786018
 20
459.0996547034
 11
367.8434786018
 21
456.4996547034
  0
LINE
  5
3BE
100
AcDbEntity
  8
0
100
AcDbLine
 62
7
  6
CONTINUOUS
 10
367.8434786018
 20
448.4996547034
 11
367.8434786018
 21
449.4996547034
  0
LINE
  5
3BF
100
AcDbEntity
  8
0
100
AcDbLine
 62
7
  6
CONTINUOUS
 10
369.8434786018
 20
449.4996547034
 11
369.8434786018
 21
448.4996547034
  0
LINE
  5
3C0
100
AcDbEntity
  8
0
100
AcDbLine
 62
7
  6
CONTINUOUS
 10
369.8434786018
 20
439.1996547034
 11
369.8434786018
 21
440.1996547034
  0
LINE
  5
3C1
100
AcDbEntity
  8
0
100
AcDbLine
 62
7
  6
CONTINUOUS
 10
369.8434786018
 20
449.5496547034
 11
369.8434786018
 21
451.2996547034
  0
LINE
  5
3C2
100
AcDbEntity
  8
0
100
AcDbLine
 62
7
  6
CONTINUOUS
 10
370.6434786018
 20
445.4996547034
 11
370.6434786018
 21
455.4996547034
  0
LINE
  5
3C3
100
AcDbEntity
  8
0
100
AcDbLine
 62
7
  6
CONTINUOUS
 10
370.8434786018
 20
455.4996547034
 11
370.8434786018
 21
451.2996547034
  0
LINE
  5
3C4
100
AcDbEntity
  8
0
100
AcDbLine
 62
7
  6
CONTINUOUS
 10
370.8434786018
 20
451.2996547034
 11
370.8434786018
 21
448.4996547034
  0
LINE
  5
3C5
100
AcDbEntity
  8
0
100
AcDbLine
 62
7
  6
CONTINUOUS
 10
370.8434786018
 20
448.4996547034
 11
370.8434786018
 21
446.4996547034
  0
LINE
  5
3C6
100
AcDbEntity
  8
0
100
AcDbLine
 62
7
  6
CONTINUOUS
 10
372.6177522965
 20
440.1996546791
 11
372.6177522917
 21
439.1996547298
  0
LINE
  5
3C7
100
AcDbEntity
  8
0
100
AcDbLine
 62
7
  6
CONTINUOUS
 10
373.5505853829
 20
439.1996547034
 11
373.5505853829
 21
440.1996547034
  0
LINE
  5
3C8
100
AcDbEntity
  8
0
100
AcDbLine
 62
7
  6
CONTINUOUS
 10
374.2576921641
 20
440.1996547034
 11
374.2576921641
 21
439.1996547034
  0
LINE
  5
3C9
100
AcDbEntity
  8
0
100
AcDbLine
 62
7
  6
CONTINUOUS
 10
376.8434786018
 20
455.4996547034
 11
376.8434786018
 21
451.2996547034
  0
LINE
  5
3CA
100
AcDbEntity
  8
0
100
AcDbLine
 62
7
  6
CONTINUOUS
 10
376.8434786018
 20
451.2996547034
 11
376.8434786018
 21
448.4996547034
  0
LINE
  5
3CB
100
AcDbEntity
  8
0
100
AcDbLine
 62
7
  6
CONTINUOUS
 10
376.8434786018
 20
448.4996547034
 11
376.8434786018
 21
446.4996547034
  0
LINE
  5
3CC
100
AcDbEntity
  8
0
100
AcDbLine
 62
7
  6
CONTINUOUS
 10
377.0434786018
 20
445.4996547034
 11
377.0434786018
 21
455.4996547034
  0
LINE
  5
3CD
100
AcDbEntity
  8
0
100
AcDbLine
 62
7
  6
CONTINUOUS
 10
377.8434786018
 20
450.1552294719
 11
377.8434786018
 21
451.2996547034
  0
LINE
  5
3CE
100
AcDbEntity
  8
0
100
AcDbLine
 62
7
  6
CONTINUOUS
 10
378.6597893433
 20
450.4135463826
 11
378.6597893433
 21
449.8777277971
  0
LINE
  5
3CF
100
AcDbEntity
  8
0
100
AcDbLine
 62
7
  6
CONTINUOUS
 10
378.8434786018
 20
449.4996547034
 11
378.8434786018
 21
450.4135463826
  0
LINE
  5
3D0
100
AcDbEntity
  8
0
100
AcDbLine
 62
7
  6
CONTINUOUS
 10
378.8434677023
 20
438.7513934079
 11
378.8434783703
 21
439.1996546972
  0
LINE
  5
3D1
100
AcDbEntity
  8
0
100
AcDbLine
 62
7
  6
CONTINUOUS
 10
369.8902589555
 20
440.3116394412
 11
370.126883402
 21
441.3260118068
  0
LINE
  5
3D2
100
AcDbEntity
  8
0
100
AcDbLine
 62
7
  6
CONTINUOUS
 10
371.8025145119
 20
440.2901844278
 11
371.3967750382
 21
439.4711837491
  0
LINE
  5
3D3
100
AcDbEntity
  8
0
100
AcDbLine
 62
7
  6
CONTINUOUS
 10
377.3607512376
 20
449.6635463826
 11
377.2661283326
 21
449.4996547034
  0
LINE
  5
3D4
100
AcDbEntity
  8
0
100
AcDbLine
 62
7
  6
CONTINUOUS
 10
378.4415086959
 20
449.4996547034
 11
378.6597893433
 21
449.8777277971
  0
LINE
  5
3D5
100
AcDbEntity
  8
0
100
AcDbLine
 62
7
  6
CONTINUOUS
 10
431.2215516954
 20
446.8867617718
 11
430.8434786018
 21
446.6684811694
  0
LINE
  5
3D6
100
AcDbEntity
  8
0
100
AcDbLine
 62
7
  6
CONTINUOUS
 10
420.8098910963
 20
441.5846908709
 11
420.126883402
 21
441.3260118068
  0
LINE
  5
3D7
100
AcDbEntity
  8
0
100
AcDbLine
 62
7
  6
CONTINUOUS
 10
420.7476696096
 20
440.3116984549
 11
421.430694922
 21
440.5703487237
  0
LINE
  5
3D8
100
AcDbEntity
  8
0
100
AcDbLine
 62
7
  6
CONTINUOUS
 10
430.8434786018
 20
442.4724208911
 11
431.2215516954
 21
442.2541402886
  0
LINE
  5
3D9
100
AcDbEntity
  8
0
100
AcDbLine
 62
7
  6
CONTINUOUS
 10
431.0073702809
 20
443.5531783943
 11
430.8434786018
 21
443.6478012994
  0
LINE
  5
3DA
100
AcDbEntity
  8
0
100
AcDbLine
 62
7
  6
CONTINUOUS
 10
377.7077209862
 20
439.1996547034
 11
377.8023438912
 21
439.0357630242
  0
LINE
  5
3DB
100
AcDbEntity
  8
0
100
AcDbLine
 62
7
  6
CONTINUOUS
 10
379.8434786018
 20
459.0996547034
 11
379.8434786018
 21
456.4996547034
  0
LINE
  5
3DC
100
AcDbEntity
  8
0
100
AcDbLine
 62
7
  6
CONTINUOUS
 10
379.8434786018
 20
441.1996547034
 11
379.8434786018
 21
447.4996547034
  0
LINE
  5
3DD
100
AcDbEntity
  8
0
100
AcDbLine
 62
7
  6
CONTINUOUS
 10
380.8434786018
 20
441.1996547034
 11
380.8434786018
 21
447.4996547034
  0
LINE
  5
3DE
100
AcDbEntity
  8
0
100
AcDbLine
 62
7
  6
CONTINUOUS
 10
381.2215516954
 20
441.1996547034
 11
381.2215516954
 21
442.2541402886
  0
LINE
  5
3DF
100
AcDbEntity
  8
0
100
AcDbLine
 62
7
  6
CONTINUOUS
 10
381.2215516954
 20
446.8867617718
 11
381.2215516954
 21
447.4996547034
  0
LINE
  5
3E0
100
AcDbEntity
  8
0
100
AcDbLine
 62
7
  6
CONTINUOUS
 10
381.7573702809
 20
447.4996547034
 11
381.7573702809
 21
446.8867617718
  0
LINE
  5
3E1
100
AcDbEntity
  8
0
100
AcDbLine
 62
7
  6
CONTINUOUS
 10
381.7573702809
 20
442.2541402886
 11
381.7573702809
 21
441.1996547034
  0
LINE
  5
3E2
100
AcDbEntity
  8
0
100
AcDbLine
 62
7
  6
CONTINUOUS
 10
430.8434786018
 20
445.493100761
 11
431.0073702809
 21
445.5877236661
  0
LINE
  5
3E3
100
AcDbEntity
  8
0
100
AcDbLine
 62
7
  6
CONTINUOUS
 10
470.8098910963
 20
441.5846908709
 11
470.126883402
 21
441.3260118068
  0
LINE
  5
3E4
100
AcDbEntity
  8
0
100
AcDbLine
 62
7
  6
CONTINUOUS
 10
470.7476696096
 20
440.3116984549
 11
471.430694922
 21
440.5703487237
  0
LINE
  5
3E5
100
AcDbEntity
  8
0
100
AcDbLine
 62
7
  6
CONTINUOUS
 10
421.8434786018
 20
445.4996547034
 11
420.8434786018
 21
446.4996547034
  0
LINE
  5
3E6
100
AcDbEntity
  8
0
100
AcDbLine
 62
7
  6
CONTINUOUS
 10
427.3607512376
 20
449.6635463826
 11
427.2661283326
 21
449.4996547034
  0
LINE
  5
3E7
100
AcDbEntity
  8
0
100
AcDbLine
 62
7
  6
CONTINUOUS
 10
428.4415086959
 20
449.4996547034
 11
428.6597893433
 21
449.8777277971
  0
LINE
  5
3E8
100
AcDbEntity
  8
0
100
AcDbLine
 62
7
  6
CONTINUOUS
 10
425.8434786018
 20
445.4996547034
 11
426.8434786018
 21
446.4996547034
  0
LINE
  5
3E9
100
AcDbEntity
  8
0
100
AcDbLine
 62
7
  6
CONTINUOUS
 10
481.2215516954
 20
446.8867617718
 11
480.8434786018
 21
446.6684811694
  0
LINE
  5
3EA
100
AcDbEntity
  8
0
100
AcDbLine
 62
7
  6
CONTINUOUS
 10
480.8434786018
 20
445.493100761
 11
481.0073702809
 21
445.5877236661
  0
LINE
  5
3EB
100
AcDbEntity
  8
0
100
AcDbLine
 62
7
  6
CONTINUOUS
 10
520.8098910963
 20
441.5846908709
 11
520.126883402
 21
441.3260118068
  0
LINE
  5
3EC
100
AcDbEntity
  8
0
100
AcDbLine
 62
7
  6
CONTINUOUS
 10
520.7476696096
 20
440.3116984549
 11
521.430694922
 21
440.5703487237
  0
LINE
  5
3ED
100
AcDbEntity
  8
0
100
AcDbLine
 62
7
  6
CONTINUOUS
 10
480.8434786018
 20
442.4724208911
 11
481.2215516954
 21
442.2541402886
  0
LINE
  5
3EE
100
AcDbEntity
  8
0
100
AcDbLine
 62
7
  6
CONTINUOUS
 10
481.0073702809
 20
443.5531783943
 11
480.8434786018
 21
443.6478012994
  0
LINE
  5
3EF
100
AcDbEntity
  8
0
100
AcDbLine
 62
7
  6
CONTINUOUS
 10
420.126883402
 20
441.3260118068
 11
420.7477167147
 21
440.3117322217
  0
LINE
  5
3F0
100
AcDbEntity
  8
0
100
AcDbLine
 62
7
  6
CONTINUOUS
 10
421.4307316796
 20
440.5703728933
 11
420.8098910963
 21
441.5846908709
  0
LINE
  5
3F1
100
AcDbEntity
  8
0
100
AcDbLine
 62
7
  6
CONTINUOUS
 10
427.7077209862
 20
439.1996547034
 11
427.8023438912
 21
439.0357630242
  0
LINE
  5
3F2
100
AcDbEntity
  8
0
100
AcDbLine
 62
7
  6
CONTINUOUS
 10
417.8434786018
 20
459.0996547034
 11
417.8434786018
 21
456.4996547034
  0
LINE
  5
3F3
100
AcDbEntity
  8
0
100
AcDbLine
 62
7
  6
CONTINUOUS
 10
417.8434786018
 20
448.4996547034
 11
417.8434786018
 21
449.4996547034
  0
LINE
  5
3F4
100
AcDbEntity
  8
0
100
AcDbLine
 62
7
  6
CONTINUOUS
 10
419.8434786018
 20
449.4996547034
 11
419.8434786018
 21
448.4996547034
  0
LINE
  5
3F5
100
AcDbEntity
  8
0
100
AcDbLine
 62
7
  6
CONTINUOUS
 10
419.8434786018
 20
439.1996547034
 11
419.8434786018
 21
440.1996547034
  0
LINE
  5
3F6
100
AcDbEntity
  8
0
100
AcDbLine
 62
7
  6
CONTINUOUS
 10
419.8434786018
 20
449.5496547034
 11
419.8434786018
 21
451.2996547034
  0
LINE
  5
3F7
100
AcDbEntity
  8
0
100
AcDbLine
 62
7
  6
CONTINUOUS
 10
420.6434786018
 20
445.4996547034
 11
420.6434786018
 21
455.4996547034
  0
LINE
  5
3F8
100
AcDbEntity
  8
0
100
AcDbLine
 62
7
  6
CONTINUOUS
 10
420.8434786018
 20
455.4996547034
 11
420.8434786018
 21
451.2996547034
  0
LINE
  5
3F9
100
AcDbEntity
  8
0
100
AcDbLine
 62
7
  6
CONTINUOUS
 10
420.8434786018
 20
451.2996547034
 11
420.8434786018
 21
448.4996547034
  0
LINE
  5
3FA
100
AcDbEntity
  8
0
100
AcDbLine
 62
7
  6
CONTINUOUS
 10
420.8434786018
 20
448.4996547034
 11
420.8434786018
 21
446.4996547034
  0
LINE
  5
3FB
100
AcDbEntity
  8
0
100
AcDbLine
 62
7
  6
CONTINUOUS
 10
422.6177522965
 20
440.1996546791
 11
422.6177522917
 21
439.1996547298
  0
LINE
  5
3FC
100
AcDbEntity
  8
0
100
AcDbLine
 62
7
  6
CONTINUOUS
 10
423.5505853829
 20
439.1996547034
 11
423.5505853829
 21
440.1996547034
  0
LINE
  5
3FD
100
AcDbEntity
  8
0
100
AcDbLine
 62
7
  6
CONTINUOUS
 10
424.2576921641
 20
440.1996547034
 11
424.2576921641
 21
439.1996547034
  0
LINE
  5
3FE
100
AcDbEntity
  8
0
100
AcDbLine
 62
7
  6
CONTINUOUS
 10
426.8434786018
 20
455.4996547034
 11
426.8434786018
 21
451.2996547034
  0
LINE
  5
3FF
100
AcDbEntity
  8
0
100
AcDbLine
 62
7
  6
CONTINUOUS
 10
426.8434786018
 20
451.2996547034
 11
426.8434786018
 21
448.4996547034
  0
LINE
  5
400
100
AcDbEntity
  8
0
100
AcDbLine
 62
7
  6
CONTINUOUS
 10
426.8434786018
 20
448.4996547034
 11
426.8434786018
 21
446.4996547034
  0
LINE
  5
401
100
AcDbEntity
  8
0
100
AcDbLine
 62
7
  6
CONTINUOUS
 10
427.0434786018
 20
445.4996547034
 11
427.0434786018
 21
455.4996547034
  0
LINE
  5
402
100
AcDbEntity
  8
0
100
AcDbLine
 62
7
  6
CONTINUOUS
 10
427.8434786018
 20
450.1552294719
 11
427.8434786018
 21
451.2996547034
  0
LINE
  5
403
100
AcDbEntity
  8
0
100
AcDbLine
 62
7
  6
CONTINUOUS
 10
428.6597893433
 20
450.4135463826
 11
428.6597893433
 21
449.8777277971
  0
LINE
  5
404
100
AcDbEntity
  8
0
100
AcDbLine
 62
7
  6
CONTINUOUS
 10
428.8434786018
 20
449.4996547034
 11
428.8434786018
 21
450.4135463826
  0
LINE
  5
405
100
AcDbEntity
  8
0
100
AcDbLine
 62
7
  6
CONTINUOUS
 10
428.8434677023
 20
438.7513934079
 11
428.8434783703
 21
439.1996546972
  0
LINE
  5
406
100
AcDbEntity
  8
0
100
AcDbLine
 62
7
  6
CONTINUOUS
 10
429.8434786018
 20
459.0996547034
 11
429.8434786018
 21
456.4996547034
  0
LINE
  5
407
100
AcDbEntity
  8
0
100
AcDbLine
 62
7
  6
CONTINUOUS
 10
429.8434786018
 20
441.1996547034
 11
429.8434786018
 21
447.4996547034
  0
LINE
  5
408
100
AcDbEntity
  8
0
100
AcDbLine
 62
7
  6
CONTINUOUS
 10
430.8434786018
 20
441.1996547034
 11
430.8434786018
 21
447.4996547034
  0
LINE
  5
409
100
AcDbEntity
  8
0
100
AcDbLine
 62
7
  6
CONTINUOUS
 10
419.8902589555
 20
440.3116394412
 11
420.126883402
 21
441.3260118068
  0
LINE
  5
40A
100
AcDbEntity
  8
0
100
AcDbLine
 62
7
  6
CONTINUOUS
 10
421.8025145119
 20
440.2901844278
 11
421.3967750382
 21
439.4711837491
  0
LINE
  5
40B
100
AcDbEntity
  8
0
100
AcDbLine
 62
7
  6
CONTINUOUS
 10
531.2215516954
 20
446.8867617718
 11
530.8434786018
 21
446.6684811694
  0
LINE
  5
40C
100
AcDbEntity
  8
0
100
AcDbLine
 62
7
  6
CONTINUOUS
 10
530.8434786018
 20
445.493100761
 11
531.0073702809
 21
445.5877236661
  0
LINE
  5
40D
100
AcDbEntity
  8
0
100
AcDbLine
 62
7
  6
CONTINUOUS
 10
570.8098910963
 20
441.5846908709
 11
570.126883402
 21
441.3260118068
  0
LINE
  5
40E
100
AcDbEntity
  8
0
100
AcDbLine
 62
7
  6
CONTINUOUS
 10
570.7476696096
 20
440.3116984549
 11
571.430694922
 21
440.5703487237
  0
LINE
  5
40F
100
AcDbEntity
  8
0
100
AcDbLine
 62
7
  6
CONTINUOUS
 10
530.8434786018
 20
442.4724208911
 11
531.2215516954
 21
442.2541402886
  0
LINE
  5
410
100
AcDbEntity
  8
0
100
AcDbLine
 62
7
  6
CONTINUOUS
 10
531.0073702809
 20
443.5531783943
 11
530.8434786018
 21
443.6478012994
  0
LINE
  5
411
100
AcDbEntity
  8
0
100
AcDbLine
 62
7
  6
CONTINUOUS
 10
471.8434786018
 20
445.4996547034
 11
470.8434786018
 21
446.4996547034
  0
LINE
  5
412
100
AcDbEntity
  8
0
100
AcDbLine
 62
7
  6
CONTINUOUS
 10
431.2215516954
 20
441.1996547034
 11
431.2215516954
 21
442.2541402886
  0
LINE
  5
413
100
AcDbEntity
  8
0
100
AcDbLine
 62
7
  6
CONTINUOUS
 10
431.2215516954
 20
446.8867617718
 11
431.2215516954
 21
447.4996547034
  0
LINE
  5
414
100
AcDbEntity
  8
0
100
AcDbLine
 62
7
  6
CONTINUOUS
 10
431.7573702809
 20
447.4996547034
 11
431.7573702809
 21
446.8867617718
  0
LINE
  5
415
100
AcDbEntity
  8
0
100
AcDbLine
 62
7
  6
CONTINUOUS
 10
431.7573702809
 20
442.2541402886
 11
431.7573702809
 21
441.1996547034
  0
LINE
  5
416
100
AcDbEntity
  8
0
100
AcDbLine
 62
7
  6
CONTINUOUS
 10
475.8434786018
 20
445.4996547034
 11
476.8434786018
 21
446.4996547034
  0
LINE
  5
417
100
AcDbEntity
  8
0
100
AcDbLine
 62
7
  6
CONTINUOUS
 10
470.126883402
 20
441.3260118068
 11
470.7477167147
 21
440.3117322217
  0
LINE
  5
418
100
AcDbEntity
  8
0
100
AcDbLine
 62
7
  6
CONTINUOUS
 10
471.4307316796
 20
440.5703728933
 11
470.8098910963
 21
441.5846908709
  0
LINE
  5
419
100
AcDbEntity
  8
0
100
AcDbLine
 62
7
  6
CONTINUOUS
 10
471.8025145119
 20
440.2901844278
 11
471.3967750382
 21
439.4711837491
  0
LINE
  5
41A
100
AcDbEntity
  8
0
100
AcDbLine
 62
7
  6
CONTINUOUS
 10
477.3607512376
 20
449.6635463826
 11
477.2661283326
 21
449.4996547034
  0
LINE
  5
41B
100
AcDbEntity
  8
0
100
AcDbLine
 62
7
  6
CONTINUOUS
 10
478.4415086959
 20
449.4996547034
 11
478.6597893433
 21
449.8777277971
  0
LINE
  5
41C
100
AcDbEntity
  8
0
100
AcDbLine
 62
7
  6
CONTINUOUS
 10
581.2215516954
 20
446.8867617718
 11
580.8434786018
 21
446.6684811694
  0
LINE
  5
41D
100
AcDbEntity
  8
0
100
AcDbLine
 62
7
  6
CONTINUOUS
 10
580.8434786018
 20
445.493100761
 11
581.0073702809
 21
445.5877236661
  0
LINE
  5
41E
100
AcDbEntity
  8
0
100
AcDbLine
 62
7
  6
CONTINUOUS
 10
580.8434786018
 20
442.4724208911
 11
581.2215516954
 21
442.2541402886
  0
LINE
  5
41F
100
AcDbEntity
  8
0
100
AcDbLine
 62
7
  6
CONTINUOUS
 10
581.0073702809
 20
443.5531783943
 11
580.8434786018
 21
443.6478012994
  0
LINE
  5
420
100
AcDbEntity
  8
0
100
AcDbLine
 62
7
  6
CONTINUOUS
 10
521.8434786018
 20
445.4996547034
 11
520.8434786018
 21
446.4996547034
  0
LINE
  5
421
100
AcDbEntity
  8
0
100
AcDbLine
 62
7
  6
CONTINUOUS
 10
477.7077209862
 20
439.1996547034
 11
477.8023438912
 21
439.0357630242
  0
LINE
  5
422
100
AcDbEntity
  8
0
100
AcDbLine
 62
7
  6
CONTINUOUS
 10
467.8434786018
 20
459.0996547034
 11
467.8434786018
 21
456.4996547034
  0
LINE
  5
423
100
AcDbEntity
  8
0
100
AcDbLine
 62
7
  6
CONTINUOUS
 10
467.8434786018
 20
448.4996547034
 11
467.8434786018
 21
449.4996547034
  0
LINE
  5
424
100
AcDbEntity
  8
0
100
AcDbLine
 62
7
  6
CONTINUOUS
 10
469.8434786018
 20
449.4996547034
 11
469.8434786018
 21
448.4996547034
  0
LINE
  5
425
100
AcDbEntity
  8
0
100
AcDbLine
 62
7
  6
CONTINUOUS
 10
469.8434786018
 20
439.1996547034
 11
469.8434786018
 21
440.1996547034
  0
LINE
  5
426
100
AcDbEntity
  8
0
100
AcDbLine
 62
7
  6
CONTINUOUS
 10
469.8434786018
 20
449.5496547034
 11
469.8434786018
 21
451.2996547034
  0
LINE
  5
427
100
AcDbEntity
  8
0
100
AcDbLine
 62
7
  6
CONTINUOUS
 10
470.6434786018
 20
445.4996547034
 11
470.6434786018
 21
455.4996547034
  0
LINE
  5
428
100
AcDbEntity
  8
0
100
AcDbLine
 62
7
  6
CONTINUOUS
 10
470.8434786018
 20
455.4996547034
 11
470.8434786018
 21
451.2996547034
  0
LINE
  5
429
100
AcDbEntity
  8
0
100
AcDbLine
 62
7
  6
CONTINUOUS
 10
470.8434786018
 20
451.2996547034
 11
470.8434786018
 21
448.4996547034
  0
LINE
  5
42A
100
AcDbEntity
  8
0
100
AcDbLine
 62
7
  6
CONTINUOUS
 10
470.8434786018
 20
448.4996547034
 11
470.8434786018
 21
446.4996547034
  0
LINE
  5
42B
100
AcDbEntity
  8
0
100
AcDbLine
 62
7
  6
CONTINUOUS
 10
472.6177522965
 20
440.1996546791
 11
472.6177522917
 21
439.1996547298
  0
LINE
  5
42C
100
AcDbEntity
  8
0
100
AcDbLine
 62
7
  6
CONTINUOUS
 10
473.5505853829
 20
439.1996547034
 11
473.5505853829
 21
440.1996547034
  0
LINE
  5
42D
100
AcDbEntity
  8
0
100
AcDbLine
 62
7
  6
CONTINUOUS
 10
474.2576921641
 20
440.1996547034
 11
474.2576921641
 21
439.1996547034
  0
LINE
  5
42E
100
AcDbEntity
  8
0
100
AcDbLine
 62
7
  6
CONTINUOUS
 10
476.8434786018
 20
455.4996547034
 11
476.8434786018
 21
451.2996547034
  0
LINE
  5
42F
100
AcDbEntity
  8
0
100
AcDbLine
 62
7
  6
CONTINUOUS
 10
476.8434786018
 20
451.2996547034
 11
476.8434786018
 21
448.4996547034
  0
LINE
  5
430
100
AcDbEntity
  8
0
100
AcDbLine
 62
7
  6
CONTINUOUS
 10
476.8434786018
 20
448.4996547034
 11
476.8434786018
 21
446.4996547034
  0
LINE
  5
431
100
AcDbEntity
  8
0
100
AcDbLine
 62
7
  6
CONTINUOUS
 10
477.0434786018
 20
445.4996547034
 11
477.0434786018
 21
455.4996547034
  0
LINE
  5
432
100
AcDbEntity
  8
0
100
AcDbLine
 62
7
  6
CONTINUOUS
 10
477.8434786018
 20
450.1552294719
 11
477.8434786018
 21
451.2996547034
  0
LINE
  5
433
100
AcDbEntity
  8
0
100
AcDbLine
 62
7
  6
CONTINUOUS
 10
478.6597893433
 20
450.4135463826
 11
478.6597893433
 21
449.8777277971
  0
LINE
  5
434
100
AcDbEntity
  8
0
100
AcDbLine
 62
7
  6
CONTINUOUS
 10
478.8434786018
 20
449.4996547034
 11
478.8434786018
 21
450.4135463826
  0
LINE
  5
435
100
AcDbEntity
  8
0
100
AcDbLine
 62
7
  6
CONTINUOUS
 10
478.8434677023
 20
438.7513934079
 11
478.8434783703
 21
439.1996546972
  0
LINE
  5
436
100
AcDbEntity
  8
0
100
AcDbLine
 62
7
  6
CONTINUOUS
 10
479.8434786018
 20
459.0996547034
 11
479.8434786018
 21
456.4996547034
  0
LINE
  5
437
100
AcDbEntity
  8
0
100
AcDbLine
 62
7
  6
CONTINUOUS
 10
479.8434786018
 20
441.1996547034
 11
479.8434786018
 21
447.4996547034
  0
LINE
  5
438
100
AcDbEntity
  8
0
100
AcDbLine
 62
7
  6
CONTINUOUS
 10
480.8434786018
 20
441.1996547034
 11
480.8434786018
 21
447.4996547034
  0
LINE
  5
439
100
AcDbEntity
  8
0
100
AcDbLine
 62
7
  6
CONTINUOUS
 10
481.2215516954
 20
441.1996547034
 11
481.2215516954
 21
442.2541402886
  0
LINE
  5
43A
100
AcDbEntity
  8
0
100
AcDbLine
 62
7
  6
CONTINUOUS
 10
481.2215516954
 20
446.8867617718
 11
481.2215516954
 21
447.4996547034
  0
LINE
  5
43B
100
AcDbEntity
  8
0
100
AcDbLine
 62
7
  6
CONTINUOUS
 10
481.7573702809
 20
447.4996547034
 11
481.7573702809
 21
446.8867617718
  0
LINE
  5
43C
100
AcDbEntity
  8
0
100
AcDbLine
 62
7
  6
CONTINUOUS
 10
481.7573702809
 20
442.2541402886
 11
481.7573702809
 21
441.1996547034
  0
LINE
  5
43D
100
AcDbEntity
  8
0
100
AcDbLine
 62
7
  6
CONTINUOUS
 10
469.8902589555
 20
440.3116394412
 11
470.126883402
 21
441.3260118068
  0
LINE
  5
43E
100
AcDbEntity
  8
0
100
AcDbLine
 62
7
  6
CONTINUOUS
 10
525.8434786018
 20
445.4996547034
 11
526.8434786018
 21
446.4996547034
  0
LINE
  5
43F
100
AcDbEntity
  8
0
100
AcDbLine
 62
7
  6
CONTINUOUS
 10
571.8434786018
 20
445.4996547034
 11
570.8434786018
 21
446.4996547034
  0
LINE
  5
440
100
AcDbEntity
  8
0
100
AcDbLine
 62
7
  6
CONTINUOUS
 10
520.126883402
 20
441.3260118068
 11
520.7477167147
 21
440.3117322217
  0
LINE
  5
441
100
AcDbEntity
  8
0
100
AcDbLine
 62
7
  6
CONTINUOUS
 10
521.4307316796
 20
440.5703728933
 11
520.8098910963
 21
441.5846908709
  0
LINE
  5
442
100
AcDbEntity
  8
0
100
AcDbLine
 62
7
  6
CONTINUOUS
 10
527.7077209862
 20
439.1996547034
 11
527.8023438912
 21
439.0357630242
  0
LINE
  5
443
100
AcDbEntity
  8
0
100
AcDbLine
 62
7
  6
CONTINUOUS
 10
500.8434786018
 20
446.9996547034
 11
500.8434786018
 21
433.9996547034
  0
LINE
  5
444
100
AcDbEntity
  8
0
100
AcDbLine
 62
7
  6
CONTINUOUS
 10
502.3434786018
 20
446.9996547034
 11
502.3434786018
 21
433.9996547034
  0
LINE
  5
445
100
AcDbEntity
  8
0
100
AcDbLine
 62
7
  6
CONTINUOUS
 10
503.3434786018
 20
447.9996547034
 11
503.3434786018
 21
449.4996547034
  0
LINE
  5
446
100
AcDbEntity
  8
0
100
AcDbLine
 62
7
  6
CONTINUOUS
 10
503.8434786018
 20
447.9996547034
 11
503.8434786018
 21
449.4996547034
  0
LINE
  5
447
100
AcDbEntity
  8
0
100
AcDbLine
 62
7
  6
CONTINUOUS
 10
504.8434786018
 20
447.9996547034
 11
504.8434786018
 21
449.4996547034
  0
LINE
  5
448
100
AcDbEntity
  8
0
100
AcDbLine
 62
7
  6
CONTINUOUS
 10
521.8025145119
 20
440.2901844278
 11
521.3967750382
 21
439.4711837491
  0
LINE
  5
449
100
AcDbEntity
  8
0
100
AcDbLine
 62
7
  6
CONTINUOUS
 10
527.3607512376
 20
449.6635463826
 11
527.2661283326
 21
449.4996547034
  0
LINE
  5
44A
100
AcDbEntity
  8
0
100
AcDbLine
 62
7
  6
CONTINUOUS
 10
528.4415086959
 20
449.4996547034
 11
528.6597893433
 21
449.8777277971
  0
LINE
  5
44B
100
AcDbEntity
  8
0
100
AcDbLine
 62
7
  6
CONTINUOUS
 10
575.8434786018
 20
445.4996547034
 11
576.8434786018
 21
446.4996547034
  0
LINE
  5
44C
100
AcDbEntity
  8
0
100
AcDbLine
 62
7
  6
CONTINUOUS
 10
517.8434786018
 20
459.0996547034
 11
517.8434786018
 21
456.4996547034
  0
LINE
  5
44D
100
AcDbEntity
  8
0
100
AcDbLine
 62
7
  6
CONTINUOUS
 10
517.8434786018
 20
448.4996547034
 11
517.8434786018
 21
449.4996547034
  0
LINE
  5
44E
100
AcDbEntity
  8
0
100
AcDbLine
 62
7
  6
CONTINUOUS
 10
519.8434786018
 20
449.4996547034
 11
519.8434786018
 21
448.4996547034
  0
LINE
  5
44F
100
AcDbEntity
  8
0
100
AcDbLine
 62
7
  6
CONTINUOUS
 10
519.8434786018
 20
439.1996547034
 11
519.8434786018
 21
440.1996547034
  0
LINE
  5
450
100
AcDbEntity
  8
0
100
AcDbLine
 62
7
  6
CONTINUOUS
 10
519.8434786018
 20
449.5496547034
 11
519.8434786018
 21
451.2996547034
  0
LINE
  5
451
100
AcDbEntity
  8
0
100
AcDbLine
 62
7
  6
CONTINUOUS
 10
520.6434786018
 20
445.4996547034
 11
520.6434786018
 21
455.4996547034
  0
LINE
  5
452
100
AcDbEntity
  8
0
100
AcDbLine
 62
7
  6
CONTINUOUS
 10
520.8434786018
 20
455.4996547034
 11
520.8434786018
 21
451.2996547034
  0
LINE
  5
453
100
AcDbEntity
  8
0
100
AcDbLine
 62
7
  6
CONTINUOUS
 10
520.8434786018
 20
451.2996547034
 11
520.8434786018
 21
448.4996547034
  0
LINE
  5
454
100
AcDbEntity
  8
0
100
AcDbLine
 62
7
  6
CONTINUOUS
 10
520.8434786018
 20
448.4996547034
 11
520.8434786018
 21
446.4996547034
  0
LINE
  5
455
100
AcDbEntity
  8
0
100
AcDbLine
 62
7
  6
CONTINUOUS
 10
522.6177522965
 20
440.1996546791
 11
522.6177522917
 21
439.1996547298
  0
LINE
  5
456
100
AcDbEntity
  8
0
100
AcDbLine
 62
7
  6
CONTINUOUS
 10
523.5505853829
 20
439.1996547034
 11
523.5505853829
 21
440.1996547034
  0
LINE
  5
457
100
AcDbEntity
  8
0
100
AcDbLine
 62
7
  6
CONTINUOUS
 10
524.2576921641
 20
440.1996547034
 11
524.2576921641
 21
439.1996547034
  0
LINE
  5
458
100
AcDbEntity
  8
0
100
AcDbLine
 62
7
  6
CONTINUOUS
 10
526.8434786018
 20
455.4996547034
 11
526.8434786018
 21
451.2996547034
  0
LINE
  5
459
100
AcDbEntity
  8
0
100
AcDbLine
 62
7
  6
CONTINUOUS
 10
526.8434786018
 20
451.2996547034
 11
526.8434786018
 21
448.4996547034
  0
LINE
  5
45A
100
AcDbEntity
  8
0
100
AcDbLine
 62
7
  6
CONTINUOUS
 10
526.8434786018
 20
448.4996547034
 11
526.8434786018
 21
446.4996547034
  0
LINE
  5
45B
100
AcDbEntity
  8
0
100
AcDbLine
 62
7
  6
CONTINUOUS
 10
527.0434786018
 20
445.4996547034
 11
527.0434786018
 21
455.4996547034
  0
LINE
  5
45C
100
AcDbEntity
  8
0
100
AcDbLine
 62
7
  6
CONTINUOUS
 10
527.8434786018
 20
450.1552294719
 11
527.8434786018
 21
451.2996547034
  0
LINE
  5
45D
100
AcDbEntity
  8
0
100
AcDbLine
 62
7
  6
CONTINUOUS
 10
528.6597893433
 20
450.4135463826
 11
528.6597893433
 21
449.8777277971
  0
LINE
  5
45E
100
AcDbEntity
  8
0
100
AcDbLine
 62
7
  6
CONTINUOUS
 10
528.8434786018
 20
449.4996547034
 11
528.8434786018
 21
450.4135463826
  0
LINE
  5
45F
100
AcDbEntity
  8
0
100
AcDbLine
 62
7
  6
CONTINUOUS
 10
528.8434677023
 20
438.7513934079
 11
528.8434783703
 21
439.1996546972
  0
LINE
  5
460
100
AcDbEntity
  8
0
100
AcDbLine
 62
7
  6
CONTINUOUS
 10
529.8434786018
 20
459.0996547034
 11
529.8434786018
 21
456.4996547034
  0
LINE
  5
461
100
AcDbEntity
  8
0
100
AcDbLine
 62
7
  6
CONTINUOUS
 10
529.8434786018
 20
441.1996547034
 11
529.8434786018
 21
447.4996547034
  0
LINE
  5
462
100
AcDbEntity
  8
0
100
AcDbLine
 62
7
  6
CONTINUOUS
 10
530.8434786018
 20
441.1996547034
 11
530.8434786018
 21
447.4996547034
  0
LINE
  5
463
100
AcDbEntity
  8
0
100
AcDbLine
 62
7
  6
CONTINUOUS
 10
531.2215516954
 20
441.1996547034
 11
531.2215516954
 21
442.2541402886
  0
LINE
  5
464
100
AcDbEntity
  8
0
100
AcDbLine
 62
7
  6
CONTINUOUS
 10
531.2215516954
 20
446.8867617718
 11
531.2215516954
 21
447.4996547034
  0
LINE
  5
465
100
AcDbEntity
  8
0
100
AcDbLine
 62
7
  6
CONTINUOUS
 10
531.7573702809
 20
447.4996547034
 11
531.7573702809
 21
446.8867617718
  0
LINE
  5
466
100
AcDbEntity
  8
0
100
AcDbLine
 62
7
  6
CONTINUOUS
 10
531.7573702809
 20
442.2541402886
 11
531.7573702809
 21
441.1996547034
  0
LINE
  5
467
100
AcDbEntity
  8
0
100
AcDbLine
 62
7
  6
CONTINUOUS
 10
519.8902589555
 20
440.3116394412
 11
520.126883402
 21
441.3260118068
  0
LINE
  5
468
100
AcDbEntity
  8
0
100
AcDbLine
 62
7
  6
CONTINUOUS
 10
570.126883402
 20
441.3260118068
 11
570.7477167147
 21
440.3117322217
  0
LINE
  5
469
100
AcDbEntity
  8
0
100
AcDbLine
 62
7
  6
CONTINUOUS
 10
571.4307316796
 20
440.5703728933
 11
570.8098910963
 21
441.5846908709
  0
LINE
  5
46A
100
AcDbEntity
  8
0
100
AcDbLine
 62
7
  6
CONTINUOUS
 10
534.8434786018
 20
449.4996547034
 11
534.8434786018
 21
450.9996547034
  0
LINE
  5
46B
100
AcDbEntity
  8
0
100
AcDbLine
 62
7
  6
CONTINUOUS
 10
549.3434786018
 20
449.4996547034
 11
549.3434786018
 21
449.6996547034
  0
LINE
  5
46C
100
AcDbEntity
  8
0
100
AcDbLine
 62
7
  6
CONTINUOUS
 10
550.5622692347
 20
446.2815141973
 11
550.6768119351
 21
447.9996547034
  0
LINE
  5
46D
100
AcDbEntity
  8
0
100
AcDbLine
 62
7
  6
CONTINUOUS
 10
571.8025145119
 20
440.2901844278
 11
571.3967750382
 21
439.4711837491
  0
LINE
  5
46E
100
AcDbEntity
  8
0
100
AcDbLine
 62
7
  6
CONTINUOUS
 10
577.3607512376
 20
449.6635463826
 11
577.2661283326
 21
449.4996547034
  0
LINE
  5
46F
100
AcDbEntity
  8
0
100
AcDbLine
 62
7
  6
CONTINUOUS
 10
578.4415086959
 20
449.4996547034
 11
578.6597893433
 21
449.8777277971
  0
LINE
  5
470
100
AcDbEntity
  8
0
100
AcDbLine
 62
7
  6
CONTINUOUS
 10
577.7077209862
 20
439.1996547034
 11
577.8023438912
 21
439.0357630242
  0
LINE
  5
471
100
AcDbEntity
  8
0
100
AcDbLine
 62
7
  6
CONTINUOUS
 10
551.0434786018
 20
443.6996547034
 11
550.603486822
 21
445.7236168901
  0
LINE
  5
472
100
AcDbEntity
  8
0
100
AcDbLine
 62
7
  6
CONTINUOUS
 10
561.1246879688
 20
446.2815141973
 11
561.0101452684
 21
447.9996547034
  0
LINE
  5
473
100
AcDbEntity
  8
0
100
AcDbLine
 62
7
  6
CONTINUOUS
 10
562.3434786018
 20
449.4996547034
 11
562.3434786018
 21
449.6996547034
  0
LINE
  5
474
100
AcDbEntity
  8
0
100
AcDbLine
 62
7
  6
CONTINUOUS
 10
567.8434786018
 20
459.0996547034
 11
567.8434786018
 21
456.4996547034
  0
LINE
  5
475
100
AcDbEntity
  8
0
100
AcDbLine
 62
7
  6
CONTINUOUS
 10
567.8434786018
 20
448.4996547034
 11
567.8434786018
 21
449.4996547034
  0
LINE
  5
476
100
AcDbEntity
  8
0
100
AcDbLine
 62
7
  6
CONTINUOUS
 10
569.8434786018
 20
449.4996547034
 11
569.8434786018
 21
448.4996547034
  0
LINE
  5
477
100
AcDbEntity
  8
0
100
AcDbLine
 62
7
  6
CONTINUOUS
 10
569.8434786018
 20
439.1996547034
 11
569.8434786018
 21
440.1996547034
  0
LINE
  5
478
100
AcDbEntity
  8
0
100
AcDbLine
 62
7
  6
CONTINUOUS
 10
569.8434786018
 20
449.5496547034
 11
569.8434786018
 21
451.2996547034
  0
LINE
  5
479
100
AcDbEntity
  8
0
100
AcDbLine
 62
7
  6
CONTINUOUS
 10
570.6434786018
 20
445.4996547034
 11
570.6434786018
 21
455.4996547034
  0
LINE
  5
47A
100
AcDbEntity
  8
0
100
AcDbLine
 62
7
  6
CONTINUOUS
 10
570.8434786018
 20
455.4996547034
 11
570.8434786018
 21
451.2996547034
  0
LINE
  5
47B
100
AcDbEntity
  8
0
100
AcDbLine
 62
7
  6
CONTINUOUS
 10
570.8434786018
 20
451.2996547034
 11
570.8434786018
 21
448.4996547034
  0
LINE
  5
47C
100
AcDbEntity
  8
0
100
AcDbLine
 62
7
  6
CONTINUOUS
 10
570.8434786018
 20
448.4996547034
 11
570.8434786018
 21
446.4996547034
  0
LINE
  5
47D
100
AcDbEntity
  8
0
100
AcDbLine
 62
7
  6
CONTINUOUS
 10
572.6177522965
 20
440.1996546791
 11
572.6177522917
 21
439.1996547298
  0
LINE
  5
47E
100
AcDbEntity
  8
0
100
AcDbLine
 62
7
  6
CONTINUOUS
 10
573.5505853829
 20
439.1996547034
 11
573.5505853829
 21
440.1996547034
  0
LINE
  5
47F
100
AcDbEntity
  8
0
100
AcDbLine
 62
7
  6
CONTINUOUS
 10
574.2576921641
 20
440.1996547034
 11
574.2576921641
 21
439.1996547034
  0
LINE
  5
480
100
AcDbEntity
  8
0
100
AcDbLine
 62
7
  6
CONTINUOUS
 10
576.8434786018
 20
455.4996547034
 11
576.8434786018
 21
451.2996547034
  0
LINE
  5
481
100
AcDbEntity
  8
0
100
AcDbLine
 62
7
  6
CONTINUOUS
 10
576.8434786018
 20
451.2996547034
 11
576.8434786018
 21
448.4996547034
  0
LINE
  5
482
100
AcDbEntity
  8
0
100
AcDbLine
 62
7
  6
CONTINUOUS
 10
576.8434786018
 20
448.4996547034
 11
576.8434786018
 21
446.4996547034
  0
LINE
  5
483
100
AcDbEntity
  8
0
100
AcDbLine
 62
7
  6
CONTINUOUS
 10
577.0434786018
 20
445.4996547034
 11
577.0434786018
 21
455.4996547034
  0
LINE
  5
484
100
AcDbEntity
  8
0
100
AcDbLine
 62
7
  6
CONTINUOUS
 10
577.8434786018
 20
447.9996547034
 11
577.8434786018
 21
448.4996547034
  0
LINE
  5
485
100
AcDbEntity
  8
0
100
AcDbLine
 62
7
  6
CONTINUOUS
 10
577.8434786018
 20
450.1552294719
 11
577.8434786018
 21
451.2996547034
  0
LINE
  5
486
100
AcDbEntity
  8
0
100
AcDbLine
 62
7
  6
CONTINUOUS
 10
578.3434786018
 20
448.4996547034
 11
578.3434786018
 21
447.9996547034
  0
LINE
  5
487
100
AcDbEntity
  8
0
100
AcDbLine
 62
7
  6
CONTINUOUS
 10
578.6597893433
 20
450.4135463826
 11
578.6597893433
 21
449.8777277971
  0
LINE
  5
488
100
AcDbEntity
  8
0
100
AcDbLine
 62
7
  6
CONTINUOUS
 10
578.8434786018
 20
449.4996547034
 11
578.8434786018
 21
450.4135463826
  0
LINE
  5
489
100
AcDbEntity
  8
0
100
AcDbLine
 62
7
  6
CONTINUOUS
 10
578.8434677023
 20
438.7513934079
 11
578.8434783703
 21
439.1996546972
  0
LINE
  5
48A
100
AcDbEntity
  8
0
100
AcDbLine
 62
7
  6
CONTINUOUS
 10
579.3434786018
 20
433.9996547034
 11
579.3434786018
 21
438.3415717663
  0
LINE
  5
48B
100
AcDbEntity
  8
0
100
AcDbLine
 62
7
  6
CONTINUOUS
 10
579.3434786018
 20
440.3590978425
 11
579.3434786018
 21
446.9996547034
  0
LINE
  5
48C
100
AcDbEntity
  8
0
100
AcDbLine
 62
7
  6
CONTINUOUS
 10
579.8434786018
 20
459.0996547034
 11
579.8434786018
 21
456.4996547034
  0
LINE
  5
48D
100
AcDbEntity
  8
0
100
AcDbLine
 62
7
  6
CONTINUOUS
 10
579.8434786018
 20
441.1996547034
 11
579.8434786018
 21
447.4996547034
  0
LINE
  5
48E
100
AcDbEntity
  8
0
100
AcDbLine
 62
7
  6
CONTINUOUS
 10
580.8434786018
 20
433.9996547034
 11
580.8434786018
 21
439.1332484434
  0
LINE
  5
48F
100
AcDbEntity
  8
0
100
AcDbLine
 62
7
  6
CONTINUOUS
 10
580.8434786018
 20
441.1996547034
 11
580.8434786018
 21
447.4996547034
  0
LINE
  5
490
100
AcDbEntity
  8
0
100
AcDbLine
 62
7
  6
CONTINUOUS
 10
581.2215516954
 20
441.1996547034
 11
581.2215516954
 21
442.2541402886
  0
LINE
  5
491
100
AcDbEntity
  8
0
100
AcDbLine
 62
7
  6
CONTINUOUS
 10
581.2215516954
 20
446.8867617718
 11
581.2215516954
 21
447.4996547034
  0
LINE
  5
492
100
AcDbEntity
  8
0
100
AcDbLine
 62
7
  6
CONTINUOUS
 10
581.7573702809
 20
447.4996547034
 11
581.7573702809
 21
446.8867617718
  0
LINE
  5
493
100
AcDbEntity
  8
0
100
AcDbLine
 62
7
  6
CONTINUOUS
 10
581.7573702809
 20
442.2541402886
 11
581.7573702809
 21
441.1996547034
  0
LINE
  5
494
100
AcDbEntity
  8
0
100
AcDbLine
 62
7
  6
CONTINUOUS
 10
560.6434786018
 20
443.6996547034
 11
561.0834703815
 21
445.7236168901
  0
LINE
  5
495
100
AcDbEntity
  8
0
100
AcDbLine
 62
7
  6
CONTINUOUS
 10
569.8902589555
 20
440.3116394412
 11
570.126883402
 21
441.3260118068
  0
ARC
  5
496
100
AcDbEntity
  8
0
100
AcDbCircle
 62
7
  6
CONTINUOUS
 10
328.8919887939
 20
437.9034078947
 40
108.8072732389
100
AcDbArc
 50
179.1925743897
 51
179.3174054988
  0
ARC
  5
497
100
AcDbEntity
  8
0
100
AcDbCircle
 62
7
  6
CONTINUOUS
 10
95.8434786018
 20
429.0746547034
 40
21.625
100
AcDbArc
 50
72.5076754749
 51
107.4923245251
  0
ARC
  5
498
100
AcDbEntity
  8
0
100
AcDbCircle
 62
7
  6
CONTINUOUS
 10
125.8434786018
 20
429.0746547034
 40
21.625
100
AcDbArc
 50
72.5076754749
 51
107.4923245251
  0
ARC
  5
499
100
AcDbEntity
  8
0
100
AcDbCircle
 62
7
  6
CONTINUOUS
 10
225.8434786018
 20
430.5746547034
 40
21.625
100
AcDbArc
 50
103.4075767406
 51
107.4923245251
  0
ARC
  5
49A
100
AcDbEntity
  8
0
100
AcDbCircle
 62
7
  6
CONTINUOUS
 10
225.8434786018
 20
430.5746547034
 40
21.625
100
AcDbArc
 50
72.5076754749
 51
87.3401663867
  0
ARC
  5
49B
100
AcDbEntity
  8
0
100
AcDbCircle
 62
7
  6
CONTINUOUS
 10
228.8434786018
 20
441.1996547034
 40
2.9138916792
100
AcDbArc
 50
281.1867371668
 51
360.0
  0
ARC
  5
49C
100
AcDbEntity
  8
0
100
AcDbCircle
 62
7
  6
CONTINUOUS
 10
278.8434786018
 20
441.1996547034
 40
2.9138916792
100
AcDbArc
 50
281.1867371668
 51
360.0
  0
ARC
  5
49D
100
AcDbEntity
  8
0
100
AcDbCircle
 62
7
  6
CONTINUOUS
 10
328.8434786018
 20
441.1996547034
 40
2.9138916792
100
AcDbArc
 50
281.1867371668
 51
360.0
  0
ARC
  5
49E
100
AcDbEntity
  8
0
100
AcDbCircle
 62
7
  6
CONTINUOUS
 10
228.8434786018
 20
441.1996547034
 40
2.3780730937
100
AcDbArc
 50
281.2088827356
 51
360.0
  0
ARC
  5
49F
100
AcDbEntity
  8
0
100
AcDbCircle
 62
7
  6
CONTINUOUS
 10
278.8434786018
 20
441.1996547034
 40
2.3780730937
100
AcDbArc
 50
281.2088827356
 51
360.0
  0
ARC
  5
4A0
100
AcDbEntity
  8
0
100
AcDbCircle
 62
7
  6
CONTINUOUS
 10
328.8434786018
 20
441.1996547034
 40
2.3780730937
100
AcDbArc
 50
281.2088827356
 51
360.0
  0
ARC
  5
4A1
100
AcDbEntity
  8
0
100
AcDbCircle
 62
7
  6
CONTINUOUS
 10
228.8434786018
 20
441.1996547034
 40
2.0
100
AcDbArc
 50
270.0
 51
360.0
  0
ARC
  5
4A2
100
AcDbEntity
  8
0
100
AcDbCircle
 62
7
  6
CONTINUOUS
 10
278.8434786018
 20
441.1996547034
 40
2.0
100
AcDbArc
 50
270.0
 51
360.0
  0
ARC
  5
4A3
100
AcDbEntity
  8
0
100
AcDbCircle
 62
7
  6
CONTINUOUS
 10
328.8434786018
 20
441.1996547034
 40
2.0
100
AcDbArc
 50
270.0
 51
360.0
  0
ARC
  5
4A4
100
AcDbEntity
  8
0
100
AcDbCircle
 62
7
  6
CONTINUOUS
 10
228.6362861457
 20
440.5628148939
 40
1.8232200582
100
AcDbArc
 50
276.5249596903
 51
291.5420247002
  0
ARC
  5
4A5
100
AcDbEntity
  8
0
100
AcDbCircle
 62
7
  6
CONTINUOUS
 10
278.6362861457
 20
440.5628148939
 40
1.8232200582
100
AcDbArc
 50
276.5249596903
 51
291.5420247002
  0
ARC
  5
4A6
100
AcDbEntity
  8
0
100
AcDbCircle
 62
7
  6
CONTINUOUS
 10
328.6362861457
 20
440.5628148939
 40
1.8232200582
100
AcDbArc
 50
276.5249596903
 51
291.5420247001
  0
ARC
  5
4A7
100
AcDbEntity
  8
0
100
AcDbCircle
 62
7
  6
CONTINUOUS
 10
230.2573702809
 20
442.2541402886
 40
1.5
100
AcDbArc
 50
0.0
 51
60.0
  0
ARC
  5
4A8
100
AcDbEntity
  8
0
100
AcDbCircle
 62
7
  6
CONTINUOUS
 10
229.1013819969
 20
439.7857630242
 40
1.5
100
AcDbArc
 50
210.0
 51
260.0997611447
  0
ARC
  5
4A9
100
AcDbEntity
  8
0
100
AcDbCircle
 62
7
  6
CONTINUOUS
 10
280.2573702809
 20
442.2541402886
 40
1.5
100
AcDbArc
 50
0.0
 51
60.0
  0
ARC
  5
4AA
100
AcDbEntity
  8
0
100
AcDbCircle
 62
7
  6
CONTINUOUS
 10
279.1013819969
 20
439.7857630242
 40
1.5
100
AcDbArc
 50
210.0
 51
260.0997611447
  0
ARC
  5
4AB
100
AcDbEntity
  8
0
100
AcDbCircle
 62
7
  6
CONTINUOUS
 10
330.2573702809
 20
442.2541402886
 40
1.5
100
AcDbArc
 50
0.0
 51
60.0
  0
ARC
  5
4AC
100
AcDbEntity
  8
0
100
AcDbCircle
 62
7
  6
CONTINUOUS
 10
329.1013819969
 20
439.7857630242
 40
1.5
100
AcDbArc
 50
210.0
 51
260.0997611447
  0
ARC
  5
4AD
100
AcDbEntity
  8
0
100
AcDbCircle
 62
7
  6
CONTINUOUS
 10
228.8434786018
 20
441.1996547034
 40
1.0
100
AcDbArc
 50
270.0
 51
360.0
  0
ARC
  5
4AE
100
AcDbEntity
  8
0
100
AcDbCircle
 62
7
  6
CONTINUOUS
 10
278.8434786018
 20
441.1996547034
 40
1.0
100
AcDbArc
 50
270.0
 51
360.0
  0
ARC
  5
4AF
100
AcDbEntity
  8
0
100
AcDbCircle
 62
7
  6
CONTINUOUS
 10
328.8434786018
 20
441.1996547034
 40
1.0
100
AcDbArc
 50
270.0
 51
360.0
  0
ARC
  5
4B0
100
AcDbEntity
  8
0
100
AcDbCircle
 62
7
  6
CONTINUOUS
 10
148.3434786018
 20
446.9996547034
 40
2.5
100
AcDbArc
 50
0.0
 51
90.0
  0
ARC
  5
4B1
100
AcDbEntity
  8
0
100
AcDbCircle
 62
7
  6
CONTINUOUS
 10
73.3434786018
 20
446.9996547034
 40
2.5
100
AcDbArc
 50
90.0
 51
180.0
  0
ARC
  5
4B2
100
AcDbEntity
  8
0
100
AcDbCircle
 62
7
  6
CONTINUOUS
 10
203.3434786018
 20
448.4996547034
 40
2.5
100
AcDbArc
 50
90.0
 51
180.0
  0
ARC
  5
4B3
100
AcDbEntity
  8
0
100
AcDbCircle
 62
7
  6
CONTINUOUS
 10
92.5578395504
 20
446.1484761764
 40
2.0
100
AcDbArc
 50
176.1859251691
 51
192.2647736568
  0
ARC
  5
4B4
100
AcDbEntity
  8
0
100
AcDbCircle
 62
7
  6
CONTINUOUS
 10
99.1291176531
 20
446.1484761764
 40
2.0
100
AcDbArc
 50
347.7352263432
 51
3.8140748309
  0
ARC
  5
4B5
100
AcDbEntity
  8
0
100
AcDbCircle
 62
7
  6
CONTINUOUS
 10
122.5578395504
 20
446.1484761764
 40
2.0
100
AcDbArc
 50
176.1859251691
 51
192.2647736568
  0
ARC
  5
4B6
100
AcDbEntity
  8
0
100
AcDbCircle
 62
7
  6
CONTINUOUS
 10
129.1291176531
 20
446.1484761764
 40
2.0
100
AcDbArc
 50
347.7352263432
 51
3.8140748309
  0
ARC
  5
4B7
100
AcDbEntity
  8
0
100
AcDbCircle
 62
7
  6
CONTINUOUS
 10
148.3434786018
 20
446.9996547034
 40
1.0
100
AcDbArc
 50
0.0
 51
90.0
  0
ARC
  5
4B8
100
AcDbEntity
  8
0
100
AcDbCircle
 62
7
  6
CONTINUOUS
 10
73.3434786018
 20
446.9996547034
 40
1.0
100
AcDbArc
 50
90.0
 51
180.0
  0
ARC
  5
4B9
100
AcDbEntity
  8
0
100
AcDbCircle
 62
7
  6
CONTINUOUS
 10
203.3434786018
 20
448.4996547034
 40
1.0
100
AcDbArc
 50
90.0
 51
180.0
  0
ARC
  5
4BA
100
AcDbEntity
  8
0
100
AcDbCircle
 62
7
  6
CONTINUOUS
 10
219.7934786018
 20
449.5496547034
 40
0.05
100
AcDbArc
 50
270.0
 51
360.0
  0
ARC
  5
4BB
100
AcDbEntity
  8
0
100
AcDbCircle
 62
7
  6
CONTINUOUS
 10
220.8434786019
 20
455.0996547034
 40
5.0
100
AcDbArc
 50
89.9999078443
 51
126.8697046314
  0
ARC
  5
4BC
100
AcDbEntity
  8
0
100
AcDbCircle
 62
7
  6
CONTINUOUS
 10
218.8434786018
 20
456.4996547034
 40
1.0
100
AcDbArc
 50
180.0
 51
269.9999996079
  0
ARC
  5
4BD
100
AcDbEntity
  8
0
100
AcDbCircle
 62
7
  6
CONTINUOUS
 10
228.8434786018
 20
447.4996547034
 40
2.9138916792
100
AcDbArc
 50
0.0
 51
90.0
  0
ARC
  5
4BE
100
AcDbEntity
  8
0
100
AcDbCircle
 62
7
  6
CONTINUOUS
 10
278.8434786018
 20
447.4996547034
 40
2.9138916792
100
AcDbArc
 50
0.0
 51
90.0
  0
ARC
  5
4BF
100
AcDbEntity
  8
0
100
AcDbCircle
 62
7
  6
CONTINUOUS
 10
328.8434786018
 20
447.4996547034
 40
2.9138916792
100
AcDbArc
 50
0.0
 51
90.0
  0
ARC
  5
4C0
100
AcDbEntity
  8
0
100
AcDbCircle
 62
7
  6
CONTINUOUS
 10
228.8434786018
 20
447.4996547034
 40
2.3780730937
100
AcDbArc
 50
0.0
 51
90.0
  0
ARC
  5
4C1
100
AcDbEntity
  8
0
100
AcDbCircle
 62
7
  6
CONTINUOUS
 10
278.8434786018
 20
447.4996547034
 40
2.3780730937
100
AcDbArc
 50
0.0
 51
90.0
  0
ARC
  5
4C2
100
AcDbEntity
  8
0
100
AcDbCircle
 62
7
  6
CONTINUOUS
 10
328.8434786018
 20
447.4996547034
 40
2.3780730937
100
AcDbArc
 50
0.0
 51
90.0
  0
ARC
  5
4C3
100
AcDbEntity
  8
0
100
AcDbCircle
 62
7
  6
CONTINUOUS
 10
222.5578395504
 20
447.6484761764
 40
2.0
100
AcDbArc
 50
176.1859251691
 51
192.2647736568
  0
ARC
  5
4C4
100
AcDbEntity
  8
0
100
AcDbCircle
 62
7
  6
CONTINUOUS
 10
228.8434786018
 20
447.4996547034
 40
2.0
100
AcDbArc
 50
0.0
 51
90.0
  0
ARC
  5
4C5
100
AcDbEntity
  8
0
100
AcDbCircle
 62
7
  6
CONTINUOUS
 10
278.8434786018
 20
447.4996547034
 40
2.0
100
AcDbArc
 50
0.0
 51
90.0
  0
ARC
  5
4C6
100
AcDbEntity
  8
0
100
AcDbCircle
 62
7
  6
CONTINUOUS
 10
328.8434786018
 20
447.4996547034
 40
2.0
100
AcDbArc
 50
0.0
 51
90.0
  0
ARC
  5
4C7
100
AcDbEntity
  8
0
100
AcDbCircle
 62
7
  6
CONTINUOUS
 10
228.6597893433
 20
448.9135463826
 40
1.5
100
AcDbArc
 50
90.0
 51
150.0000000001
  0
ARC
  5
4C8
100
AcDbEntity
  8
0
100
AcDbCircle
 62
7
  6
CONTINUOUS
 10
230.2573702809
 20
446.8867617718
 40
1.5
100
AcDbArc
 50
300.0
 51
360.0
  0
ARC
  5
4C9
100
AcDbEntity
  8
0
100
AcDbCircle
 62
7
  6
CONTINUOUS
 10
278.6597893433
 20
448.9135463826
 40
1.5
100
AcDbArc
 50
90.0
 51
150.0000000001
  0
ARC
  5
4CA
100
AcDbEntity
  8
0
100
AcDbCircle
 62
7
  6
CONTINUOUS
 10
280.2573702809
 20
446.8867617718
 40
1.5
100
AcDbArc
 50
300.0
 51
360.0
  0
ARC
  5
4CB
100
AcDbEntity
  8
0
100
AcDbCircle
 62
7
  6
CONTINUOUS
 10
328.6597893433
 20
448.9135463826
 40
1.5
100
AcDbArc
 50
90.0
 51
150.0000000001
  0
ARC
  5
4CC
100
AcDbEntity
  8
0
100
AcDbCircle
 62
7
  6
CONTINUOUS
 10
330.2573702809
 20
446.8867617718
 40
1.5
100
AcDbArc
 50
300.0
 51
360.0
  0
ARC
  5
4CD
100
AcDbEntity
  8
0
100
AcDbCircle
 62
7
  6
CONTINUOUS
 10
228.8434786018
 20
447.4996547034
 40
1.0
100
AcDbArc
 50
0.0
 51
90.0
  0
ARC
  5
4CE
100
AcDbEntity
  8
0
100
AcDbCircle
 62
7
  6
CONTINUOUS
 10
278.8434786018
 20
447.4996547034
 40
1.0
100
AcDbArc
 50
0.0
 51
90.0
  0
ARC
  5
4CF
100
AcDbEntity
  8
0
100
AcDbCircle
 62
7
  6
CONTINUOUS
 10
328.8434786018
 20
447.4996547034
 40
1.0
100
AcDbArc
 50
0.0
 51
90.0
  0
ARC
  5
4D0
100
AcDbEntity
  8
0
100
AcDbCircle
 62
7
  6
CONTINUOUS
 10
269.7934786018
 20
449.5496547034
 40
0.05
100
AcDbArc
 50
270.0
 51
360.0
  0
ARC
  5
4D1
100
AcDbEntity
  8
0
100
AcDbCircle
 62
7
  6
CONTINUOUS
 10
319.7934786018
 20
449.5496547034
 40
0.05
100
AcDbArc
 50
270.0
 51
360.0
  0
ARC
  5
4D2
100
AcDbEntity
  8
0
100
AcDbCircle
 62
7
  6
CONTINUOUS
 10
369.7934786018
 20
449.5496547034
 40
0.05
100
AcDbArc
 50
270.0
 51
360.0
  0
ARC
  5
4D3
100
AcDbEntity
  8
0
100
AcDbCircle
 62
7
  6
CONTINUOUS
 10
370.8434786019
 20
455.0996547034
 40
5.0
100
AcDbArc
 50
89.9999078443
 51
126.8697046314
  0
ARC
  5
4D4
100
AcDbEntity
  8
0
100
AcDbCircle
 62
7
  6
CONTINUOUS
 10
320.8434786019
 20
455.0996547034
 40
5.0
100
AcDbArc
 50
89.9999078443
 51
126.8697046314
  0
ARC
  5
4D5
100
AcDbEntity
  8
0
100
AcDbCircle
 62
7
  6
CONTINUOUS
 10
326.8434786016
 20
455.0996547034
 40
5.0
100
AcDbArc
 50
53.1302953686
 51
90.0000921557
  0
ARC
  5
4D6
100
AcDbEntity
  8
0
100
AcDbCircle
 62
7
  6
CONTINUOUS
 10
270.8434786019
 20
455.0996547034
 40
5.0
100
AcDbArc
 50
89.9999078443
 51
126.8697046314
  0
ARC
  5
4D7
100
AcDbEntity
  8
0
100
AcDbCircle
 62
7
  6
CONTINUOUS
 10
276.8434786016
 20
455.0996547034
 40
5.0
100
AcDbArc
 50
53.1302953686
 51
90.0000921557
  0
ARC
  5
4D8
100
AcDbEntity
  8
0
100
AcDbCircle
 62
7
  6
CONTINUOUS
 10
226.8434786016
 20
455.0996547034
 40
5.0
100
AcDbArc
 50
53.1302953686
 51
90.0000921557
  0
ARC
  5
4D9
100
AcDbEntity
  8
0
100
AcDbCircle
 62
7
  6
CONTINUOUS
 10
368.8434786018
 20
456.4996547034
 40
1.0
100
AcDbArc
 50
180.0
 51
269.9999996079
  0
ARC
  5
4DA
100
AcDbEntity
  8
0
100
AcDbCircle
 62
7
  6
CONTINUOUS
 10
318.8434786018
 20
456.4996547034
 40
1.0
100
AcDbArc
 50
180.0
 51
269.9999996079
  0
ARC
  5
4DB
100
AcDbEntity
  8
0
100
AcDbCircle
 62
7
  6
CONTINUOUS
 10
328.8434786018
 20
456.4996547034
 40
1.0
100
AcDbArc
 50
270.0000003921
 51
360.0
  0
ARC
  5
4DC
100
AcDbEntity
  8
0
100
AcDbCircle
 62
7
  6
CONTINUOUS
 10
268.8434786018
 20
456.4996547034
 40
1.0
100
AcDbArc
 50
180.0
 51
269.9999996079
  0
ARC
  5
4DD
100
AcDbEntity
  8
0
100
AcDbCircle
 62
7
  6
CONTINUOUS
 10
278.8434786018
 20
456.4996547034
 40
1.0
100
AcDbArc
 50
270.0000003921
 51
360.0
  0
ARC
  5
4DE
100
AcDbEntity
  8
0
100
AcDbCircle
 62
7
  6
CONTINUOUS
 10
228.8434786018
 20
456.4996547034
 40
1.0
100
AcDbArc
 50
270.0000003921
 51
360.0
  0
ARC
  5
4DF
100
AcDbEntity
  8
0
100
AcDbCircle
 62
7
  6
CONTINUOUS
 10
378.8919887945
 20
437.9034078947
 40
108.8072732396
100
AcDbArc
 50
179.1925743897
 51
179.3174054988
  0
ARC
  5
4E0
100
AcDbEntity
  8
0
100
AcDbCircle
 62
7
  6
CONTINUOUS
 10
428.8919885902
 20
437.9034078974
 40
108.8072730353
100
AcDbArc
 50
179.1925743895
 51
179.3174054989
  0
ARC
  5
4E1
100
AcDbEntity
  8
0
100
AcDbCircle
 62
7
  6
CONTINUOUS
 10
478.8919885392
 20
437.9034078981
 40
108.8072729842
100
AcDbArc
 50
179.1925743895
 51
179.317405499
  0
ARC
  5
4E2
100
AcDbEntity
  8
0
100
AcDbCircle
 62
7
  6
CONTINUOUS
 10
378.8434786018
 20
441.1996547034
 40
2.9138916792
100
AcDbArc
 50
281.1867371668
 51
360.0
  0
ARC
  5
4E3
100
AcDbEntity
  8
0
100
AcDbCircle
 62
7
  6
CONTINUOUS
 10
428.8434786018
 20
441.1996547034
 40
2.9138916792
100
AcDbArc
 50
281.1867371668
 51
360.0
  0
ARC
  5
4E4
100
AcDbEntity
  8
0
100
AcDbCircle
 62
7
  6
CONTINUOUS
 10
478.8434786018
 20
441.1996547034
 40
2.9138916792
100
AcDbArc
 50
281.1867371668
 51
360.0
  0
ARC
  5
4E5
100
AcDbEntity
  8
0
100
AcDbCircle
 62
7
  6
CONTINUOUS
 10
378.8434786018
 20
441.1996547034
 40
2.3780730937
100
AcDbArc
 50
281.2088827356
 51
360.0
  0
ARC
  5
4E6
100
AcDbEntity
  8
0
100
AcDbCircle
 62
7
  6
CONTINUOUS
 10
428.8434786018
 20
441.1996547034
 40
2.3780730937
100
AcDbArc
 50
281.2088827356
 51
360.0
  0
ARC
  5
4E7
100
AcDbEntity
  8
0
100
AcDbCircle
 62
7
  6
CONTINUOUS
 10
478.8434786018
 20
441.1996547034
 40
2.3780730937
100
AcDbArc
 50
281.2088827356
 51
360.0
  0
ARC
  5
4E8
100
AcDbEntity
  8
0
100
AcDbCircle
 62
7
  6
CONTINUOUS
 10
378.8434786018
 20
441.1996547034
 40
2.0
100
AcDbArc
 50
270.0
 51
360.0
  0
ARC
  5
4E9
100
AcDbEntity
  8
0
100
AcDbCircle
 62
7
  6
CONTINUOUS
 10
428.8434786018
 20
441.1996547034
 40
2.0
100
AcDbArc
 50
270.0
 51
360.0
  0
ARC
  5
4EA
100
AcDbEntity
  8
0
100
AcDbCircle
 62
7
  6
CONTINUOUS
 10
478.8434786018
 20
441.1996547034
 40
2.0
100
AcDbArc
 50
270.0
 51
360.0
  0
ARC
  5
4EB
100
AcDbEntity
  8
0
100
AcDbCircle
 62
7
  6
CONTINUOUS
 10
528.6362861457
 20
440.5628148939
 40
1.8232200582
100
AcDbArc
 50
276.5249596903
 51
291.5420247002
  0
ARC
  5
4EC
100
AcDbEntity
  8
0
100
AcDbCircle
 62
7
  6
CONTINUOUS
 10
378.6362861457
 20
440.5628148939
 40
1.8232200582
100
AcDbArc
 50
276.5249596903
 51
291.5420247002
  0
ARC
  5
4ED
100
AcDbEntity
  8
0
100
AcDbCircle
 62
7
  6
CONTINUOUS
 10
428.6362861457
 20
440.5628148939
 40
1.8232200582
100
AcDbArc
 50
276.5249596903
 51
291.5420247002
  0
ARC
  5
4EE
100
AcDbEntity
  8
0
100
AcDbCircle
 62
7
  6
CONTINUOUS
 10
478.6362861457
 20
440.5628148939
 40
1.8232200582
100
AcDbArc
 50
276.5249596903
 51
291.5420247002
  0
ARC
  5
4EF
100
AcDbEntity
  8
0
100
AcDbCircle
 62
7
  6
CONTINUOUS
 10
380.2573702809
 20
442.2541402886
 40
1.5
100
AcDbArc
 50
0.0
 51
60.0
  0
ARC
  5
4F0
100
AcDbEntity
  8
0
100
AcDbCircle
 62
7
  6
CONTINUOUS
 10
379.1013819969
 20
439.7857630242
 40
1.5
100
AcDbArc
 50
210.0
 51
260.0997611447
  0
ARC
  5
4F1
100
AcDbEntity
  8
0
100
AcDbCircle
 62
7
  6
CONTINUOUS
 10
430.2573702809
 20
442.2541402886
 40
1.5
100
AcDbArc
 50
0.0
 51
60.0
  0
ARC
  5
4F2
100
AcDbEntity
  8
0
100
AcDbCircle
 62
7
  6
CONTINUOUS
 10
429.1013819969
 20
439.7857630242
 40
1.5
100
AcDbArc
 50
210.0
 51
260.0997611447
  0
ARC
  5
4F3
100
AcDbEntity
  8
0
100
AcDbCircle
 62
7
  6
CONTINUOUS
 10
480.2573702809
 20
442.2541402886
 40
1.5
100
AcDbArc
 50
0.0
 51
60.0
  0
ARC
  5
4F4
100
AcDbEntity
  8
0
100
AcDbCircle
 62
7
  6
CONTINUOUS
 10
479.1013819969
 20
439.7857630242
 40
1.5
100
AcDbArc
 50
210.0
 51
260.0997611447
  0
ARC
  5
4F5
100
AcDbEntity
  8
0
100
AcDbCircle
 62
7
  6
CONTINUOUS
 10
378.8434786018
 20
441.1996547034
 40
1.0
100
AcDbArc
 50
270.0
 51
360.0
  0
ARC
  5
4F6
100
AcDbEntity
  8
0
100
AcDbCircle
 62
7
  6
CONTINUOUS
 10
428.8434786018
 20
441.1996547034
 40
1.0
100
AcDbArc
 50
270.0
 51
360.0
  0
ARC
  5
4F7
100
AcDbEntity
  8
0
100
AcDbCircle
 62
7
  6
CONTINUOUS
 10
478.8434786018
 20
441.1996547034
 40
1.0
100
AcDbArc
 50
270.0
 51
360.0
  0
ARC
  5
4F8
100
AcDbEntity
  8
0
100
AcDbCircle
 62
7
  6
CONTINUOUS
 10
555.8434786018
 20
429.0746547034
 40
21.625
100
AcDbArc
 50
72.5076754749
 51
107.4923245251
  0
ARC
  5
4F9
100
AcDbEntity
  8
0
100
AcDbCircle
 62
7
  6
CONTINUOUS
 10
678.8919885392
 20
437.9034078981
 40
108.8072729842
100
AcDbArc
 50
179.1925743895
 51
179.317405499
  0
ARC
  5
4FA
100
AcDbEntity
  8
0
100
AcDbCircle
 62
7
  6
CONTINUOUS
 10
628.8919885392
 20
437.9034078981
 40
108.8072729842
100
AcDbArc
 50
179.1925743895
 51
179.317405499
  0
ARC
  5
4FB
100
AcDbEntity
  8
0
100
AcDbCircle
 62
7
  6
CONTINUOUS
 10
528.8919885392
 20
437.9034078981
 40
108.8072729842
100
AcDbArc
 50
179.1925743895
 51
179.317405499
  0
ARC
  5
4FC
100
AcDbEntity
  8
0
100
AcDbCircle
 62
7
  6
CONTINUOUS
 10
578.8919885392
 20
437.9034078981
 40
108.8072729842
100
AcDbArc
 50
179.1925743895
 51
179.317405499
  0
ARC
  5
4FD
100
AcDbEntity
  8
0
100
AcDbCircle
 62
7
  6
CONTINUOUS
 10
578.8434786018
 20
441.1996547034
 40
2.9138916792
100
AcDbArc
 50
281.1867371668
 51
360.0
  0
ARC
  5
4FE
100
AcDbEntity
  8
0
100
AcDbCircle
 62
7
  6
CONTINUOUS
 10
528.8434786018
 20
441.1996547034
 40
2.9138916792
100
AcDbArc
 50
281.1867371668
 51
360.0
  0
ARC
  5
4FF
100
AcDbEntity
  8
0
100
AcDbCircle
 62
7
  6
CONTINUOUS
 10
578.8434786018
 20
441.1996547034
 40
2.3780730937
100
AcDbArc
 50
281.2088827356
 51
360.0
  0
ARC
  5
500
100
AcDbEntity
  8
0
100
AcDbCircle
 62
7
  6
CONTINUOUS
 10
528.8434786018
 20
441.1996547034
 40
2.3780730937
100
AcDbArc
 50
281.2088827356
 51
360.0
  0
ARC
  5
501
100
AcDbEntity
  8
0
100
AcDbCircle
 62
7
  6
CONTINUOUS
 10
578.8434786018
 20
441.1996547034
 40
2.0
100
AcDbArc
 50
270.0
 51
360.0
  0
ARC
  5
502
100
AcDbEntity
  8
0
100
AcDbCircle
 62
7
  6
CONTINUOUS
 10
528.8434786018
 20
441.1996547034
 40
2.0
100
AcDbArc
 50
270.0
 51
360.0
  0
ARC
  5
503
100
AcDbEntity
  8
0
100
AcDbCircle
 62
7
  6
CONTINUOUS
 10
578.6362861457
 20
440.5628148939
 40
1.8232200582
100
AcDbArc
 50
276.5249596902
 51
291.5420247002
  0
ARC
  5
504
100
AcDbEntity
  8
0
100
AcDbCircle
 62
7
  6
CONTINUOUS
 10
580.2573702809
 20
442.2541402886
 40
1.5
100
AcDbArc
 50
0.0
 51
60.0
  0
ARC
  5
505
100
AcDbEntity
  8
0
100
AcDbCircle
 62
7
  6
CONTINUOUS
 10
579.1013819969
 20
439.7857630242
 40
1.5
100
AcDbArc
 50
210.0
 51
260.0997611447
  0
ARC
  5
506
100
AcDbEntity
  8
0
100
AcDbCircle
 62
7
  6
CONTINUOUS
 10
530.2573702809
 20
442.2541402886
 40
1.5
100
AcDbArc
 50
0.0
 51
60.0
  0
ARC
  5
507
100
AcDbEntity
  8
0
100
AcDbCircle
 62
7
  6
CONTINUOUS
 10
529.1013819969
 20
439.7857630242
 40
1.5
100
AcDbArc
 50
210.0
 51
260.0997611447
  0
ARC
  5
508
100
AcDbEntity
  8
0
100
AcDbCircle
 62
7
  6
CONTINUOUS
 10
578.8434786018
 20
441.1996547034
 40
1.0
100
AcDbArc
 50
270.0
 51
360.0
  0
ARC
  5
509
100
AcDbEntity
  8
0
100
AcDbCircle
 62
7
  6
CONTINUOUS
 10
528.8434786018
 20
441.1996547034
 40
1.0
100
AcDbArc
 50
270.0
 51
360.0
  0
ARC
  5
50A
100
AcDbEntity
  8
0
100
AcDbCircle
 62
7
  6
CONTINUOUS
 10
378.8434786018
 20
447.4996547034
 40
2.9138916792
100
AcDbArc
 50
0.0
 51
90.0
  0
ARC
  5
50B
100
AcDbEntity
  8
0
100
AcDbCircle
 62
7
  6
CONTINUOUS
 10
428.8434786018
 20
447.4996547034
 40
2.9138916792
100
AcDbArc
 50
0.0
 51
90.0
  0
ARC
  5
50C
100
AcDbEntity
  8
0
100
AcDbCircle
 62
7
  6
CONTINUOUS
 10
378.8434786018
 20
447.4996547034
 40
2.3780730937
100
AcDbArc
 50
0.0
 51
90.0
  0
ARC
  5
50D
100
AcDbEntity
  8
0
100
AcDbCircle
 62
7
  6
CONTINUOUS
 10
428.8434786018
 20
447.4996547034
 40
2.3780730937
100
AcDbArc
 50
0.0
 51
90.0
  0
ARC
  5
50E
100
AcDbEntity
  8
0
100
AcDbCircle
 62
7
  6
CONTINUOUS
 10
378.8434786018
 20
447.4996547034
 40
2.0
100
AcDbArc
 50
0.0
 51
90.0
  0
ARC
  5
50F
100
AcDbEntity
  8
0
100
AcDbCircle
 62
7
  6
CONTINUOUS
 10
428.8434786018
 20
447.4996547034
 40
2.0
100
AcDbArc
 50
0.0
 51
90.0
  0
ARC
  5
510
100
AcDbEntity
  8
0
100
AcDbCircle
 62
7
  6
CONTINUOUS
 10
378.6597893433
 20
448.9135463826
 40
1.5
100
AcDbArc
 50
90.0
 51
150.0000000001
  0
ARC
  5
511
100
AcDbEntity
  8
0
100
AcDbCircle
 62
7
  6
CONTINUOUS
 10
380.2573702809
 20
446.8867617718
 40
1.5
100
AcDbArc
 50
300.0
 51
360.0
  0
ARC
  5
512
100
AcDbEntity
  8
0
100
AcDbCircle
 62
7
  6
CONTINUOUS
 10
428.6597893433
 20
448.9135463826
 40
1.5
100
AcDbArc
 50
90.0
 51
150.0000000001
  0
ARC
  5
513
100
AcDbEntity
  8
0
100
AcDbCircle
 62
7
  6
CONTINUOUS
 10
430.2573702809
 20
446.8867617718
 40
1.5
100
AcDbArc
 50
300.0
 51
360.0
  0
ARC
  5
514
100
AcDbEntity
  8
0
100
AcDbCircle
 62
7
  6
CONTINUOUS
 10
378.8434786018
 20
447.4996547034
 40
1.0
100
AcDbArc
 50
0.0
 51
90.0
  0
ARC
  5
515
100
AcDbEntity
  8
0
100
AcDbCircle
 62
7
  6
CONTINUOUS
 10
428.8434786018
 20
447.4996547034
 40
1.0
100
AcDbArc
 50
0.0
 51
90.0
  0
ARC
  5
516
100
AcDbEntity
  8
0
100
AcDbCircle
 62
7
  6
CONTINUOUS
 10
419.7934786018
 20
449.5496547034
 40
0.05
100
AcDbArc
 50
270.0
 51
360.0
  0
ARC
  5
517
100
AcDbEntity
  8
0
100
AcDbCircle
 62
7
  6
CONTINUOUS
 10
469.7934786018
 20
449.5496547034
 40
0.05
100
AcDbArc
 50
270.0
 51
360.0
  0
ARC
  5
518
100
AcDbEntity
  8
0
100
AcDbCircle
 62
7
  6
CONTINUOUS
 10
470.8434786019
 20
455.0996547034
 40
5.0
100
AcDbArc
 50
89.9999078443
 51
126.8697046314
  0
ARC
  5
519
100
AcDbEntity
  8
0
100
AcDbCircle
 62
7
  6
CONTINUOUS
 10
476.8434786016
 20
455.0996547034
 40
5.0
100
AcDbArc
 50
53.1302953686
 51
90.0000921557
  0
ARC
  5
51A
100
AcDbEntity
  8
0
100
AcDbCircle
 62
7
  6
CONTINUOUS
 10
420.8434786019
 20
455.0996547034
 40
5.0
100
AcDbArc
 50
89.9999078443
 51
126.8697046314
  0
ARC
  5
51B
100
AcDbEntity
  8
0
100
AcDbCircle
 62
7
  6
CONTINUOUS
 10
426.8434786016
 20
455.0996547034
 40
5.0
100
AcDbArc
 50
53.1302953686
 51
90.0000921557
  0
ARC
  5
51C
100
AcDbEntity
  8
0
100
AcDbCircle
 62
7
  6
CONTINUOUS
 10
376.8434786016
 20
455.0996547034
 40
5.0
100
AcDbArc
 50
53.1302953686
 51
90.0000921557
  0
ARC
  5
51D
100
AcDbEntity
  8
0
100
AcDbCircle
 62
7
  6
CONTINUOUS
 10
468.8434786018
 20
456.4996547034
 40
1.0
100
AcDbArc
 50
180.0
 51
269.9999996079
  0
ARC
  5
51E
100
AcDbEntity
  8
0
100
AcDbCircle
 62
7
  6
CONTINUOUS
 10
418.8434786018
 20
456.4996547034
 40
1.0
100
AcDbArc
 50
180.0
 51
269.9999996079
  0
ARC
  5
51F
100
AcDbEntity
  8
0
100
AcDbCircle
 62
7
  6
CONTINUOUS
 10
428.8434786018
 20
456.4996547034
 40
1.0
100
AcDbArc
 50
270.0000003921
 51
360.0
  0
ARC
  5
520
100
AcDbEntity
  8
0
100
AcDbCircle
 62
7
  6
CONTINUOUS
 10
378.8434786018
 20
456.4996547034
 40
1.0
100
AcDbArc
 50
270.0000003921
 51
360.0
  0
ARC
  5
521
100
AcDbEntity
  8
0
100
AcDbCircle
 62
7
  6
CONTINUOUS
 10
578.8434786018
 20
447.4996547034
 40
2.9138916792
100
AcDbArc
 50
0.0
 51
90.0
  0
ARC
  5
522
100
AcDbEntity
  8
0
100
AcDbCircle
 62
7
  6
CONTINUOUS
 10
528.8434786018
 20
447.4996547034
 40
2.9138916792
100
AcDbArc
 50
0.0
 51
90.0
  0
ARC
  5
523
100
AcDbEntity
  8
0
100
AcDbCircle
 62
7
  6
CONTINUOUS
 10
478.8434786018
 20
447.4996547034
 40
2.9138916792
100
AcDbArc
 50
0.0
 51
90.0
  0
ARC
  5
524
100
AcDbEntity
  8
0
100
AcDbCircle
 62
7
  6
CONTINUOUS
 10
503.3434786018
 20
446.9996547034
 40
2.5
100
AcDbArc
 50
90.0
 51
180.0
  0
ARC
  5
525
100
AcDbEntity
  8
0
100
AcDbCircle
 62
7
  6
CONTINUOUS
 10
578.8434786018
 20
447.4996547034
 40
2.3780730937
100
AcDbArc
 50
0.0
 51
90.0
  0
ARC
  5
526
100
AcDbEntity
  8
0
100
AcDbCircle
 62
7
  6
CONTINUOUS
 10
528.8434786018
 20
447.4996547034
 40
2.3780730937
100
AcDbArc
 50
0.0
 51
90.0
  0
ARC
  5
527
100
AcDbEntity
  8
0
100
AcDbCircle
 62
7
  6
CONTINUOUS
 10
478.8434786018
 20
447.4996547034
 40
2.3780730937
100
AcDbArc
 50
0.0
 51
90.0
  0
ARC
  5
528
100
AcDbEntity
  8
0
100
AcDbCircle
 62
7
  6
CONTINUOUS
 10
552.5578395504
 20
446.1484761764
 40
2.0
100
AcDbArc
 50
176.1859251691
 51
192.2647736568
  0
ARC
  5
529
100
AcDbEntity
  8
0
100
AcDbCircle
 62
7
  6
CONTINUOUS
 10
559.1291176531
 20
446.1484761764
 40
2.0
100
AcDbArc
 50
347.7352263432
 51
3.8140748309
  0
ARC
  5
52A
100
AcDbEntity
  8
0
100
AcDbCircle
 62
7
  6
CONTINUOUS
 10
578.8434786018
 20
447.4996547034
 40
2.0
100
AcDbArc
 50
0.0
 51
90.0
  0
ARC
  5
52B
100
AcDbEntity
  8
0
100
AcDbCircle
 62
7
  6
CONTINUOUS
 10
528.8434786018
 20
447.4996547034
 40
2.0
100
AcDbArc
 50
0.0
 51
90.0
  0
ARC
  5
52C
100
AcDbEntity
  8
0
100
AcDbCircle
 62
7
  6
CONTINUOUS
 10
478.8434786018
 20
447.4996547034
 40
2.0
100
AcDbArc
 50
0.0
 51
90.0
  0
ARC
  5
52D
100
AcDbEntity
  8
0
100
AcDbCircle
 62
7
  6
CONTINUOUS
 10
578.6597893433
 20
448.9135463826
 40
1.5
100
AcDbArc
 50
90.0
 51
150.0000000001
  0
ARC
  5
52E
100
AcDbEntity
  8
0
100
AcDbCircle
 62
7
  6
CONTINUOUS
 10
580.2573702809
 20
446.8867617718
 40
1.5
100
AcDbArc
 50
300.0
 51
360.0
  0
ARC
  5
52F
100
AcDbEntity
  8
0
100
AcDbCircle
 62
7
  6
CONTINUOUS
 10
528.6597893433
 20
448.9135463826
 40
1.5
100
AcDbArc
 50
90.0
 51
150.0000000001
  0
ARC
  5
530
100
AcDbEntity
  8
0
100
AcDbCircle
 62
7
  6
CONTINUOUS
 10
530.2573702809
 20
446.8867617718
 40
1.5
100
AcDbArc
 50
300.0
 51
360.0
  0
ARC
  5
531
100
AcDbEntity
  8
0
100
AcDbCircle
 62
7
  6
CONTINUOUS
 10
478.6597893433
 20
448.9135463826
 40
1.5
100
AcDbArc
 50
90.0
 51
150.0000000001
  0
ARC
  5
532
100
AcDbEntity
  8
0
100
AcDbCircle
 62
7
  6
CONTINUOUS
 10
480.2573702809
 20
446.8867617718
 40
1.5
100
AcDbArc
 50
300.0
 51
360.0
  0
ARC
  5
533
100
AcDbEntity
  8
0
100
AcDbCircle
 62
7
  6
CONTINUOUS
 10
578.8434786018
 20
447.4996547034
 40
1.0
100
AcDbArc
 50
0.0
 51
90.0
  0
ARC
  5
534
100
AcDbEntity
  8
0
100
AcDbCircle
 62
7
  6
CONTINUOUS
 10
528.8434786018
 20
447.4996547034
 40
1.0
100
AcDbArc
 50
0.0
 51
90.0
  0
ARC
  5
535
100
AcDbEntity
  8
0
100
AcDbCircle
 62
7
  6
CONTINUOUS
 10
478.8434786018
 20
447.4996547034
 40
1.0
100
AcDbArc
 50
0.0
 51
90.0
  0
ARC
  5
536
100
AcDbEntity
  8
0
100
AcDbCircle
 62
7
  6
CONTINUOUS
 10
578.3434786018
 20
446.9996547034
 40
1.0
100
AcDbArc
 50
0.0
 51
90.0
  0
ARC
  5
537
100
AcDbEntity
  8
0
100
AcDbCircle
 62
7
  6
CONTINUOUS
 10
503.3434786018
 20
446.9996547034
 40
1.0
100
AcDbArc
 50
90.0
 51
180.0
  0
ARC
  5
538
100
AcDbEntity
  8
0
100
AcDbCircle
 62
7
  6
CONTINUOUS
 10
569.7934786018
 20
449.5496547034
 40
0.05
100
AcDbArc
 50
270.0
 51
360.0
  0
ARC
  5
539
100
AcDbEntity
  8
0
100
AcDbCircle
 62
7
  6
CONTINUOUS
 10
519.7934786018
 20
449.5496547034
 40
0.05
100
AcDbArc
 50
270.0
 51
360.0
  0
ARC
  5
53A
100
AcDbEntity
  8
0
100
AcDbCircle
 62
7
  6
CONTINUOUS
 10
520.8434786019
 20
455.0996547034
 40
5.0
100
AcDbArc
 50
89.9999078443
 51
126.8697046314
  0
ARC
  5
53B
100
AcDbEntity
  8
0
100
AcDbCircle
 62
7
  6
CONTINUOUS
 10
526.8434786016
 20
455.0996547034
 40
5.0
100
AcDbArc
 50
53.1302953686
 51
90.0000921557
  0
ARC
  5
53C
100
AcDbEntity
  8
0
100
AcDbCircle
 62
7
  6
CONTINUOUS
 10
570.8434786019
 20
455.0996547034
 40
5.0
100
AcDbArc
 50
89.9999078443
 51
126.8697046314
  0
ARC
  5
53D
100
AcDbEntity
  8
0
100
AcDbCircle
 62
7
  6
CONTINUOUS
 10
576.8434786016
 20
455.0996547034
 40
5.0
100
AcDbArc
 50
53.1302953686
 51
90.0000921557
  0
ARC
  5
53E
100
AcDbEntity
  8
0
100
AcDbCircle
 62
7
  6
CONTINUOUS
 10
478.8434786018
 20
456.4996547034
 40
1.0
100
AcDbArc
 50
270.0000003921
 51
360.0
  0
ARC
  5
53F
100
AcDbEntity
  8
0
100
AcDbCircle
 62
7
  6
CONTINUOUS
 10
518.8434786018
 20
456.4996547034
 40
1.0
100
AcDbArc
 50
180.0
 51
269.9999996079
  0
ARC
  5
540
100
AcDbEntity
  8
0
100
AcDbCircle
 62
7
  6
CONTINUOUS
 10
528.8434786018
 20
456.4996547034
 40
1.0
100
AcDbArc
 50
270.0000003921
 51
360.0
  0
ARC
  5
541
100
AcDbEntity
  8
0
100
AcDbCircle
 62
7
  6
CONTINUOUS
 10
568.8434786018
 20
456.4996547034
 40
1.0
100
AcDbArc
 50
180.0
 51
269.9999996079
  0
ARC
  5
542
100
AcDbEntity
  8
0
100
AcDbCircle
 62
7
  6
CONTINUOUS
 10
578.8434786018
 20
456.4996547034
 40
1.0
100
AcDbArc
 50
270.0000003921
 51
360.0
  0
SPLINE
  5
543
100
AcDbEntity
  8
0
100
AcDbSpline
 62
7
  6
CONTINUOUS
 70
0
 71
3
 72
9
 73
5
 74
0
 42
0.0000001
 43
0.0000001
 44
0.0000000001
 40
0.0
 40
0.0
 40
0.0
 40
0.0
 40
0.5000000002
 40
1.0
 40
1.0
 40
1.0
 40
1.0
 10
473.5224852565
 20
460.0996555967
 30
0.0
 10
473.6294830711
 20
460.0996555629
 30
0.0
 10
473.8434786016
 20
460.0991542887
 30
0.0
 10
474.0574741336
 20
460.0996546697
 30
0.0
 10
474.164471948
 20
460.0996547034
 30
0.0
  0
SPLINE
  5
544
100
AcDbEntity
  8
0
100
AcDbSpline
 62
7
  6
CONTINUOUS
 70
0
 71
3
 72
9
 73
5
 74
0
 42
0.0000001
 43
0.0000001
 44
0.0000000001
 40
0.0
 40
0.0
 40
0.0
 40
0.0
 40
0.681361796
 40
1.0
 40
1.0
 40
1.0
 40
1.0
 10
476.2661432591
 20
460.0996557351
 30
0.0
 10
476.3390475619
 20
460.0996560132
 30
0.0
 10
476.4460456425
 20
460.0990778016
 30
0.0
 10
476.5530429756
 20
460.0996554919
 30
0.0
 10
476.5871366043
 20
460.0996547034
 30
0.0
  0
SPLINE
  5
545
100
AcDbEntity
  8
0
100
AcDbSpline
 62
7
  6
CONTINUOUS
 70
0
 71
3
 72
9
 73
5
 74
0
 42
0.0000001
 43
0.0000001
 44
0.0000000001
 40
0.0
 40
0.0
 40
0.0
 40
0.0
 40
0.3186382091
 40
1.0
 40
1.0
 40
1.0
 40
1.0
 10
471.0998205993
 20
460.0996555113
 30
0.0
 10
471.1339142288
 20
460.0996562997
 30
0.0
 10
471.2409115581
 20
460.0990771789
 30
0.0
 10
471.3479096428
 20
460.0996549816
 30
0.0
 10
471.4208139455
 20
460.0996547034
 30
0.0
  0
SPLINE
  5
546
100
AcDbEntity
  8
0
100
AcDbSpline
 62
7
  6
CONTINUOUS
 70
0
 71
3
 72
9
 73
5
 74
0
 42
0.0000001
 43
0.0000001
 44
0.0000000001
 40
0.0
 40
0.0
 40
0.0
 40
0.0
 40
0.5000000002
 40
1.0
 40
1.0
 40
1.0
 40
1.0
 10
423.5224852565
 20
460.0996555967
 30
0.0
 10
423.6294830711
 20
460.0996555629
 30
0.0
 10
423.8434786016
 20
460.0991542887
 30
0.0
 10
424.0574741336
 20
460.0996546697
 30
0.0
 10
424.164471948
 20
460.0996547034
 30
0.0
  0
SPLINE
  5
547
100
AcDbEntity
  8
0
100
AcDbSpline
 62
7
  6
CONTINUOUS
 70
0
 71
3
 72
9
 73
5
 74
0
 42
0.0000001
 43
0.0000001
 44
0.0000000001
 40
0.0
 40
0.0
 40
0.0
 40
0.0
 40
0.681361796
 40
1.0
 40
1.0
 40
1.0
 40
1.0
 10
426.2661432591
 20
460.0996557351
 30
0.0
 10
426.3390475619
 20
460.0996560132
 30
0.0
 10
426.4460456425
 20
460.0990778016
 30
0.0
 10
426.5530429756
 20
460.0996554919
 30
0.0
 10
426.5871366043
 20
460.0996547034
 30
0.0
  0
SPLINE
  5
548
100
AcDbEntity
  8
0
100
AcDbSpline
 62
7
  6
CONTINUOUS
 70
0
 71
3
 72
9
 73
5
 74
0
 42
0.0000001
 43
0.0000001
 44
0.0000000001
 40
0.0
 40
0.0
 40
0.0
 40
0.0
 40
0.3186382091
 40
1.0
 40
1.0
 40
1.0
 40
1.0
 10
421.0998205993
 20
460.0996555113
 30
0.0
 10
421.1339142288
 20
460.0996562997
 30
0.0
 10
421.2409115581
 20
460.0990771789
 30
0.0
 10
421.3479096428
 20
460.0996549816
 30
0.0
 10
421.4208139455
 20
460.0996547034
 30
0.0
  0
SPLINE
  5
549
100
AcDbEntity
  8
0
100
AcDbSpline
 62
7
  6
CONTINUOUS
 70
0
 71
3
 72
9
 73
5
 74
0
 42
0.0000001
 43
0.0000001
 44
0.0000000001
 40
0.0
 40
0.0
 40
0.0
 40
0.0
 40
0.5000000002
 40
1.0
 40
1.0
 40
1.0
 40
1.0
 10
373.5224852565
 20
460.0996555967
 30
0.0
 10
373.6294830711
 20
460.0996555629
 30
0.0
 10
373.8434786016
 20
460.0991542887
 30
0.0
 10
374.0574741336
 20
460.0996546697
 30
0.0
 10
374.164471948
 20
460.0996547034
 30
0.0
  0
SPLINE
  5
54A
100
AcDbEntity
  8
0
100
AcDbSpline
 62
7
  6
CONTINUOUS
 70
0
 71
3
 72
9
 73
5
 74
0
 42
0.0000001
 43
0.0000001
 44
0.0000000001
 40
0.0
 40
0.0
 40
0.0
 40
0.0
 40
0.681361796
 40
1.0
 40
1.0
 40
1.0
 40
1.0
 10
376.2661432591
 20
460.0996557351
 30
0.0
 10
376.3390475619
 20
460.0996560132
 30
0.0
 10
376.4460456425
 20
460.0990778016
 30
0.0
 10
376.5530429756
 20
460.0996554919
 30
0.0
 10
376.5871366043
 20
460.0996547034
 30
0.0
  0
SPLINE
  5
54B
100
AcDbEntity
  8
0
100
AcDbSpline
 62
7
  6
CONTINUOUS
 70
0
 71
3
 72
9
 73
5
 74
0
 42
0.0000001
 43
0.0000001
 44
0.0000000001
 40
0.0
 40
0.0
 40
0.0
 40
0.0
 40
0.3186382091
 40
1.0
 40
1.0
 40
1.0
 40
1.0
 10
371.0998205993
 20
460.0996555113
 30
0.0
 10
371.1339142288
 20
460.0996562997
 30
0.0
 10
371.2409115581
 20
460.0990771789
 30
0.0
 10
371.3479096428
 20
460.0996549816
 30
0.0
 10
371.4208139455
 20
460.0996547034
 30
0.0
  0
SPLINE
  5
54C
100
AcDbEntity
  8
0
100
AcDbSpline
 62
7
  6
CONTINUOUS
 70
0
 71
3
 72
9
 73
5
 74
0
 42
0.0000001
 43
0.0000001
 44
0.0000000001
 40
0.0
 40
0.0
 40
0.0
 40
0.0
 40
0.5000000002
 40
1.0
 40
1.0
 40
1.0
 40
1.0
 10
323.5224852565
 20
460.0996555967
 30
0.0
 10
323.6294830711
 20
460.0996555629
 30
0.0
 10
323.8434786016
 20
460.0991542887
 30
0.0
 10
324.0574741336
 20
460.0996546697
 30
0.0
 10
324.164471948
 20
460.0996547034
 30
0.0
  0
SPLINE
  5
54D
100
AcDbEntity
  8
0
100
AcDbSpline
 62
7
  6
CONTINUOUS
 70
0
 71
3
 72
9
 73
5
 74
0
 42
0.0000001
 43
0.0000001
 44
0.0000000001
 40
0.0
 40
0.0
 40
0.0
 40
0.0
 40
0.681361796
 40
1.0
 40
1.0
 40
1.0
 40
1.0
 10
326.2661432591
 20
460.0996557351
 30
0.0
 10
326.3390475619
 20
460.0996560132
 30
0.0
 10
326.4460456425
 20
460.0990778016
 30
0.0
 10
326.5530429756
 20
460.0996554919
 30
0.0
 10
326.5871366043
 20
460.0996547034
 30
0.0
  0
SPLINE
  5
54E
100
AcDbEntity
  8
0
100
AcDbSpline
 62
7
  6
CONTINUOUS
 70
0
 71
3
 72
9
 73
5
 74
0
 42
0.0000001
 43
0.0000001
 44
0.0000000001
 40
0.0
 40
0.0
 40
0.0
 40
0.0
 40
0.3186382091
 40
1.0
 40
1.0
 40
1.0
 40
1.0
 10
321.0998205993
 20
460.0996555113
 30
0.0
 10
321.1339142288
 20
460.0996562997
 30
0.0
 10
321.2409115581
 20
460.0990771789
 30
0.0
 10
321.3479096428
 20
460.0996549816
 30
0.0
 10
321.4208139455
 20
460.0996547034
 30
0.0
  0
SPLINE
  5
54F
100
AcDbEntity
  8
0
100
AcDbSpline
 62
7
  6
CONTINUOUS
 70
0
 71
3
 72
9
 73
5
 74
0
 42
0.0000001
 43
0.0000001
 44
0.0000000001
 40
0.0
 40
0.0
 40
0.0
 40
0.0
 40
0.5000000002
 40
1.0
 40
1.0
 40
1.0
 40
1.0
 10
273.5224852565
 20
460.0996555967
 30
0.0
 10
273.6294830711
 20
460.0996555629
 30
0.0
 10
273.8434786016
 20
460.0991542887
 30
0.0
 10
274.0574741336
 20
460.0996546697
 30
0.0
 10
274.164471948
 20
460.0996547034
 30
0.0
  0
SPLINE
  5
550
100
AcDbEntity
  8
0
100
AcDbSpline
 62
7
  6
CONTINUOUS
 70
0
 71
3
 72
9
 73
5
 74
0
 42
0.0000001
 43
0.0000001
 44
0.0000000001
 40
0.0
 40
0.0
 40
0.0
 40
0.0
 40
0.681361796
 40
1.0
 40
1.0
 40
1.0
 40
1.0
 10
276.2661432591
 20
460.0996557351
 30
0.0
 10
276.3390475619
 20
460.0996560132
 30
0.0
 10
276.4460456425
 20
460.0990778016
 30
0.0
 10
276.5530429756
 20
460.0996554919
 30
0.0
 10
276.5871366043
 20
460.0996547034
 30
0.0
  0
SPLINE
  5
551
100
AcDbEntity
  8
0
100
AcDbSpline
 62
7
  6
CONTINUOUS
 70
0
 71
3
 72
9
 73
5
 74
0
 42
0.0000001
 43
0.0000001
 44
0.0000000001
 40
0.0
 40
0.0
 40
0.0
 40
0.0
 40
0.3186382091
 40
1.0
 40
1.0
 40
1.0
 40
1.0
 10
271.0998205993
 20
460.0996555113
 30
0.0
 10
271.1339142288
 20
460.0996562997
 30
0.0
 10
271.2409115581
 20
460.0990771789
 30
0.0
 10
271.3479096428
 20
460.0996549816
 30
0.0
 10
271.4208139455
 20
460.0996547034
 30
0.0
  0
SPLINE
  5
552
100
AcDbEntity
  8
0
100
AcDbSpline
 62
7
  6
CONTINUOUS
 70
0
 71
3
 72
9
 73
5
 74
0
 42
0.0000001
 43
0.0000001
 44
0.0000000001
 40
0.0
 40
0.0
 40
0.0
 40
0.0
 40
0.5000000002
 40
1.0
 40
1.0
 40
1.0
 40
1.0
 10
223.5224852565
 20
460.0996555967
 30
0.0
 10
223.6294830711
 20
460.0996555629
 30
0.0
 10
223.8434786016
 20
460.0991542887
 30
0.0
 10
224.0574741336
 20
460.0996546697
 30
0.0
 10
224.164471948
 20
460.0996547034
 30
0.0
  0
SPLINE
  5
553
100
AcDbEntity
  8
0
100
AcDbSpline
 62
7
  6
CONTINUOUS
 70
0
 71
3
 72
9
 73
5
 74
0
 42
0.0000001
 43
0.0000001
 44
0.0000000001
 40
0.0
 40
0.0
 40
0.0
 40
0.0
 40
0.681361796
 40
1.0
 40
1.0
 40
1.0
 40
1.0
 10
226.2661432591
 20
460.0996557351
 30
0.0
 10
226.3390475619
 20
460.0996560132
 30
0.0
 10
226.4460456425
 20
460.0990778016
 30
0.0
 10
226.5530429756
 20
460.0996554919
 30
0.0
 10
226.5871366043
 20
460.0996547034
 30
0.0
  0
SPLINE
  5
554
100
AcDbEntity
  8
0
100
AcDbSpline
 62
7
  6
CONTINUOUS
 70
0
 71
3
 72
9
 73
5
 74
0
 42
0.0000001
 43
0.0000001
 44
0.0000000001
 40
0.0
 40
0.0
 40
0.0
 40
0.0
 40
0.3186382091
 40
1.0
 40
1.0
 40
1.0
 40
1.0
 10
221.0998205993
 20
460.0996555113
 30
0.0
 10
221.1339142288
 20
460.0996562997
 30
0.0
 10
221.2409115581
 20
460.0990771789
 30
0.0
 10
221.3479096428
 20
460.0996549816
 30
0.0
 10
221.4208139455
 20
460.0996547034
 30
0.0
  0
SPLINE
  5
555
100
AcDbEntity
  8
0
100
AcDbSpline
 62
7
  6
CONTINUOUS
 70
0
 71
3
 72
9
 73
5
 74
0
 42
0.0000001
 43
0.0000001
 44
0.0000000001
 40
0.0
 40
0.0
 40
0.0
 40
0.0
 40
0.5000000002
 40
1.0
 40
1.0
 40
1.0
 40
1.0
 10
523.5224852565
 20
460.0996555967
 30
0.0
 10
523.6294830711
 20
460.0996555629
 30
0.0
 10
523.8434786016
 20
460.0991542887
 30
0.0
 10
524.0574741336
 20
460.0996546697
 30
0.0
 10
524.164471948
 20
460.0996547034
 30
0.0
  0
SPLINE
  5
556
100
AcDbEntity
  8
0
100
AcDbSpline
 62
7
  6
CONTINUOUS
 70
0
 71
3
 72
9
 73
5
 74
0
 42
0.0000001
 43
0.0000001
 44
0.0000000001
 40
0.0
 40
0.0
 40
0.0
 40
0.0
 40
0.681361796
 40
1.0
 40
1.0
 40
1.0
 40
1.0
 10
526.2661432591
 20
460.0996557351
 30
0.0
 10
526.3390475619
 20
460.0996560132
 30
0.0
 10
526.4460456425
 20
460.0990778016
 30
0.0
 10
526.5530429756
 20
460.0996554919
 30
0.0
 10
526.5871366043
 20
460.0996547034
 30
0.0
  0
SPLINE
  5
557
100
AcDbEntity
  8
0
100
AcDbSpline
 62
7
  6
CONTINUOUS
 70
0
 71
3
 72
9
 73
5
 74
0
 42
0.0000001
 43
0.0000001
 44
0.0000000001
 40
0.0
 40
0.0
 40
0.0
 40
0.0
 40
0.3186382091
 40
1.0
 40
1.0
 40
1.0
 40
1.0
 10
521.0998205993
 20
460.0996555113
 30
0.0
 10
521.1339142288
 20
460.0996562997
 30
0.0
 10
521.2409115581
 20
460.0990771789
 30
0.0
 10
521.3479096428
 20
460.0996549816
 30
0.0
 10
521.4208139455
 20
460.0996547034
 30
0.0
  0
SPLINE
  5
558
100
AcDbEntity
  8
0
100
AcDbSpline
 62
7
  6
CONTINUOUS
 70
0
 71
3
 72
9
 73
5
 74
0
 42
0.0000001
 43
0.0000001
 44
0.0000000001
 40
0.0
 40
0.0
 40
0.0
 40
0.0
 40
0.5000000002
 40
1.0
 40
1.0
 40
1.0
 40
1.0
 10
573.5224852565
 20
460.0996555967
 30
0.0
 10
573.6294830711
 20
460.0996555629
 30
0.0
 10
573.8434786016
 20
460.0991542887
 30
0.0
 10
574.0574741336
 20
460.0996546697
 30
0.0
 10
574.164471948
 20
460.0996547034
 30
0.0
  0
SPLINE
  5
559
100
AcDbEntity
  8
0
100
AcDbSpline
 62
7
  6
CONTINUOUS
 70
0
 71
3
 72
9
 73
5
 74
0
 42
0.0000001
 43
0.0000001
 44
0.0000000001
 40
0.0
 40
0.0
 40
0.0
 40
0.0
 40
0.681361796
 40
1.0
 40
1.0
 40
1.0
 40
1.0
 10
576.2661432591
 20
460.0996557351
 30
0.0
 10
576.3390475619
 20
460.0996560132
 30
0.0
 10
576.4460456425
 20
460.0990778016
 30
0.0
 10
576.5530429756
 20
460.0996554919
 30
0.0
 10
576.5871366043
 20
460.0996547034
 30
0.0
  0
SPLINE
  5
55A
100
AcDbEntity
  8
0
100
AcDbSpline
 62
7
  6
CONTINUOUS
 70
0
 71
3
 72
9
 73
5
 74
0
 42
0.0000001
 43
0.0000001
 44
0.0000000001
 40
0.0
 40
0.0
 40
0.0
 40
0.0
 40
0.3186382091
 40
1.0
 40
1.0
 40
1.0
 40
1.0
 10
571.0998205993
 20
460.0996555113
 30
0.0
 10
571.1339142288
 20
460.0996562997
 30
0.0
 10
571.2409115581
 20
460.0990771789
 30
0.0
 10
571.3479096428
 20
460.0996549816
 30
0.0
 10
571.4208139455
 20
460.0996547034
 30
0.0
  0
SPLINE
  5
55B
100
AcDbEntity
  8
0
100
AcDbSpline
 62
7
  6
CONTINUOUS
 70
0
 71
3
 72
13
 73
9
 74
0
 42
0.0000001
 43
0.0000001
 44
0.0000000001
 40
0.0
 40
0.0
 40
0.0
 40
0.0
 40
0.0420361503
 40
0.1089234195
 40
0.201481207
 40
0.3185290295
 40
0.6196108814
 40
1.0
 40
1.0
 40
1.0
 40
1.0
 10
220.2500790594
 20
439.2158025283
 30
0.0
 10
220.2505151037
 20
439.2201496584
 30
0.0
 10
220.2458591147
 20
439.2312969268
 30
0.0
 10
220.2341296264
 20
439.2482492112
 30
0.0
 10
220.2164247833
 20
439.2710767875
 30
0.0
 10
220.1833481569
 20
439.3124893673
 30
0.0
 10
220.1330743541
 20
439.3786227114
 30
0.0
 10
220.093803626
 20
439.4376281012
 30
0.0
 10
220.0729426007
 20
439.4712113298
 30
0.0
  0
SPLINE
  5
55C
100
AcDbEntity
  8
0
100
AcDbSpline
 62
7
  6
CONTINUOUS
 70
0
 71
3
 72
10
 73
6
 74
0
 42
0.0000001
 43
0.0000001
 44
0.0000000001
 40
0.0
 40
0.0
 40
0.0
 40
0.0
 40
0.4569456882
 40
0.7206623456
 40
1.0
 40
1.0
 40
1.0
 40
1.0
 10
222.6177185119
 20
440.1996547057
 30
0.0
 10
222.4919930268
 20
440.1996547057
 30
0.0
 10
222.2934567719
 20
440.1977013863
 30
0.0
 10
222.019171537
 20
440.2202954016
 30
0.0
 10
221.8723240962
 20
440.2580444948
 30
0.0
 10
221.8025026035
 20
440.2901706199
 30
0.0
  0
SPLINE
  5
55D
100
AcDbEntity
  8
0
100
AcDbSpline
 62
7
  6
CONTINUOUS
 70
0
 71
3
 72
9
 73
5
 74
0
 42
0.0000001
 43
0.0000001
 44
0.0000000001
 40
0.0
 40
0.0
 40
0.0
 40
0.0
 40
0.2554320963
 40
1.0
 40
1.0
 40
1.0
 40
1.0
 10
221.8025026035
 20
440.2901706199
 30
0.0
 10
221.7663376204
 20
440.30680874
 30
0.0
 10
221.6285302885
 20
440.3800436964
 30
0.0
 10
221.5073872505
 20
440.4832664193
 30
0.0
 10
221.4306727393
 20
440.5703302723
 30
0.0
  0
SPLINE
  5
55E
100
AcDbEntity
  8
0
100
AcDbSpline
 62
7
  6
CONTINUOUS
 70
0
 71
3
 72
9
 73
5
 74
0
 42
0.0000001
 43
0.0000001
 44
0.0000000001
 40
0.0
 40
0.0
 40
0.0
 40
0.0
 40
0.454967256
 40
1.0
 40
1.0
 40
1.0
 40
1.0
 10
220.0729426007
 20
439.4712113298
 30
0.0
 10
220.0034064414
 20
439.5831806178
 30
0.0
 10
219.9037998798
 20
439.8619772367
 30
0.0
 10
219.8837214671
 20
440.1539029792
 30
0.0
 10
219.89022515
 20
440.3116654244
 30
0.0
  0
SPLINE
  5
55F
100
AcDbEntity
  8
0
100
AcDbSpline
 62
7
  6
CONTINUOUS
 70
0
 71
3
 72
11
 73
7
 74
0
 42
0.0000001
 43
0.0000001
 44
0.0000000001
 40
0.0
 40
0.0
 40
0.0
 40
0.0
 40
0.4236450864
 40
0.7389806505
 40
0.9336535618
 40
1.0
 40
1.0
 40
1.0
 40
1.0
 10
228.8434676428
 20
438.7513933958
 30
0.0
 10
228.8428632555
 20
438.6887968304
 30
0.0
 10
228.8436494125
 20
438.5795994078
 30
0.0
 10
228.8436411193
 20
438.4416363381
 30
0.0
 10
228.8431571757
 20
438.3564785866
 30
0.0
 10
228.8437259227
 20
438.3179020505
 30
0.0
 10
228.8434820685
 20
438.3081014702
 30
0.0
  0
SPLINE
  5
560
100
AcDbEntity
  8
0
100
AcDbSpline
 62
7
  6
CONTINUOUS
 70
0
 71
3
 72
21
 73
17
 74
0
 42
0.0000001
 43
0.0000001
 44
0.0000000001
 40
0.0
 40
0.0
 40
0.0
 40
0.0
 40
0.0010472257
 40
0.0041920536
 40
0.0094220733
 40
0.0167246608
 40
0.0375055368
 40
0.0664726038
 40
0.1035779704
 40
0.1487034702
 40
0.2016937865
 40
0.2623919677
 40
0.4062266052
 40
0.5785606728
 40
0.7774217171
 40
1.0
 40
1.0
 40
1.0
 40
1.0
 10
229.4087947616
 20
438.3411266986
 30
0.0
 10
229.4086105221
 20
438.3410942983
 30
0.0
 10
229.408882289
 20
438.3423649817
 30
0.0
 10
229.4083940183
 20
438.3435336933
 30
0.0
 10
229.4083046208
 20
438.3466069661
 30
0.0
 10
229.4075221547
 20
438.3523468021
 30
0.0
 10
229.4062090027
 20
438.362572007
 30
0.0
 10
229.4035232194
 20
438.3778010999
 30
0.0
 10
229.399506358
 20
438.3972766787
 30
0.0
 10
229.3943568596
 20
438.4208682995
 30
0.0
 10
229.3883271147
 20
438.4485918137
 30
0.0
 10
229.3789144309
 20
438.4936201362
 30
0.0
 10
229.3663457995
 20
438.5597599984
 30
0.0
 10
229.3492415135
 20
438.6501553484
 30
0.0
 10
229.3285310324
 20
438.7541816171
 30
0.0
 10
229.3136093912
 20
438.8279696873
 30
0.0
 10
229.3057438183
 20
438.8669432299
 30
0.0
  0
SPLINE
  5
561
100
AcDbEntity
  8
0
100
AcDbSpline
 62
7
  6
CONTINUOUS
 70
0
 71
3
 72
13
 73
9
 74
0
 42
0.0000001
 43
0.0000001
 44
0.0000000001
 40
0.0
 40
0.0
 40
0.0
 40
0.0
 40
0.4417867255
 40
0.7424157407
 40
0.8424568747
 40
0.9135131836
 40
0.9618176874
 40
1.0
 40
1.0
 40
1.0
 40
1.0
 10
220.0924972941
 20
439.1996550227
 30
0.0
 10
220.1164873972
 20
439.1996564962
 30
0.0
 10
220.1568023846
 20
439.1996937769
 30
0.0
 10
220.2025492047
 20
439.2001490486
 30
0.0
 10
220.2281198928
 20
439.2025828315
 30
0.0
 10
220.2397331489
 20
439.2051340861
 30
0.0
 10
220.247676938
 20
439.2091240465
 30
0.0
 10
220.2498721236
 20
439.2137394876
 30
0.0
 10
220.2500790594
 20
439.2158025283
 30
0.0
  0
SPLINE
  5
562
100
AcDbEntity
  8
0
100
AcDbSpline
 62
7
  6
CONTINUOUS
 70
0
 71
3
 72
9
 73
5
 74
0
 42
0.0000001
 43
0.0000001
 44
0.0000000001
 40
0.0
 40
0.0
 40
0.0
 40
0.0
 40
0.5083169055
 40
1.0
 40
1.0
 40
1.0
 40
1.0
 10
220.7476609026
 20
440.3116654244
 30
0.0
 10
220.8179881033
 20
440.1441869399
 30
0.0
 10
220.9963385103
 20
439.8297530654
 30
0.0
 10
221.2539011094
 20
439.5734075931
 30
0.0
 10
221.3967861042
 20
439.4711590759
 30
0.0
  0
SPLINE
  5
563
100
AcDbEntity
  8
0
100
AcDbSpline
 62
7
  6
CONTINUOUS
 70
0
 71
3
 72
10
 73
6
 74
0
 42
0.0000001
 43
0.0000001
 44
0.0000000001
 40
0.0
 40
0.0
 40
0.0
 40
0.0
 40
0.2502421606
 40
0.5084931178
 40
1.0
 40
1.0
 40
1.0
 40
1.0
 10
221.3967861042
 20
439.4711590759
 30
0.0
 10
221.4830410487
 20
439.4094309879
 30
0.0
 10
221.6755085432
 20
439.3067021945
 30
0.0
 10
222.0887273327
 20
439.1989161657
 30
0.0
 10
222.4093534553
 20
439.1996547066
 30
0.0
 10
222.6176828917
 20
439.1996547066
 30
0.0
  0
SPLINE
  5
564
100
AcDbEntity
  8
0
100
AcDbSpline
 62
7
  6
CONTINUOUS
 70
0
 71
3
 72
13
 73
9
 74
0
 42
0.0000001
 43
0.0000001
 44
0.0000000001
 40
0.0
 40
0.0
 40
0.0
 40
0.0
 40
0.0973808395
 40
0.1990348281
 40
0.3082466394
 40
0.4271544086
 40
0.6955191323
 40
1.0
 40
1.0
 40
1.0
 40
1.0
 10
231.0073702685
 20
445.5877236589
 30
0.0
 10
231.0471174153
 20
445.6106716834
 30
0.0
 10
231.1223344312
 20
445.6688500334
 30
0.0
 10
231.2117346324
 20
445.785070107
 30
0.0
 10
231.2770357465
 20
445.9273665413
 30
0.0
 10
231.3328025194
 20
446.1557943756
 30
0.0
 10
231.3310079668
 20
446.4863838255
 30
0.0
 10
231.2675999395
 20
446.750847279
 30
0.0
 10
231.2215516954
 20
446.8867617718
 30
0.0
  0
SPLINE
  5
565
100
AcDbEntity
  8
0
100
AcDbSpline
 62
7
  6
CONTINUOUS
 70
0
 71
3
 72
13
 73
9
 74
0
 42
0.0000001
 43
0.0000001
 44
0.0000000001
 40
0.0
 40
0.0
 40
0.0
 40
0.0
 40
0.304480867
 40
0.5728455908
 40
0.6917533602
 40
0.8009651718
 40
0.9026191606
 40
1.0
 40
1.0
 40
1.0
 40
1.0
 10
231.2215516954
 20
442.2541402886
 30
0.0
 10
231.267599939
 20
442.3900547797
 30
0.0
 10
231.3310079658
 20
442.6545182301
 30
0.0
 10
231.3328025198
 20
442.9851076764
 30
0.0
 10
231.2770357498
 20
443.2135355091
 30
0.0
 10
231.2117346383
 20
443.3558319432
 30
0.0
 10
231.1223344403
 20
443.4720520176
 30
0.0
 10
231.0471174266
 20
443.530230369
 30
0.0
 10
231.0073702809
 20
443.5531783943
 30
0.0
  0
SPLINE
  5
566
100
AcDbEntity
  8
0
100
AcDbSpline
 62
7
  6
CONTINUOUS
 70
0
 71
3
 72
9
 73
5
 74
0
 42
0.0000001
 43
0.0000001
 44
0.0000000001
 40
0.0
 40
0.0
 40
0.0
 40
0.0
 40
0.2580429844
 40
1.0
 40
1.0
 40
1.0
 40
1.0
 10
229.305725124
 20
438.8669335505
 30
0.0
 10
229.2678185029
 20
438.8912055776
 30
0.0
 10
229.1238158571
 20
438.989691151
 30
0.0
 10
228.9917351451
 20
439.1058127278
 30
0.0
 10
228.9035627906
 20
439.2005540414
 30
0.0
  0
SPLINE
  5
567
100
AcDbEntity
  8
0
100
AcDbSpline
 62
7
  6
CONTINUOUS
 70
0
 71
3
 72
11
 73
7
 74
0
 42
0.0000001
 43
0.0000001
 44
0.0000000001
 40
0.0
 40
0.0
 40
0.0
 40
0.0
 40
0.2057184196
 40
0.4348142159
 40
0.6995016372
 40
1.0
 40
1.0
 40
1.0
 40
1.0
 10
227.8023438912
 20
439.0357630242
 30
0.0
 10
227.8416028531
 20
438.9677645076
 30
0.0
 10
227.9601859579
 20
438.8428417158
 30
0.0
 10
228.2106345825
 20
438.736154623
 30
0.0
 10
228.5151776077
 20
438.7032813838
 30
0.0
 10
228.7310947928
 20
438.7284399014
 30
0.0
 10
228.8434677023
 20
438.7513934079
 30
0.0
  0
SPLINE
  5
568
100
AcDbEntity
  8
0
100
AcDbSpline
 62
7
  6
CONTINUOUS
 70
0
 71
3
 72
13
 73
9
 74
0
 42
0.0000001
 43
0.0000001
 44
0.0000000001
 40
0.0
 40
0.0
 40
0.0
 40
0.0
 40
0.304480867
 40
0.5728455908
 40
0.6917533602
 40
0.8009651718
 40
0.9026191606
 40
1.0
 40
1.0
 40
1.0
 40
1.0
 10
228.6597893433
 20
449.8777277971
 30
0.0
 10
228.5238748522
 20
449.9237760406
 30
0.0
 10
228.2594114018
 20
449.9871840674
 30
0.0
 10
227.9288219556
 20
449.9889786215
 30
0.0
 10
227.7003941228
 20
449.9332118515
 30
0.0
 10
227.5580976887
 20
449.8679107399
 30
0.0
 10
227.4418776144
 20
449.7785105419
 30
0.0
 10
227.3836992629
 20
449.7032935283
 30
0.0
 10
227.3607512376
 20
449.6635463826
 30
0.0
  0
SPLINE
  5
569
100
AcDbEntity
  8
0
100
AcDbSpline
 62
7
  6
CONTINUOUS
 70
0
 71
3
 72
13
 73
9
 74
0
 42
0.0000001
 43
0.0000001
 44
0.0000000001
 40
0.0
 40
0.0
 40
0.0
 40
0.0
 40
0.0420361503
 40
0.1089234195
 40
0.201481207
 40
0.3185290295
 40
0.6196108814
 40
1.0
 40
1.0
 40
1.0
 40
1.0
 10
570.2500790594
 20
439.2158025283
 30
0.0
 10
570.2505151037
 20
439.2201496584
 30
0.0
 10
570.2458591147
 20
439.2312969268
 30
0.0
 10
570.2341296264
 20
439.2482492112
 30
0.0
 10
570.2164247833
 20
439.2710767875
 30
0.0
 10
570.1833481569
 20
439.3124893673
 30
0.0
 10
570.1330743541
 20
439.3786227114
 30
0.0
 10
570.093803626
 20
439.4376281012
 30
0.0
 10
570.0729426007
 20
439.4712113298
 30
0.0
  0
SPLINE
  5
56A
100
AcDbEntity
  8
0
100
AcDbSpline
 62
7
  6
CONTINUOUS
 70
0
 71
3
 72
10
 73
6
 74
0
 42
0.0000001
 43
0.0000001
 44
0.0000000001
 40
0.0
 40
0.0
 40
0.0
 40
0.0
 40
0.4569456882
 40
0.7206623456
 40
1.0
 40
1.0
 40
1.0
 40
1.0
 10
572.6177185119
 20
440.1996547057
 30
0.0
 10
572.4919930268
 20
440.1996547057
 30
0.0
 10
572.2934567719
 20
440.1977013863
 30
0.0
 10
572.019171537
 20
440.2202954016
 30
0.0
 10
571.8723240962
 20
440.2580444948
 30
0.0
 10
571.8025026035
 20
440.2901706199
 30
0.0
  0
SPLINE
  5
56B
100
AcDbEntity
  8
0
100
AcDbSpline
 62
7
  6
CONTINUOUS
 70
0
 71
3
 72
9
 73
5
 74
0
 42
0.0000001
 43
0.0000001
 44
0.0000000001
 40
0.0
 40
0.0
 40
0.0
 40
0.0
 40
0.2554320963
 40
1.0
 40
1.0
 40
1.0
 40
1.0
 10
571.8025026035
 20
440.2901706199
 30
0.0
 10
571.7663376204
 20
440.30680874
 30
0.0
 10
571.6285302885
 20
440.3800436964
 30
0.0
 10
571.5073872505
 20
440.4832664193
 30
0.0
 10
571.4306727393
 20
440.5703302723
 30
0.0
  0
SPLINE
  5
56C
100
AcDbEntity
  8
0
100
AcDbSpline
 62
7
  6
CONTINUOUS
 70
0
 71
3
 72
9
 73
5
 74
0
 42
0.0000001
 43
0.0000001
 44
0.0000000001
 40
0.0
 40
0.0
 40
0.0
 40
0.0
 40
0.454967256
 40
1.0
 40
1.0
 40
1.0
 40
1.0
 10
570.0729426007
 20
439.4712113298
 30
0.0
 10
570.0034064414
 20
439.5831806178
 30
0.0
 10
569.9037998798
 20
439.8619772367
 30
0.0
 10
569.8837214671
 20
440.1539029792
 30
0.0
 10
569.89022515
 20
440.3116654244
 30
0.0
  0
SPLINE
  5
56D
100
AcDbEntity
  8
0
100
AcDbSpline
 62
7
  6
CONTINUOUS
 70
0
 71
3
 72
11
 73
7
 74
0
 42
0.0000001
 43
0.0000001
 44
0.0000000001
 40
0.0
 40
0.0
 40
0.0
 40
0.0
 40
0.4236450864
 40
0.7389806505
 40
0.9336535618
 40
1.0
 40
1.0
 40
1.0
 40
1.0
 10
578.8434676428
 20
438.7513933958
 30
0.0
 10
578.8428632555
 20
438.6887968304
 30
0.0
 10
578.8436494125
 20
438.5795994078
 30
0.0
 10
578.8436411193
 20
438.4416363381
 30
0.0
 10
578.8431571757
 20
438.3564785866
 30
0.0
 10
578.8437259227
 20
438.3179020505
 30
0.0
 10
578.8434820685
 20
438.3081014702
 30
0.0
  0
SPLINE
  5
56E
100
AcDbEntity
  8
0
100
AcDbSpline
 62
7
  6
CONTINUOUS
 70
0
 71
3
 72
21
 73
17
 74
0
 42
0.0000001
 43
0.0000001
 44
0.0000000001
 40
0.0
 40
0.0
 40
0.0
 40
0.0
 40
0.0010472257
 40
0.0041920536
 40
0.0094220733
 40
0.0167246608
 40
0.0375055368
 40
0.0664726038
 40
0.1035779704
 40
0.1487034702
 40
0.2016937865
 40
0.2623919677
 40
0.4062266052
 40
0.5785606728
 40
0.7774217171
 40
1.0
 40
1.0
 40
1.0
 40
1.0
 10
579.4087947616
 20
438.3411266986
 30
0.0
 10
579.4086105221
 20
438.3410942983
 30
0.0
 10
579.408882289
 20
438.3423649817
 30
0.0
 10
579.4083940183
 20
438.3435336933
 30
0.0
 10
579.4083046208
 20
438.3466069661
 30
0.0
 10
579.4075221547
 20
438.3523468021
 30
0.0
 10
579.4062090027
 20
438.362572007
 30
0.0
 10
579.4035232194
 20
438.3778010999
 30
0.0
 10
579.399506358
 20
438.3972766787
 30
0.0
 10
579.3943568596
 20
438.4208682995
 30
0.0
 10
579.3883271147
 20
438.4485918137
 30
0.0
 10
579.3789144309
 20
438.4936201362
 30
0.0
 10
579.3663457995
 20
438.5597599984
 30
0.0
 10
579.3492415135
 20
438.6501553484
 30
0.0
 10
579.3285310324
 20
438.7541816171
 30
0.0
 10
579.3136093912
 20
438.8279696873
 30
0.0
 10
579.3057438183
 20
438.8669432299
 30
0.0
  0
SPLINE
  5
56F
100
AcDbEntity
  8
0
100
AcDbSpline
 62
7
  6
CONTINUOUS
 70
0
 71
3
 72
13
 73
9
 74
0
 42
0.0000001
 43
0.0000001
 44
0.0000000001
 40
0.0
 40
0.0
 40
0.0
 40
0.0
 40
0.4417867255
 40
0.7424157407
 40
0.8424568747
 40
0.9135131836
 40
0.9618176874
 40
1.0
 40
1.0
 40
1.0
 40
1.0
 10
570.0924972941
 20
439.1996550227
 30
0.0
 10
570.1164873972
 20
439.1996564962
 30
0.0
 10
570.1568023846
 20
439.1996937769
 30
0.0
 10
570.2025492047
 20
439.2001490486
 30
0.0
 10
570.2281198928
 20
439.2025828315
 30
0.0
 10
570.2397331489
 20
439.2051340861
 30
0.0
 10
570.247676938
 20
439.2091240465
 30
0.0
 10
570.2498721236
 20
439.2137394876
 30
0.0
 10
570.2500790594
 20
439.2158025283
 30
0.0
  0
SPLINE
  5
570
100
AcDbEntity
  8
0
100
AcDbSpline
 62
7
  6
CONTINUOUS
 70
0
 71
3
 72
9
 73
5
 74
0
 42
0.0000001
 43
0.0000001
 44
0.0000000001
 40
0.0
 40
0.0
 40
0.0
 40
0.0
 40
0.5083169055
 40
1.0
 40
1.0
 40
1.0
 40
1.0
 10
570.7476609026
 20
440.3116654244
 30
0.0
 10
570.8179881033
 20
440.1441869399
 30
0.0
 10
570.9963385103
 20
439.8297530654
 30
0.0
 10
571.2539011094
 20
439.5734075931
 30
0.0
 10
571.3967861042
 20
439.4711590759
 30
0.0
  0
SPLINE
  5
571
100
AcDbEntity
  8
0
100
AcDbSpline
 62
7
  6
CONTINUOUS
 70
0
 71
3
 72
10
 73
6
 74
0
 42
0.0000001
 43
0.0000001
 44
0.0000000001
 40
0.0
 40
0.0
 40
0.0
 40
0.0
 40
0.2502421606
 40
0.5084931178
 40
1.0
 40
1.0
 40
1.0
 40
1.0
 10
571.3967861042
 20
439.4711590759
 30
0.0
 10
571.4830410487
 20
439.4094309879
 30
0.0
 10
571.6755085432
 20
439.3067021945
 30
0.0
 10
572.0887273327
 20
439.1989161657
 30
0.0
 10
572.4093534553
 20
439.1996547066
 30
0.0
 10
572.6176828917
 20
439.1996547066
 30
0.0
  0
SPLINE
  5
572
100
AcDbEntity
  8
0
100
AcDbSpline
 62
7
  6
CONTINUOUS
 70
0
 71
3
 72
13
 73
9
 74
0
 42
0.0000001
 43
0.0000001
 44
0.0000000001
 40
0.0
 40
0.0
 40
0.0
 40
0.0
 40
0.0973808395
 40
0.1990348281
 40
0.3082466394
 40
0.4271544086
 40
0.6955191323
 40
1.0
 40
1.0
 40
1.0
 40
1.0
 10
581.0073702685
 20
445.5877236589
 30
0.0
 10
581.0471174153
 20
445.6106716834
 30
0.0
 10
581.1223344312
 20
445.6688500334
 30
0.0
 10
581.2117346324
 20
445.785070107
 30
0.0
 10
581.2770357465
 20
445.9273665413
 30
0.0
 10
581.3328025194
 20
446.1557943756
 30
0.0
 10
581.3310079668
 20
446.4863838255
 30
0.0
 10
581.2675999395
 20
446.750847279
 30
0.0
 10
581.2215516954
 20
446.8867617718
 30
0.0
  0
SPLINE
  5
573
100
AcDbEntity
  8
0
100
AcDbSpline
 62
7
  6
CONTINUOUS
 70
0
 71
3
 72
13
 73
9
 74
0
 42
0.0000001
 43
0.0000001
 44
0.0000000001
 40
0.0
 40
0.0
 40
0.0
 40
0.0
 40
0.304480867
 40
0.5728455908
 40
0.6917533602
 40
0.8009651718
 40
0.9026191606
 40
1.0
 40
1.0
 40
1.0
 40
1.0
 10
581.2215516954
 20
442.2541402886
 30
0.0
 10
581.267599939
 20
442.3900547797
 30
0.0
 10
581.3310079658
 20
442.6545182301
 30
0.0
 10
581.3328025198
 20
442.9851076764
 30
0.0
 10
581.2770357498
 20
443.2135355091
 30
0.0
 10
581.2117346383
 20
443.3558319432
 30
0.0
 10
581.1223344403
 20
443.4720520176
 30
0.0
 10
581.0471174266
 20
443.530230369
 30
0.0
 10
581.0073702809
 20
443.5531783943
 30
0.0
  0
SPLINE
  5
574
100
AcDbEntity
  8
0
100
AcDbSpline
 62
7
  6
CONTINUOUS
 70
0
 71
3
 72
9
 73
5
 74
0
 42
0.0000001
 43
0.0000001
 44
0.0000000001
 40
0.0
 40
0.0
 40
0.0
 40
0.0
 40
0.2580429844
 40
1.0
 40
1.0
 40
1.0
 40
1.0
 10
579.305725124
 20
438.8669335505
 30
0.0
 10
579.2678185029
 20
438.8912055776
 30
0.0
 10
579.1238158571
 20
438.989691151
 30
0.0
 10
578.9917351451
 20
439.1058127278
 30
0.0
 10
578.9035627906
 20
439.2005540414
 30
0.0
  0
SPLINE
  5
575
100
AcDbEntity
  8
0
100
AcDbSpline
 62
7
  6
CONTINUOUS
 70
0
 71
3
 72
11
 73
7
 74
0
 42
0.0000001
 43
0.0000001
 44
0.0000000001
 40
0.0
 40
0.0
 40
0.0
 40
0.0
 40
0.2057184196
 40
0.4348142159
 40
0.6995016372
 40
1.0
 40
1.0
 40
1.0
 40
1.0
 10
577.8023438912
 20
439.0357630242
 30
0.0
 10
577.8416028531
 20
438.9677645076
 30
0.0
 10
577.9601859579
 20
438.8428417158
 30
0.0
 10
578.2106345825
 20
438.736154623
 30
0.0
 10
578.5151776077
 20
438.7032813838
 30
0.0
 10
578.7310947928
 20
438.7284399014
 30
0.0
 10
578.8434677023
 20
438.7513934079
 30
0.0
  0
SPLINE
  5
576
100
AcDbEntity
  8
0
100
AcDbSpline
 62
7
  6
CONTINUOUS
 70
0
 71
3
 72
13
 73
9
 74
0
 42
0.0000001
 43
0.0000001
 44
0.0000000001
 40
0.0
 40
0.0
 40
0.0
 40
0.0
 40
0.304480867
 40
0.5728455908
 40
0.6917533602
 40
0.8009651718
 40
0.9026191606
 40
1.0
 40
1.0
 40
1.0
 40
1.0
 10
578.6597893433
 20
449.8777277971
 30
0.0
 10
578.5238748522
 20
449.9237760406
 30
0.0
 10
578.2594114018
 20
449.9871840674
 30
0.0
 10
577.9288219556
 20
449.9889786215
 30
0.0
 10
577.7003941228
 20
449.9332118515
 30
0.0
 10
577.5580976887
 20
449.8679107399
 30
0.0
 10
577.4418776144
 20
449.7785105419
 30
0.0
 10
577.3836992629
 20
449.7032935283
 30
0.0
 10
577.3607512376
 20
449.6635463826
 30
0.0
  0
SPLINE
  5
577
100
AcDbEntity
  8
0
100
AcDbSpline
 62
7
  6
CONTINUOUS
 70
0
 71
3
 72
13
 73
9
 74
0
 42
0.0000001
 43
0.0000001
 44
0.0000000001
 40
0.0
 40
0.0
 40
0.0
 40
0.0
 40
0.0420361503
 40
0.1089234195
 40
0.201481207
 40
0.3185290295
 40
0.6196108814
 40
1.0
 40
1.0
 40
1.0
 40
1.0
 10
270.2500790594
 20
439.2158025283
 30
0.0
 10
270.2505151037
 20
439.2201496584
 30
0.0
 10
270.2458591147
 20
439.2312969268
 30
0.0
 10
270.2341296264
 20
439.2482492112
 30
0.0
 10
270.2164247833
 20
439.2710767875
 30
0.0
 10
270.1833481569
 20
439.3124893673
 30
0.0
 10
270.1330743541
 20
439.3786227114
 30
0.0
 10
270.093803626
 20
439.4376281012
 30
0.0
 10
270.0729426007
 20
439.4712113298
 30
0.0
  0
SPLINE
  5
578
100
AcDbEntity
  8
0
100
AcDbSpline
 62
7
  6
CONTINUOUS
 70
0
 71
3
 72
10
 73
6
 74
0
 42
0.0000001
 43
0.0000001
 44
0.0000000001
 40
0.0
 40
0.0
 40
0.0
 40
0.0
 40
0.4569456882
 40
0.7206623456
 40
1.0
 40
1.0
 40
1.0
 40
1.0
 10
272.6177185119
 20
440.1996547057
 30
0.0
 10
272.4919930268
 20
440.1996547057
 30
0.0
 10
272.2934567719
 20
440.1977013863
 30
0.0
 10
272.019171537
 20
440.2202954016
 30
0.0
 10
271.8723240962
 20
440.2580444948
 30
0.0
 10
271.8025026035
 20
440.2901706199
 30
0.0
  0
SPLINE
  5
579
100
AcDbEntity
  8
0
100
AcDbSpline
 62
7
  6
CONTINUOUS
 70
0
 71
3
 72
9
 73
5
 74
0
 42
0.0000001
 43
0.0000001
 44
0.0000000001
 40
0.0
 40
0.0
 40
0.0
 40
0.0
 40
0.2554320963
 40
1.0
 40
1.0
 40
1.0
 40
1.0
 10
271.8025026035
 20
440.2901706199
 30
0.0
 10
271.7663376204
 20
440.30680874
 30
0.0
 10
271.6285302885
 20
440.3800436964
 30
0.0
 10
271.5073872505
 20
440.4832664193
 30
0.0
 10
271.4306727393
 20
440.5703302723
 30
0.0
  0
SPLINE
  5
57A
100
AcDbEntity
  8
0
100
AcDbSpline
 62
7
  6
CONTINUOUS
 70
0
 71
3
 72
9
 73
5
 74
0
 42
0.0000001
 43
0.0000001
 44
0.0000000001
 40
0.0
 40
0.0
 40
0.0
 40
0.0
 40
0.454967256
 40
1.0
 40
1.0
 40
1.0
 40
1.0
 10
270.0729426007
 20
439.4712113298
 30
0.0
 10
270.0034064414
 20
439.5831806178
 30
0.0
 10
269.9037998798
 20
439.8619772367
 30
0.0
 10
269.8837214671
 20
440.1539029792
 30
0.0
 10
269.89022515
 20
440.3116654244
 30
0.0
  0
SPLINE
  5
57B
100
AcDbEntity
  8
0
100
AcDbSpline
 62
7
  6
CONTINUOUS
 70
0
 71
3
 72
11
 73
7
 74
0
 42
0.0000001
 43
0.0000001
 44
0.0000000001
 40
0.0
 40
0.0
 40
0.0
 40
0.0
 40
0.4236450864
 40
0.7389806505
 40
0.9336535618
 40
1.0
 40
1.0
 40
1.0
 40
1.0
 10
278.8434676428
 20
438.7513933958
 30
0.0
 10
278.8428632555
 20
438.6887968304
 30
0.0
 10
278.8436494125
 20
438.5795994078
 30
0.0
 10
278.8436411193
 20
438.4416363381
 30
0.0
 10
278.8431571757
 20
438.3564785866
 30
0.0
 10
278.8437259227
 20
438.3179020505
 30
0.0
 10
278.8434820685
 20
438.3081014702
 30
0.0
  0
SPLINE
  5
57C
100
AcDbEntity
  8
0
100
AcDbSpline
 62
7
  6
CONTINUOUS
 70
0
 71
3
 72
21
 73
17
 74
0
 42
0.0000001
 43
0.0000001
 44
0.0000000001
 40
0.0
 40
0.0
 40
0.0
 40
0.0
 40
0.0010472257
 40
0.0041920536
 40
0.0094220733
 40
0.0167246608
 40
0.0375055368
 40
0.0664726038
 40
0.1035779704
 40
0.1487034702
 40
0.2016937865
 40
0.2623919677
 40
0.4062266052
 40
0.5785606728
 40
0.7774217171
 40
1.0
 40
1.0
 40
1.0
 40
1.0
 10
279.4087947616
 20
438.3411266986
 30
0.0
 10
279.4086105221
 20
438.3410942983
 30
0.0
 10
279.408882289
 20
438.3423649817
 30
0.0
 10
279.4083940183
 20
438.3435336933
 30
0.0
 10
279.4083046208
 20
438.3466069661
 30
0.0
 10
279.4075221547
 20
438.3523468021
 30
0.0
 10
279.4062090027
 20
438.362572007
 30
0.0
 10
279.4035232194
 20
438.3778010999
 30
0.0
 10
279.399506358
 20
438.3972766787
 30
0.0
 10
279.3943568596
 20
438.4208682995
 30
0.0
 10
279.3883271147
 20
438.4485918137
 30
0.0
 10
279.3789144309
 20
438.4936201362
 30
0.0
 10
279.3663457995
 20
438.5597599984
 30
0.0
 10
279.3492415135
 20
438.6501553484
 30
0.0
 10
279.3285310324
 20
438.7541816171
 30
0.0
 10
279.3136093912
 20
438.8279696873
 30
0.0
 10
279.3057438183
 20
438.8669432299
 30
0.0
  0
SPLINE
  5
57D
100
AcDbEntity
  8
0
100
AcDbSpline
 62
7
  6
CONTINUOUS
 70
0
 71
3
 72
13
 73
9
 74
0
 42
0.0000001
 43
0.0000001
 44
0.0000000001
 40
0.0
 40
0.0
 40
0.0
 40
0.0
 40
0.4417867255
 40
0.7424157407
 40
0.8424568747
 40
0.9135131836
 40
0.9618176874
 40
1.0
 40
1.0
 40
1.0
 40
1.0
 10
270.0924972941
 20
439.1996550227
 30
0.0
 10
270.1164873972
 20
439.1996564962
 30
0.0
 10
270.1568023846
 20
439.1996937769
 30
0.0
 10
270.2025492047
 20
439.2001490486
 30
0.0
 10
270.2281198928
 20
439.2025828315
 30
0.0
 10
270.2397331489
 20
439.2051340861
 30
0.0
 10
270.247676938
 20
439.2091240465
 30
0.0
 10
270.2498721236
 20
439.2137394876
 30
0.0
 10
270.2500790594
 20
439.2158025283
 30
0.0
  0
SPLINE
  5
57E
100
AcDbEntity
  8
0
100
AcDbSpline
 62
7
  6
CONTINUOUS
 70
0
 71
3
 72
9
 73
5
 74
0
 42
0.0000001
 43
0.0000001
 44
0.0000000001
 40
0.0
 40
0.0
 40
0.0
 40
0.0
 40
0.5083169055
 40
1.0
 40
1.0
 40
1.0
 40
1.0
 10
270.7476609026
 20
440.3116654244
 30
0.0
 10
270.8179881033
 20
440.1441869399
 30
0.0
 10
270.9963385103
 20
439.8297530654
 30
0.0
 10
271.2539011094
 20
439.5734075931
 30
0.0
 10
271.3967861042
 20
439.4711590759
 30
0.0
  0
SPLINE
  5
57F
100
AcDbEntity
  8
0
100
AcDbSpline
 62
7
  6
CONTINUOUS
 70
0
 71
3
 72
10
 73
6
 74
0
 42
0.0000001
 43
0.0000001
 44
0.0000000001
 40
0.0
 40
0.0
 40
0.0
 40
0.0
 40
0.2502421606
 40
0.5084931178
 40
1.0
 40
1.0
 40
1.0
 40
1.0
 10
271.3967861042
 20
439.4711590759
 30
0.0
 10
271.4830410487
 20
439.4094309879
 30
0.0
 10
271.6755085432
 20
439.3067021945
 30
0.0
 10
272.0887273327
 20
439.1989161657
 30
0.0
 10
272.4093534553
 20
439.1996547066
 30
0.0
 10
272.6176828917
 20
439.1996547066
 30
0.0
  0
SPLINE
  5
580
100
AcDbEntity
  8
0
100
AcDbSpline
 62
7
  6
CONTINUOUS
 70
0
 71
3
 72
13
 73
9
 74
0
 42
0.0000001
 43
0.0000001
 44
0.0000000001
 40
0.0
 40
0.0
 40
0.0
 40
0.0
 40
0.0973808395
 40
0.1990348281
 40
0.3082466394
 40
0.4271544086
 40
0.6955191323
 40
1.0
 40
1.0
 40
1.0
 40
1.0
 10
281.0073702685
 20
445.5877236589
 30
0.0
 10
281.0471174153
 20
445.6106716834
 30
0.0
 10
281.1223344312
 20
445.6688500334
 30
0.0
 10
281.2117346324
 20
445.785070107
 30
0.0
 10
281.2770357465
 20
445.9273665413
 30
0.0
 10
281.3328025194
 20
446.1557943756
 30
0.0
 10
281.3310079668
 20
446.4863838255
 30
0.0
 10
281.2675999395
 20
446.750847279
 30
0.0
 10
281.2215516954
 20
446.8867617718
 30
0.0
  0
SPLINE
  5
581
100
AcDbEntity
  8
0
100
AcDbSpline
 62
7
  6
CONTINUOUS
 70
0
 71
3
 72
13
 73
9
 74
0
 42
0.0000001
 43
0.0000001
 44
0.0000000001
 40
0.0
 40
0.0
 40
0.0
 40
0.0
 40
0.304480867
 40
0.5728455908
 40
0.6917533602
 40
0.8009651718
 40
0.9026191606
 40
1.0
 40
1.0
 40
1.0
 40
1.0
 10
281.2215516954
 20
442.2541402886
 30
0.0
 10
281.267599939
 20
442.3900547797
 30
0.0
 10
281.3310079658
 20
442.6545182301
 30
0.0
 10
281.3328025198
 20
442.9851076764
 30
0.0
 10
281.2770357498
 20
443.2135355091
 30
0.0
 10
281.2117346383
 20
443.3558319432
 30
0.0
 10
281.1223344403
 20
443.4720520176
 30
0.0
 10
281.0471174266
 20
443.530230369
 30
0.0
 10
281.0073702809
 20
443.5531783943
 30
0.0
  0
SPLINE
  5
582
100
AcDbEntity
  8
0
100
AcDbSpline
 62
7
  6
CONTINUOUS
 70
0
 71
3
 72
9
 73
5
 74
0
 42
0.0000001
 43
0.0000001
 44
0.0000000001
 40
0.0
 40
0.0
 40
0.0
 40
0.0
 40
0.2580429844
 40
1.0
 40
1.0
 40
1.0
 40
1.0
 10
279.305725124
 20
438.8669335505
 30
0.0
 10
279.2678185029
 20
438.8912055776
 30
0.0
 10
279.1238158571
 20
438.989691151
 30
0.0
 10
278.9917351451
 20
439.1058127278
 30
0.0
 10
278.9035627906
 20
439.2005540414
 30
0.0
  0
SPLINE
  5
583
100
AcDbEntity
  8
0
100
AcDbSpline
 62
7
  6
CONTINUOUS
 70
0
 71
3
 72
11
 73
7
 74
0
 42
0.0000001
 43
0.0000001
 44
0.0000000001
 40
0.0
 40
0.0
 40
0.0
 40
0.0
 40
0.2057184196
 40
0.4348142159
 40
0.6995016372
 40
1.0
 40
1.0
 40
1.0
 40
1.0
 10
277.8023438912
 20
439.0357630242
 30
0.0
 10
277.8416028531
 20
438.9677645076
 30
0.0
 10
277.9601859579
 20
438.8428417158
 30
0.0
 10
278.2106345825
 20
438.736154623
 30
0.0
 10
278.5151776077
 20
438.7032813838
 30
0.0
 10
278.7310947928
 20
438.7284399014
 30
0.0
 10
278.8434677023
 20
438.7513934079
 30
0.0
  0
SPLINE
  5
584
100
AcDbEntity
  8
0
100
AcDbSpline
 62
7
  6
CONTINUOUS
 70
0
 71
3
 72
13
 73
9
 74
0
 42
0.0000001
 43
0.0000001
 44
0.0000000001
 40
0.0
 40
0.0
 40
0.0
 40
0.0
 40
0.304480867
 40
0.5728455908
 40
0.6917533602
 40
0.8009651718
 40
0.9026191606
 40
1.0
 40
1.0
 40
1.0
 40
1.0
 10
278.6597893433
 20
449.8777277971
 30
0.0
 10
278.5238748522
 20
449.9237760406
 30
0.0
 10
278.2594114018
 20
449.9871840674
 30
0.0
 10
277.9288219556
 20
449.9889786215
 30
0.0
 10
277.7003941228
 20
449.9332118515
 30
0.0
 10
277.5580976887
 20
449.8679107399
 30
0.0
 10
277.4418776144
 20
449.7785105419
 30
0.0
 10
277.3836992629
 20
449.7032935283
 30
0.0
 10
277.3607512376
 20
449.6635463826
 30
0.0
  0
SPLINE
  5
585
100
AcDbEntity
  8
0
100
AcDbSpline
 62
7
  6
CONTINUOUS
 70
0
 71
3
 72
13
 73
9
 74
0
 42
0.0000001
 43
0.0000001
 44
0.0000000001
 40
0.0
 40
0.0
 40
0.0
 40
0.0
 40
0.0420361503
 40
0.1089234195
 40
0.201481207
 40
0.3185290295
 40
0.6196108814
 40
1.0
 40
1.0
 40
1.0
 40
1.0
 10
320.2500790594
 20
439.2158025283
 30
0.0
 10
320.2505151037
 20
439.2201496584
 30
0.0
 10
320.2458591147
 20
439.2312969268
 30
0.0
 10
320.2341296264
 20
439.2482492112
 30
0.0
 10
320.2164247833
 20
439.2710767875
 30
0.0
 10
320.1833481569
 20
439.3124893673
 30
0.0
 10
320.1330743541
 20
439.3786227114
 30
0.0
 10
320.093803626
 20
439.4376281012
 30
0.0
 10
320.0729426007
 20
439.4712113298
 30
0.0
  0
SPLINE
  5
586
100
AcDbEntity
  8
0
100
AcDbSpline
 62
7
  6
CONTINUOUS
 70
0
 71
3
 72
10
 73
6
 74
0
 42
0.0000001
 43
0.0000001
 44
0.0000000001
 40
0.0
 40
0.0
 40
0.0
 40
0.0
 40
0.4569456882
 40
0.7206623456
 40
1.0
 40
1.0
 40
1.0
 40
1.0
 10
322.6177185119
 20
440.1996547057
 30
0.0
 10
322.4919930268
 20
440.1996547057
 30
0.0
 10
322.2934567719
 20
440.1977013863
 30
0.0
 10
322.019171537
 20
440.2202954016
 30
0.0
 10
321.8723240962
 20
440.2580444948
 30
0.0
 10
321.8025026035
 20
440.2901706199
 30
0.0
  0
SPLINE
  5
587
100
AcDbEntity
  8
0
100
AcDbSpline
 62
7
  6
CONTINUOUS
 70
0
 71
3
 72
9
 73
5
 74
0
 42
0.0000001
 43
0.0000001
 44
0.0000000001
 40
0.0
 40
0.0
 40
0.0
 40
0.0
 40
0.2554320963
 40
1.0
 40
1.0
 40
1.0
 40
1.0
 10
321.8025026035
 20
440.2901706199
 30
0.0
 10
321.7663376204
 20
440.30680874
 30
0.0
 10
321.6285302885
 20
440.3800436964
 30
0.0
 10
321.5073872505
 20
440.4832664193
 30
0.0
 10
321.4306727393
 20
440.5703302723
 30
0.0
  0
SPLINE
  5
588
100
AcDbEntity
  8
0
100
AcDbSpline
 62
7
  6
CONTINUOUS
 70
0
 71
3
 72
9
 73
5
 74
0
 42
0.0000001
 43
0.0000001
 44
0.0000000001
 40
0.0
 40
0.0
 40
0.0
 40
0.0
 40
0.454967256
 40
1.0
 40
1.0
 40
1.0
 40
1.0
 10
320.0729426007
 20
439.4712113298
 30
0.0
 10
320.0034064414
 20
439.5831806178
 30
0.0
 10
319.9037998798
 20
439.8619772367
 30
0.0
 10
319.8837214671
 20
440.1539029792
 30
0.0
 10
319.89022515
 20
440.3116654244
 30
0.0
  0
SPLINE
  5
589
100
AcDbEntity
  8
0
100
AcDbSpline
 62
7
  6
CONTINUOUS
 70
0
 71
3
 72
11
 73
7
 74
0
 42
0.0000001
 43
0.0000001
 44
0.0000000001
 40
0.0
 40
0.0
 40
0.0
 40
0.0
 40
0.4236450864
 40
0.7389806505
 40
0.9336535618
 40
1.0
 40
1.0
 40
1.0
 40
1.0
 10
328.8434676428
 20
438.7513933958
 30
0.0
 10
328.8428632555
 20
438.6887968304
 30
0.0
 10
328.8436494125
 20
438.5795994078
 30
0.0
 10
328.8436411193
 20
438.4416363381
 30
0.0
 10
328.8431571757
 20
438.3564785866
 30
0.0
 10
328.8437259227
 20
438.3179020505
 30
0.0
 10
328.8434820685
 20
438.3081014702
 30
0.0
  0
SPLINE
  5
58A
100
AcDbEntity
  8
0
100
AcDbSpline
 62
7
  6
CONTINUOUS
 70
0
 71
3
 72
21
 73
17
 74
0
 42
0.0000001
 43
0.0000001
 44
0.0000000001
 40
0.0
 40
0.0
 40
0.0
 40
0.0
 40
0.0010472257
 40
0.0041920536
 40
0.0094220733
 40
0.0167246608
 40
0.0375055368
 40
0.0664726038
 40
0.1035779704
 40
0.1487034702
 40
0.2016937865
 40
0.2623919677
 40
0.4062266052
 40
0.5785606728
 40
0.7774217171
 40
1.0
 40
1.0
 40
1.0
 40
1.0
 10
329.4087947616
 20
438.3411266986
 30
0.0
 10
329.4086105221
 20
438.3410942983
 30
0.0
 10
329.408882289
 20
438.3423649817
 30
0.0
 10
329.4083940183
 20
438.3435336933
 30
0.0
 10
329.4083046208
 20
438.3466069661
 30
0.0
 10
329.4075221547
 20
438.3523468021
 30
0.0
 10
329.4062090027
 20
438.362572007
 30
0.0
 10
329.4035232194
 20
438.3778010999
 30
0.0
 10
329.399506358
 20
438.3972766787
 30
0.0
 10
329.3943568596
 20
438.4208682995
 30
0.0
 10
329.3883271147
 20
438.4485918137
 30
0.0
 10
329.3789144309
 20
438.4936201362
 30
0.0
 10
329.3663457995
 20
438.5597599984
 30
0.0
 10
329.3492415135
 20
438.6501553484
 30
0.0
 10
329.3285310324
 20
438.7541816171
 30
0.0
 10
329.3136093912
 20
438.8279696873
 30
0.0
 10
329.3057438183
 20
438.8669432299
 30
0.0
  0
SPLINE
  5
58B
100
AcDbEntity
  8
0
100
AcDbSpline
 62
7
  6
CONTINUOUS
 70
0
 71
3
 72
13
 73
9
 74
0
 42
0.0000001
 43
0.0000001
 44
0.0000000001
 40
0.0
 40
0.0
 40
0.0
 40
0.0
 40
0.4417867255
 40
0.7424157407
 40
0.8424568747
 40
0.9135131836
 40
0.9618176874
 40
1.0
 40
1.0
 40
1.0
 40
1.0
 10
320.0924972941
 20
439.1996550227
 30
0.0
 10
320.1164873972
 20
439.1996564962
 30
0.0
 10
320.1568023846
 20
439.1996937769
 30
0.0
 10
320.2025492047
 20
439.2001490486
 30
0.0
 10
320.2281198928
 20
439.2025828315
 30
0.0
 10
320.2397331489
 20
439.2051340861
 30
0.0
 10
320.247676938
 20
439.2091240465
 30
0.0
 10
320.2498721236
 20
439.2137394876
 30
0.0
 10
320.2500790594
 20
439.2158025283
 30
0.0
  0
SPLINE
  5
58C
100
AcDbEntity
  8
0
100
AcDbSpline
 62
7
  6
CONTINUOUS
 70
0
 71
3
 72
9
 73
5
 74
0
 42
0.0000001
 43
0.0000001
 44
0.0000000001
 40
0.0
 40
0.0
 40
0.0
 40
0.0
 40
0.5083169055
 40
1.0
 40
1.0
 40
1.0
 40
1.0
 10
320.7476609026
 20
440.3116654244
 30
0.0
 10
320.8179881033
 20
440.1441869399
 30
0.0
 10
320.9963385103
 20
439.8297530654
 30
0.0
 10
321.2539011094
 20
439.5734075931
 30
0.0
 10
321.3967861042
 20
439.4711590759
 30
0.0
  0
SPLINE
  5
58D
100
AcDbEntity
  8
0
100
AcDbSpline
 62
7
  6
CONTINUOUS
 70
0
 71
3
 72
10
 73
6
 74
0
 42
0.0000001
 43
0.0000001
 44
0.0000000001
 40
0.0
 40
0.0
 40
0.0
 40
0.0
 40
0.2502421606
 40
0.5084931178
 40
1.0
 40
1.0
 40
1.0
 40
1.0
 10
321.3967861042
 20
439.4711590759
 30
0.0
 10
321.4830410487
 20
439.4094309879
 30
0.0
 10
321.6755085432
 20
439.3067021945
 30
0.0
 10
322.0887273327
 20
439.1989161657
 30
0.0
 10
322.4093534553
 20
439.1996547066
 30
0.0
 10
322.6176828917
 20
439.1996547066
 30
0.0
  0
SPLINE
  5
58E
100
AcDbEntity
  8
0
100
AcDbSpline
 62
7
  6
CONTINUOUS
 70
0
 71
3
 72
13
 73
9
 74
0
 42
0.0000001
 43
0.0000001
 44
0.0000000001
 40
0.0
 40
0.0
 40
0.0
 40
0.0
 40
0.0973808395
 40
0.1990348281
 40
0.3082466394
 40
0.4271544086
 40
0.6955191323
 40
1.0
 40
1.0
 40
1.0
 40
1.0
 10
331.0073702685
 20
445.5877236589
 30
0.0
 10
331.0471174153
 20
445.6106716834
 30
0.0
 10
331.1223344312
 20
445.6688500334
 30
0.0
 10
331.2117346324
 20
445.785070107
 30
0.0
 10
331.2770357465
 20
445.9273665413
 30
0.0
 10
331.3328025194
 20
446.1557943756
 30
0.0
 10
331.3310079668
 20
446.4863838255
 30
0.0
 10
331.2675999395
 20
446.750847279
 30
0.0
 10
331.2215516954
 20
446.8867617718
 30
0.0
  0
SPLINE
  5
58F
100
AcDbEntity
  8
0
100
AcDbSpline
 62
7
  6
CONTINUOUS
 70
0
 71
3
 72
13
 73
9
 74
0
 42
0.0000001
 43
0.0000001
 44
0.0000000001
 40
0.0
 40
0.0
 40
0.0
 40
0.0
 40
0.304480867
 40
0.5728455908
 40
0.6917533602
 40
0.8009651718
 40
0.9026191606
 40
1.0
 40
1.0
 40
1.0
 40
1.0
 10
331.2215516954
 20
442.2541402886
 30
0.0
 10
331.267599939
 20
442.3900547797
 30
0.0
 10
331.3310079658
 20
442.6545182301
 30
0.0
 10
331.3328025198
 20
442.9851076764
 30
0.0
 10
331.2770357498
 20
443.2135355091
 30
0.0
 10
331.2117346383
 20
443.3558319432
 30
0.0
 10
331.1223344403
 20
443.4720520176
 30
0.0
 10
331.0471174266
 20
443.530230369
 30
0.0
 10
331.0073702809
 20
443.5531783943
 30
0.0
  0
SPLINE
  5
590
100
AcDbEntity
  8
0
100
AcDbSpline
 62
7
  6
CONTINUOUS
 70
0
 71
3
 72
9
 73
5
 74
0
 42
0.0000001
 43
0.0000001
 44
0.0000000001
 40
0.0
 40
0.0
 40
0.0
 40
0.0
 40
0.2580429844
 40
1.0
 40
1.0
 40
1.0
 40
1.0
 10
329.305725124
 20
438.8669335505
 30
0.0
 10
329.2678185029
 20
438.8912055776
 30
0.0
 10
329.1238158571
 20
438.989691151
 30
0.0
 10
328.9917351451
 20
439.1058127278
 30
0.0
 10
328.9035627906
 20
439.2005540414
 30
0.0
  0
SPLINE
  5
591
100
AcDbEntity
  8
0
100
AcDbSpline
 62
7
  6
CONTINUOUS
 70
0
 71
3
 72
11
 73
7
 74
0
 42
0.0000001
 43
0.0000001
 44
0.0000000001
 40
0.0
 40
0.0
 40
0.0
 40
0.0
 40
0.2057184196
 40
0.4348142159
 40
0.6995016372
 40
1.0
 40
1.0
 40
1.0
 40
1.0
 10
327.8023438912
 20
439.0357630242
 30
0.0
 10
327.8416028531
 20
438.9677645076
 30
0.0
 10
327.9601859579
 20
438.8428417158
 30
0.0
 10
328.2106345825
 20
438.736154623
 30
0.0
 10
328.5151776077
 20
438.7032813838
 30
0.0
 10
328.7310947928
 20
438.7284399014
 30
0.0
 10
328.8434677023
 20
438.7513934079
 30
0.0
  0
SPLINE
  5
592
100
AcDbEntity
  8
0
100
AcDbSpline
 62
7
  6
CONTINUOUS
 70
0
 71
3
 72
13
 73
9
 74
0
 42
0.0000001
 43
0.0000001
 44
0.0000000001
 40
0.0
 40
0.0
 40
0.0
 40
0.0
 40
0.304480867
 40
0.5728455908
 40
0.6917533602
 40
0.8009651718
 40
0.9026191606
 40
1.0
 40
1.0
 40
1.0
 40
1.0
 10
328.6597893433
 20
449.8777277971
 30
0.0
 10
328.5238748522
 20
449.9237760406
 30
0.0
 10
328.2594114018
 20
449.9871840674
 30
0.0
 10
327.9288219556
 20
449.9889786215
 30
0.0
 10
327.7003941228
 20
449.9332118515
 30
0.0
 10
327.5580976887
 20
449.8679107399
 30
0.0
 10
327.4418776144
 20
449.7785105419
 30
0.0
 10
327.3836992629
 20
449.7032935283
 30
0.0
 10
327.3607512376
 20
449.6635463826
 30
0.0
  0
SPLINE
  5
593
100
AcDbEntity
  8
0
100
AcDbSpline
 62
7
  6
CONTINUOUS
 70
0
 71
3
 72
13
 73
9
 74
0
 42
0.0000001
 43
0.0000001
 44
0.0000000001
 40
0.0
 40
0.0
 40
0.0
 40
0.0
 40
0.0420361503
 40
0.1089234195
 40
0.201481207
 40
0.3185290295
 40
0.6196108814
 40
1.0
 40
1.0
 40
1.0
 40
1.0
 10
520.2500790594
 20
439.2158025283
 30
0.0
 10
520.2505151037
 20
439.2201496584
 30
0.0
 10
520.2458591147
 20
439.2312969268
 30
0.0
 10
520.2341296264
 20
439.2482492112
 30
0.0
 10
520.2164247833
 20
439.2710767875
 30
0.0
 10
520.1833481569
 20
439.3124893673
 30
0.0
 10
520.1330743541
 20
439.3786227114
 30
0.0
 10
520.093803626
 20
439.4376281012
 30
0.0
 10
520.0729426007
 20
439.4712113298
 30
0.0
  0
SPLINE
  5
594
100
AcDbEntity
  8
0
100
AcDbSpline
 62
7
  6
CONTINUOUS
 70
0
 71
3
 72
10
 73
6
 74
0
 42
0.0000001
 43
0.0000001
 44
0.0000000001
 40
0.0
 40
0.0
 40
0.0
 40
0.0
 40
0.4569456882
 40
0.7206623456
 40
1.0
 40
1.0
 40
1.0
 40
1.0
 10
522.6177185119
 20
440.1996547057
 30
0.0
 10
522.4919930268
 20
440.1996547057
 30
0.0
 10
522.2934567719
 20
440.1977013863
 30
0.0
 10
522.019171537
 20
440.2202954016
 30
0.0
 10
521.8723240962
 20
440.2580444948
 30
0.0
 10
521.8025026035
 20
440.2901706199
 30
0.0
  0
SPLINE
  5
595
100
AcDbEntity
  8
0
100
AcDbSpline
 62
7
  6
CONTINUOUS
 70
0
 71
3
 72
9
 73
5
 74
0
 42
0.0000001
 43
0.0000001
 44
0.0000000001
 40
0.0
 40
0.0
 40
0.0
 40
0.0
 40
0.2554320963
 40
1.0
 40
1.0
 40
1.0
 40
1.0
 10
521.8025026035
 20
440.2901706199
 30
0.0
 10
521.7663376204
 20
440.30680874
 30
0.0
 10
521.6285302885
 20
440.3800436964
 30
0.0
 10
521.5073872505
 20
440.4832664193
 30
0.0
 10
521.4306727393
 20
440.5703302723
 30
0.0
  0
SPLINE
  5
596
100
AcDbEntity
  8
0
100
AcDbSpline
 62
7
  6
CONTINUOUS
 70
0
 71
3
 72
9
 73
5
 74
0
 42
0.0000001
 43
0.0000001
 44
0.0000000001
 40
0.0
 40
0.0
 40
0.0
 40
0.0
 40
0.454967256
 40
1.0
 40
1.0
 40
1.0
 40
1.0
 10
520.0729426007
 20
439.4712113298
 30
0.0
 10
520.0034064414
 20
439.5831806178
 30
0.0
 10
519.9037998798
 20
439.8619772367
 30
0.0
 10
519.8837214671
 20
440.1539029792
 30
0.0
 10
519.89022515
 20
440.3116654244
 30
0.0
  0
SPLINE
  5
597
100
AcDbEntity
  8
0
100
AcDbSpline
 62
7
  6
CONTINUOUS
 70
0
 71
3
 72
11
 73
7
 74
0
 42
0.0000001
 43
0.0000001
 44
0.0000000001
 40
0.0
 40
0.0
 40
0.0
 40
0.0
 40
0.4236450864
 40
0.7389806505
 40
0.9336535618
 40
1.0
 40
1.0
 40
1.0
 40
1.0
 10
528.8434676428
 20
438.7513933958
 30
0.0
 10
528.8428632555
 20
438.6887968304
 30
0.0
 10
528.8436494125
 20
438.5795994078
 30
0.0
 10
528.8436411193
 20
438.4416363381
 30
0.0
 10
528.8431571757
 20
438.3564785866
 30
0.0
 10
528.8437259227
 20
438.3179020505
 30
0.0
 10
528.8434820685
 20
438.3081014702
 30
0.0
  0
SPLINE
  5
598
100
AcDbEntity
  8
0
100
AcDbSpline
 62
7
  6
CONTINUOUS
 70
0
 71
3
 72
21
 73
17
 74
0
 42
0.0000001
 43
0.0000001
 44
0.0000000001
 40
0.0
 40
0.0
 40
0.0
 40
0.0
 40
0.0010472257
 40
0.0041920536
 40
0.0094220733
 40
0.0167246608
 40
0.0375055368
 40
0.0664726038
 40
0.1035779704
 40
0.1487034702
 40
0.2016937865
 40
0.2623919677
 40
0.4062266052
 40
0.5785606728
 40
0.7774217171
 40
1.0
 40
1.0
 40
1.0
 40
1.0
 10
529.4087947616
 20
438.3411266986
 30
0.0
 10
529.4086105221
 20
438.3410942983
 30
0.0
 10
529.408882289
 20
438.3423649817
 30
0.0
 10
529.4083940183
 20
438.3435336933
 30
0.0
 10
529.4083046208
 20
438.3466069661
 30
0.0
 10
529.4075221547
 20
438.3523468021
 30
0.0
 10
529.4062090027
 20
438.362572007
 30
0.0
 10
529.4035232194
 20
438.3778010999
 30
0.0
 10
529.399506358
 20
438.3972766787
 30
0.0
 10
529.3943568596
 20
438.4208682995
 30
0.0
 10
529.3883271147
 20
438.4485918137
 30
0.0
 10
529.3789144309
 20
438.4936201362
 30
0.0
 10
529.3663457995
 20
438.5597599984
 30
0.0
 10
529.3492415135
 20
438.6501553484
 30
0.0
 10
529.3285310324
 20
438.7541816171
 30
0.0
 10
529.3136093912
 20
438.8279696873
 30
0.0
 10
529.3057438183
 20
438.8669432299
 30
0.0
  0
SPLINE
  5
599
100
AcDbEntity
  8
0
100
AcDbSpline
 62
7
  6
CONTINUOUS
 70
0
 71
3
 72
13
 73
9
 74
0
 42
0.0000001
 43
0.0000001
 44
0.0000000001
 40
0.0
 40
0.0
 40
0.0
 40
0.0
 40
0.4417867255
 40
0.7424157407
 40
0.8424568747
 40
0.9135131836
 40
0.9618176874
 40
1.0
 40
1.0
 40
1.0
 40
1.0
 10
520.0924972941
 20
439.1996550227
 30
0.0
 10
520.1164873972
 20
439.1996564962
 30
0.0
 10
520.1568023846
 20
439.1996937769
 30
0.0
 10
520.2025492047
 20
439.2001490486
 30
0.0
 10
520.2281198928
 20
439.2025828315
 30
0.0
 10
520.2397331489
 20
439.2051340861
 30
0.0
 10
520.247676938
 20
439.2091240465
 30
0.0
 10
520.2498721236
 20
439.2137394876
 30
0.0
 10
520.2500790594
 20
439.2158025283
 30
0.0
  0
SPLINE
  5
59A
100
AcDbEntity
  8
0
100
AcDbSpline
 62
7
  6
CONTINUOUS
 70
0
 71
3
 72
9
 73
5
 74
0
 42
0.0000001
 43
0.0000001
 44
0.0000000001
 40
0.0
 40
0.0
 40
0.0
 40
0.0
 40
0.5083169055
 40
1.0
 40
1.0
 40
1.0
 40
1.0
 10
520.7476609026
 20
440.3116654244
 30
0.0
 10
520.8179881033
 20
440.1441869399
 30
0.0
 10
520.9963385103
 20
439.8297530654
 30
0.0
 10
521.2539011094
 20
439.5734075931
 30
0.0
 10
521.3967861042
 20
439.4711590759
 30
0.0
  0
SPLINE
  5
59B
100
AcDbEntity
  8
0
100
AcDbSpline
 62
7
  6
CONTINUOUS
 70
0
 71
3
 72
10
 73
6
 74
0
 42
0.0000001
 43
0.0000001
 44
0.0000000001
 40
0.0
 40
0.0
 40
0.0
 40
0.0
 40
0.2502421606
 40
0.5084931178
 40
1.0
 40
1.0
 40
1.0
 40
1.0
 10
521.3967861042
 20
439.4711590759
 30
0.0
 10
521.4830410487
 20
439.4094309879
 30
0.0
 10
521.6755085432
 20
439.3067021945
 30
0.0
 10
522.0887273327
 20
439.1989161657
 30
0.0
 10
522.4093534553
 20
439.1996547066
 30
0.0
 10
522.6176828917
 20
439.1996547066
 30
0.0
  0
SPLINE
  5
59C
100
AcDbEntity
  8
0
100
AcDbSpline
 62
7
  6
CONTINUOUS
 70
0
 71
3
 72
13
 73
9
 74
0
 42
0.0000001
 43
0.0000001
 44
0.0000000001
 40
0.0
 40
0.0
 40
0.0
 40
0.0
 40
0.0973808395
 40
0.1990348281
 40
0.3082466394
 40
0.4271544086
 40
0.6955191323
 40
1.0
 40
1.0
 40
1.0
 40
1.0
 10
531.0073702685
 20
445.5877236589
 30
0.0
 10
531.0471174153
 20
445.6106716834
 30
0.0
 10
531.1223344312
 20
445.6688500334
 30
0.0
 10
531.2117346324
 20
445.785070107
 30
0.0
 10
531.2770357465
 20
445.9273665413
 30
0.0
 10
531.3328025194
 20
446.1557943756
 30
0.0
 10
531.3310079668
 20
446.4863838255
 30
0.0
 10
531.2675999395
 20
446.750847279
 30
0.0
 10
531.2215516954
 20
446.8867617718
 30
0.0
  0
SPLINE
  5
59D
100
AcDbEntity
  8
0
100
AcDbSpline
 62
7
  6
CONTINUOUS
 70
0
 71
3
 72
13
 73
9
 74
0
 42
0.0000001
 43
0.0000001
 44
0.0000000001
 40
0.0
 40
0.0
 40
0.0
 40
0.0
 40
0.304480867
 40
0.5728455908
 40
0.6917533602
 40
0.8009651718
 40
0.9026191606
 40
1.0
 40
1.0
 40
1.0
 40
1.0
 10
531.2215516954
 20
442.2541402886
 30
0.0
 10
531.267599939
 20
442.3900547797
 30
0.0
 10
531.3310079658
 20
442.6545182301
 30
0.0
 10
531.3328025198
 20
442.9851076764
 30
0.0
 10
531.2770357498
 20
443.2135355091
 30
0.0
 10
531.2117346383
 20
443.3558319432
 30
0.0
 10
531.1223344403
 20
443.4720520176
 30
0.0
 10
531.0471174266
 20
443.530230369
 30
0.0
 10
531.0073702809
 20
443.5531783943
 30
0.0
  0
SPLINE
  5
59E
100
AcDbEntity
  8
0
100
AcDbSpline
 62
7
  6
CONTINUOUS
 70
0
 71
3
 72
9
 73
5
 74
0
 42
0.0000001
 43
0.0000001
 44
0.0000000001
 40
0.0
 40
0.0
 40
0.0
 40
0.0
 40
0.2580429844
 40
1.0
 40
1.0
 40
1.0
 40
1.0
 10
529.305725124
 20
438.8669335505
 30
0.0
 10
529.2678185029
 20
438.8912055776
 30
0.0
 10
529.1238158571
 20
438.989691151
 30
0.0
 10
528.9917351451
 20
439.1058127278
 30
0.0
 10
528.9035627906
 20
439.2005540414
 30
0.0
  0
SPLINE
  5
59F
100
AcDbEntity
  8
0
100
AcDbSpline
 62
7
  6
CONTINUOUS
 70
0
 71
3
 72
11
 73
7
 74
0
 42
0.0000001
 43
0.0000001
 44
0.0000000001
 40
0.0
 40
0.0
 40
0.0
 40
0.0
 40
0.2057184196
 40
0.4348142159
 40
0.6995016372
 40
1.0
 40
1.0
 40
1.0
 40
1.0
 10
527.8023438912
 20
439.0357630242
 30
0.0
 10
527.8416028531
 20
438.9677645076
 30
0.0
 10
527.9601859579
 20
438.8428417158
 30
0.0
 10
528.2106345825
 20
438.736154623
 30
0.0
 10
528.5151776077
 20
438.7032813838
 30
0.0
 10
528.7310947928
 20
438.7284399014
 30
0.0
 10
528.8434677023
 20
438.7513934079
 30
0.0
  0
SPLINE
  5
5A0
100
AcDbEntity
  8
0
100
AcDbSpline
 62
7
  6
CONTINUOUS
 70
0
 71
3
 72
13
 73
9
 74
0
 42
0.0000001
 43
0.0000001
 44
0.0000000001
 40
0.0
 40
0.0
 40
0.0
 40
0.0
 40
0.304480867
 40
0.5728455908
 40
0.6917533602
 40
0.8009651718
 40
0.9026191606
 40
1.0
 40
1.0
 40
1.0
 40
1.0
 10
528.6597893433
 20
449.8777277971
 30
0.0
 10
528.5238748522
 20
449.9237760406
 30
0.0
 10
528.2594114018
 20
449.9871840674
 30
0.0
 10
527.9288219556
 20
449.9889786215
 30
0.0
 10
527.7003941228
 20
449.9332118515
 30
0.0
 10
527.5580976887
 20
449.8679107399
 30
0.0
 10
527.4418776144
 20
449.7785105419
 30
0.0
 10
527.3836992629
 20
449.7032935283
 30
0.0
 10
527.3607512376
 20
449.6635463826
 30
0.0
  0
SPLINE
  5
5A1
100
AcDbEntity
  8
0
100
AcDbSpline
 62
7
  6
CONTINUOUS
 70
0
 71
3
 72
13
 73
9
 74
0
 42
0.0000001
 43
0.0000001
 44
0.0000000001
 40
0.0
 40
0.0
 40
0.0
 40
0.0
 40
0.0420361503
 40
0.1089234195
 40
0.201481207
 40
0.3185290295
 40
0.6196108814
 40
1.0
 40
1.0
 40
1.0
 40
1.0
 10
370.2500790594
 20
439.2158025283
 30
0.0
 10
370.2505151037
 20
439.2201496584
 30
0.0
 10
370.2458591147
 20
439.2312969268
 30
0.0
 10
370.2341296264
 20
439.2482492112
 30
0.0
 10
370.2164247833
 20
439.2710767875
 30
0.0
 10
370.1833481569
 20
439.3124893673
 30
0.0
 10
370.1330743541
 20
439.3786227114
 30
0.0
 10
370.093803626
 20
439.4376281012
 30
0.0
 10
370.0729426007
 20
439.4712113298
 30
0.0
  0
SPLINE
  5
5A2
100
AcDbEntity
  8
0
100
AcDbSpline
 62
7
  6
CONTINUOUS
 70
0
 71
3
 72
10
 73
6
 74
0
 42
0.0000001
 43
0.0000001
 44
0.0000000001
 40
0.0
 40
0.0
 40
0.0
 40
0.0
 40
0.4569456882
 40
0.7206623456
 40
1.0
 40
1.0
 40
1.0
 40
1.0
 10
372.6177185119
 20
440.1996547057
 30
0.0
 10
372.4919930268
 20
440.1996547057
 30
0.0
 10
372.2934567719
 20
440.1977013863
 30
0.0
 10
372.019171537
 20
440.2202954016
 30
0.0
 10
371.8723240962
 20
440.2580444948
 30
0.0
 10
371.8025026035
 20
440.2901706199
 30
0.0
  0
SPLINE
  5
5A3
100
AcDbEntity
  8
0
100
AcDbSpline
 62
7
  6
CONTINUOUS
 70
0
 71
3
 72
9
 73
5
 74
0
 42
0.0000001
 43
0.0000001
 44
0.0000000001
 40
0.0
 40
0.0
 40
0.0
 40
0.0
 40
0.2554320963
 40
1.0
 40
1.0
 40
1.0
 40
1.0
 10
371.8025026035
 20
440.2901706199
 30
0.0
 10
371.7663376204
 20
440.30680874
 30
0.0
 10
371.6285302885
 20
440.3800436964
 30
0.0
 10
371.5073872505
 20
440.4832664193
 30
0.0
 10
371.4306727393
 20
440.5703302723
 30
0.0
  0
SPLINE
  5
5A4
100
AcDbEntity
  8
0
100
AcDbSpline
 62
7
  6
CONTINUOUS
 70
0
 71
3
 72
9
 73
5
 74
0
 42
0.0000001
 43
0.0000001
 44
0.0000000001
 40
0.0
 40
0.0
 40
0.0
 40
0.0
 40
0.454967256
 40
1.0
 40
1.0
 40
1.0
 40
1.0
 10
370.0729426007
 20
439.4712113298
 30
0.0
 10
370.0034064414
 20
439.5831806178
 30
0.0
 10
369.9037998798
 20
439.8619772367
 30
0.0
 10
369.8837214671
 20
440.1539029792
 30
0.0
 10
369.89022515
 20
440.3116654244
 30
0.0
  0
SPLINE
  5
5A5
100
AcDbEntity
  8
0
100
AcDbSpline
 62
7
  6
CONTINUOUS
 70
0
 71
3
 72
11
 73
7
 74
0
 42
0.0000001
 43
0.0000001
 44
0.0000000001
 40
0.0
 40
0.0
 40
0.0
 40
0.0
 40
0.4236450864
 40
0.7389806505
 40
0.9336535618
 40
1.0
 40
1.0
 40
1.0
 40
1.0
 10
378.8434676428
 20
438.7513933958
 30
0.0
 10
378.8428632555
 20
438.6887968304
 30
0.0
 10
378.8436494125
 20
438.5795994078
 30
0.0
 10
378.8436411193
 20
438.4416363381
 30
0.0
 10
378.8431571757
 20
438.3564785866
 30
0.0
 10
378.8437259227
 20
438.3179020505
 30
0.0
 10
378.8434820685
 20
438.3081014702
 30
0.0
  0
SPLINE
  5
5A6
100
AcDbEntity
  8
0
100
AcDbSpline
 62
7
  6
CONTINUOUS
 70
0
 71
3
 72
21
 73
17
 74
0
 42
0.0000001
 43
0.0000001
 44
0.0000000001
 40
0.0
 40
0.0
 40
0.0
 40
0.0
 40
0.0010472257
 40
0.0041920536
 40
0.0094220733
 40
0.0167246608
 40
0.0375055368
 40
0.0664726038
 40
0.1035779704
 40
0.1487034702
 40
0.2016937865
 40
0.2623919677
 40
0.4062266052
 40
0.5785606728
 40
0.7774217171
 40
1.0
 40
1.0
 40
1.0
 40
1.0
 10
379.4087947616
 20
438.3411266986
 30
0.0
 10
379.4086105221
 20
438.3410942983
 30
0.0
 10
379.408882289
 20
438.3423649817
 30
0.0
 10
379.4083940183
 20
438.3435336933
 30
0.0
 10
379.4083046208
 20
438.3466069661
 30
0.0
 10
379.4075221547
 20
438.3523468021
 30
0.0
 10
379.4062090027
 20
438.362572007
 30
0.0
 10
379.4035232194
 20
438.3778010999
 30
0.0
 10
379.399506358
 20
438.3972766787
 30
0.0
 10
379.3943568596
 20
438.4208682995
 30
0.0
 10
379.3883271147
 20
438.4485918137
 30
0.0
 10
379.3789144309
 20
438.4936201362
 30
0.0
 10
379.3663457995
 20
438.5597599984
 30
0.0
 10
379.3492415135
 20
438.6501553484
 30
0.0
 10
379.3285310324
 20
438.7541816171
 30
0.0
 10
379.3136093912
 20
438.8279696873
 30
0.0
 10
379.3057438183
 20
438.8669432299
 30
0.0
  0
SPLINE
  5
5A7
100
AcDbEntity
  8
0
100
AcDbSpline
 62
7
  6
CONTINUOUS
 70
0
 71
3
 72
13
 73
9
 74
0
 42
0.0000001
 43
0.0000001
 44
0.0000000001
 40
0.0
 40
0.0
 40
0.0
 40
0.0
 40
0.4417867255
 40
0.7424157407
 40
0.8424568747
 40
0.9135131836
 40
0.9618176874
 40
1.0
 40
1.0
 40
1.0
 40
1.0
 10
370.0924972941
 20
439.1996550227
 30
0.0
 10
370.1164873972
 20
439.1996564962
 30
0.0
 10
370.1568023846
 20
439.1996937769
 30
0.0
 10
370.2025492047
 20
439.2001490486
 30
0.0
 10
370.2281198928
 20
439.2025828315
 30
0.0
 10
370.2397331489
 20
439.2051340861
 30
0.0
 10
370.247676938
 20
439.2091240465
 30
0.0
 10
370.2498721236
 20
439.2137394876
 30
0.0
 10
370.2500790594
 20
439.2158025283
 30
0.0
  0
SPLINE
  5
5A8
100
AcDbEntity
  8
0
100
AcDbSpline
 62
7
  6
CONTINUOUS
 70
0
 71
3
 72
9
 73
5
 74
0
 42
0.0000001
 43
0.0000001
 44
0.0000000001
 40
0.0
 40
0.0
 40
0.0
 40
0.0
 40
0.5083169055
 40
1.0
 40
1.0
 40
1.0
 40
1.0
 10
370.7476609026
 20
440.3116654244
 30
0.0
 10
370.8179881033
 20
440.1441869399
 30
0.0
 10
370.9963385103
 20
439.8297530654
 30
0.0
 10
371.2539011094
 20
439.5734075931
 30
0.0
 10
371.3967861042
 20
439.4711590759
 30
0.0
  0
SPLINE
  5
5A9
100
AcDbEntity
  8
0
100
AcDbSpline
 62
7
  6
CONTINUOUS
 70
0
 71
3
 72
10
 73
6
 74
0
 42
0.0000001
 43
0.0000001
 44
0.0000000001
 40
0.0
 40
0.0
 40
0.0
 40
0.0
 40
0.2502421606
 40
0.5084931178
 40
1.0
 40
1.0
 40
1.0
 40
1.0
 10
371.3967861042
 20
439.4711590759
 30
0.0
 10
371.4830410487
 20
439.4094309879
 30
0.0
 10
371.6755085432
 20
439.3067021945
 30
0.0
 10
372.0887273327
 20
439.1989161657
 30
0.0
 10
372.4093534553
 20
439.1996547066
 30
0.0
 10
372.6176828917
 20
439.1996547066
 30
0.0
  0
SPLINE
  5
5AA
100
AcDbEntity
  8
0
100
AcDbSpline
 62
7
  6
CONTINUOUS
 70
0
 71
3
 72
13
 73
9
 74
0
 42
0.0000001
 43
0.0000001
 44
0.0000000001
 40
0.0
 40
0.0
 40
0.0
 40
0.0
 40
0.0973808395
 40
0.1990348281
 40
0.3082466394
 40
0.4271544086
 40
0.6955191323
 40
1.0
 40
1.0
 40
1.0
 40
1.0
 10
381.0073702685
 20
445.5877236589
 30
0.0
 10
381.0471174153
 20
445.6106716834
 30
0.0
 10
381.1223344312
 20
445.6688500334
 30
0.0
 10
381.2117346324
 20
445.785070107
 30
0.0
 10
381.2770357465
 20
445.9273665413
 30
0.0
 10
381.3328025194
 20
446.1557943756
 30
0.0
 10
381.3310079668
 20
446.4863838255
 30
0.0
 10
381.2675999395
 20
446.750847279
 30
0.0
 10
381.2215516954
 20
446.8867617718
 30
0.0
  0
SPLINE
  5
5AB
100
AcDbEntity
  8
0
100
AcDbSpline
 62
7
  6
CONTINUOUS
 70
0
 71
3
 72
13
 73
9
 74
0
 42
0.0000001
 43
0.0000001
 44
0.0000000001
 40
0.0
 40
0.0
 40
0.0
 40
0.0
 40
0.304480867
 40
0.5728455908
 40
0.6917533602
 40
0.8009651718
 40
0.9026191606
 40
1.0
 40
1.0
 40
1.0
 40
1.0
 10
381.2215516954
 20
442.2541402886
 30
0.0
 10
381.267599939
 20
442.3900547797
 30
0.0
 10
381.3310079658
 20
442.6545182301
 30
0.0
 10
381.3328025198
 20
442.9851076764
 30
0.0
 10
381.2770357498
 20
443.2135355091
 30
0.0
 10
381.2117346383
 20
443.3558319432
 30
0.0
 10
381.1223344403
 20
443.4720520176
 30
0.0
 10
381.0471174266
 20
443.530230369
 30
0.0
 10
381.0073702809
 20
443.5531783943
 30
0.0
  0
SPLINE
  5
5AC
100
AcDbEntity
  8
0
100
AcDbSpline
 62
7
  6
CONTINUOUS
 70
0
 71
3
 72
9
 73
5
 74
0
 42
0.0000001
 43
0.0000001
 44
0.0000000001
 40
0.0
 40
0.0
 40
0.0
 40
0.0
 40
0.2580429844
 40
1.0
 40
1.0
 40
1.0
 40
1.0
 10
379.305725124
 20
438.8669335505
 30
0.0
 10
379.2678185029
 20
438.8912055776
 30
0.0
 10
379.1238158571
 20
438.989691151
 30
0.0
 10
378.9917351451
 20
439.1058127278
 30
0.0
 10
378.9035627906
 20
439.2005540414
 30
0.0
  0
SPLINE
  5
5AD
100
AcDbEntity
  8
0
100
AcDbSpline
 62
7
  6
CONTINUOUS
 70
0
 71
3
 72
11
 73
7
 74
0
 42
0.0000001
 43
0.0000001
 44
0.0000000001
 40
0.0
 40
0.0
 40
0.0
 40
0.0
 40
0.2057184196
 40
0.4348142159
 40
0.6995016372
 40
1.0
 40
1.0
 40
1.0
 40
1.0
 10
377.8023438912
 20
439.0357630242
 30
0.0
 10
377.8416028531
 20
438.9677645076
 30
0.0
 10
377.9601859579
 20
438.8428417158
 30
0.0
 10
378.2106345825
 20
438.736154623
 30
0.0
 10
378.5151776077
 20
438.7032813838
 30
0.0
 10
378.7310947928
 20
438.7284399014
 30
0.0
 10
378.8434677023
 20
438.7513934079
 30
0.0
  0
SPLINE
  5
5AE
100
AcDbEntity
  8
0
100
AcDbSpline
 62
7
  6
CONTINUOUS
 70
0
 71
3
 72
13
 73
9
 74
0
 42
0.0000001
 43
0.0000001
 44
0.0000000001
 40
0.0
 40
0.0
 40
0.0
 40
0.0
 40
0.304480867
 40
0.5728455908
 40
0.6917533602
 40
0.8009651718
 40
0.9026191606
 40
1.0
 40
1.0
 40
1.0
 40
1.0
 10
378.6597893433
 20
449.8777277971
 30
0.0
 10
378.5238748522
 20
449.9237760406
 30
0.0
 10
378.2594114018
 20
449.9871840674
 30
0.0
 10
377.9288219556
 20
449.9889786215
 30
0.0
 10
377.7003941228
 20
449.9332118515
 30
0.0
 10
377.5580976887
 20
449.8679107399
 30
0.0
 10
377.4418776144
 20
449.7785105419
 30
0.0
 10
377.3836992629
 20
449.7032935283
 30
0.0
 10
377.3607512376
 20
449.6635463826
 30
0.0
  0
SPLINE
  5
5AF
100
AcDbEntity
  8
0
100
AcDbSpline
 62
7
  6
CONTINUOUS
 70
0
 71
3
 72
13
 73
9
 74
0
 42
0.0000001
 43
0.0000001
 44
0.0000000001
 40
0.0
 40
0.0
 40
0.0
 40
0.0
 40
0.0420361503
 40
0.1089234195
 40
0.201481207
 40
0.3185290295
 40
0.6196108814
 40
1.0
 40
1.0
 40
1.0
 40
1.0
 10
420.2500790594
 20
439.2158025283
 30
0.0
 10
420.2505151037
 20
439.2201496584
 30
0.0
 10
420.2458591147
 20
439.2312969268
 30
0.0
 10
420.2341296264
 20
439.2482492112
 30
0.0
 10
420.2164247833
 20
439.2710767875
 30
0.0
 10
420.1833481569
 20
439.3124893673
 30
0.0
 10
420.1330743541
 20
439.3786227114
 30
0.0
 10
420.093803626
 20
439.4376281012
 30
0.0
 10
420.0729426007
 20
439.4712113298
 30
0.0
  0
SPLINE
  5
5B0
100
AcDbEntity
  8
0
100
AcDbSpline
 62
7
  6
CONTINUOUS
 70
0
 71
3
 72
10
 73
6
 74
0
 42
0.0000001
 43
0.0000001
 44
0.0000000001
 40
0.0
 40
0.0
 40
0.0
 40
0.0
 40
0.4569456882
 40
0.7206623456
 40
1.0
 40
1.0
 40
1.0
 40
1.0
 10
422.6177185119
 20
440.1996547057
 30
0.0
 10
422.4919930268
 20
440.1996547057
 30
0.0
 10
422.2934567719
 20
440.1977013863
 30
0.0
 10
422.019171537
 20
440.2202954016
 30
0.0
 10
421.8723240962
 20
440.2580444948
 30
0.0
 10
421.8025026035
 20
440.2901706199
 30
0.0
  0
SPLINE
  5
5B1
100
AcDbEntity
  8
0
100
AcDbSpline
 62
7
  6
CONTINUOUS
 70
0
 71
3
 72
9
 73
5
 74
0
 42
0.0000001
 43
0.0000001
 44
0.0000000001
 40
0.0
 40
0.0
 40
0.0
 40
0.0
 40
0.2554320963
 40
1.0
 40
1.0
 40
1.0
 40
1.0
 10
421.8025026035
 20
440.2901706199
 30
0.0
 10
421.7663376204
 20
440.30680874
 30
0.0
 10
421.6285302885
 20
440.3800436964
 30
0.0
 10
421.5073872505
 20
440.4832664193
 30
0.0
 10
421.4306727393
 20
440.5703302723
 30
0.0
  0
SPLINE
  5
5B2
100
AcDbEntity
  8
0
100
AcDbSpline
 62
7
  6
CONTINUOUS
 70
0
 71
3
 72
9
 73
5
 74
0
 42
0.0000001
 43
0.0000001
 44
0.0000000001
 40
0.0
 40
0.0
 40
0.0
 40
0.0
 40
0.454967256
 40
1.0
 40
1.0
 40
1.0
 40
1.0
 10
420.0729426007
 20
439.4712113298
 30
0.0
 10
420.0034064414
 20
439.5831806178
 30
0.0
 10
419.9037998798
 20
439.8619772367
 30
0.0
 10
419.8837214671
 20
440.1539029792
 30
0.0
 10
419.89022515
 20
440.3116654244
 30
0.0
  0
SPLINE
  5
5B3
100
AcDbEntity
  8
0
100
AcDbSpline
 62
7
  6
CONTINUOUS
 70
0
 71
3
 72
11
 73
7
 74
0
 42
0.0000001
 43
0.0000001
 44
0.0000000001
 40
0.0
 40
0.0
 40
0.0
 40
0.0
 40
0.4236450864
 40
0.7389806505
 40
0.9336535618
 40
1.0
 40
1.0
 40
1.0
 40
1.0
 10
428.8434676428
 20
438.7513933958
 30
0.0
 10
428.8428632555
 20
438.6887968304
 30
0.0
 10
428.8436494125
 20
438.5795994078
 30
0.0
 10
428.8436411193
 20
438.4416363381
 30
0.0
 10
428.8431571757
 20
438.3564785866
 30
0.0
 10
428.8437259227
 20
438.3179020505
 30
0.0
 10
428.8434820685
 20
438.3081014702
 30
0.0
  0
SPLINE
  5
5B4
100
AcDbEntity
  8
0
100
AcDbSpline
 62
7
  6
CONTINUOUS
 70
0
 71
3
 72
21
 73
17
 74
0
 42
0.0000001
 43
0.0000001
 44
0.0000000001
 40
0.0
 40
0.0
 40
0.0
 40
0.0
 40
0.0010472257
 40
0.0041920536
 40
0.0094220733
 40
0.0167246608
 40
0.0375055368
 40
0.0664726038
 40
0.1035779704
 40
0.1487034702
 40
0.2016937865
 40
0.2623919677
 40
0.4062266052
 40
0.5785606728
 40
0.7774217171
 40
1.0
 40
1.0
 40
1.0
 40
1.0
 10
429.4087947616
 20
438.3411266986
 30
0.0
 10
429.4086105221
 20
438.3410942983
 30
0.0
 10
429.408882289
 20
438.3423649817
 30
0.0
 10
429.4083940183
 20
438.3435336933
 30
0.0
 10
429.4083046208
 20
438.3466069661
 30
0.0
 10
429.4075221547
 20
438.3523468021
 30
0.0
 10
429.4062090027
 20
438.362572007
 30
0.0
 10
429.4035232194
 20
438.3778010999
 30
0.0
 10
429.399506358
 20
438.3972766787
 30
0.0
 10
429.3943568596
 20
438.4208682995
 30
0.0
 10
429.3883271147
 20
438.4485918137
 30
0.0
 10
429.3789144309
 20
438.4936201362
 30
0.0
 10
429.3663457995
 20
438.5597599984
 30
0.0
 10
429.3492415135
 20
438.6501553484
 30
0.0
 10
429.3285310324
 20
438.7541816171
 30
0.0
 10
429.3136093912
 20
438.8279696873
 30
0.0
 10
429.3057438183
 20
438.8669432299
 30
0.0
  0
SPLINE
  5
5B5
100
AcDbEntity
  8
0
100
AcDbSpline
 62
7
  6
CONTINUOUS
 70
0
 71
3
 72
13
 73
9
 74
0
 42
0.0000001
 43
0.0000001
 44
0.0000000001
 40
0.0
 40
0.0
 40
0.0
 40
0.0
 40
0.4417867255
 40
0.7424157407
 40
0.8424568747
 40
0.9135131836
 40
0.9618176874
 40
1.0
 40
1.0
 40
1.0
 40
1.0
 10
420.0924972941
 20
439.1996550227
 30
0.0
 10
420.1164873972
 20
439.1996564962
 30
0.0
 10
420.1568023846
 20
439.1996937769
 30
0.0
 10
420.2025492047
 20
439.2001490486
 30
0.0
 10
420.2281198928
 20
439.2025828315
 30
0.0
 10
420.2397331489
 20
439.2051340861
 30
0.0
 10
420.247676938
 20
439.2091240465
 30
0.0
 10
420.2498721236
 20
439.2137394876
 30
0.0
 10
420.2500790594
 20
439.2158025283
 30
0.0
  0
SPLINE
  5
5B6
100
AcDbEntity
  8
0
100
AcDbSpline
 62
7
  6
CONTINUOUS
 70
0
 71
3
 72
9
 73
5
 74
0
 42
0.0000001
 43
0.0000001
 44
0.0000000001
 40
0.0
 40
0.0
 40
0.0
 40
0.0
 40
0.5083169055
 40
1.0
 40
1.0
 40
1.0
 40
1.0
 10
420.7476609026
 20
440.3116654244
 30
0.0
 10
420.8179881033
 20
440.1441869399
 30
0.0
 10
420.9963385103
 20
439.8297530654
 30
0.0
 10
421.2539011094
 20
439.5734075931
 30
0.0
 10
421.3967861042
 20
439.4711590759
 30
0.0
  0
SPLINE
  5
5B7
100
AcDbEntity
  8
0
100
AcDbSpline
 62
7
  6
CONTINUOUS
 70
0
 71
3
 72
10
 73
6
 74
0
 42
0.0000001
 43
0.0000001
 44
0.0000000001
 40
0.0
 40
0.0
 40
0.0
 40
0.0
 40
0.2502421606
 40
0.5084931178
 40
1.0
 40
1.0
 40
1.0
 40
1.0
 10
421.3967861042
 20
439.4711590759
 30
0.0
 10
421.4830410487
 20
439.4094309879
 30
0.0
 10
421.6755085432
 20
439.3067021945
 30
0.0
 10
422.0887273327
 20
439.1989161657
 30
0.0
 10
422.4093534553
 20
439.1996547066
 30
0.0
 10
422.6176828917
 20
439.1996547066
 30
0.0
  0
SPLINE
  5
5B8
100
AcDbEntity
  8
0
100
AcDbSpline
 62
7
  6
CONTINUOUS
 70
0
 71
3
 72
13
 73
9
 74
0
 42
0.0000001
 43
0.0000001
 44
0.0000000001
 40
0.0
 40
0.0
 40
0.0
 40
0.0
 40
0.0973808395
 40
0.1990348281
 40
0.3082466394
 40
0.4271544086
 40
0.6955191323
 40
1.0
 40
1.0
 40
1.0
 40
1.0
 10
431.0073702685
 20
445.5877236589
 30
0.0
 10
431.0471174153
 20
445.6106716834
 30
0.0
 10
431.1223344312
 20
445.6688500334
 30
0.0
 10
431.2117346324
 20
445.785070107
 30
0.0
 10
431.2770357465
 20
445.9273665413
 30
0.0
 10
431.3328025194
 20
446.1557943756
 30
0.0
 10
431.3310079668
 20
446.4863838255
 30
0.0
 10
431.2675999395
 20
446.750847279
 30
0.0
 10
431.2215516954
 20
446.8867617718
 30
0.0
  0
SPLINE
  5
5B9
100
AcDbEntity
  8
0
100
AcDbSpline
 62
7
  6
CONTINUOUS
 70
0
 71
3
 72
13
 73
9
 74
0
 42
0.0000001
 43
0.0000001
 44
0.0000000001
 40
0.0
 40
0.0
 40
0.0
 40
0.0
 40
0.304480867
 40
0.5728455908
 40
0.6917533602
 40
0.8009651718
 40
0.9026191606
 40
1.0
 40
1.0
 40
1.0
 40
1.0
 10
431.2215516954
 20
442.2541402886
 30
0.0
 10
431.267599939
 20
442.3900547797
 30
0.0
 10
431.3310079658
 20
442.6545182301
 30
0.0
 10
431.3328025198
 20
442.9851076764
 30
0.0
 10
431.2770357498
 20
443.2135355091
 30
0.0
 10
431.2117346383
 20
443.3558319432
 30
0.0
 10
431.1223344403
 20
443.4720520176
 30
0.0
 10
431.0471174266
 20
443.530230369
 30
0.0
 10
431.0073702809
 20
443.5531783943
 30
0.0
  0
SPLINE
  5
5BA
100
AcDbEntity
  8
0
100
AcDbSpline
 62
7
  6
CONTINUOUS
 70
0
 71
3
 72
9
 73
5
 74
0
 42
0.0000001
 43
0.0000001
 44
0.0000000001
 40
0.0
 40
0.0
 40
0.0
 40
0.0
 40
0.2580429844
 40
1.0
 40
1.0
 40
1.0
 40
1.0
 10
429.305725124
 20
438.8669335505
 30
0.0
 10
429.2678185029
 20
438.8912055776
 30
0.0
 10
429.1238158571
 20
438.989691151
 30
0.0
 10
428.9917351451
 20
439.1058127278
 30
0.0
 10
428.9035627906
 20
439.2005540414
 30
0.0
  0
SPLINE
  5
5BB
100
AcDbEntity
  8
0
100
AcDbSpline
 62
7
  6
CONTINUOUS
 70
0
 71
3
 72
11
 73
7
 74
0
 42
0.0000001
 43
0.0000001
 44
0.0000000001
 40
0.0
 40
0.0
 40
0.0
 40
0.0
 40
0.2057184196
 40
0.4348142159
 40
0.6995016372
 40
1.0
 40
1.0
 40
1.0
 40
1.0
 10
427.8023438912
 20
439.0357630242
 30
0.0
 10
427.8416028531
 20
438.9677645076
 30
0.0
 10
427.9601859579
 20
438.8428417158
 30
0.0
 10
428.2106345825
 20
438.736154623
 30
0.0
 10
428.5151776077
 20
438.7032813838
 30
0.0
 10
428.7310947928
 20
438.7284399014
 30
0.0
 10
428.8434677023
 20
438.7513934079
 30
0.0
  0
SPLINE
  5
5BC
100
AcDbEntity
  8
0
100
AcDbSpline
 62
7
  6
CONTINUOUS
 70
0
 71
3
 72
13
 73
9
 74
0
 42
0.0000001
 43
0.0000001
 44
0.0000000001
 40
0.0
 40
0.0
 40
0.0
 40
0.0
 40
0.304480867
 40
0.5728455908
 40
0.6917533602
 40
0.8009651718
 40
0.9026191606
 40
1.0
 40
1.0
 40
1.0
 40
1.0
 10
428.6597893433
 20
449.8777277971
 30
0.0
 10
428.5238748522
 20
449.9237760406
 30
0.0
 10
428.2594114018
 20
449.9871840674
 30
0.0
 10
427.9288219556
 20
449.9889786215
 30
0.0
 10
427.7003941228
 20
449.9332118515
 30
0.0
 10
427.5580976887
 20
449.8679107399
 30
0.0
 10
427.4418776144
 20
449.7785105419
 30
0.0
 10
427.3836992629
 20
449.7032935283
 30
0.0
 10
427.3607512376
 20
449.6635463826
 30
0.0
  0
SPLINE
  5
5BD
100
AcDbEntity
  8
0
100
AcDbSpline
 62
7
  6
CONTINUOUS
 70
0
 71
3
 72
13
 73
9
 74
0
 42
0.0000001
 43
0.0000001
 44
0.0000000001
 40
0.0
 40
0.0
 40
0.0
 40
0.0
 40
0.0420361503
 40
0.1089234195
 40
0.201481207
 40
0.3185290295
 40
0.6196108814
 40
1.0
 40
1.0
 40
1.0
 40
1.0
 10
470.2500790594
 20
439.2158025283
 30
0.0
 10
470.2505151037
 20
439.2201496584
 30
0.0
 10
470.2458591147
 20
439.2312969268
 30
0.0
 10
470.2341296264
 20
439.2482492112
 30
0.0
 10
470.2164247833
 20
439.2710767875
 30
0.0
 10
470.1833481569
 20
439.3124893673
 30
0.0
 10
470.1330743541
 20
439.3786227114
 30
0.0
 10
470.093803626
 20
439.4376281012
 30
0.0
 10
470.0729426007
 20
439.4712113298
 30
0.0
  0
SPLINE
  5
5BE
100
AcDbEntity
  8
0
100
AcDbSpline
 62
7
  6
CONTINUOUS
 70
0
 71
3
 72
10
 73
6
 74
0
 42
0.0000001
 43
0.0000001
 44
0.0000000001
 40
0.0
 40
0.0
 40
0.0
 40
0.0
 40
0.4569456882
 40
0.7206623456
 40
1.0
 40
1.0
 40
1.0
 40
1.0
 10
472.6177185119
 20
440.1996547057
 30
0.0
 10
472.4919930268
 20
440.1996547057
 30
0.0
 10
472.2934567719
 20
440.1977013863
 30
0.0
 10
472.019171537
 20
440.2202954016
 30
0.0
 10
471.8723240962
 20
440.2580444948
 30
0.0
 10
471.8025026035
 20
440.2901706199
 30
0.0
  0
SPLINE
  5
5BF
100
AcDbEntity
  8
0
100
AcDbSpline
 62
7
  6
CONTINUOUS
 70
0
 71
3
 72
9
 73
5
 74
0
 42
0.0000001
 43
0.0000001
 44
0.0000000001
 40
0.0
 40
0.0
 40
0.0
 40
0.0
 40
0.2554320963
 40
1.0
 40
1.0
 40
1.0
 40
1.0
 10
471.8025026035
 20
440.2901706199
 30
0.0
 10
471.7663376204
 20
440.30680874
 30
0.0
 10
471.6285302885
 20
440.3800436964
 30
0.0
 10
471.5073872505
 20
440.4832664193
 30
0.0
 10
471.4306727393
 20
440.5703302723
 30
0.0
  0
SPLINE
  5
5C0
100
AcDbEntity
  8
0
100
AcDbSpline
 62
7
  6
CONTINUOUS
 70
0
 71
3
 72
9
 73
5
 74
0
 42
0.0000001
 43
0.0000001
 44
0.0000000001
 40
0.0
 40
0.0
 40
0.0
 40
0.0
 40
0.454967256
 40
1.0
 40
1.0
 40
1.0
 40
1.0
 10
470.0729426007
 20
439.4712113298
 30
0.0
 10
470.0034064414
 20
439.5831806178
 30
0.0
 10
469.9037998798
 20
439.8619772367
 30
0.0
 10
469.8837214671
 20
440.1539029792
 30
0.0
 10
469.89022515
 20
440.3116654244
 30
0.0
  0
SPLINE
  5
5C1
100
AcDbEntity
  8
0
100
AcDbSpline
 62
7
  6
CONTINUOUS
 70
0
 71
3
 72
11
 73
7
 74
0
 42
0.0000001
 43
0.0000001
 44
0.0000000001
 40
0.0
 40
0.0
 40
0.0
 40
0.0
 40
0.4236450864
 40
0.7389806505
 40
0.9336535618
 40
1.0
 40
1.0
 40
1.0
 40
1.0
 10
478.8434676428
 20
438.7513933958
 30
0.0
 10
478.8428632555
 20
438.6887968304
 30
0.0
 10
478.8436494125
 20
438.5795994078
 30
0.0
 10
478.8436411193
 20
438.4416363381
 30
0.0
 10
478.8431571757
 20
438.3564785866
 30
0.0
 10
478.8437259227
 20
438.3179020505
 30
0.0
 10
478.8434820685
 20
438.3081014702
 30
0.0
  0
SPLINE
  5
5C2
100
AcDbEntity
  8
0
100
AcDbSpline
 62
7
  6
CONTINUOUS
 70
0
 71
3
 72
21
 73
17
 74
0
 42
0.0000001
 43
0.0000001
 44
0.0000000001
 40
0.0
 40
0.0
 40
0.0
 40
0.0
 40
0.0010472257
 40
0.0041920536
 40
0.0094220733
 40
0.0167246608
 40
0.0375055368
 40
0.0664726038
 40
0.1035779704
 40
0.1487034702
 40
0.2016937865
 40
0.2623919677
 40
0.4062266052
 40
0.5785606728
 40
0.7774217171
 40
1.0
 40
1.0
 40
1.0
 40
1.0
 10
479.4087947616
 20
438.3411266986
 30
0.0
 10
479.4086105221
 20
438.3410942983
 30
0.0
 10
479.408882289
 20
438.3423649817
 30
0.0
 10
479.4083940183
 20
438.3435336933
 30
0.0
 10
479.4083046208
 20
438.3466069661
 30
0.0
 10
479.4075221547
 20
438.3523468021
 30
0.0
 10
479.4062090027
 20
438.362572007
 30
0.0
 10
479.4035232194
 20
438.3778010999
 30
0.0
 10
479.399506358
 20
438.3972766787
 30
0.0
 10
479.3943568596
 20
438.4208682995
 30
0.0
 10
479.3883271147
 20
438.4485918137
 30
0.0
 10
479.3789144309
 20
438.4936201362
 30
0.0
 10
479.3663457995
 20
438.5597599984
 30
0.0
 10
479.3492415135
 20
438.6501553484
 30
0.0
 10
479.3285310324
 20
438.7541816171
 30
0.0
 10
479.3136093912
 20
438.8279696873
 30
0.0
 10
479.3057438183
 20
438.8669432299
 30
0.0
  0
SPLINE
  5
5C3
100
AcDbEntity
  8
0
100
AcDbSpline
 62
7
  6
CONTINUOUS
 70
0
 71
3
 72
13
 73
9
 74
0
 42
0.0000001
 43
0.0000001
 44
0.0000000001
 40
0.0
 40
0.0
 40
0.0
 40
0.0
 40
0.4417867255
 40
0.7424157407
 40
0.8424568747
 40
0.9135131836
 40
0.9618176874
 40
1.0
 40
1.0
 40
1.0
 40
1.0
 10
470.0924972941
 20
439.1996550227
 30
0.0
 10
470.1164873972
 20
439.1996564962
 30
0.0
 10
470.1568023846
 20
439.1996937769
 30
0.0
 10
470.2025492047
 20
439.2001490486
 30
0.0
 10
470.2281198928
 20
439.2025828315
 30
0.0
 10
470.2397331489
 20
439.2051340861
 30
0.0
 10
470.247676938
 20
439.2091240465
 30
0.0
 10
470.2498721236
 20
439.2137394876
 30
0.0
 10
470.2500790594
 20
439.2158025283
 30
0.0
  0
SPLINE
  5
5C4
100
AcDbEntity
  8
0
100
AcDbSpline
 62
7
  6
CONTINUOUS
 70
0
 71
3
 72
9
 73
5
 74
0
 42
0.0000001
 43
0.0000001
 44
0.0000000001
 40
0.0
 40
0.0
 40
0.0
 40
0.0
 40
0.5083169055
 40
1.0
 40
1.0
 40
1.0
 40
1.0
 10
470.7476609026
 20
440.3116654244
 30
0.0
 10
470.8179881033
 20
440.1441869399
 30
0.0
 10
470.9963385103
 20
439.8297530654
 30
0.0
 10
471.2539011094
 20
439.5734075931
 30
0.0
 10
471.3967861042
 20
439.4711590759
 30
0.0
  0
SPLINE
  5
5C5
100
AcDbEntity
  8
0
100
AcDbSpline
 62
7
  6
CONTINUOUS
 70
0
 71
3
 72
10
 73
6
 74
0
 42
0.0000001
 43
0.0000001
 44
0.0000000001
 40
0.0
 40
0.0
 40
0.0
 40
0.0
 40
0.2502421606
 40
0.5084931178
 40
1.0
 40
1.0
 40
1.0
 40
1.0
 10
471.3967861042
 20
439.4711590759
 30
0.0
 10
471.4830410487
 20
439.4094309879
 30
0.0
 10
471.6755085432
 20
439.3067021945
 30
0.0
 10
472.0887273327
 20
439.1989161657
 30
0.0
 10
472.4093534553
 20
439.1996547066
 30
0.0
 10
472.6176828917
 20
439.1996547066
 30
0.0
  0
SPLINE
  5
5C6
100
AcDbEntity
  8
0
100
AcDbSpline
 62
7
  6
CONTINUOUS
 70
0
 71
3
 72
13
 73
9
 74
0
 42
0.0000001
 43
0.0000001
 44
0.0000000001
 40
0.0
 40
0.0
 40
0.0
 40
0.0
 40
0.0973808395
 40
0.1990348281
 40
0.3082466394
 40
0.4271544086
 40
0.6955191323
 40
1.0
 40
1.0
 40
1.0
 40
1.0
 10
481.0073702685
 20
445.5877236589
 30
0.0
 10
481.0471174153
 20
445.6106716834
 30
0.0
 10
481.1223344312
 20
445.6688500334
 30
0.0
 10
481.2117346324
 20
445.785070107
 30
0.0
 10
481.2770357465
 20
445.9273665413
 30
0.0
 10
481.3328025194
 20
446.1557943756
 30
0.0
 10
481.3310079668
 20
446.4863838255
 30
0.0
 10
481.2675999395
 20
446.750847279
 30
0.0
 10
481.2215516954
 20
446.8867617718
 30
0.0
  0
SPLINE
  5
5C7
100
AcDbEntity
  8
0
100
AcDbSpline
 62
7
  6
CONTINUOUS
 70
0
 71
3
 72
13
 73
9
 74
0
 42
0.0000001
 43
0.0000001
 44
0.0000000001
 40
0.0
 40
0.0
 40
0.0
 40
0.0
 40
0.304480867
 40
0.5728455908
 40
0.6917533602
 40
0.8009651718
 40
0.9026191606
 40
1.0
 40
1.0
 40
1.0
 40
1.0
 10
481.2215516954
 20
442.2541402886
 30
0.0
 10
481.267599939
 20
442.3900547797
 30
0.0
 10
481.3310079658
 20
442.6545182301
 30
0.0
 10
481.3328025198
 20
442.9851076764
 30
0.0
 10
481.2770357498
 20
443.2135355091
 30
0.0
 10
481.2117346383
 20
443.3558319432
 30
0.0
 10
481.1223344403
 20
443.4720520176
 30
0.0
 10
481.0471174266
 20
443.530230369
 30
0.0
 10
481.0073702809
 20
443.5531783943
 30
0.0
  0
SPLINE
  5
5C8
100
AcDbEntity
  8
0
100
AcDbSpline
 62
7
  6
CONTINUOUS
 70
0
 71
3
 72
9
 73
5
 74
0
 42
0.0000001
 43
0.0000001
 44
0.0000000001
 40
0.0
 40
0.0
 40
0.0
 40
0.0
 40
0.2580429844
 40
1.0
 40
1.0
 40
1.0
 40
1.0
 10
479.305725124
 20
438.8669335505
 30
0.0
 10
479.2678185029
 20
438.8912055776
 30
0.0
 10
479.1238158571
 20
438.989691151
 30
0.0
 10
478.9917351451
 20
439.1058127278
 30
0.0
 10
478.9035627906
 20
439.2005540414
 30
0.0
  0
SPLINE
  5
5C9
100
AcDbEntity
  8
0
100
AcDbSpline
 62
7
  6
CONTINUOUS
 70
0
 71
3
 72
11
 73
7
 74
0
 42
0.0000001
 43
0.0000001
 44
0.0000000001
 40
0.0
 40
0.0
 40
0.0
 40
0.0
 40
0.2057184196
 40
0.4348142159
 40
0.6995016372
 40
1.0
 40
1.0
 40
1.0
 40
1.0
 10
477.8023438912
 20
439.0357630242
 30
0.0
 10
477.8416028531
 20
438.9677645076
 30
0.0
 10
477.9601859579
 20
438.8428417158
 30
0.0
 10
478.2106345825
 20
438.736154623
 30
0.0
 10
478.5151776077
 20
438.7032813838
 30
0.0
 10
478.7310947928
 20
438.7284399014
 30
0.0
 10
478.8434677023
 20
438.7513934079
 30
0.0
  0
SPLINE
  5
5CA
100
AcDbEntity
  8
0
100
AcDbSpline
 62
7
  6
CONTINUOUS
 70
0
 71
3
 72
13
 73
9
 74
0
 42
0.0000001
 43
0.0000001
 44
0.0000000001
 40
0.0
 40
0.0
 40
0.0
 40
0.0
 40
0.304480867
 40
0.5728455908
 40
0.6917533602
 40
0.8009651718
 40
0.9026191606
 40
1.0
 40
1.0
 40
1.0
 40
1.0
 10
478.6597893433
 20
449.8777277971
 30
0.0
 10
478.5238748522
 20
449.9237760406
 30
0.0
 10
478.2594114018
 20
449.9871840674
 30
0.0
 10
477.9288219556
 20
449.9889786215
 30
0.0
 10
477.7003941228
 20
449.9332118515
 30
0.0
 10
477.5580976887
 20
449.8679107399
 30
0.0
 10
477.4418776144
 20
449.7785105419
 30
0.0
 10
477.3836992629
 20
449.7032935283
 30
0.0
 10
477.3607512376
 20
449.6635463826
 30
0.0
  0
ENDSEC
  0
SECTION
  2
OBJECTS
  0
DICTIONARY
  5
C
100
AcDbDictionary
280
0
281
1
  3
ACAD_GROUP
350
D
  3
ACAD_MLINESTYLE
350
17
  3
ACAD_LAYOUT
350
1A
  3
ACAD_PLOTSETTINGS
350
19
  3
ACAD_PLOTSTYLENAME
350
E
  0
DICTIONARY
  5
D
102
{ACAD_REACTORS
330
C
102
}
100
AcDbDictionary
280
0
281
1
  0
ACDBDICTIONARYWDFLT
  5
E
102
{ACAD_REACTORS
330
C
102
}
100
AcDbDictionary
281
1
  3
Normal
350
F
100
AcDbDictionaryWithDefault
340
F
  0
DICTIONARY
  5
17
102
{ACAD_REACTORS
330
C
102
}
100
AcDbDictionary
280
0
281
1
  3
Standard
350
18
  0
DICTIONARY
  5
19
102
{ACAD_REACTORS
330
C
102
}
100
AcDbDictionary
281
1
  0
DICTIONARY
  5
1A
102
{ACAD_REACTORS
330
C
102
}
100
AcDbDictionary
281
1
  3
Model
350
5CB
  3
Layout1
350
5CC
  0
ACDBPLACEHOLDER
  5
F
102
{ACAD_REACTORS
330
E
102
}
  0
MLINESTYLE
  5
18
102
{ACAD_REACTORS
330
17
102
}
100
AcDbMlineStyle
  2
STANDARD
 70
0
  3

 62
256
 51
90.0
 52
90.0
 71
2
 49
0.5
 62
256
  6
BYLAYER
 49
-0.5
 62
256
  6
BYLAYER
  0
LAYOUT
  5
5CB
102
{ACAD_REACTORS
330
1A
102
}
100
AcDbPlotSettings
  1

  2
none_device
  4

  6

 40
0.0
 41
0.0
 42
0.0
 43
0.0
 44
210.0
 45
297.0
 46
0.0
 47
0.0
 48
0.0
 49
0.0
140
0.0
141
0.0
142
1.0
143
1.0
 70
1024
 72
1
 73
0
 74
0
  7

 75
0
147
1.0
148
0.0
149
0.0
100
AcDbLayout
  1
Model
 70
0
 71
0
 10
0.0
 20
0.0
 11
210.0
 21
297.0
 12
0.0
 22
0.0
 32
0.0
 14
0.0
 24
0.0
 34
0.0
 15
0.0
 25
0.0
 35
0.0
146
0.0
 13
0.0
 23
0.0
 33
0.0
 16
1.0
 26
0.0
 36
0.0
 17
0.0
 27
1.0
 37
0.0
 76
0
330
210
345
0
346
0
  0
LAYOUT
  5
5CC
102
{ACAD_REACTORS
330
1A
102
}
100
AcDbPlotSettings
  1

  2
none_device
  4

  6

 40
0.0
 41
0.0
 42
0.0
 43
0.0
 44
210.0
 45
297.0
 46
0.0
 47
0.0
 48
0.0
 49
0.0
140
0.0
141
0.0
142
1.0
143
1.0
 70
0
 72
1
 73
0
 74
0
  7

 75
0
147
1.0
148
0.0
149
0.0
100
AcDbLayout
  1
Layout1
 70
0
 71
1
 10
0.0
 20
0.0
 11
210.0
 21
297.0
 12
0.0
 22
0.0
 32
0.0
 14
0.0
 24
0.0
 34
0.0
 15
0.0
 25
0.0
 35
0.0
146
0.0
 13
0.0
 23
0.0
 33
0.0
 16
1.0
 26
0.0
 36
0.0
 17
0.0
 27
1.0
 37
0.0
 76
0
330
211
345
0
346
0
  0
ENDSEC
  0
EOF
