999
DXF file: C:\Users\sesa63760\Dev\_Creo\CAD\MCADUE0001307_3D-CAD\drw0001_3.dxf
999
Pro/ENGINEER 2019471 by Parametric Technology Corporation
  0
SECTION
  2
HEADER
  9
$ACADVER
  1
AC1024
  9
$DWGCODEPAGE
  3
ANSI_1252
  9
$EXTMAX
 10
758.4377693787
 20
1072.647702407
 30
0.0
  9
$EXTMIN
 10
0.0
 20
0.0
 30
0.0
  9
$LIMMIN
 10
0.0
 20
0.0
  9
$LIMMAX
 10
758.4377693787
 20
1072.647702407
  9
$VIEWCTR
 10
379.2188846893
 20
536.3238512035
  9
$VIEWSIZE
 40
1072.647702407
  9
$CLAYER
  8
0
  9
$LTSCALE
 40
69.9207391199
  9
$CELTYPE
  6
BYLAYER
  9
$DIMSCALE
 40
1.0
  9
$DIMASZ
 40
9.029021064
  9
$DIMEXO
 40
1.0
  9
$DIMDLI
 40
48.308874301
  9
$DIMEXE
 40
1.0
  9
$DIMCEN
 40
11.4415754923
  9
$DIMLFAC
 40
1.0
  9
$DIMBLK
  1
_FILLED
  9
$DIMALT
 70
0
  9
$DIMALTF
 40
0.0393700787
  9
$DIMTXT
 40
12.6406294896
  9
$DIMTOL
 70
1
  9
$DIMLIM
 70
0
  9
$DIMTFAC
 40
1.0
  9
$DIMTP
 40
0.01
  9
$DIMTM
 40
0.01
  9
$DIMGAP
 40
0.625
  9
$DIMDSEP
 70
46
  9
$AUNITS
 70
0
  9
$PDMODE
 70
3
  9
$PDSIZE
 40
0.3125
  9
$HANDSEED
  5
305
  9
$TILEMODE
 70
1
  9
$MEASUREMENT
 70
1
  9
$INSUNITS
 70
4
  0
ENDSEC
  0
SECTION
  2
CLASSES
  0
CLASS
  1
ACDBDICTIONARYWDFLT
  2
AcDbDictionaryWithDefault
  3
AutoCAD 2000
 90
0
 91
1
280
0
281
0
  0
CLASS
  1
ACDBPLACEHOLDER
  2
AcDbPlaceHolder
  3
AutoCAD 2000
 90
0
 91
1
280
0
281
0
  0
CLASS
  1
LAYOUT
  2
AcDbLayout
  3
AutoCAD 2000
 90
0
 91
0
280
0
281
0
  0
ENDSEC
  0
SECTION
  2
TABLES
  0
TABLE
  2
VPORT
  5
8
100
AcDbSymbolTable
 70
2
  0
VPORT
  5
1F4
100
AcDbSymbolTableRecord
100
AcDbViewportTableRecord
  2
*ACTIVE
 70
0
 10
0.0
 20
0.0
 11
1.0
 21
1.0
 12
379.2188846893
 22
536.3238512035
 13
0.0
 23
0.0
 14
1.0
 24
1.0
 15
0.0
 25
0.0
 16
0.0
 26
0.0
 36
1.0
 17
0.0
 27
0.0
 37
0.0
 40
1072.647702407
 41
0.7070707071
 42
50.0
 43
0.0
 44
0.0
 50
0.0
 51
0.0
 71
0
 72
100
 73
1
 74
1
 75
0
 76
0
 77
0
 78
0
  0
ENDTAB
  0
TABLE
  2
LTYPE
  5
5
100
AcDbSymbolTable
 70
6
  0
LTYPE
  5
14
100
AcDbSymbolTableRecord
100
AcDbLinetypeTableRecord
  2
BYBLOCK
 70
0
  3

 72
65
 73
0
 40
0.0
  0
LTYPE
  5
15
100
AcDbSymbolTableRecord
100
AcDbLinetypeTableRecord
  2
BYLAYER
 70
0
  3

 72
65
 73
0
 40
0.0
  0
LTYPE
  5
16
100
AcDbSymbolTableRecord
100
AcDbLinetypeTableRecord
  2
CONTINUOUS
 70
64
  3
Solid line
 72
65
 73
0
 40
0.0
  0
LTYPE
  5
1F5
100
AcDbSymbolTableRecord
100
AcDbLinetypeTableRecord
  2
CENTER
 70
64
  3
____ _ ____ _ ____ _ ____ _ ____ _ ____ _ ____
 72
65
 73
4
 40
0.6
 49
0.375
 74
0
 49
-0.075
 74
0
 49
0.075
 74
0
 49
-0.075
 74
0
  0
LTYPE
  5
1F6
100
AcDbSymbolTableRecord
100
AcDbLinetypeTableRecord
  2
HIDDEN
 70
64
  3
- - - - - - - - - - - - - - - - - - - -
 72
65
 73
2
 40
0.2
 49
0.1
 74
0
 49
-0.1
 74
0
  0
LTYPE
  5
1F7
100
AcDbSymbolTableRecord
100
AcDbLinetypeTableRecord
  2
PHANTOM
 70
64
  3
_____ _ _ _____ _ _ _____ _ _ _____
 72
65
 73
6
 40
0.8
 49
0.45
 74
0
 49
-0.05
 74
0
 49
0.1
 74
0
 49
-0.05
 74
0
 49
0.1
 74
0
 49
-0.05
 74
0
  0
LTYPE
  5
1F8
100
AcDbSymbolTableRecord
100
AcDbLinetypeTableRecord
  2
DOT
 70
64
  3
. . . . . . . . . . . . . . . . . . . .
 72
65
 73
2
 40
0.2
 49
0.1
 74
0
 49
-0.1
 74
0
  0
LTYPE
  5
1F9
100
AcDbSymbolTableRecord
100
AcDbLinetypeTableRecord
  2
DASHED
 70
64
  3
- - - - - - - - - - - - - - - - - - - -
 72
65
 73
2
 40
0.2
 49
0.1
 74
0
 49
-0.1
 74
0
  0
ENDTAB
  0
TABLE
  2
LAYER
  5
2
100
AcDbSymbolTable
 70
36
  0
LAYER
  5
10
100
AcDbSymbolTableRecord
100
AcDbLayerTableRecord
  2
0
 70
0
 62
7
  6
CONTINUOUS
370
-3
390
F
  0
LAYER
  5
1FA
100
AcDbSymbolTableRecord
100
AcDbLayerTableRecord
  2
DEFAULT_1
 70
0
 62
7
  6
CENTER
370
-3
390
F
  0
LAYER
  5
1FB
100
AcDbSymbolTableRecord
100
AcDbLayerTableRecord
  2
DEFAULT_2
 70
0
 62
8
  6
HIDDEN
370
-3
390
F
  0
LAYER
  5
1FC
100
AcDbSymbolTableRecord
100
AcDbLayerTableRecord
  2
DEFAULT_3
 70
0
 62
7
  6
PHANTOM
370
-3
390
F
  0
LAYER
  5
1FD
100
AcDbSymbolTableRecord
100
AcDbLayerTableRecord
  2
00_COMPONENTS
 70
0
 62
7
  6
CONTINUOUS
370
-3
390
F
  0
LAYER
  5
1FE
100
AcDbSymbolTableRecord
100
AcDbLayerTableRecord
  2
01_1_DEFAULT_DATUMS
 70
0
 62
7
  6
CONTINUOUS
370
-3
390
F
  0
LAYER
  5
1FF
100
AcDbSymbolTableRecord
100
AcDbLayerTableRecord
  2
01_PLANES
 70
0
 62
7
  6
CONTINUOUS
370
-3
390
F
  0
LAYER
  5
200
100
AcDbSymbolTableRecord
100
AcDbLayerTableRecord
  2
02_COORD_SYS
 70
0
 62
7
  6
CONTINUOUS
370
-3
390
F
  0
LAYER
  5
201
100
AcDbSymbolTableRecord
100
AcDbLayerTableRecord
  2
03_AXES
 70
0
 62
7
  6
CONTINUOUS
370
-3
390
F
  0
LAYER
  5
202
100
AcDbSymbolTableRecord
100
AcDbLayerTableRecord
  2
04_POINTS
 70
0
 62
7
  6
CONTINUOUS
370
-3
390
F
  0
LAYER
  5
203
100
AcDbSymbolTableRecord
100
AcDbLayerTableRecord
  2
05_CURVES
 70
0
 62
7
  6
CONTINUOUS
370
-3
390
F
  0
LAYER
  5
204
100
AcDbSymbolTableRecord
100
AcDbLayerTableRecord
  2
06_SURFS
 70
0
 62
7
  6
CONTINUOUS
370
-3
390
F
  0
LAYER
  5
205
100
AcDbSymbolTableRecord
100
AcDbLayerTableRecord
  2
07_COSMETICS
 70
0
 62
7
  6
CONTINUOUS
370
-3
390
F
  0
LAYER
  5
206
100
AcDbSymbolTableRecord
100
AcDbLayerTableRecord
  2
10_NOTES
 70
0
 62
7
  6
CONTINUOUS
370
-3
390
F
  0
LAYER
  5
207
100
AcDbSymbolTableRecord
100
AcDbLayerTableRecord
  2
11_NOTES_PUB
 70
0
 62
7
  6
CONTINUOUS
370
-3
390
F
  0
LAYER
  5
208
100
AcDbSymbolTableRecord
100
AcDbLayerTableRecord
  2
13_REF_GTOL
 70
0
 62
7
  6
CONTINUOUS
370
-3
390
F
  0
LAYER
  5
209
100
AcDbSymbolTableRecord
100
AcDbLayerTableRecord
  2
16_MISC
 70
0
 62
7
  6
CONTINUOUS
370
-3
390
F
  0
LAYER
  5
20A
100
AcDbSymbolTableRecord
100
AcDbLayerTableRecord
  2
17_NO_PRINT
 70
0
 62
7
  6
CONTINUOUS
370
-3
390
F
  0
LAYER
  5
20B
100
AcDbSymbolTableRecord
100
AcDbLayerTableRecord
  2
18_DATUM_CAMS_JOINTS
 70
0
 62
7
  6
CONTINUOUS
370
-3
390
F
  0
LAYER
  5
20C
100
AcDbSymbolTableRecord
100
AcDbLayerTableRecord
  2
19_DATUM_FUNCTIONAL
 70
0
 62
7
  6
CONTINUOUS
370
-3
390
F
  0
LAYER
  5
20D
100
AcDbSymbolTableRecord
100
AcDbLayerTableRecord
  2
20_DATUM_KINEMATIC_SCHEME
 70
0
 62
7
  6
CONTINUOUS
370
-3
390
F
  0
ENDTAB
  0
TABLE
  2
STYLE
  5
3
100
AcDbSymbolTable
 70
1
  0
STYLE
  5
11
100
AcDbSymbolTableRecord
100
AcDbTextStyleTableRecord
  2
STANDARD
 70
0
 40
0.0
 41
0.8
 50
0.0
 71
0
 42
0.2
  3
txt
  4

  0
STYLE
  5
20E
100
AcDbSymbolTableRecord
100
AcDbTextStyleTableRecord
  2
TEXTSTYLE_1
 70
0
 40
0.0
 41
0.8
 50
0.0
 71
0
 42
0.2
  3
gdt
  4

  0
ENDTAB
  0
TABLE
  2
VIEW
  5
6
100
AcDbSymbolTable
 70
0
  0
ENDTAB
  0
TABLE
  2
UCS
  5
7
100
AcDbSymbolTable
 70
0
  0
ENDTAB
  0
TABLE
  2
APPID
  5
9
100
AcDbSymbolTable
 70
1
  0
APPID
  5
20F
100
AcDbSymbolTableRecord
100
AcDbRegAppTableRecord
  2
ACAD
 70
0
  0
ENDTAB
  0
TABLE
  2
BLOCK_RECORD
  5
1
100
AcDbSymbolTable
 70
0
  0
BLOCK_RECORD
  5
210
100
AcDbSymbolTableRecord
100
AcDbBlockTableRecord
  2
*Model_Space
  0
BLOCK_RECORD
  5
211
100
AcDbSymbolTableRecord
100
AcDbBlockTableRecord
  2
*Paper_Space
  0
BLOCK_RECORD
  5
212
100
AcDbSymbolTableRecord
100
AcDbBlockTableRecord
  2
_FILLED
  0
ENDTAB
  0
TABLE
  2
DIMSTYLE
  5
A
100
AcDbSymbolTable
 70
1
100
AcDbDimStyleTable
 71
0
  0
DIMSTYLE
105
213
100
AcDbSymbolTableRecord
100
AcDbDimStyleTableRecord
  2
STANDARD
 70
0
  3

  4

 40
1.0
 41
9.029021064
 42
1.0
 43
0.38
 44
1.0
 45
0.0
 46
0.0
 47
0.01
 48
0.01
140
12.6406294896
141
0.09
142
0.0
143
25.4
144
1.0
145
0.0
146
1.0
147
0.625
 71
1
 72
0
 73
0
 74
0
 75
0
 76
0
 77
1
 78
8
 79
2
170
0
171
1
172
0
173
0
174
0
175
0
176
0
177
0
178
0
270
2
179
2
271
2
272
2
273
2
274
2
275
0
280
0
281
0
282
0
283
1
284
8
285
0
286
0
287
3
288
0
340
11
278
46
341
212
342
212
343
212
344
212
  0
ENDTAB
  0
ENDSEC
  0
SECTION
  2
BLOCKS
  0
BLOCK
  5
20
100
AcDbEntity
  8
0
100
AcDbBlockBegin
  2
*Model_Space
 70
0
 10
0.0
 20
0.0
 30
0.0
  3
*Model_Space
  1

  0
ENDBLK
  5
21
100
AcDbEntity
  8
0
100
AcDbBlockEnd
  0
BLOCK
  5
1C
100
AcDbEntity
  8
0
100
AcDbBlockBegin
  2
*Paper_Space
 70
0
 10
0.0
 20
0.0
 30
0.0
  3
*Paper_Space
  1

  0
ENDBLK
  5
1D
100
AcDbEntity
  8
0
100
AcDbBlockEnd
  0
BLOCK
  5
214
100
AcDbEntity
  8
0
100
AcDbBlockBegin
  2
_FILLED
 70
64
 10
0.0
 20
0.0
  3
_FILLED
  1

  0
SOLID
  5
215
100
AcDbEntity
  8
0
  6
BYBLOCK
 62
0
100
AcDbTrace
 10
0.0
 20
0.0
 11
-1.0
 21
0.25
 12
-1.0
 22
-0.25
 13
-1.0
 23
-0.25
  0
ENDBLK
  5
216
100
AcDbEntity
  8
0
  6
BYBLOCK
 62
0
100
AcDbBlockEnd
  0
ENDSEC
  0
SECTION
  2
ENTITIES
  0
LINE
  5
217
100
AcDbEntity
  8
0
100
AcDbLine
 62
7
  6
CONTINUOUS
 10
93.2905208249
 20
656.2805273641
 11
92.5656007667
 21
654.8879688888
  0
LINE
  5
218
100
AcDbEntity
  8
0
100
AcDbLine
 62
7
  6
CONTINUOUS
 10
89.7221669664
 20
634.1455622212
 11
89.7221669664
 21
412.4455622212
  0
LINE
  5
219
100
AcDbEntity
  8
0
100
AcDbLine
 62
7
  6
CONTINUOUS
 10
90.9221669651
 20
634.1455622212
 11
90.9221669651
 21
412.4455622212
  0
LINE
  5
21A
100
AcDbEntity
  8
0
100
AcDbLine
 62
7
  6
CONTINUOUS
 10
91.0656007667
 20
645.2558588326
 11
91.0656007667
 21
654.8879688888
  0
LINE
  5
21B
100
AcDbEntity
  8
0
100
AcDbLine
 62
7
  6
CONTINUOUS
 10
92.2221669651
 20
637.5455622212
 11
92.2221669651
 21
637.0455622212
  0
LINE
  5
21C
100
AcDbEntity
  8
0
100
AcDbLine
 62
7
  6
CONTINUOUS
 10
92.5656007667
 20
645.2558588326
 11
92.5656007667
 21
654.8879688888
  0
LINE
  5
21D
100
AcDbEntity
  8
0
100
AcDbLine
 62
7
  6
CONTINUOUS
 10
94.2221669651
 20
637.0455622212
 11
94.2221669651
 21
638.5455622212
  0
LINE
  5
21E
100
AcDbEntity
  8
0
100
AcDbLine
 62
7
  6
CONTINUOUS
 10
95.6100345308
 20
638.9021307637
 11
95.6100345308
 21
639.2455622212
  0
LINE
  5
21F
100
AcDbEntity
  8
0
100
AcDbLine
 62
7
  6
CONTINUOUS
 10
101.3518985191
 20
639.2455622212
 11
101.3518985191
 21
638.9021307637
  0
LINE
  5
220
100
AcDbEntity
  8
0
100
AcDbLine
 62
7
  6
CONTINUOUS
 10
101.5027588016
 20
639.2455622212
 11
101.5027588016
 21
639.1950451063
  0
LINE
  5
221
100
AcDbEntity
  8
0
100
AcDbLine
 62
7
  6
CONTINUOUS
 10
105.2221669651
 20
409.3455622212
 11
105.2221669651
 21
409.5455622212
  0
LINE
  5
222
100
AcDbEntity
  8
0
100
AcDbLine
 62
7
  6
CONTINUOUS
 10
118.2221669651
 20
409.5455622212
 11
118.2221669651
 21
409.3455622212
  0
LINE
  5
223
100
AcDbEntity
  8
0
100
AcDbLine
 62
7
  6
CONTINUOUS
 10
110.4371799439
 20
639.427180212
 11
110.095086634
 21
639.0455622698
  0
LINE
  5
224
100
AcDbEntity
  8
0
100
AcDbLine
 62
7
  6
CONTINUOUS
 10
94.0585641735
 20
638.5455621185
 11
94.293025363
 21
638.7507156593
  0
LINE
  5
225
100
AcDbEntity
  8
0
100
AcDbLine
 62
7
  6
CONTINUOUS
 10
92.4301561704
 20
657.5092554305
 11
100.2391122947
 21
662.9771453743
  0
LINE
  5
226
100
AcDbEntity
  8
0
100
AcDbLine
 62
7
  6
CONTINUOUS
 10
99.1106973385
 20
660.3558588327
 11
93.2905208249
 21
656.2805273641
  0
LINE
  5
227
100
AcDbEntity
  8
0
100
AcDbLine
 62
7
  6
CONTINUOUS
 10
105.4987380786
 20
638.8455622212
 11
105.5516361728
 21
638.5455622212
  0
LINE
  5
228
100
AcDbEntity
  8
0
100
AcDbLine
 62
7
  6
CONTINUOUS
 10
101.4537744458
 20
638.5455622212
 11
101.3518985136
 21
638.9021307622
  0
LINE
  5
229
100
AcDbEntity
  8
0
100
AcDbLine
 62
7
  6
CONTINUOUS
 10
101.6950635912
 20
639.1005064468
 11
101.7107619413
 21
639.0455622212
  0
LINE
  5
22A
100
AcDbEntity
  8
0
100
AcDbLine
 62
7
  6
CONTINUOUS
 10
101.7365080981
 20
638.9554506724
 11
101.8536190842
 21
638.5455622212
  0
LINE
  5
22B
100
AcDbEntity
  8
0
100
AcDbLine
 62
7
  6
CONTINUOUS
 10
106.7482639609
 20
643.5558588326
 11
107.4906971444
 21
639.7363712166
  0
LINE
  5
22C
100
AcDbEntity
  8
0
100
AcDbLine
 62
7
  6
CONTINUOUS
 10
108.9631379196
 20
640.0225847097
 11
108.2763390033
 21
643.5558588326
  0
LINE
  5
22D
100
AcDbEntity
  8
0
100
AcDbLine
 62
7
  6
CONTINUOUS
 10
109.2592273238
 20
639.427180212
 11
108.4566934972
 21
643.5558588326
  0
LINE
  5
22E
100
AcDbEntity
  8
0
100
AcDbLine
 62
7
  6
CONTINUOUS
 10
109.6346461173
 20
643.5558588326
 11
110.4371799439
 21
639.427180212
  0
LINE
  5
22F
100
AcDbEntity
  8
0
100
AcDbLine
 62
7
  6
CONTINUOUS
 10
105.3309181523
 20
639.0455622212
 11
105.4987380786
 21
638.8455622212
  0
LINE
  5
230
100
AcDbEntity
  8
0
100
AcDbLine
 62
7
  6
CONTINUOUS
 10
97.3558917996
 20
659.1271307662
 11
96.495527145
 21
660.3558588326
  0
LINE
  5
231
100
AcDbEntity
  8
0
100
AcDbLine
 62
7
  6
CONTINUOUS
 10
100.5457318495
 20
662.5392472684
 11
100.2391122948
 21
662.9771453743
  0
LINE
  5
232
100
AcDbEntity
  8
0
100
AcDbLine
 62
7
  6
CONTINUOUS
 10
674.2221669651
 20
409.3455622212
 11
661.2221669651
 21
409.3455622212
  0
LINE
  5
233
100
AcDbEntity
  8
0
100
AcDbLine
 62
7
  6
CONTINUOUS
 10
118.2221669651
 20
409.3455622212
 11
105.2221669651
 21
409.3455622212
  0
LINE
  5
234
100
AcDbEntity
  8
0
100
AcDbLine
 62
7
  6
CONTINUOUS
 10
92.6221669651
 20
409.5455622212
 11
686.8221669651
 21
409.5455622212
  0
LINE
  5
235
100
AcDbEntity
  8
0
100
AcDbLine
 62
7
  6
CONTINUOUS
 10
689.7221669638
 20
412.4455622212
 11
89.7221669664
 21
412.4455622212
  0
LINE
  5
236
100
AcDbEntity
  8
0
100
AcDbLine
 62
7
  6
CONTINUOUS
 10
650.5120869706
 20
669.5191578952
 11
650.3266931969
 21
669.4601038327
  0
LINE
  5
237
100
AcDbEntity
  8
0
100
AcDbLine
 62
7
  6
CONTINUOUS
 10
650.5198868415
 20
669.5211142566
 11
650.3266931969
 21
669.4601038327
  0
LINE
  5
238
100
AcDbEntity
  8
0
100
AcDbLine
 62
7
  6
CONTINUOUS
 10
650.5198782487
 20
669.5211153891
 11
650.5120869706
 21
669.5191578952
  0
LINE
  5
239
100
AcDbEntity
  8
0
100
AcDbLine
 62
7
  6
CONTINUOUS
 10
89.7221669664
 20
634.1455622212
 11
689.7221669638
 21
634.1455622212
  0
LINE
  5
23A
100
AcDbEntity
  8
0
100
AcDbLine
 62
7
  6
CONTINUOUS
 10
686.822166965
 20
637.0455622212
 11
92.6221669651
 21
637.0455622212
  0
LINE
  5
23B
100
AcDbEntity
  8
0
100
AcDbLine
 62
7
  6
CONTINUOUS
 10
673.7221669651
 20
637.2455622212
 11
683.7221669651
 21
637.2455622212
  0
LINE
  5
23C
100
AcDbEntity
  8
0
100
AcDbLine
 62
7
  6
CONTINUOUS
 10
677.972166965
 20
638.2455622212
 11
679.4721669651
 21
638.2455622212
  0
LINE
  5
23D
100
AcDbEntity
  8
0
100
AcDbLine
 62
7
  6
CONTINUOUS
 10
94.0221669651
 20
638.5455622212
 11
106.509069961
 21
638.5455622212
  0
LINE
  5
23E
100
AcDbEntity
  8
0
100
AcDbLine
 62
7
  6
CONTINUOUS
 10
101.7679047985
 20
638.8455622212
 11
105.4987380786
 21
638.8455622212
  0
LINE
  5
23F
100
AcDbEntity
  8
0
100
AcDbLine
 62
7
  6
CONTINUOUS
 10
95.609714919
 20
638.902137642
 11
101.3518985136
 21
638.9021307622
  0
LINE
  5
240
100
AcDbEntity
  8
0
100
AcDbLine
 62
7
  6
CONTINUOUS
 10
101.6746709324
 20
639.0455622212
 11
105.3309181523
 21
639.0455622212
  0
LINE
  5
241
100
AcDbEntity
  8
0
100
AcDbLine
 62
7
  6
CONTINUOUS
 10
101.5027588016
 20
639.2455622212
 11
95.6100345248
 21
639.2455622212
  0
LINE
  5
242
100
AcDbEntity
  8
0
100
AcDbLine
 62
7
  6
CONTINUOUS
 10
669.0071539862
 20
639.427180212
 11
110.4371799439
 21
639.427180212
  0
LINE
  5
243
100
AcDbEntity
  8
0
100
AcDbLine
 62
7
  6
CONTINUOUS
 10
685.5851486149
 20
643.5558588326
 11
93.5460529184
 21
643.5558588326
  0
LINE
  5
244
100
AcDbEntity
  8
0
100
AcDbLine
 62
7
  6
CONTINUOUS
 10
688.0656007667
 20
645.2558588326
 11
91.0656007667
 21
645.2558588326
  0
LINE
  5
245
100
AcDbEntity
  8
0
100
AcDbLine
 62
7
  6
CONTINUOUS
 10
625.6390336962
 20
669.5231364661
 11
625.6112525072
 21
669.5213989623
  0
LINE
  5
246
100
AcDbEntity
  8
0
100
AcDbLine
 62
7
  6
CONTINUOUS
 10
622.1403171922
 20
665.6954574131
 11
623.4976924536
 21
665.702510082
  0
LINE
  5
247
100
AcDbEntity
  8
0
100
AcDbLine
 62
7
  6
CONTINUOUS
 10
99.1106973385
 20
660.3558588327
 11
680.0205041948
 21
660.3558588327
  0
LINE
  5
248
100
AcDbEntity
  8
0
100
AcDbLine
 62
7
  6
CONTINUOUS
 10
677.0566446423
 20
663.5558588326
 11
102.0745568911
 21
663.5558588326
  0
LINE
  5
249
100
AcDbEntity
  8
0
100
AcDbLine
 62
7
  6
CONTINUOUS
 10
626.4446700945
 20
664.4047095242
 11
638.0656007667
 21
664.4060381267
  0
LINE
  5
24A
100
AcDbEntity
  8
0
100
AcDbLine
 62
7
  6
CONTINUOUS
 10
626.5243187732
 20
665.1470911992
 11
649.6068903804
 21
665.1470911974
  0
LINE
  5
24B
100
AcDbEntity
  8
0
100
AcDbLine
 62
7
  6
CONTINUOUS
 10
638.0656007667
 20
664.4060381267
 11
649.6865403559
 21
664.404709522
  0
LINE
  5
24C
100
AcDbEntity
  8
0
100
AcDbLine
 62
7
  6
CONTINUOUS
 10
652.6335093466
 20
665.7025100813
 11
653.9908843411
 21
665.6954574131
  0
LINE
  5
24D
100
AcDbEntity
  8
0
100
AcDbLine
 62
7
  6
CONTINUOUS
 10
110.4371799439
 20
639.6561510064
 11
109.2592273079
 21
639.4271802089
  0
LINE
  5
24E
100
AcDbEntity
  8
0
100
AcDbLine
 62
7
  6
CONTINUOUS
 10
650.5199254149
 20
669.5214021067
 11
650.4921680175
 21
669.5231364658
  0
LINE
  5
24F
100
AcDbEntity
  8
0
100
AcDbLine
 62
7
  6
CONTINUOUS
 10
670.1851066222
 20
639.4271802089
 11
669.0071539969
 21
639.6561510043
  0
LINE
  5
250
100
AcDbEntity
  8
0
100
AcDbLine
 62
7
  6
CONTINUOUS
 10
678.5854696838
 20
662.5392472684
 11
678.8920892385
 21
662.9771453743
  0
LINE
  5
251
100
AcDbEntity
  8
0
100
AcDbLine
 62
7
  6
CONTINUOUS
 10
682.6356743883
 20
660.3558588326
 11
681.7753097338
 21
659.1271307662
  0
LINE
  5
252
100
AcDbEntity
  8
0
100
AcDbLine
 62
7
  6
CONTINUOUS
 10
626.2851271388
 20
669.3351404924
 11
626.2797650258
 21
669.3362286816
  0
LINE
  5
253
100
AcDbEntity
  8
0
100
AcDbLine
 62
7
  6
CONTINUOUS
 10
625.6148850052
 20
669.5203733776
 11
625.6112827643
 21
669.5211099998
  0
LINE
  5
254
100
AcDbEntity
  8
0
100
AcDbLine
 62
7
  6
CONTINUOUS
 10
626.283801476
 20
669.335328902
 11
626.2797650258
 21
669.3362286816
  0
LINE
  5
255
100
AcDbEntity
  8
0
100
AcDbLine
 62
7
  6
CONTINUOUS
 10
630.6128072625
 20
669.5477473727
 11
630.6136423995
 21
669.5475427596
  0
LINE
  5
256
100
AcDbEntity
  8
0
100
AcDbLine
 62
7
  6
CONTINUOUS
 10
630.7884058415
 20
669.4942703164
 11
630.6132060439
 21
669.5458704491
  0
LINE
  5
257
100
AcDbEntity
  8
0
100
AcDbLine
 62
7
  6
CONTINUOUS
 10
630.7886726285
 20
669.494275013
 11
630.6265238668
 21
669.5438902451
  0
LINE
  5
258
100
AcDbEntity
  8
0
100
AcDbLine
 62
7
  6
CONTINUOUS
 10
625.8181419687
 20
669.4559686983
 11
625.6111964957
 21
669.5210517655
  0
LINE
  5
259
100
AcDbEntity
  8
0
100
AcDbLine
 62
7
  6
CONTINUOUS
 10
625.7231157739
 20
669.4859154314
 11
625.6517770442
 21
669.5086962379
  0
LINE
  5
25A
100
AcDbEntity
  8
0
100
AcDbLine
 62
7
  6
CONTINUOUS
 10
645.5719556086
 20
669.5525080767
 11
645.6242560045
 21
669.5364723741
  0
LINE
  5
25B
100
AcDbEntity
  8
0
100
AcDbLine
 62
7
  6
CONTINUOUS
 10
640.5670484193
 20
669.5537809169
 11
640.6238229403
 21
669.5360317632
  0
LINE
  5
25C
100
AcDbEntity
  8
0
100
AcDbLine
 62
7
  6
CONTINUOUS
 10
640.5670484193
 20
669.5537809169
 11
640.5685756679
 21
669.5532946601
  0
LINE
  5
25D
100
AcDbEntity
  8
0
100
AcDbLine
 62
7
  6
CONTINUOUS
 10
622.140317186
 20
665.6954572351
 11
622.0656007779
 21
663.5558594783
  0
LINE
  5
25E
100
AcDbEntity
  8
0
100
AcDbLine
 62
7
  6
CONTINUOUS
 10
669.0071539862
 20
639.427180212
 11
669.8096878128
 21
643.5558588326
  0
LINE
  5
25F
100
AcDbEntity
  8
0
100
AcDbLine
 62
7
  6
CONTINUOUS
 10
670.987640433
 20
643.5558588326
 11
670.1851066064
 21
639.427180212
  0
LINE
  5
260
100
AcDbEntity
  8
0
100
AcDbLine
 62
7
  6
CONTINUOUS
 10
653.9908843473
 20
665.6954572351
 11
654.0656007554
 21
663.5558594783
  0
LINE
  5
261
100
AcDbEntity
  8
0
100
AcDbLine
 62
7
  6
CONTINUOUS
 10
661.2221669651
 20
409.3455622212
 11
661.2221669651
 21
409.5455622212
  0
LINE
  5
262
100
AcDbEntity
  8
0
100
AcDbLine
 62
7
  6
CONTINUOUS
 10
673.7221669651
 20
637.0455622212
 11
673.7221669651
 21
637.2455622212
  0
LINE
  5
263
100
AcDbEntity
  8
0
100
AcDbLine
 62
7
  6
CONTINUOUS
 10
674.2221669651
 20
409.5455622212
 11
674.2221669651
 21
409.3455622212
  0
LINE
  5
264
100
AcDbEntity
  8
0
100
AcDbLine
 62
7
  6
CONTINUOUS
 10
685.8406807085
 20
656.280527364
 11
680.0205041948
 21
660.3558588327
  0
LINE
  5
265
100
AcDbEntity
  8
0
100
AcDbLine
 62
7
  6
CONTINUOUS
 10
678.8920892386
 20
662.9771453743
 11
686.701045363
 21
657.5092554305
  0
LINE
  5
266
100
AcDbEntity
  8
0
100
AcDbLine
 62
7
  6
CONTINUOUS
 10
669.3492473017
 20
639.0455622746
 11
669.0071539862
 21
639.427180212
  0
LINE
  5
267
100
AcDbEntity
  8
0
100
AcDbLine
 62
7
  6
CONTINUOUS
 10
683.7221669651
 20
637.2455622212
 11
683.7221669651
 21
637.0455622212
  0
LINE
  5
268
100
AcDbEntity
  8
0
100
AcDbLine
 62
7
  6
CONTINUOUS
 10
686.5656007667
 20
645.2558588326
 11
686.5656007667
 21
654.8879688888
  0
LINE
  5
269
100
AcDbEntity
  8
0
100
AcDbLine
 62
7
  6
CONTINUOUS
 10
688.0656007667
 20
645.2558588326
 11
688.0656007667
 21
654.8879688888
  0
LINE
  5
26A
100
AcDbEntity
  8
0
100
AcDbLine
 62
7
  6
CONTINUOUS
 10
688.5221669651
 20
634.1455622212
 11
688.5221669651
 21
412.4455622212
  0
LINE
  5
26B
100
AcDbEntity
  8
0
100
AcDbLine
 62
7
  6
CONTINUOUS
 10
689.7221669651
 20
634.1455622212
 11
689.7221669651
 21
412.4455622212
  0
LINE
  5
26C
100
AcDbEntity
  8
0
100
AcDbLine
 62
7
  6
CONTINUOUS
 10
686.5656007667
 20
654.8879688888
 11
685.8406807085
 21
656.280527364
  0
ARC
  5
26D
100
AcDbEntity
  8
0
100
AcDbCircle
 62
7
  6
CONTINUOUS
 10
111.7221669651
 20
429.9705622212
 40
21.625
100
AcDbArc
 50
252.5076754749
 51
287.4923245251
  0
ARC
  5
26E
100
AcDbEntity
  8
0
100
AcDbCircle
 62
7
  6
CONTINUOUS
 10
92.6221669651
 20
412.4455622212
 40
2.9
100
AcDbArc
 50
180.0000000001
 51
260.6996716675
  0
ARC
  5
26F
100
AcDbEntity
  8
0
100
AcDbCircle
 62
7
  6
CONTINUOUS
 10
42.4262674156
 20
699.2612557858
 40
90.5814691362
100
AcDbArc
 50
318.1383748136
 51
318.3354324596
  0
ARC
  5
270
100
AcDbEntity
  8
0
100
AcDbCircle
 62
7
  6
CONTINUOUS
 10
92.6221669651
 20
634.1455622212
 40
2.9
100
AcDbArc
 50
90.0
 51
180.0
  0
ARC
  5
271
100
AcDbEntity
  8
0
100
AcDbCircle
 62
7
  6
CONTINUOUS
 10
94.0221669651
 20
636.4255622212
 40
2.12
100
AcDbArc
 50
90.0
 51
148.1092081982
  0
ARC
  5
272
100
AcDbEntity
  8
0
100
AcDbCircle
 62
7
  6
CONTINUOUS
 10
95.6100345231
 20
637.2455622212
 40
2.0
100
AcDbArc
 50
90.0000000004
 51
131.1859251657
  0
ARC
  5
273
100
AcDbEntity
  8
0
100
AcDbCircle
 62
7
  6
CONTINUOUS
 10
95.6100715089
 20
637.3020618133
 40
1.6000758685
100
AcDbArc
 50
90.012768828
 51
128.9995499935
  0
ARC
  5
274
100
AcDbEntity
  8
0
100
AcDbCircle
 62
7
  6
CONTINUOUS
 10
94.2656007667
 20
654.8879688888
 40
3.2
100
AcDbArc
 50
124.9999999996
 51
180.0
  0
ARC
  5
275
100
AcDbEntity
  8
0
100
AcDbCircle
 62
7
  6
CONTINUOUS
 10
92.7656007667
 20
645.2558588326
 40
1.7
100
AcDbArc
 50
180.0
 51
285.9561896203
  0
ARC
  5
276
100
AcDbEntity
  8
0
100
AcDbCircle
 62
7
  6
CONTINUOUS
 10
94.2656007667
 20
654.8879688888
 40
1.7
100
AcDbArc
 50
124.9999999994
 51
180.0
  0
CIRCLE
  5
277
100
AcDbEntity
  8
0
100
AcDbCircle
 62
7
  6
CONTINUOUS
 10
104.7221669651
 20
622.0455622212
 40
5.15
  0
ARC
  5
278
100
AcDbEntity
  8
0
100
AcDbCircle
 62
7
  6
CONTINUOUS
 10
106.509069961
 20
639.5455622212
 40
2.5
100
AcDbArc
 50
295.2849718839
 51
11.0
  0
ARC
  5
279
100
AcDbEntity
  8
0
100
AcDbCircle
 62
7
  6
CONTINUOUS
 10
107.2959729569
 20
639.0455622212
 40
2.0
100
AcDbArc
 50
270.0
 51
11.0
  0
ARC
  5
27A
100
AcDbEntity
  8
0
100
AcDbCircle
 62
7
  6
CONTINUOUS
 10
106.509069961
 20
639.5455622212
 40
1.0
100
AcDbArc
 50
270.0
 51
11.0
  0
ARC
  5
27B
100
AcDbEntity
  8
0
100
AcDbCircle
 62
7
  6
CONTINUOUS
 10
101.3518985191
 20
638.8455622212
 40
0.4
100
AcDbArc
 50
15.9453959009
 51
90.0
  0
ARC
  5
27C
100
AcDbEntity
  8
0
100
AcDbCircle
 62
7
  6
CONTINUOUS
 10
101.5027588016
 20
639.0455622212
 40
0.2
100
AcDbArc
 50
15.9453959009
 51
90.0
  0
ARC
  5
27D
100
AcDbEntity
  8
0
100
AcDbCircle
 62
7
  6
CONTINUOUS
 10
102.0157403629
 20
648.2587742432
 40
9.9036872019
100
AcDbArc
 50
201.3765408406
 51
202.830510803
  0
ARC
  5
27E
100
AcDbEntity
  8
0
100
AcDbCircle
 62
7
  6
CONTINUOUS
 10
102.0745568911
 20
660.3558588326
 40
3.2
100
AcDbArc
 50
90.0
 51
124.9999999999
  0
ARC
  5
27F
100
AcDbEntity
  8
0
100
AcDbCircle
 62
7
  6
CONTINUOUS
 10
667.7221669651
 20
429.9705622212
 40
21.625
100
AcDbArc
 50
252.5076754749
 51
287.4923245251
  0
ARC
  5
280
100
AcDbEntity
  8
0
100
AcDbCircle
 62
7
  6
CONTINUOUS
 10
686.8221669651
 20
412.4455622212
 40
2.9
100
AcDbArc
 50
270.0
 51
359.9999999998
  0
ARC
  5
281
100
AcDbEntity
  8
0
100
AcDbCircle
 62
7
  6
CONTINUOUS
 10
678.7221669651
 20
625.5268122212
 40
12.7408438324
100
AcDbArc
 50
66.8936731417
 51
86.6252870279
  0
ARC
  5
282
100
AcDbEntity
  8
0
100
AcDbCircle
 62
7
  6
CONTINUOUS
 10
678.7221669651
 20
625.5268122212
 40
12.7408438324
100
AcDbArc
 50
93.3747129725
 51
113.1063268583
  0
ARC
  5
283
100
AcDbEntity
  8
0
100
AcDbCircle
 62
7
  6
CONTINUOUS
 10
677.1484816678
 20
648.2452318834
 40
9.8680929861
100
AcDbArc
 50
337.191226888
 51
338.6382879812
  0
ARC
  5
284
100
AcDbEntity
  8
0
100
AcDbCircle
 62
7
  6
CONTINUOUS
 10
672.7131102772
 20
657.3202141744
 40
7.7250860826
100
AcDbArc
 50
40.2507357398
 51
42.4749337731
  0
ARC
  5
285
100
AcDbEntity
  8
0
100
AcDbCircle
 62
7
  6
CONTINUOUS
 10
677.0566446423
 20
660.3558588326
 40
3.2
100
AcDbArc
 50
55.0000000001
 51
90.0
  0
ARC
  5
286
100
AcDbEntity
  8
0
100
AcDbCircle
 62
7
  6
CONTINUOUS
 10
672.1483609733
 20
639.0455622212
 40
2.0
100
AcDbArc
 50
168.9999999995
 51
270.0
  0
ARC
  5
287
100
AcDbEntity
  8
0
100
AcDbCircle
 62
7
  6
CONTINUOUS
 10
629.3678858492
 20
689.8063455638
 40
20.7229814222
100
AcDbArc
 50
263.5537519682
 51
263.6903018056
  0
ARC
  5
288
100
AcDbEntity
  8
0
100
AcDbCircle
 62
7
  6
CONTINUOUS
 10
643.6035308373
 20
679.0158108146
 40
9.9372720425
100
AcDbArc
 50
252.4718318315
 51
253.0364545698
  0
ARC
  5
289
100
AcDbEntity
  8
0
100
AcDbCircle
 62
7
  6
CONTINUOUS
 10
627.9838766613
 20
677.5453986806
 40
8.3962305046
100
AcDbArc
 50
280.8283826502
 51
280.9976445678
  0
ARC
  5
28A
100
AcDbEntity
  8
0
100
AcDbCircle
 62
7
  6
CONTINUOUS
 10
643.0656007667
 20
677.1770984546
 40
8.0125
100
AcDbArc
 50
252.2792464065
 51
287.72081931
  0
ARC
  5
28B
100
AcDbEntity
  8
0
100
AcDbCircle
 62
7
  6
CONTINUOUS
 10
628.0656007667
 20
677.1765085036
 40
8.0125
100
AcDbArc
 50
263.0670377095
 51
287.7234099865
  0
ARC
  5
28C
100
AcDbEntity
  8
0
100
AcDbCircle
 62
7
  6
CONTINUOUS
 10
648.0656007667
 20
677.1757479676
 40
8.0125
100
AcDbArc
 50
276.9322900776
 51
282.7984484849
  0
ARC
  5
28D
100
AcDbEntity
  8
0
100
AcDbCircle
 62
7
  6
CONTINUOUS
 10
648.0656007667
 20
677.1765129967
 40
8.0125
100
AcDbArc
 50
252.2779575558
 51
276.9324487234
  0
ARC
  5
28E
100
AcDbEntity
  8
0
100
AcDbCircle
 62
7
  6
CONTINUOUS
 10
628.0656007667
 20
677.1757526856
 40
8.0125
100
AcDbArc
 50
257.1999438
 51
263.0668393977
  0
ARC
  5
28F
100
AcDbEntity
  8
0
100
AcDbCircle
 62
7
  6
CONTINUOUS
 10
633.0656007667
 20
677.1771127165
 40
8.0125
100
AcDbArc
 50
253.4919929225
 51
287.7221219132
  0
ARC
  5
290
100
AcDbEntity
  8
0
100
AcDbCircle
 62
7
  6
CONTINUOUS
 10
638.0656007667
 20
677.1773831384
 40
8.0125
100
AcDbArc
 50
252.278373882
 51
287.721628838
  0
ARC
  5
291
100
AcDbEntity
  8
0
100
AcDbCircle
 62
7
  6
CONTINUOUS
 10
648.1114347379
 20
677.057784705
 40
7.9041947324
100
AcDbArc
 50
276.7208509816
 51
277.1112527952
  0
ARC
  5
292
100
AcDbEntity
  8
0
100
AcDbCircle
 62
7
  6
CONTINUOUS
 10
637.8065766991
 20
676.3118747458
 40
7.1204085308
100
AcDbArc
 50
251.6436057951
 51
251.897959374
  0
ARC
  5
293
100
AcDbEntity
  8
0
100
AcDbCircle
 62
7
  6
CONTINUOUS
 10
638.5001322989
 20
675.7731268441
 40
6.5538085119
100
AcDbArc
 50
288.1092275603
 51
288.3835343897
  0
ARC
  5
294
100
AcDbEntity
  8
0
100
AcDbCircle
 62
7
  6
CONTINUOUS
 10
643.5537806347
 20
675.4894447244
 40
6.2695222419
100
AcDbArc
 50
287.0886470526
 51
288.3081283107
  0
ARC
  5
295
100
AcDbEntity
  8
0
100
AcDbCircle
 62
7
  6
CONTINUOUS
 10
626.1378804828
 20
665.5558586182
 40
4.0
100
AcDbArc
 50
97.5659887596
 51
177.9999976621
  0
ARC
  5
296
100
AcDbEntity
  8
0
100
AcDbCircle
 62
7
  6
CONTINUOUS
 10
649.9933210505
 20
665.5558586182
 40
4.0
100
AcDbArc
 50
2.0000023379
 51
82.4340112405
  0
ARC
  5
297
100
AcDbEntity
  8
0
100
AcDbCircle
 62
7
  6
CONTINUOUS
 10
644.3554064061
 20
673.0617204112
 40
3.712874123
100
AcDbArc
 50
288.3672835724
 51
289.0717959126
  0
ARC
  5
298
100
AcDbEntity
  8
0
100
AcDbCircle
 62
7
  6
CONTINUOUS
 10
631.7584690145
 20
672.5445697119
 40
3.2146554821
100
AcDbArc
 50
251.9800080341
 51
253.5408492659
  0
ARC
  5
299
100
AcDbEntity
  8
0
100
AcDbCircle
 62
7
  6
CONTINUOUS
 10
625.6937797072
 20
667.0591326737
 40
2.3512858233
100
AcDbArc
 50
75.5686930865
 51
76.4253444885
  0
ARC
  5
29A
100
AcDbEntity
  8
0
100
AcDbCircle
 62
7
  6
CONTINUOUS
 10
630.7812032389
 20
668.7619109276
 40
0.8212481856
100
AcDbArc
 50
105.6792207851
 51
106.0797727788
  0
ARC
  5
29B
100
AcDbEntity
  8
0
100
AcDbCircle
 62
7
  6
CONTINUOUS
 10
635.7415604243
 20
668.8865766168
 40
0.6903837568
100
AcDbArc
 50
104.8889064988
 51
105.0928892978
  0
ARC
  5
29C
100
AcDbEntity
  8
0
100
AcDbCircle
 62
7
  6
CONTINUOUS
 10
645.5656007667
 20
669.3533983712
 40
0.2
100
AcDbArc
 50
72.2754884829
 51
107.7229141901
  0
ARC
  5
29D
100
AcDbEntity
  8
0
100
AcDbCircle
 62
7
  6
CONTINUOUS
 10
630.5656007667
 20
669.3533974511
 40
0.2
100
AcDbArc
 50
72.3100917001
 51
76.1012440436
  0
ARC
  5
29E
100
AcDbEntity
  8
0
100
AcDbCircle
 62
7
  6
CONTINUOUS
 10
630.5656007667
 20
669.3533983712
 40
0.2
100
AcDbArc
 50
76.3475061432
 51
107.7221989406
  0
ARC
  5
29F
100
AcDbEntity
  8
0
100
AcDbCircle
 62
7
  6
CONTINUOUS
 10
635.5656007667
 20
669.3540599535
 40
0.2
100
AcDbArc
 50
72.2770858098
 51
107.7267223342
  0
ARC
  5
2A0
100
AcDbEntity
  8
0
100
AcDbCircle
 62
7
  6
CONTINUOUS
 10
640.5656007667
 20
669.354059961
 40
0.2
100
AcDbArc
 50
72.2749018245
 51
107.7229141901
  0
ARC
  5
2A1
100
AcDbEntity
  8
0
100
AcDbCircle
 62
7
  6
CONTINUOUS
 10
645.5643500788
 20
669.3568895088
 40
0.1963092265
100
AcDbArc
 50
88.3642213604
 51
107.7060024989
  0
ARC
  5
2A2
100
AcDbEntity
  8
0
100
AcDbCircle
 62
7
  6
CONTINUOUS
 10
640.5641643111
 20
669.3578341992
 40
0.1959677125
100
AcDbArc
 50
89.1569852937
 51
107.6585309281
  0
ARC
  5
2A3
100
AcDbEntity
  8
0
100
AcDbCircle
 62
7
  6
CONTINUOUS
 10
635.567041969
 20
669.3578695592
 40
0.1959325708
100
AcDbArc
 50
72.3397497213
 51
90.8398498229
  0
ARC
  5
2A4
100
AcDbEntity
  8
0
100
AcDbCircle
 62
7
  6
CONTINUOUS
 10
645.567134236
 20
669.3577688806
 40
0.1953702039
100
AcDbArc
 50
72.3473674432
 51
89.1730572638
  0
ARC
  5
2A5
100
AcDbEntity
  8
0
100
AcDbCircle
 62
7
  6
CONTINUOUS
 10
635.5639926874
 20
669.3584982876
 40
0.1952828742
100
AcDbArc
 50
89.9479579244
 51
107.6628132785
  0
ARC
  5
2A6
100
AcDbEntity
  8
0
100
AcDbCircle
 62
7
  6
CONTINUOUS
 10
640.5672109778
 20
669.3585032892
 40
0.1952774794
100
AcDbArc
 50
72.3405265666
 51
90.0479494431
  0
ARC
  5
2A7
100
AcDbEntity
  8
0
100
AcDbCircle
 62
7
  6
CONTINUOUS
 10
630.5639063036
 20
669.3590301365
 40
0.1941196958
100
AcDbArc
 50
101.4964723655
 51
107.7403475638
  0
ARC
  5
2A8
100
AcDbEntity
  8
0
100
AcDbCircle
 62
7
  6
CONTINUOUS
 10
630.5680400799
 20
669.3628520798
 40
0.1902376732
100
AcDbArc
 50
76.3893707376
 51
82.6160055428
  0
ARC
  5
2A9
100
AcDbEntity
  8
0
100
AcDbCircle
 62
7
  6
CONTINUOUS
 10
684.8656007667
 20
654.8879688888
 40
3.2
100
AcDbArc
 50
0.0
 51
55.0000000005
  0
ARC
  5
2AA
100
AcDbEntity
  8
0
100
AcDbCircle
 62
7
  6
CONTINUOUS
 10
686.8221669651
 20
634.1455622212
 40
2.9
100
AcDbArc
 50
0.0
 51
80.6995908905
  0
ARC
  5
2AB
100
AcDbEntity
  8
0
100
AcDbCircle
 62
7
  6
CONTINUOUS
 10
684.8656007667
 20
654.8879688888
 40
1.7
100
AcDbArc
 50
0.0
 51
55.0000000008
  0
ARC
  5
2AC
100
AcDbEntity
  8
0
100
AcDbCircle
 62
7
  6
CONTINUOUS
 10
686.3656007667
 20
645.2558588326
 40
1.7
100
AcDbArc
 50
253.9783625643
 51
360.0
  0
ARC
  5
2AD
100
AcDbEntity
  8
0
100
AcDbCircle
 62
7
  6
CONTINUOUS
 10
737.0109965319
 20
699.2549442397
 40
90.5719917958
100
AcDbArc
 50
221.6645579655
 51
221.8616641182
  0
SPLINE
  5
2AE
100
AcDbEntity
  8
0
100
AcDbSpline
 62
7
  6
CONTINUOUS
 70
0
 71
3
 72
17
 73
13
 74
0
 42
0.0000001
 43
0.0000001
 44
0.0000000001
 40
0.0
 40
0.0
 40
0.0
 40
0.0
 40
0.0027917955
 40
0.0109546169
 40
0.0247221767
 40
0.0442928046
 40
0.1025657298
 40
0.1918348321
 40
0.3190434712
 40
0.4913145097
 40
0.7158694572
 40
1.0
 40
1.0
 40
1.0
 40
1.0
 10
625.6959484744
 20
669.5143093369
 30
0.0
 10
625.6961736709
 20
669.5148341682
 30
0.0
 10
625.6992460227
 20
669.513406828
 30
0.0
 10
625.703339426
 20
669.513226272
 30
0.0
 10
625.7120286395
 20
669.5105191946
 30
0.0
 10
625.7298225786
 20
669.5059927137
 30
0.0
 10
625.7630007444
 20
669.496571617
 30
0.0
 10
625.8169536261
 20
669.4814160589
 30
0.0
 10
625.8934986194
 20
669.4595802745
 30
0.0
 10
625.9969938984
 20
669.4317399141
 30
0.0
 10
626.1321366643
 20
669.397881119
 30
0.0
 10
626.2335320243
 20
669.3744695846
 30
0.0
 10
626.2902662515
 20
669.3618382431
 30
0.0
  0
SPLINE
  5
2AF
100
AcDbEntity
  8
0
100
AcDbSpline
 62
7
  6
CONTINUOUS
 70
0
 71
3
 72
17
 73
13
 74
0
 42
0.0000001
 43
0.0000001
 44
0.0000000001
 40
0.0
 40
0.0
 40
0.0
 40
0.0
 40
0.2841283371
 40
0.5086814373
 40
0.6809512969
 40
0.8081598435
 40
0.897430169
 40
0.955704759
 40
0.9752760761
 40
0.9890442397
 40
0.9972076262
 40
1.0
 40
1.0
 40
1.0
 40
1.0
 10
649.840935369
 20
669.3618383669
 30
0.0
 10
649.8976688691
 20
669.374470801
 30
0.0
 10
649.9990630237
 20
669.3978836728
 30
0.0
 10
650.1342046198
 20
669.4317424278
 30
0.0
 10
650.2376995429
 20
669.4595816089
 30
0.0
 10
650.3142448014
 20
669.4814160325
 30
0.0
 10
650.3681985114
 20
669.4965713201
 30
0.0
 10
650.4013770703
 20
669.5059925073
 30
0.0
 10
650.419171964
 20
669.5105192649
 30
0.0
 10
650.4278609802
 20
669.5132261534
 30
0.0
 10
650.4319557167
 20
669.5134071104
 30
0.0
 10
650.4350273599
 20
669.514834137
 30
0.0
 10
650.4352530397
 20
669.5143093847
 30
0.0
  0
SPLINE
  5
2B0
100
AcDbEntity
  8
0
100
AcDbSpline
 62
7
  6
CONTINUOUS
 70
0
 71
3
 72
10
 73
6
 74
0
 42
0.0000001
 43
0.0000001
 44
0.0000000001
 40
0.0
 40
0.0
 40
0.0
 40
0.0
 40
0.4114172386
 40
0.6832498199
 40
1.0
 40
1.0
 40
1.0
 40
1.0
 10
650.3266931969
 20
669.4601038327
 30
0.0
 10
650.2751344914
 20
669.4441324184
 30
0.0
 10
650.1889912395
 20
669.4192791428
 30
0.0
 10
650.0622789744
 20
669.3852751568
 30
0.0
 10
649.9870594642
 20
669.36766397
 30
0.0
 10
649.947072022
 20
669.356354548
 30
0.0
  0
SPLINE
  5
2B1
100
AcDbEntity
  8
0
100
AcDbSpline
 62
7
  6
CONTINUOUS
 70
0
 71
3
 72
10
 73
6
 74
0
 42
0.0000001
 43
0.0000001
 44
0.0000000001
 40
0.0
 40
0.0
 40
0.0
 40
0.0
 40
0.2332806777
 40
0.5579008306
 40
1.0
 40
1.0
 40
1.0
 40
1.0
 10
640.7042006014
 20
669.5109036698
 30
0.0
 10
641.0576654024
 20
669.4032403226
 30
0.0
 10
641.9210829684
 20
669.2008325797
 30
0.0
 10
643.5096773456
 20
669.0958765114
 30
0.0
 10
644.7267983666
 20
669.2907906572
 30
0.0
 10
645.3960855924
 20
669.4967139959
 30
0.0
  0
LINE
  5
2B2
100
AcDbEntity
  8
0
100
AcDbLine
 62
7
  6
CONTINUOUS
 10
645.5232077495
 20
669.5372799097
 11
645.5253596577
 21
669.5379945929
  0
LINE
  5
2B3
100
AcDbEntity
  8
0
100
AcDbLine
 62
7
  6
CONTINUOUS
 10
645.5685980665
 20
669.5526464238
 11
645.5699555505
 21
669.553118215
  0
LINE
  5
2B4
100
AcDbEntity
  8
0
100
AcDbLine
 62
7
  6
CONTINUOUS
 10
635.4026741156
 20
669.5035352108
 11
635.5191543888
 21
669.5406160182
  0
SPLINE
  5
2B5
100
AcDbEntity
  8
0
100
AcDbSpline
 62
7
  6
CONTINUOUS
 70
0
 71
3
 72
9
 73
5
 74
0
 42
0.0000001
 43
0.0000001
 44
0.0000000001
 40
0.0
 40
0.0
 40
0.0
 40
0.0
 40
0.2730515383
 40
1.0
 40
1.0
 40
1.0
 40
1.0
 10
635.5191543888
 20
669.5406160182
 30
0.0
 10
635.523016993
 20
669.5418177682
 30
0.0
 10
635.5371762136
 20
669.5461754866
 30
0.0
 10
635.5513968396
 20
669.5503414892
 30
0.0
 10
635.5617950662
 20
669.5531455538
 30
0.0
  0
SPLINE
  5
2B6
100
AcDbEntity
  8
0
100
AcDbSpline
 62
7
  6
CONTINUOUS
 70
0
 71
3
 72
9
 73
5
 74
0
 42
0.0000001
 43
0.0000001
 44
0.0000000001
 40
0.0
 40
0.0
 40
0.0
 40
0.0
 40
0.5413886123
 40
1.0
 40
1.0
 40
1.0
 40
1.0
 10
631.9266789764
 20
669.2327722843
 30
0.0
 10
632.5533070494
 20
669.1440084814
 30
0.0
 10
633.7348901257
 20
669.1196166436
 30
0.0
 10
634.889803856
 20
669.3473763695
 30
0.0
 10
635.4026741156
 20
669.5035352108
 30
0.0
  0
SPLINE
  5
2B7
100
AcDbEntity
  8
0
100
AcDbSpline
 62
7
  6
CONTINUOUS
 70
0
 71
3
 72
9
 73
5
 74
0
 42
0.0000001
 43
0.0000001
 44
0.0000000001
 40
0.0
 40
0.0
 40
0.0
 40
0.0
 40
0.4721069738
 40
1.0
 40
1.0
 40
1.0
 40
1.0
 10
631.4882204813
 20
669.3068482621
 30
0.0
 10
631.5568746001
 20
669.2932043455
 30
0.0
 10
631.7019774805
 20
669.2623149708
 30
0.0
 10
631.849164409
 20
669.2436049671
 30
0.0
 10
631.9266789764
 20
669.2327722843
 30
0.0
  0
SPLINE
  5
2B8
100
AcDbEntity
  8
0
100
AcDbSpline
 62
7
  6
CONTINUOUS
 70
0
 71
3
 72
9
 73
5
 74
0
 42
0.0000001
 43
0.0000001
 44
0.0000000001
 40
0.0
 40
0.0
 40
0.0
 40
0.0
 40
0.2322397507
 40
1.0
 40
1.0
 40
1.0
 40
1.0
 10
631.0617372197
 20
669.4048061253
 30
0.0
 10
631.0946707213
 20
669.3968728768
 30
0.0
 10
631.2365409365
 20
669.3629763214
 30
0.0
 10
631.3787239167
 20
669.3303436122
 30
0.0
 10
631.4882204813
 20
669.3068482621
 30
0.0
  0
SPLINE
  5
2B9
100
AcDbEntity
  8
0
100
AcDbSpline
 62
7
  6
CONTINUOUS
 70
0
 71
3
 72
9
 73
5
 74
0
 42
0.0000001
 43
0.0000001
 44
0.0000000001
 40
0.0
 40
0.0
 40
0.0
 40
0.0
 40
0.2246055881
 40
1.0
 40
1.0
 40
1.0
 40
1.0
 10
630.8476552824
 20
669.4616444429
 30
0.0
 10
630.8635590021
 20
669.4569421645
 30
0.0
 10
630.9345204314
 20
669.4365261977
 30
0.0
 10
631.0060869872
 20
669.4182590566
 30
0.0
 10
631.0617372197
 20
669.4048061253
 30
0.0
  0
SPLINE
  5
2BA
100
AcDbEntity
  8
0
100
AcDbSpline
 62
7
  6
CONTINUOUS
 70
0
 71
3
 72
9
 73
5
 74
0
 42
0.0000001
 43
0.0000001
 44
0.0000000001
 40
0.0
 40
0.0
 40
0.0
 40
0.0
 40
0.2246814491
 40
1.0
 40
1.0
 40
1.0
 40
1.0
 10
630.5592598549
 20
669.5526003208
 30
0.0
 10
630.5635491731
 20
669.5514707235
 30
0.0
 10
630.5825919461
 20
669.5462609788
 30
0.0
 10
630.6014751397
 20
669.5404864828
 30
0.0
 10
630.6160755884
 20
669.5358929237
 30
0.0
  0
SPLINE
  5
2BB
100
AcDbEntity
  8
0
100
AcDbSpline
 62
7
  6
CONTINUOUS
 70
0
 71
3
 72
9
 73
5
 74
0
 42
0.0000001
 43
0.0000001
 44
0.0000000001
 40
0.0
 40
0.0
 40
0.0
 40
0.0
 40
0.229569493
 40
1.0
 40
1.0
 40
1.0
 40
1.0
 10
630.6160755884
 20
669.5358929237
 30
0.0
 10
630.621364583
 20
669.5342289126
 30
0.0
 10
630.6443788426
 20
669.5269025997
 30
0.0
 10
630.6673223495
 20
669.5193566699
 30
0.0
 10
630.684993478
 20
669.5135282492
 30
0.0
  0
LINE
  5
2BC
100
AcDbEntity
  8
0
100
AcDbLine
 62
7
  6
CONTINUOUS
 10
630.684993478
 20
669.5135282492
 11
630.764019123
 21
669.487597471
  0
SPLINE
  5
2BD
100
AcDbEntity
  8
0
100
AcDbSpline
 62
7
  6
CONTINUOUS
 70
0
 71
3
 72
9
 73
5
 74
0
 42
0.0000001
 43
0.0000001
 44
0.0000000001
 40
0.0
 40
0.0
 40
0.0
 40
0.0
 40
0.4999314137
 40
1.0
 40
1.0
 40
1.0
 40
1.0
 10
640.5372493703
 20
669.5439567511
 30
0.0
 10
639.7446365998
 20
669.2848040842
 30
0.0
 10
638.065843848
 20
669.0237908686
 30
0.0
 10
636.3870482531
 20
669.2847472942
 30
0.0
 10
635.5941925519
 20
669.5438932128
 30
0.0
  0
SPLINE
  5
2BE
100
AcDbEntity
  8
0
100
AcDbSpline
 62
7
  6
CONTINUOUS
 70
0
 71
3
 72
9
 73
5
 74
0
 42
0.0000001
 43
0.0000001
 44
0.0000000001
 40
0.0
 40
0.0
 40
0.0
 40
0.0
 40
0.2120614107
 40
1.0
 40
1.0
 40
1.0
 40
1.0
 10
630.559266914
 20
669.5523585337
 30
0.0
 10
630.5615963649
 20
669.5526893866
 30
0.0
 10
630.5726850381
 20
669.5534452721
 30
0.0
 10
630.5838203293
 20
669.5526424811
 30
0.0
 10
630.5924891534
 20
669.5515121315
 30
0.0
  0
SPLINE
  5
2BF
100
AcDbEntity
  8
0
100
AcDbSpline
 62
7
  6
CONTINUOUS
 70
0
 71
3
 72
12
 73
8
 74
0
 42
0.0000001
 43
0.0000001
 44
0.0000000001
 40
0.0
 40
0.0
 40
0.0
 40
0.0
 40
0.3400819391
 40
0.624751478
 40
0.8454255052
 40
0.9308600282
 40
1.0
 40
1.0
 40
1.0
 40
1.0
 10
649.6068903804
 20
665.1470911974
 30
0.0
 10
649.586254505
 20
665.6131973694
 30
0.0
 10
649.5420536831
 20
666.469352626
 30
0.0
 10
649.4442589776
 20
667.6250245516
 30
0.0
 10
649.3287521842
 20
668.428891576
 30
0.0
 10
649.2030424059
 20
668.9285113145
 30
0.0
 10
649.1303684254
 20
669.1285824367
 30
0.0
 10
649.0899453274
 20
669.2143918554
 30
0.0
  0
SPLINE
  5
2C0
100
AcDbEntity
  8
0
100
AcDbSpline
 62
7
  6
CONTINUOUS
 70
0
 71
3
 72
12
 73
8
 74
0
 42
0.0000001
 43
0.0000001
 44
0.0000000001
 40
0.0
 40
0.0
 40
0.0
 40
0.0
 40
0.0691427937
 40
0.1545800268
 40
0.3752537068
 40
0.6599214071
 40
1.0
 40
1.0
 40
1.0
 40
1.0
 10
627.0412950524
 20
669.2143827072
 30
0.0
 10
627.0008705728
 20
669.1285695874
 30
0.0
 10
626.9281740731
 20
668.9284995029
 30
0.0
 10
626.8024281565
 20
668.4288793869
 30
0.0
 10
626.6869475516
 20
667.625005999
 30
0.0
 10
626.5891410479
 20
666.4693430338
 30
0.0
 10
626.5449545501
 20
665.6131931029
 30
0.0
 10
626.5243187732
 20
665.1470911992
 30
0.0
  0
SPLINE
  5
2C1
100
AcDbEntity
  8
0
100
AcDbSpline
 62
7
  6
CONTINUOUS
 70
0
 71
3
 72
10
 73
6
 74
0
 42
0.0000001
 43
0.0000001
 44
0.0000000001
 40
0.0
 40
0.0
 40
0.0
 40
0.0
 40
0.2084020761
 40
0.4486644237
 40
1.0
 40
1.0
 40
1.0
 40
1.0
 10
627.0903772905
 20
669.2088963579
 30
0.0
 10
627.2616456111
 20
669.1899686289
 30
0.0
 10
627.6313088564
 20
669.1556333643
 30
0.0
 10
628.4586356822
 20
669.1440781475
 30
0.0
 10
629.1135201778
 20
669.2130283166
 30
0.0
 10
629.5612587525
 20
669.2986688787
 30
0.0
  0
SPLINE
  5
2C2
100
AcDbEntity
  8
0
100
AcDbSpline
 62
7
  6
CONTINUOUS
 70
0
 71
3
 72
9
 73
5
 74
0
 42
0.0000001
 43
0.0000001
 44
0.0000000001
 40
0.0
 40
0.0
 40
0.0
 40
0.0
 40
0.652723107
 40
1.0
 40
1.0
 40
1.0
 40
1.0
 10
629.5856141398
 20
669.3033647243
 30
0.0
 10
629.7937714612
 20
669.3438175154
 30
0.0
 10
630.1106319
 20
669.4175413122
 30
0.0
 10
630.4218699799
 20
669.5107905393
 30
0.0
 10
630.5297366407
 20
669.543855311
 30
0.0
  0
LINE
  5
2C3
100
AcDbEntity
  8
0
100
AcDbLine
 62
7
  6
CONTINUOUS
 10
630.5297366407
 20
669.543855311
 11
630.5537376526
 21
669.5510294164
  0
SPLINE
  5
2C4
100
AcDbEntity
  8
0
100
AcDbSpline
 62
7
  6
CONTINUOUS
 70
0
 71
3
 72
8
 73
4
 74
0
 42
0.0000001
 43
0.0000001
 44
0.0000000001
 40
0.0
 40
0.0
 40
0.0
 40
0.0
 40
1.0
 40
1.0
 40
1.0
 40
1.0
 10
627.0984546089
 20
669.2222856543
 30
0.0
 10
627.0793615261
 20
669.2246132601
 30
0.0
 10
627.0591443605
 20
669.2215497804
 30
0.0
 10
627.0412950275
 20
669.2143828513
 30
0.0
  0
SPLINE
  5
2C5
100
AcDbEntity
  8
0
100
AcDbSpline
 62
7
  6
CONTINUOUS
 70
0
 71
3
 72
9
 73
5
 74
0
 42
0.0000001
 43
0.0000001
 44
0.0000000001
 40
0.0
 40
0.0
 40
0.0
 40
0.0
 40
0.2166651708
 40
1.0
 40
1.0
 40
1.0
 40
1.0
 10
630.559266914
 20
669.5523585337
 30
0.0
 10
630.5567971853
 20
669.5524939773
 30
0.0
 10
630.5453718835
 20
669.5527017348
 30
0.0
 10
630.5339808903
 20
669.5510325111
 30
0.0
 10
630.5252167727
 20
669.5492552045
 30
0.0
  0
SPLINE
  5
2C6
100
AcDbEntity
  8
0
100
AcDbSpline
 62
7
  6
CONTINUOUS
 70
0
 71
3
 72
8
 73
4
 74
0
 42
0.0000001
 43
0.0000001
 44
0.0000000001
 40
0.0
 40
0.0
 40
0.0
 40
0.0
 40
1.0
 40
1.0
 40
1.0
 40
1.0
 10
626.2456550539
 20
669.3447351379
 30
0.0
 10
626.2351380238
 20
669.3472617783
 30
0.0
 10
626.2245923316
 20
669.3496920642
 30
0.0
 10
626.2139742867
 20
669.3517533642
 30
0.0
  0
SPLINE
  5
2C7
100
AcDbEntity
  8
0
100
AcDbSpline
 62
7
  6
CONTINUOUS
 70
0
 71
3
 72
8
 73
4
 74
0
 42
0.0000001
 43
0.0000001
 44
0.0000000001
 40
0.0
 40
0.0
 40
0.0
 40
0.0
 40
1.0
 40
1.0
 40
1.0
 40
1.0
 10
626.2139742867
 20
669.3517533642
 30
0.0
 10
626.2040893336
 20
669.3536723478
 30
0.0
 10
626.1941301211
 20
669.3552686039
 30
0.0
 10
626.1841220183
 20
669.3563788623
 30
0.0
  0
SPLINE
  5
2C8
100
AcDbEntity
  8
0
100
AcDbSpline
 62
7
  6
CONTINUOUS
 70
0
 71
3
 72
12
 73
8
 74
0
 42
0.0000001
 43
0.0000001
 44
0.0000000001
 40
0.0
 40
0.0
 40
0.0
 40
0.0
 40
0.1938363359
 40
0.3579414232
 40
0.6327015866
 40
0.8498107607
 40
1.0
 40
1.0
 40
1.0
 40
1.0
 10
627.0412928114
 20
669.2143956659
 30
0.0
 10
626.9917519379
 20
669.2165398472
 30
0.0
 10
626.9009209417
 20
669.2298579699
 30
0.0
 10
626.7408050289
 20
669.2529913492
 30
0.0
 10
626.5755206653
 20
669.2821321493
 30
0.0
 10
626.4127351006
 20
669.3050150843
 30
0.0
 10
626.3212888986
 20
669.3269086608
 30
0.0
 10
626.283801476
 20
669.335328902
 30
0.0
  0
SPLINE
  5
2C9
100
AcDbEntity
  8
0
100
AcDbSpline
 62
7
  6
CONTINUOUS
 70
0
 71
3
 72
12
 73
8
 74
0
 42
0.0000001
 43
0.0000001
 44
0.0000000001
 40
0.0
 40
0.0
 40
0.0
 40
0.0
 40
0.2583016905
 40
0.5092399716
 40
0.7548143792
 40
0.8774122608
 40
1.0
 40
1.0
 40
1.0
 40
1.0
 10
624.8183222446
 20
663.5655376475
 30
0.0
 10
624.8851587993
 20
663.7668787527
 30
0.0
 10
625.04568526
 20
664.1567022175
 30
0.0
 10
625.4233733127
 20
664.6583257107
 30
0.0
 10
625.8457632707
 20
664.9593800904
 30
0.0
 10
626.2246089057
 20
665.1013876278
 30
0.0
 10
626.423930215
 20
665.1394499027
 30
0.0
 10
626.5243210749
 20
665.1471013786
 30
0.0
  0
SPLINE
  5
2CA
100
AcDbEntity
  8
0
100
AcDbSpline
 62
7
  6
CONTINUOUS
 70
0
 71
3
 72
11
 73
7
 74
0
 42
0.0000001
 43
0.0000001
 44
0.0000000001
 40
0.0
 40
0.0
 40
0.0
 40
0.0
 40
0.2458407726
 40
0.5023739663
 40
0.7577137471
 40
1.0
 40
1.0
 40
1.0
 40
1.0
 10
626.1841220988
 20
669.3563788897
 30
0.0
 10
625.811281754
 20
669.2297829777
 30
0.0
 10
625.0844189354
 20
668.8521383544
 30
0.0
 10
624.2147479216
 20
667.9782431361
 30
0.0
 10
623.6540275977
 20
666.8874996568
 30
0.0
 10
623.5110219023
 20
666.0903346365
 30
0.0
 10
623.4976924108
 20
665.7025099918
 30
0.0
  0
SPLINE
  5
2CB
100
AcDbEntity
  8
0
100
AcDbSpline
 62
7
  6
CONTINUOUS
 70
0
 71
3
 72
9
 73
5
 74
0
 42
0.0000001
 43
0.0000001
 44
0.0000000001
 40
0.0
 40
0.0
 40
0.0
 40
0.0
 40
0.2435955961
 40
1.0
 40
1.0
 40
1.0
 40
1.0
 10
626.5243020679
 20
665.1470843115
 30
0.0
 10
626.5120124375
 20
665.0876668739
 30
0.0
 10
626.4681767654
 20
664.8424135063
 30
0.0
 10
626.447735538
 20
664.5930909221
 30
0.0
 10
626.4446822706
 20
664.4047095176
 30
0.0
  0
SPLINE
  5
2CC
100
AcDbEntity
  8
0
100
AcDbSpline
 62
7
  6
CONTINUOUS
 70
0
 71
3
 72
9
 73
5
 74
0
 42
0.0000001
 43
0.0000001
 44
0.0000000001
 40
0.0
 40
0.0
 40
0.0
 40
0.0
 40
0.2435955133
 40
1.0
 40
1.0
 40
1.0
 40
1.0
 10
649.6069084086
 20
665.1470843433
 30
0.0
 10
649.6191977308
 20
665.0876668943
 30
0.0
 10
649.6630321394
 20
664.8424134282
 30
0.0
 10
649.6834720617
 20
664.5930908625
 30
0.0
 10
649.686524356
 20
664.4047095168
 30
0.0
  0
SPLINE
  5
2CD
100
AcDbEntity
  8
0
100
AcDbSpline
 62
7
  6
CONTINUOUS
 70
0
 71
3
 72
9
 73
5
 74
0
 42
0.0000001
 43
0.0000001
 44
0.0000000001
 40
0.0
 40
0.0
 40
0.0
 40
0.0
 40
0.2221472955
 40
1.0
 40
1.0
 40
1.0
 40
1.0
 10
649.3609728217
 20
669.2492367054
 30
0.0
 10
649.3409738171
 20
669.246149225
 30
0.0
 10
649.2509596629
 20
669.2322872328
 30
0.0
 10
649.1606172122
 20
669.2195466678
 30
0.0
 10
649.0899475674
 20
669.2144048083
 30
0.0
  0
SPLINE
  5
2CE
100
AcDbEntity
  8
0
100
AcDbSpline
 62
7
  6
CONTINUOUS
 70
0
 71
3
 72
9
 73
5
 74
0
 42
0.0000001
 43
0.0000001
 44
0.0000000001
 40
0.0
 40
0.0
 40
0.0
 40
0.0
 40
0.2199127184
 40
1.0
 40
1.0
 40
1.0
 40
1.0
 10
649.9470798202
 20
669.3563788712
 30
0.0
 10
649.9410839841
 20
669.355750165
 30
0.0
 10
649.9139233022
 20
669.3518729242
 30
0.0
 10
649.887282591
 20
669.345180861
 30
0.0
 10
649.8665209635
 20
669.340053523
 30
0.0
  0
SPLINE
  5
2CF
100
AcDbEntity
  8
0
100
AcDbSpline
 62
7
  6
CONTINUOUS
 70
0
 71
3
 72
9
 73
5
 74
0
 42
0.0000001
 43
0.0000001
 44
0.0000000001
 40
0.0
 40
0.0
 40
0.0
 40
0.0
 40
0.2101877721
 40
1.0
 40
1.0
 40
1.0
 40
1.0
 10
649.8665209635
 20
669.340053523
 30
0.0
 10
649.8583297837
 20
669.3380306109
 30
0.0
 10
649.8193831723
 20
669.3283161823
 30
0.0
 10
649.7802351754
 20
669.3193438824
 30
0.0
 10
649.749120829
 20
669.3132560275
 30
0.0
  0
SPLINE
  5
2D0
100
AcDbEntity
  8
0
100
AcDbSpline
 62
7
  6
CONTINUOUS
 70
0
 71
3
 72
9
 73
5
 74
0
 42
0.0000001
 43
0.0000001
 44
0.0000000001
 40
0.0
 40
0.0
 40
0.0
 40
0.0
 40
0.2000712527
 40
1.0
 40
1.0
 40
1.0
 40
1.0
 10
649.749120829
 20
669.3132560275
 30
0.0
 10
649.723373035
 20
669.3082181961
 30
0.0
 10
649.5941441145
 20
669.2858468606
 30
0.0
 10
649.4641331254
 20
669.268247403
 30
0.0
 10
649.3609728217
 20
669.2492367054
 30
0.0
  0
SPLINE
  5
2D1
100
AcDbEntity
  8
0
100
AcDbSpline
 62
7
  6
CONTINUOUS
 70
0
 71
3
 72
11
 73
7
 74
0
 42
0.0000001
 43
0.0000001
 44
0.0000000001
 40
0.0
 40
0.0
 40
0.0
 40
0.0
 40
0.2422872871
 40
0.4976274524
 40
0.75416027
 40
1.0
 40
1.0
 40
1.0
 40
1.0
 10
652.6335093642
 20
665.7025099912
 30
0.0
 10
652.6201798277
 20
666.0903362904
 30
0.0
 10
652.4771732386
 20
666.8875036138
 30
0.0
 10
651.9164505192
 20
667.9782478257
 30
0.0
 10
651.0467794087
 20
668.8521405026
 30
0.0
 10
650.3199185138
 20
669.2297835231
 30
0.0
 10
649.9470797505
 20
669.3563788949
 30
0.0
  0
SPLINE
  5
2D2
100
AcDbEntity
  8
0
100
AcDbSpline
 62
7
  6
CONTINUOUS
 70
0
 71
3
 72
11
 73
7
 74
0
 42
0.0000001
 43
0.0000001
 44
0.0000000001
 40
0.0
 40
0.0
 40
0.0
 40
0.0
 40
0.2444823738
 40
0.4902537875
 40
0.741472765
 40
1.0
 40
1.0
 40
1.0
 40
1.0
 10
649.6068880808
 20
665.1471012833
 30
0.0
 10
649.8068736013
 20
665.1314629202
 30
0.0
 10
650.2038858302
 20
665.0168029572
 30
0.0
 10
650.7074855253
 20
664.6587219881
 30
0.0
 10
651.0861667027
 20
664.1567571878
 30
0.0
 10
651.2454156577
 20
663.7666467855
 30
0.0
 10
651.3128686221
 20
663.5655376604
 30
0.0
  0
SPLINE
  5
2D3
100
AcDbEntity
  8
0
100
AcDbSpline
 62
7
  6
CONTINUOUS
 70
0
 71
3
 72
8
 73
4
 74
0
 42
0.0000001
 43
0.0000001
 44
0.0000000001
 40
0.0
 40
0.0
 40
0.0
 40
0.0
 40
1.0
 40
1.0
 40
1.0
 40
1.0
 10
649.9470805222
 20
669.3563808954
 30
0.0
 10
649.9133999031
 20
669.3676503051
 30
0.0
 10
649.8753135573
 20
669.3695961481
 30
0.0
 10
649.8406692962
 20
669.3617757344
 30
0.0
  0
LINE
  5
2D4
100
AcDbEntity
  8
0
100
AcDbLine
 62
7
  6
CONTINUOUS
 10
645.5699555505
 20
669.553118215
 11
645.5719556086
 21
669.5525080767
  0
SPLINE
  5
2D5
100
AcDbEntity
  8
0
100
AcDbSpline
 62
7
  6
CONTINUOUS
 70
0
 71
3
 72
10
 73
6
 74
0
 42
0.0000001
 43
0.0000001
 44
0.0000000001
 40
0.0
 40
0.0
 40
0.0
 40
0.0
 40
0.1751161935
 40
0.4732702134
 40
1.0
 40
1.0
 40
1.0
 40
1.0
 10
645.6228877537
 20
669.5368588448
 30
0.0
 10
645.8154092974
 20
669.4777181306
 30
0.0
 10
646.3402415144
 20
669.3316619483
 30
0.0
 10
647.475731321
 20
669.1345390517
 30
0.0
 10
648.4348526188
 20
669.1370093257
 30
0.0
 10
649.0364797388
 20
669.2079066096
 30
0.0
  0
SPLINE
  5
2D6
100
AcDbEntity
  8
0
100
AcDbSpline
 62
7
  6
CONTINUOUS
 70
0
 71
3
 72
8
 73
4
 74
0
 42
0.0000001
 43
0.0000001
 44
0.0000000001
 40
0.0
 40
0.0
 40
0.0
 40
0.0
 40
1.0
 40
1.0
 40
1.0
 40
1.0
 10
649.0899453813
 20
669.2143921672
 30
0.0
 10
649.0720813383
 20
669.2215548203
 30
0.0
 10
649.0518528719
 20
669.2246141035
 30
0.0
 10
649.0327478589
 20
669.2222847025
 30
0.0
  0
SPLINE
  5
2D7
100
AcDbEntity
  8
0
100
AcDbSpline
 62
7
  6
CONTINUOUS
 70
0
 71
3
 72
11
 73
7
 74
0
 42
0.0000001
 43
0.0000001
 44
0.0000000001
 40
0.0
 40
0.0
 40
0.0
 40
0.0
 40
0.2785870057
 40
0.5333661128
 40
0.7694405556
 40
1.0
 40
1.0
 40
1.0
 40
1.0
 10
650.5496591688
 20
663.5658891678
 30
0.0
 10
650.5173143815
 20
663.6817058612
 30
0.0
 10
650.4389154006
 20
663.8998314723
 30
0.0
 10
650.250952185
 20
664.1798243424
 30
0.0
 10
649.9904562313
 20
664.3652274789
 30
0.0
 10
649.7860584871
 20
664.404638333
 30
0.0
 10
649.6865405149
 20
664.4046909876
 30
0.0
  0
SPLINE
  5
2D8
100
AcDbEntity
  8
0
100
AcDbSpline
 62
7
  6
CONTINUOUS
 70
0
 71
3
 72
11
 73
7
 74
0
 42
0.0000001
 43
0.0000001
 44
0.0000000001
 40
0.0
 40
0.0
 40
0.0
 40
0.0
 40
0.2305596041
 40
0.4666339266
 40
0.7214129064
 40
1.0
 40
1.0
 40
1.0
 40
1.0
 10
626.4446699373
 20
664.404691005
 30
0.0
 10
626.3451512226
 20
664.404639423
 30
0.0
 10
626.1407515897
 20
664.3652305646
 30
0.0
 10
625.880252311
 20
664.1798281151
 30
0.0
 10
625.6922869141
 20
663.8998338774
 30
0.0
 10
625.6138873541
 20
663.6817068034
 30
0.0
 10
625.5815423228
 20
663.5658892944
 30
0.0
  0
SPLINE
  5
2D9
100
AcDbEntity
  8
0
100
AcDbSpline
 62
7
  6
CONTINUOUS
 70
0
 71
3
 72
14
 73
10
 74
0
 42
0.0000001
 43
0.0000001
 44
0.0000000001
 40
0.0
 40
0.0
 40
0.0
 40
0.0
 40
0.3920020772
 40
0.55188772
 40
0.6859898394
 40
0.7947303003
 40
0.8801577689
 40
0.9461335918
 40
1.0
 40
1.0
 40
1.0
 40
1.0
 10
624.3418037763
 20
663.5649708531
 30
0.0
 10
624.3141600758
 20
663.8788029433
 30
0.0
 10
624.2530576077
 20
664.319880106
 30
0.0
 10
624.1153237825
 20
664.8542542509
 30
0.0
 10
624.0065252459
 20
665.1596552732
 30
0.0
 10
623.8894284872
 20
665.3970148619
 30
0.0
 10
623.7664883467
 20
665.5676705405
 30
0.0
 10
623.6378718121
 20
665.6754237072
 30
0.0
 10
623.5409864818
 20
665.7026219773
 30
0.0
 10
623.4976948567
 20
665.7025112108
 30
0.0
  0
SPLINE
  5
2DA
100
AcDbEntity
  8
0
100
AcDbSpline
 62
7
  6
CONTINUOUS
 70
0
 71
3
 72
9
 73
5
 74
0
 42
0.0000001
 43
0.0000001
 44
0.0000000001
 40
0.0
 40
0.0
 40
0.0
 40
0.0
 40
0.5836696618
 40
1.0
 40
1.0
 40
1.0
 40
1.0
 10
626.184129774
 20
669.3563545365
 30
0.0
 10
626.112878704
 20
669.3755942119
 30
0.0
 10
625.9898167575
 20
669.4048450643
 30
0.0
 10
625.868499527
 20
669.4406241368
 30
0.0
 10
625.8181419687
 20
669.4559686983
 30
0.0
  0
SPLINE
  5
2DB
100
AcDbEntity
  8
0
100
AcDbSpline
 62
7
  6
CONTINUOUS
 70
0
 71
3
 72
8
 73
4
 74
0
 42
0.0000001
 43
0.0000001
 44
0.0000000001
 40
0.0
 40
0.0
 40
0.0
 40
0.0
 40
1.0
 40
1.0
 40
1.0
 40
1.0
 10
626.1841296675
 20
669.356354496
 30
0.0
 10
626.2177221814
 20
669.3676041074
 30
0.0
 10
626.2556968599
 20
669.369581004
 30
0.0
 10
626.2902664935
 20
669.3618381892
 30
0.0
  0
SPLINE
  5
2DC
100
AcDbEntity
  8
0
100
AcDbSpline
 62
7
  6
CONTINUOUS
 70
0
 71
3
 72
14
 73
10
 74
0
 42
0.0000001
 43
0.0000001
 44
0.0000000001
 40
0.0
 40
0.0
 40
0.0
 40
0.0
 40
0.0538664038
 40
0.1198422092
 40
0.2052696595
 40
0.3140101078
 40
0.4481122237
 40
0.607997874
 40
1.0
 40
1.0
 40
1.0
 40
1.0
 10
652.6335069431
 20
665.7025112054
 30
0.0
 10
652.5902153171
 20
665.7026220204
 30
0.0
 10
652.49332996
 20
665.6754238495
 30
0.0
 10
652.3647133746
 20
665.567670755
 30
0.0
 10
652.2417731962
 20
665.3970151231
 30
0.0
 10
652.1246764005
 20
665.1596555513
 30
0.0
 10
652.0158778276
 20
664.854254513
 30
0.0
 10
651.8781439501
 20
664.3198802777
 30
0.0
 10
651.8170414648
 20
663.8788030236
 30
0.0
 10
651.7893977577
 20
663.5649708615
 30
0.0
  0
SPLINE
  5
2DD
100
AcDbEntity
  8
0
100
AcDbSpline
 62
7
  6
CONTINUOUS
 70
0
 71
3
 72
12
 73
8
 74
0
 42
0.0000001
 43
0.0000001
 44
0.0000000001
 40
0.0
 40
0.0
 40
0.0
 40
0.0
 40
0.3760266616
 40
0.6930353681
 40
0.9073835354
 40
0.9678595767
 40
1.0
 40
1.0
 40
1.0
 40
1.0
 10
101.3518981461
 20
638.9021306593
 30
0.0
 10
101.3995100417
 20
638.9154619934
 30
0.0
 10
101.4880892236
 20
638.9378552437
 30
0.0
 10
101.6045762234
 20
638.960714777
 30
0.0
 10
101.6835511693
 20
638.9685437952
 30
0.0
 10
101.722618144
 20
638.9661228289
 30
0.0
 10
101.7353471029
 20
638.9595141557
 30
0.0
 10
101.7365080981
 20
638.9554506724
 30
0.0
  0
SPLINE
  5
2DE
100
AcDbEntity
  8
0
100
AcDbSpline
 62
7
  6
CONTINUOUS
 70
0
 71
3
 72
13
 73
9
 74
0
 42
0.0000001
 43
0.0000001
 44
0.0000000001
 40
0.0
 40
0.0
 40
0.0
 40
0.0
 40
0.026781072
 40
0.0831175146
 40
0.1716432993
 40
0.2905714066
 40
0.6073373165
 40
1.0
 40
1.0
 40
1.0
 40
1.0
 10
94.2930309884
 20
638.7507205815
 30
0.0
 10
94.2951115366
 20
638.7525413878
 30
0.0
 10
94.305317812
 20
638.7498620603
 30
0.0
 10
94.3191605321
 20
638.740843809
 30
0.0
 10
94.3414353648
 20
638.7240843699
 30
0.0
 10
94.3818731834
 20
638.6885926295
 30
0.0
 10
94.4432629938
 20
638.6286600546
 30
0.0
 10
94.4934937749
 20
638.5754469156
 30
0.0
 10
94.5208833243
 20
638.5455626791
 30
0.0
  0
SPLINE
  5
2DF
100
AcDbEntity
  8
0
100
AcDbSpline
 62
7
  6
CONTINUOUS
 70
0
 71
3
 72
9
 73
5
 74
0
 42
0.0000001
 43
0.0000001
 44
0.0000000001
 40
0.0
 40
0.0
 40
0.0
 40
0.0
 40
0.7050841544
 40
1.0
 40
1.0
 40
1.0
 40
1.0
 10
101.6354651482
 20
639.1032042064
 30
0.0
 10
101.6495888549
 20
639.1051826044
 30
0.0
 10
101.6658317274
 20
639.1066379047
 30
0.0
 10
101.6934248235
 20
639.1062421335
 30
0.0
 10
101.6950635912
 20
639.1005064468
 30
0.0
  0
LINE
  5
2E0
100
AcDbEntity
  8
0
100
AcDbLine
 62
7
  6
CONTINUOUS
 10
92.5656007666
 20
645.2558588326
 11
92.6196023703
 21
645.1089541002
  0
SPLINE
  5
2E1
100
AcDbEntity
  8
0
100
AcDbSpline
 62
7
  6
CONTINUOUS
 70
0
 71
3
 72
8
 73
4
 74
0
 42
0.0000001
 43
0.0000001
 44
0.0000000001
 40
0.0
 40
0.0
 40
0.0
 40
0.0
 40
1.0
 40
1.0
 40
1.0
 40
1.0
 10
92.6196023703
 20
645.1089541002
 30
0.0
 10
92.6762777449
 20
644.9551447965
 30
0.0
 10
92.7334555025
 20
644.801498755
 30
0.0
 10
92.7933760067
 20
644.6489244021
 30
0.0
  0
SPLINE
  5
2E2
100
AcDbEntity
  8
0
100
AcDbSpline
 62
7
  6
CONTINUOUS
 70
0
 71
3
 72
9
 73
5
 74
0
 42
0.0000001
 43
0.0000001
 44
0.0000000001
 40
0.0
 40
0.0
 40
0.0
 40
0.0
 40
0.2876778289
 40
1.0
 40
1.0
 40
1.0
 40
1.0
 10
92.8879410608
 20
644.4160798639
 30
0.0
 10
92.9145100981
 20
644.3531681997
 30
0.0
 10
93.0101183889
 20
644.1362417034
 30
0.0
 10
93.1179151134
 20
643.92207799
 30
0.0
 10
93.2178226609
 20
643.7856493752
 30
0.0
  0
SPLINE
  5
2E3
100
AcDbEntity
  8
0
100
AcDbSpline
 62
7
  6
CONTINUOUS
 70
0
 71
3
 72
8
 73
4
 74
0
 42
0.0000001
 43
0.0000001
 44
0.0000000001
 40
0.0
 40
0.0
 40
0.0
 40
0.0
 40
1.0
 40
1.0
 40
1.0
 40
1.0
 10
93.2178226609
 20
643.7856493752
 30
0.0
 10
93.2608241179
 20
643.7269287944
 30
0.0
 10
93.3091276805
 20
643.6704386587
 30
0.0
 10
93.3667478613
 20
643.6259735412
 30
0.0
  0
SPLINE
  5
2E4
100
AcDbEntity
  8
0
100
AcDbSpline
 62
7
  6
CONTINUOUS
 70
0
 71
3
 72
8
 73
4
 74
0
 42
0.0000001
 43
0.0000001
 44
0.0000000001
 40
0.0
 40
0.0
 40
0.0
 40
0.0
 40
1.0
 40
1.0
 40
1.0
 40
1.0
 10
93.3667478613
 20
643.6259735412
 30
0.0
 10
93.4175575688
 20
643.5867640214
 30
0.0
 10
93.4818865996
 20
643.5558620143
 30
0.0
 10
93.5460661352
 20
643.5558588358
 30
0.0
  0
LINE
  5
2E5
100
AcDbEntity
  8
0
100
AcDbLine
 62
7
  6
CONTINUOUS
 10
686.5656007667
 20
645.2558588326
 11
686.5074661728
 21
645.0977093919
  0
SPLINE
  5
2E6
100
AcDbEntity
  8
0
100
AcDbSpline
 62
7
  6
CONTINUOUS
 70
0
 71
3
 72
8
 73
4
 74
0
 42
0.0000001
 43
0.0000001
 44
0.0000000001
 40
0.0
 40
0.0
 40
0.0
 40
0.0
 40
1.0
 40
1.0
 40
1.0
 40
1.0
 10
686.5074661728
 20
645.0977093919
 30
0.0
 10
686.4523889864
 20
644.9482695207
 30
0.0
 10
686.3968114838
 20
644.7989936604
 30
0.0
 10
686.3386311135
 20
644.6507343737
 30
0.0
  0
SPLINE
  5
2E7
100
AcDbEntity
  8
0
100
AcDbSpline
 62
7
  6
CONTINUOUS
 70
0
 71
3
 72
9
 73
5
 74
0
 42
0.0000001
 43
0.0000001
 44
0.0000000001
 40
0.0
 40
0.0
 40
0.0
 40
0.0
 40
0.2879014856
 40
1.0
 40
1.0
 40
1.0
 40
1.0
 10
686.2449273257
 20
644.4197991529
 30
0.0
 10
686.218124049
 20
644.3562643587
 30
0.0
 10
686.1217070241
 20
644.1373844532
 30
0.0
 10
686.0129532196
 20
643.9212348042
 30
0.0
 10
685.9118935143
 20
643.7838397414
 30
0.0
  0
SPLINE
  5
2E8
100
AcDbEntity
  8
0
100
AcDbSpline
 62
7
  6
CONTINUOUS
 70
0
 71
3
 72
8
 73
4
 74
0
 42
0.0000001
 43
0.0000001
 44
0.0000000001
 40
0.0
 40
0.0
 40
0.0
 40
0.0
 40
1.0
 40
1.0
 40
1.0
 40
1.0
 10
685.9118935143
 20
643.7838397414
 30
0.0
 10
685.8719469076
 20
643.7295305929
 30
0.0
 10
685.8274780322
 20
643.6773651018
 30
0.0
 10
685.7752808516
 20
643.6346957999
 30
0.0
  0
SPLINE
  5
2E9
100
AcDbEntity
  8
0
100
AcDbSpline
 62
7
  6
CONTINUOUS
 70
0
 71
3
 72
8
 73
4
 74
0
 42
0.0000001
 43
0.0000001
 44
0.0000000001
 40
0.0
 40
0.0
 40
0.0
 40
0.0
 40
1.0
 40
1.0
 40
1.0
 40
1.0
 10
685.7752808516
 20
643.6346957999
 30
0.0
 10
685.7221623965
 20
643.5912733896
 30
0.0
 10
685.6537615421
 20
643.555844799
 30
0.0
 10
685.5851534101
 20
643.5558590073
 30
0.0
  0
SPLINE
  5
2EA
100
AcDbEntity
  8
0
100
AcDbSpline
 62
7
  6
CONTINUOUS
 70
0
 71
3
 72
9
 73
5
 74
0
 42
0.0000001
 43
0.0000001
 44
0.0000000001
 40
0.0
 40
0.0
 40
0.0
 40
0.0
 40
0.2885081719
 40
1.0
 40
1.0
 40
1.0
 40
1.0
 10
677.9600863766
 20
662.9771453744
 30
0.0
 10
677.9121476359
 20
663.0366393738
 30
0.0
 10
677.739699645
 20
663.2362531028
 30
0.0
 10
677.5304291678
 20
663.4142559065
 30
0.0
 10
677.3577918985
 20
663.489748612
 30
0.0
  0
SPLINE
  5
2EB
100
AcDbEntity
  8
0
100
AcDbSpline
 62
7
  6
CONTINUOUS
 70
0
 71
3
 72
8
 73
4
 74
0
 42
0.0000001
 43
0.0000001
 44
0.0000000001
 40
0.0
 40
0.0
 40
0.0
 40
0.0
 40
1.0
 40
1.0
 40
1.0
 40
1.0
 10
677.3577918985
 20
663.489748612
 30
0.0
 10
677.2636286171
 20
663.5309253573
 30
0.0
 10
677.1594174398
 20
663.5558588326
 30
0.0
 10
677.0566446423
 20
663.5558588326
 30
0.0
  0
SPLINE
  5
2EC
100
AcDbEntity
  8
0
100
AcDbSpline
 62
7
  6
CONTINUOUS
 70
0
 71
3
 72
8
 73
4
 74
0
 42
0.0000001
 43
0.0000001
 44
0.0000000001
 40
0.0
 40
0.0
 40
0.0
 40
0.0
 40
1.0
 40
1.0
 40
1.0
 40
1.0
 10
680.0205041949
 20
660.3558588327
 30
0.0
 10
679.7942550788
 20
660.6931629398
 30
0.0
 10
679.5681243992
 20
661.0306447161
 30
0.0
 10
679.3337439928
 20
661.3623502305
 30
0.0
  0
SPLINE
  5
2ED
100
AcDbEntity
  8
0
100
AcDbSpline
 62
7
  6
CONTINUOUS
 70
0
 71
3
 72
9
 73
5
 74
0
 42
0.0000001
 43
0.0000001
 44
0.0000000001
 40
0.0
 40
0.0
 40
0.0
 40
0.0
 40
0.7610602842
 40
1.0
 40
1.0
 40
1.0
 40
1.0
 10
679.3337439928
 20
661.3623502305
 30
0.0
 10
679.1588716357
 20
661.6098373224
 30
0.0
 10
678.9230721748
 20
661.9310999334
 30
0.0
 10
678.6706092077
 20
662.2390855943
 30
0.0
 10
678.6090827123
 20
662.3116532482
 30
0.0
  0
SPLINE
  5
2EE
100
AcDbEntity
  8
0
100
AcDbSpline
 62
7
  6
CONTINUOUS
 70
0
 71
3
 72
8
 73
4
 74
0
 42
0.0000001
 43
0.0000001
 44
0.0000000001
 40
0.0
 40
0.0
 40
0.0
 40
0.0
 40
1.0
 40
1.0
 40
1.0
 40
1.0
 10
678.4109238733
 20
662.5367144579
 30
0.0
 10
678.2689433576
 20
662.6915647939
 30
0.0
 10
678.1197569504
 20
662.8406081953
 30
0.0
 10
677.9600863766
 20
662.9771453744
 30
0.0
  0
SPLINE
  5
2EF
100
AcDbEntity
  8
0
100
AcDbSpline
 62
7
  6
CONTINUOUS
 70
0
 71
3
 72
9
 73
5
 74
0
 42
0.0000001
 43
0.0000001
 44
0.0000000001
 40
0.0
 40
0.0
 40
0.0
 40
0.0
 40
0.2335989952
 40
1.0
 40
1.0
 40
1.0
 40
1.0
 10
101.1711151567
 20
662.9771453744
 30
0.0
 10
101.1126027424
 20
662.9271103567
 30
0.0
 10
100.8684076074
 20
662.7055527848
 30
0.0
 10
100.6464217376
 20
662.4605477868
 30
0.0
 10
100.4843549546
 20
662.2668101159
 30
0.0
  0
SPLINE
  5
2F0
100
AcDbEntity
  8
0
100
AcDbSpline
 62
7
  6
CONTINUOUS
 70
0
 71
3
 72
8
 73
4
 74
0
 42
0.0000001
 43
0.0000001
 44
0.0000000001
 40
0.0
 40
0.0
 40
0.0
 40
0.0
 40
1.0
 40
1.0
 40
1.0
 40
1.0
 10
100.4843549546
 20
662.2668101159
 30
0.0
 10
100.2414508279
 20
661.9764379686
 30
0.0
 10
100.0159239209
 20
661.6715333895
 30
0.0
 10
99.7974601211
 20
661.3623538836
 30
0.0
  0
SPLINE
  5
2F1
100
AcDbEntity
  8
0
100
AcDbSpline
 62
7
  6
CONTINUOUS
 70
0
 71
3
 72
8
 73
4
 74
0
 42
0.0000001
 43
0.0000001
 44
0.0000000001
 40
0.0
 40
0.0
 40
0.0
 40
0.0
 40
1.0
 40
1.0
 40
1.0
 40
1.0
 10
99.7974601211
 20
661.3623538836
 30
0.0
 10
99.5630787923
 20
661.0306471957
 30
0.0
 10
99.3369472849
 20
660.6931641778
 30
0.0
 10
99.1106973385
 20
660.3558588327
 30
0.0
  0
SPLINE
  5
2F2
100
AcDbEntity
  8
0
100
AcDbSpline
 62
7
  6
CONTINUOUS
 70
0
 71
3
 72
9
 73
5
 74
0
 42
0.0000001
 43
0.0000001
 44
0.0000000001
 40
0.0
 40
0.0
 40
0.0
 40
0.0
 40
0.2087842644
 40
1.0
 40
1.0
 40
1.0
 40
1.0
 10
102.0745568911
 20
663.5558588326
 30
0.0
 10
101.9982633819
 20
663.5558588326
 30
0.0
 10
101.6308577159
 20
663.4897440764
 30
0.0
 10
101.3525213081
 20
663.2022780602
 30
0.0
 10
101.1711151567
 20
662.9771453744
 30
0.0
  0
SPLINE
  5
2F3
100
AcDbEntity
  8
0
100
AcDbSpline
 62
7
  6
CONTINUOUS
 70
0
 71
3
 72
9
 73
5
 74
0
 42
0.0000001
 43
0.0000001
 44
0.0000000001
 40
0.0
 40
0.0
 40
0.0
 40
0.0
 40
0.2608064143
 40
1.0
 40
1.0
 40
1.0
 40
1.0
 10
109.8876020192
 20
638.8131715782
 30
0.0
 10
109.8030089578
 20
638.7188715007
 30
0.0
 10
109.4771089358
 20
638.3589410483
 30
0.0
 10
109.1383172008
 20
638.0087768427
 30
0.0
 10
108.8669177273
 20
637.7737013919
 30
0.0
  0
SPLINE
  5
2F4
100
AcDbEntity
  8
0
100
AcDbSpline
 62
7
  6
CONTINUOUS
 70
0
 71
3
 72
9
 73
5
 74
0
 42
0.0000001
 43
0.0000001
 44
0.0000000001
 40
0.0
 40
0.0
 40
0.0
 40
0.0
 40
0.2846498515
 40
1.0
 40
1.0
 40
1.0
 40
1.0
 10
108.8669177273
 20
637.7737013919
 30
0.0
 10
108.7414376511
 20
637.6650155307
 30
0.0
 10
108.2902041559
 20
637.3026306316
 30
0.0
 10
107.7131597021
 20
637.0455622212
 30
0.0
 10
107.2959729569
 20
637.0455622212
 30
0.0
  0
SPLINE
  5
2F5
100
AcDbEntity
  8
0
100
AcDbSpline
 62
7
  6
CONTINUOUS
 70
0
 71
3
 72
8
 73
4
 74
0
 42
0.0000001
 43
0.0000001
 44
0.0000000001
 40
0.0
 40
0.0
 40
0.0
 40
0.0
 40
1.0
 40
1.0
 40
1.0
 40
1.0
 10
90.922166965
 20
412.4455622212
 30
0.0
 10
91.0656777396
 20
412.061011649
 30
0.0
 10
91.2087134745
 20
411.6761555124
 30
0.0
 10
91.3633100532
 20
411.2959261305
 30
0.0
  0
SPLINE
  5
2F6
100
AcDbEntity
  8
0
100
AcDbSpline
 62
7
  6
CONTINUOUS
 70
0
 71
3
 72
9
 73
5
 74
0
 42
0.0000001
 43
0.0000001
 44
0.0000000001
 40
0.0
 40
0.0
 40
0.0
 40
0.0
 40
0.2872295106
 40
1.0
 40
1.0
 40
1.0
 40
1.0
 10
91.3633100532
 20
411.2959261305
 30
0.0
 10
91.4159997294
 20
411.1663361797
 30
0.0
 10
91.6051697459
 20
410.7183053062
 30
0.0
 10
91.8159505947
 20
410.2738778692
 30
0.0
 10
92.0153122369
 20
409.9896843601
 30
0.0
  0
SPLINE
  5
2F7
100
AcDbEntity
  8
0
100
AcDbSpline
 62
7
  6
CONTINUOUS
 70
0
 71
3
 72
9
 73
5
 74
0
 42
0.0000001
 43
0.0000001
 44
0.0000000001
 40
0.0
 40
0.0
 40
0.0
 40
0.0
 40
0.3194900127
 40
1.0
 40
1.0
 40
1.0
 40
1.0
 10
92.0153122369
 20
409.9896843601
 30
0.0
 10
92.0620902786
 20
409.9230014432
 30
0.0
 10
92.2128035314
 20
409.7245204649
 30
0.0
 10
92.4486703434
 20
409.5455622212
 30
0.0
 10
92.6221669651
 20
409.5455622212
 30
0.0
  0
SPLINE
  5
2F8
100
AcDbEntity
  8
0
100
AcDbSpline
 62
7
  6
CONTINUOUS
 70
0
 71
3
 72
9
 73
5
 74
0
 42
0.0000001
 43
0.0000001
 44
0.0000000001
 40
0.0
 40
0.0
 40
0.0
 40
0.0
 40
0.1772713742
 40
1.0
 40
1.0
 40
1.0
 40
1.0
 10
686.822166965
 20
409.5455622212
 30
0.0
 10
686.8952705047
 20
409.5455622212
 30
0.0
 10
687.3050794405
 20
409.6779507942
 30
0.0
 10
687.5136521244
 20
410.0946230954
 30
0.0
 10
687.6720192783
 20
410.3946727227
 30
0.0
  0
SPLINE
  5
2F9
100
AcDbEntity
  8
0
100
AcDbSpline
 62
7
  6
CONTINUOUS
 70
0
 71
3
 72
9
 73
5
 74
0
 42
0.0000001
 43
0.0000001
 44
0.0000000001
 40
0.0
 40
0.0
 40
0.0
 40
0.0
 40
0.229113955
 40
1.0
 40
1.0
 40
1.0
 40
1.0
 10
687.6720192783
 20
410.3946727227
 30
0.0
 10
687.707301761
 20
410.4615205224
 30
0.0
 10
687.8553371129
 20
410.7564375223
 30
0.0
 10
687.9851434747
 20
411.0601167541
 30
0.0
 10
688.0809366499
 20
411.2957114869
 30
0.0
  0
SPLINE
  5
2FA
100
AcDbEntity
  8
0
100
AcDbSpline
 62
7
  6
CONTINUOUS
 70
0
 71
3
 72
8
 73
4
 74
0
 42
0.0000001
 43
0.0000001
 44
0.0000000001
 40
0.0
 40
0.0
 40
0.0
 40
0.0
 40
1.0
 40
1.0
 40
1.0
 40
1.0
 10
688.0809366499
 20
411.2957114869
 30
0.0
 10
688.2355668294
 20
411.6760105608
 30
0.0
 10
688.3786291932
 20
412.0609393071
 30
0.0
 10
688.5221669651
 20
412.4455622212
 30
0.0
  0
SPLINE
  5
2FB
100
AcDbEntity
  8
0
100
AcDbSpline
 62
7
  6
CONTINUOUS
 70
0
 71
3
 72
8
 73
4
 74
0
 42
0.0000001
 43
0.0000001
 44
0.0000000001
 40
0.0
 40
0.0
 40
0.0
 40
0.0
 40
1.0
 40
1.0
 40
1.0
 40
1.0
 10
688.5221669651
 20
634.1455622212
 30
0.0
 10
688.3786563309
 20
634.5301124174
 30
0.0
 10
688.2356207498
 20
634.9149681823
 30
0.0
 10
688.0810243438
 20
635.2951972011
 30
0.0
  0
SPLINE
  5
2FC
100
AcDbEntity
  8
0
100
AcDbSpline
 62
7
  6
CONTINUOUS
 70
0
 71
3
 72
9
 73
5
 74
0
 42
0.0000001
 43
0.0000001
 44
0.0000000001
 40
0.0
 40
0.0
 40
0.0
 40
0.0
 40
0.2872295108
 40
1.0
 40
1.0
 40
1.0
 40
1.0
 10
688.0810243438
 20
635.2951972011
 30
0.0
 10
688.0283346324
 20
635.4247872595
 30
0.0
 10
687.8391644858
 20
635.8728185032
 30
0.0
 10
687.6283835056
 20
636.31724632
 30
0.0
 10
687.4290217075
 20
636.6014400617
 30
0.0
  0
SPLINE
  5
2FD
100
AcDbEntity
  8
0
100
AcDbSpline
 62
7
  6
CONTINUOUS
 70
0
 71
3
 72
9
 73
5
 74
0
 42
0.0000001
 43
0.0000001
 44
0.0000000001
 40
0.0
 40
0.0
 40
0.0
 40
0.0
 40
0.3194900062
 40
1.0
 40
1.0
 40
1.0
 40
1.0
 10
687.4290217075
 20
636.6014400617
 30
0.0
 10
687.3822436666
 20
636.66812298
 30
0.0
 10
687.2315304074
 20
636.8666039623
 30
0.0
 10
686.9956635937
 20
637.0455622212
 30
0.0
 10
686.8221669651
 20
637.0455622212
 30
0.0
  0
SPLINE
  5
2FE
100
AcDbEntity
  8
0
100
AcDbSpline
 62
7
  6
CONTINUOUS
 70
0
 71
3
 72
9
 73
5
 74
0
 42
0.0000001
 43
0.0000001
 44
0.0000000001
 40
0.0
 40
0.0
 40
0.0
 40
0.0
 40
0.1772713222
 40
1.0
 40
1.0
 40
1.0
 40
1.0
 10
92.6221669651
 20
637.0455622212
 30
0.0
 10
92.5490633656
 20
637.0455622212
 30
0.0
 10
92.1392539965
 20
636.913173371
 30
0.0
 10
91.9306812721
 20
636.4965005062
 30
0.0
 10
91.7723140037
 20
636.1964504889
 30
0.0
  0
SPLINE
  5
2FF
100
AcDbEntity
  8
0
100
AcDbSpline
 62
7
  6
CONTINUOUS
 70
0
 71
3
 72
9
 73
5
 74
0
 42
0.0000001
 43
0.0000001
 44
0.0000000001
 40
0.0
 40
0.0
 40
0.0
 40
0.0
 40
0.2291140007
 40
1.0
 40
1.0
 40
1.0
 40
1.0
 10
91.7723140037
 20
636.1964504889
 30
0.0
 10
91.737031567
 20
636.1296027379
 30
0.0
 10
91.5889964226
 20
635.8346860231
 30
0.0
 10
91.459190202
 20
635.5310071109
 30
0.0
 10
91.3633971361
 20
635.2954126391
 30
0.0
  0
SPLINE
  5
300
100
AcDbEntity
  8
0
100
AcDbSpline
 62
7
  6
CONTINUOUS
 70
0
 71
3
 72
8
 73
4
 74
0
 42
0.0000001
 43
0.0000001
 44
0.0000000001
 40
0.0
 40
0.0
 40
0.0
 40
0.0
 40
1.0
 40
1.0
 40
1.0
 40
1.0
 10
91.3633971361
 20
635.2954126391
 30
0.0
 10
91.2087670047
 20
634.9151136705
 30
0.0
 10
91.0657046964
 20
634.530185027
 30
0.0
 10
90.922166965
 20
634.1455622212
 30
0.0
  0
SPLINE
  5
301
100
AcDbEntity
  8
0
100
AcDbSpline
 62
7
  6
CONTINUOUS
 70
0
 71
3
 72
9
 73
5
 74
0
 42
0.0000001
 43
0.0000001
 44
0.0000000001
 40
0.0
 40
0.0
 40
0.0
 40
0.0
 40
0.2250737818
 40
1.0
 40
1.0
 40
1.0
 40
1.0
 10
672.1483609733
 20
637.0455622212
 30
0.0
 10
672.0167001859
 20
637.0455622212
 30
0.0
 10
671.4295613398
 20
637.1221175696
 30
0.0
 10
670.9207933484
 20
637.476375991
 30
0.0
 10
670.5781021316
 20
637.7731072901
 30
0.0
  0
SPLINE
  5
302
100
AcDbEntity
  8
0
100
AcDbSpline
 62
7
  6
CONTINUOUS
 70
0
 71
3
 72
9
 73
5
 74
0
 42
0.0000001
 43
0.0000001
 44
0.0000000001
 40
0.0
 40
0.0
 40
0.0
 40
0.0
 40
0.237020692
 40
1.0
 40
1.0
 40
1.0
 40
1.0
 10
670.5781021316
 20
637.7731072901
 30
0.0
 10
670.4909996174
 20
637.8485280799
 30
0.0
 10
670.1331478396
 20
638.1779164997
 30
0.0
 10
669.8044260558
 20
638.5370550646
 30
0.0
 10
669.5567613292
 20
638.8131387481
 30
0.0
  0
ENDSEC
  0
SECTION
  2
OBJECTS
  0
DICTIONARY
  5
C
100
AcDbDictionary
280
0
281
1
  3
ACAD_GROUP
350
D
  3
ACAD_MLINESTYLE
350
17
  3
ACAD_LAYOUT
350
1A
  3
ACAD_PLOTSETTINGS
350
19
  3
ACAD_PLOTSTYLENAME
350
E
  0
DICTIONARY
  5
D
102
{ACAD_REACTORS
330
C
102
}
100
AcDbDictionary
280
0
281
1
  0
ACDBDICTIONARYWDFLT
  5
E
102
{ACAD_REACTORS
330
C
102
}
100
AcDbDictionary
281
1
  3
Normal
350
F
100
AcDbDictionaryWithDefault
340
F
  0
DICTIONARY
  5
17
102
{ACAD_REACTORS
330
C
102
}
100
AcDbDictionary
280
0
281
1
  3
Standard
350
18
  0
DICTIONARY
  5
19
102
{ACAD_REACTORS
330
C
102
}
100
AcDbDictionary
281
1
  0
DICTIONARY
  5
1A
102
{ACAD_REACTORS
330
C
102
}
100
AcDbDictionary
281
1
  3
Model
350
303
  3
Layout1
350
304
  0
ACDBPLACEHOLDER
  5
F
102
{ACAD_REACTORS
330
E
102
}
  0
MLINESTYLE
  5
18
102
{ACAD_REACTORS
330
17
102
}
100
AcDbMlineStyle
  2
STANDARD
 70
0
  3

 62
256
 51
90.0
 52
90.0
 71
2
 49
0.5
 62
256
  6
BYLAYER
 49
-0.5
 62
256
  6
BYLAYER
  0
LAYOUT
  5
303
102
{ACAD_REACTORS
330
1A
102
}
100
AcDbPlotSettings
  1

  2
none_device
  4

  6

 40
0.0
 41
0.0
 42
0.0
 43
0.0
 44
210.0
 45
297.0
 46
0.0
 47
0.0
 48
0.0
 49
0.0
140
0.0
141
0.0
142
1.0
143
1.0
 70
1024
 72
1
 73
0
 74
0
  7

 75
0
147
1.0
148
0.0
149
0.0
100
AcDbLayout
  1
Model
 70
0
 71
0
 10
0.0
 20
0.0
 11
210.0
 21
297.0
 12
0.0
 22
0.0
 32
0.0
 14
0.0
 24
0.0
 34
0.0
 15
0.0
 25
0.0
 35
0.0
146
0.0
 13
0.0
 23
0.0
 33
0.0
 16
1.0
 26
0.0
 36
0.0
 17
0.0
 27
1.0
 37
0.0
 76
0
330
210
345
0
346
0
  0
LAYOUT
  5
304
102
{ACAD_REACTORS
330
1A
102
}
100
AcDbPlotSettings
  1

  2
none_device
  4

  6

 40
0.0
 41
0.0
 42
0.0
 43
0.0
 44
210.0
 45
297.0
 46
0.0
 47
0.0
 48
0.0
 49
0.0
140
0.0
141
0.0
142
1.0
143
1.0
 70
0
 72
1
 73
0
 74
0
  7

 75
0
147
1.0
148
0.0
149
0.0
100
AcDbLayout
  1
Layout1
 70
0
 71
1
 10
0.0
 20
0.0
 11
210.0
 21
297.0
 12
0.0
 22
0.0
 32
0.0
 14
0.0
 24
0.0
 34
0.0
 15
0.0
 25
0.0
 35
0.0
146
0.0
 13
0.0
 23
0.0
 33
0.0
 16
1.0
 26
0.0
 36
0.0
 17
0.0
 27
1.0
 37
0.0
 76
0
330
211
345
0
346
0
  0
ENDSEC
  0
EOF
