999
DXF file: C:\Users\sesa63760\Dev\_Creo\CAD\MCADID0005622_3D-CAD\mcadid0005622_3d-simplified_5.dxf
999
Pro/ENGINEER 2019471 by Parametric Technology Corporation
  0
SECTION
  2
HEADER
  9
$ACADVER
  1
AC1024
  9
$DWGCODEPAGE
  3
ANSI_1252
  9
$EXTMAX
 10
48.9084495937
 20
69.1705215682
 30
0.0
  9
$EXTMIN
 10
0.0
 20
0.0
 30
0.0
  9
$LIMMIN
 10
0.0
 20
0.0
  9
$LIMMAX
 10
48.9084495937
 20
69.1705215682
  9
$VIEWCTR
 10
24.4542247968
 20
34.5852607841
  9
$VIEWSIZE
 40
69.1705215682
  9
$CLAYER
  8
0
  9
$LTSCALE
 40
4.5088932578
  9
$CELTYPE
  6
BYLAYER
  9
$DIMSCALE
 40
1.0
  9
$DIMASZ
 40
0.5822434475
  9
$DIMEXO
 40
1.0
  9
$DIMDLI
 40
3.1152353417
  9
$DIMEXE
 40
1.0
  9
$DIMCEN
 40
0.7378188967
  9
$DIMLFAC
 40
1.0
  9
$DIMBLK
  1
_FILLED
  9
$DIMALT
 70
0
  9
$DIMALTF
 40
0.0393700787
  9
$DIMTXT
 40
0.8151408266
  9
$DIMTOL
 70
1
  9
$DIMLIM
 70
0
  9
$DIMTFAC
 40
1.0
  9
$DIMTP
 40
0.01
  9
$DIMTM
 40
0.01
  9
$DIMGAP
 40
0.625
  9
$DIMDSEP
 70
46
  9
$AUNITS
 70
0
  9
$PDMODE
 70
3
  9
$PDSIZE
 40
0.3125
  9
$HANDSEED
  5
259
  9
$TILEMODE
 70
1
  9
$MEASUREMENT
 70
1
  9
$INSUNITS
 70
4
  0
ENDSEC
  0
SECTION
  2
CLASSES
  0
CLASS
  1
ACDBDICTIONARYWDFLT
  2
AcDbDictionaryWithDefault
  3
AutoCAD 2000
 90
0
 91
1
280
0
281
0
  0
CLASS
  1
ACDBPLACEHOLDER
  2
AcDbPlaceHolder
  3
AutoCAD 2000
 90
0
 91
1
280
0
281
0
  0
CLASS
  1
LAYOUT
  2
AcDbLayout
  3
AutoCAD 2000
 90
0
 91
0
280
0
281
0
  0
ENDSEC
  0
SECTION
  2
TABLES
  0
TABLE
  2
VPORT
  5
8
100
AcDbSymbolTable
 70
2
  0
VPORT
  5
1F4
100
AcDbSymbolTableRecord
100
AcDbViewportTableRecord
  2
*ACTIVE
 70
0
 10
0.0
 20
0.0
 11
1.0
 21
1.0
 12
24.4542247968
 22
34.5852607841
 13
0.0
 23
0.0
 14
1.0
 24
1.0
 15
0.0
 25
0.0
 16
0.0
 26
0.0
 36
1.0
 17
0.0
 27
0.0
 37
0.0
 40
69.1705215682
 41
0.7070707071
 42
50.0
 43
0.0
 44
0.0
 50
0.0
 51
0.0
 71
0
 72
100
 73
1
 74
1
 75
0
 76
0
 77
0
 78
0
  0
ENDTAB
  0
TABLE
  2
LTYPE
  5
5
100
AcDbSymbolTable
 70
6
  0
LTYPE
  5
14
100
AcDbSymbolTableRecord
100
AcDbLinetypeTableRecord
  2
BYBLOCK
 70
0
  3

 72
65
 73
0
 40
0.0
  0
LTYPE
  5
15
100
AcDbSymbolTableRecord
100
AcDbLinetypeTableRecord
  2
BYLAYER
 70
0
  3

 72
65
 73
0
 40
0.0
  0
LTYPE
  5
16
100
AcDbSymbolTableRecord
100
AcDbLinetypeTableRecord
  2
CONTINUOUS
 70
64
  3
Solid line
 72
65
 73
0
 40
0.0
  0
LTYPE
  5
1F5
100
AcDbSymbolTableRecord
100
AcDbLinetypeTableRecord
  2
CENTER
 70
64
  3
____ _ ____ _ ____ _ ____ _ ____ _ ____ _ ____
 72
65
 73
4
 40
0.6
 49
0.375
 74
0
 49
-0.075
 74
0
 49
0.075
 74
0
 49
-0.075
 74
0
  0
LTYPE
  5
1F6
100
AcDbSymbolTableRecord
100
AcDbLinetypeTableRecord
  2
HIDDEN
 70
64
  3
- - - - - - - - - - - - - - - - - - - -
 72
65
 73
2
 40
0.2
 49
0.1
 74
0
 49
-0.1
 74
0
  0
LTYPE
  5
1F7
100
AcDbSymbolTableRecord
100
AcDbLinetypeTableRecord
  2
PHANTOM
 70
64
  3
_____ _ _ _____ _ _ _____ _ _ _____
 72
65
 73
6
 40
0.8
 49
0.45
 74
0
 49
-0.05
 74
0
 49
0.1
 74
0
 49
-0.05
 74
0
 49
0.1
 74
0
 49
-0.05
 74
0
  0
LTYPE
  5
1F8
100
AcDbSymbolTableRecord
100
AcDbLinetypeTableRecord
  2
DOT
 70
64
  3
. . . . . . . . . . . . . . . . . . . .
 72
65
 73
2
 40
0.2
 49
0.1
 74
0
 49
-0.1
 74
0
  0
LTYPE
  5
1F9
100
AcDbSymbolTableRecord
100
AcDbLinetypeTableRecord
  2
DASHED
 70
64
  3
- - - - - - - - - - - - - - - - - - - -
 72
65
 73
2
 40
0.2
 49
0.1
 74
0
 49
-0.1
 74
0
  0
ENDTAB
  0
TABLE
  2
LAYER
  5
2
100
AcDbSymbolTable
 70
36
  0
LAYER
  5
10
100
AcDbSymbolTableRecord
100
AcDbLayerTableRecord
  2
0
 70
0
 62
7
  6
CONTINUOUS
370
-3
390
F
  0
LAYER
  5
1FA
100
AcDbSymbolTableRecord
100
AcDbLayerTableRecord
  2
DEFAULT_1
 70
0
 62
7
  6
CENTER
370
-3
390
F
  0
LAYER
  5
1FB
100
AcDbSymbolTableRecord
100
AcDbLayerTableRecord
  2
DEFAULT_2
 70
0
 62
7
  6
HIDDEN
370
-3
390
F
  0
LAYER
  5
1FC
100
AcDbSymbolTableRecord
100
AcDbLayerTableRecord
  2
DEFAULT_3
 70
0
 62
7
  6
PHANTOM
370
-3
390
F
  0
LAYER
  5
1FD
100
AcDbSymbolTableRecord
100
AcDbLayerTableRecord
  2
00_COMPONENTS
 70
0
 62
7
  6
CONTINUOUS
370
-3
390
F
  0
LAYER
  5
1FE
100
AcDbSymbolTableRecord
100
AcDbLayerTableRecord
  2
00_COMPONENTS_1
 70
0
 62
7
  6
CONTINUOUS
370
-3
390
F
  0
LAYER
  5
1FF
100
AcDbSymbolTableRecord
100
AcDbLayerTableRecord
  2
00_COMPONENTS_2
 70
0
 62
7
  6
CONTINUOUS
370
-3
390
F
  0
LAYER
  5
200
100
AcDbSymbolTableRecord
100
AcDbLayerTableRecord
  2
00_COMPONENTS_3
 70
0
 62
7
  6
CONTINUOUS
370
-3
390
F
  0
LAYER
  5
201
100
AcDbSymbolTableRecord
100
AcDbLayerTableRecord
  2
01_1_DEFAULT_DATUMS
 70
0
 62
7
  6
CONTINUOUS
370
-3
390
F
  0
LAYER
  5
202
100
AcDbSymbolTableRecord
100
AcDbLayerTableRecord
  2
01_PLANES
 70
0
 62
7
  6
CONTINUOUS
370
-3
390
F
  0
LAYER
  5
203
100
AcDbSymbolTableRecord
100
AcDbLayerTableRecord
  2
02_COORD_SYS
 70
0
 62
7
  6
CONTINUOUS
370
-3
390
F
  0
LAYER
  5
204
100
AcDbSymbolTableRecord
100
AcDbLayerTableRecord
  2
03_AXES
 70
0
 62
7
  6
CONTINUOUS
370
-3
390
F
  0
LAYER
  5
205
100
AcDbSymbolTableRecord
100
AcDbLayerTableRecord
  2
03_AXES_1
 70
0
 62
7
  6
CONTINUOUS
370
-3
390
F
  0
LAYER
  5
206
100
AcDbSymbolTableRecord
100
AcDbLayerTableRecord
  2
03_AXES_2
 70
0
 62
7
  6
CONTINUOUS
370
-3
390
F
  0
LAYER
  5
207
100
AcDbSymbolTableRecord
100
AcDbLayerTableRecord
  2
04_POINTS
 70
0
 62
7
  6
CONTINUOUS
370
-3
390
F
  0
LAYER
  5
208
100
AcDbSymbolTableRecord
100
AcDbLayerTableRecord
  2
05_CURVES
 70
0
 62
7
  6
CONTINUOUS
370
-3
390
F
  0
LAYER
  5
209
100
AcDbSymbolTableRecord
100
AcDbLayerTableRecord
  2
06_SURFS
 70
0
 62
7
  6
CONTINUOUS
370
-3
390
F
  0
LAYER
  5
20A
100
AcDbSymbolTableRecord
100
AcDbLayerTableRecord
  2
07_COSMETICS
 70
0
 62
7
  6
CONTINUOUS
370
-3
390
F
  0
LAYER
  5
20B
100
AcDbSymbolTableRecord
100
AcDbLayerTableRecord
  2
10_NOTES
 70
0
 62
7
  6
CONTINUOUS
370
-3
390
F
  0
LAYER
  5
20C
100
AcDbSymbolTableRecord
100
AcDbLayerTableRecord
  2
11_NOTES_PUB
 70
0
 62
7
  6
CONTINUOUS
370
-3
390
F
  0
LAYER
  5
20D
100
AcDbSymbolTableRecord
100
AcDbLayerTableRecord
  2
13_REF_GTOL
 70
0
 62
7
  6
CONTINUOUS
370
-3
390
F
  0
LAYER
  5
20E
100
AcDbSymbolTableRecord
100
AcDbLayerTableRecord
  2
16_MISC
 70
0
 62
7
  6
CONTINUOUS
370
-3
390
F
  0
LAYER
  5
20F
100
AcDbSymbolTableRecord
100
AcDbLayerTableRecord
  2
17_NO_PRINT
 70
0
 62
7
  6
CONTINUOUS
370
-3
390
F
  0
LAYER
  5
210
100
AcDbSymbolTableRecord
100
AcDbLayerTableRecord
  2
18_DATUM_CAMS_JOINTS
 70
0
 62
7
  6
CONTINUOUS
370
-3
390
F
  0
LAYER
  5
211
100
AcDbSymbolTableRecord
100
AcDbLayerTableRecord
  2
19_DATUM_FUNCTIONAL
 70
0
 62
7
  6
CONTINUOUS
370
-3
390
F
  0
LAYER
  5
212
100
AcDbSymbolTableRecord
100
AcDbLayerTableRecord
  2
20_DATUM_KINEMATIC_SCHEME
 70
0
 62
7
  6
CONTINUOUS
370
-3
390
F
  0
LAYER
  5
213
100
AcDbSymbolTableRecord
100
AcDbLayerTableRecord
  2
INTF_BLANK
 70
0
 62
7
  6
CONTINUOUS
370
-3
390
F
  0
LAYER
  5
214
100
AcDbSymbolTableRecord
100
AcDbLayerTableRecord
  2
_BLACK_HOLE
 70
0
 62
7
  6
CONTINUOUS
370
-3
390
F
  0
LAYER
  5
215
100
AcDbSymbolTableRecord
100
AcDbLayerTableRecord
  2
black
 70
0
 62
7
  6
CONTINUOUS
370
-3
390
F
  0
ENDTAB
  0
TABLE
  2
STYLE
  5
3
100
AcDbSymbolTable
 70
1
  0
STYLE
  5
11
100
AcDbSymbolTableRecord
100
AcDbTextStyleTableRecord
  2
STANDARD
 70
0
 40
0.0
 41
1.0
 50
0.0
 71
0
 42
0.2
  3
ARIAL.TTF
  4

  0
STYLE
  5
216
100
AcDbSymbolTableRecord
100
AcDbTextStyleTableRecord
  2
TEXTSTYLE_1
 70
0
 40
0.0
 41
0.8
 50
0.0
 71
0
 42
0.2
  3
gdt
  4

  0
ENDTAB
  0
TABLE
  2
VIEW
  5
6
100
AcDbSymbolTable
 70
0
  0
ENDTAB
  0
TABLE
  2
UCS
  5
7
100
AcDbSymbolTable
 70
0
  0
ENDTAB
  0
TABLE
  2
APPID
  5
9
100
AcDbSymbolTable
 70
1
  0
APPID
  5
217
100
AcDbSymbolTableRecord
100
AcDbRegAppTableRecord
  2
ACAD
 70
0
  0
ENDTAB
  0
TABLE
  2
BLOCK_RECORD
  5
1
100
AcDbSymbolTable
 70
0
  0
BLOCK_RECORD
  5
218
100
AcDbSymbolTableRecord
100
AcDbBlockTableRecord
  2
*Model_Space
  0
BLOCK_RECORD
  5
219
100
AcDbSymbolTableRecord
100
AcDbBlockTableRecord
  2
*Paper_Space
  0
BLOCK_RECORD
  5
21A
100
AcDbSymbolTableRecord
100
AcDbBlockTableRecord
  2
_FILLED
  0
ENDTAB
  0
TABLE
  2
DIMSTYLE
  5
A
100
AcDbSymbolTable
 70
1
100
AcDbDimStyleTable
 71
0
  0
DIMSTYLE
105
21B
100
AcDbSymbolTableRecord
100
AcDbDimStyleTableRecord
  2
STANDARD
 70
0
  3

  4

 40
1.0
 41
0.5822434475
 42
1.0
 43
0.38
 44
1.0
 45
0.0
 46
0.0
 47
0.01
 48
0.01
140
0.8151408266
141
0.09
142
0.0
143
25.4
144
1.0
145
0.0
146
1.0
147
0.625
 71
1
 72
0
 73
0
 74
0
 75
0
 76
0
 77
1
 78
8
 79
2
170
0
171
1
172
0
173
0
174
0
175
0
176
0
177
0
178
0
270
2
179
2
271
2
272
2
273
2
274
2
275
0
280
0
281
0
282
0
283
1
284
8
285
0
286
0
287
3
288
0
340
11
278
46
341
21A
342
21A
343
21A
344
21A
  0
ENDTAB
  0
ENDSEC
  0
SECTION
  2
BLOCKS
  0
BLOCK
  5
20
100
AcDbEntity
  8
0
100
AcDbBlockBegin
  2
*Model_Space
 70
0
 10
0.0
 20
0.0
 30
0.0
  3
*Model_Space
  1

  0
ENDBLK
  5
21
100
AcDbEntity
  8
0
100
AcDbBlockEnd
  0
BLOCK
  5
1C
100
AcDbEntity
  8
0
100
AcDbBlockBegin
  2
*Paper_Space
 70
0
 10
0.0
 20
0.0
 30
0.0
  3
*Paper_Space
  1

  0
ENDBLK
  5
1D
100
AcDbEntity
  8
0
100
AcDbBlockEnd
  0
BLOCK
  5
21C
100
AcDbEntity
  8
0
100
AcDbBlockBegin
  2
_FILLED
 70
64
 10
0.0
 20
0.0
  3
_FILLED
  1

  0
SOLID
  5
21D
100
AcDbEntity
  8
0
  6
BYBLOCK
 62
0
100
AcDbTrace
 10
0.0
 20
0.0
 11
-1.0
 21
0.25
 12
-1.0
 22
-0.25
 13
-1.0
 23
-0.25
  0
ENDBLK
  5
21E
100
AcDbEntity
  8
0
  6
BYBLOCK
 62
0
100
AcDbBlockEnd
  0
ENDSEC
  0
SECTION
  2
ENTITIES
  0
LINE
  5
21F
100
AcDbEntity
  8
00_COMPONENTS
100
AcDbLine
 62
7
  6
BYLAYER
 10
23.277939696
 20
12.0797998252
 11
39.025939696
 21
12.0797998252
  0
LINE
  5
220
100
AcDbEntity
  8
00_COMPONENTS_2
100
AcDbLine
 62
7
  6
BYLAYER
 10
5.701139696
 20
13.7498498252
 11
7.275939696
 21
13.7498498252
  0
LINE
  5
221
100
AcDbEntity
  8
00_COMPONENTS_2
100
AcDbLine
 62
7
  6
BYLAYER
 10
7.275939696
 20
14.5626498252
 11
23.277939696
 21
14.5626498252
  0
LINE
  5
222
100
AcDbEntity
  8
00_COMPONENTS_2
100
AcDbLine
 62
7
  6
BYLAYER
 10
42.8992036148
 20
14.5626498252
 11
43.8517350285
 21
14.5626498252
  0
LWPOLYLINE
  5
223
100
AcDbEntity
  8
00_COMPONENTS_2
100
AcDbPolyline
 62
7
  6
BYLAYER
 90
4
 70
0
 10
9.5884247605
 20
17.6879201477
 10
9.2340218625
 20
17.7753485972
 10
8.9100365778
 20
18.1028448438
 10
8.8263943155
 20
18.4499343734
  0
LWPOLYLINE
  5
224
100
AcDbEntity
  8
00_COMPONENTS_2
100
AcDbPolyline
 62
7
  6
BYLAYER
 90
4
 70
0
 10
7.7927640183
 20
20.6284081941
 10
7.527195663
 20
20.784392902
 10
7.3914303874
 20
20.9465645117
 10
7.2759397434
 20
21.3496189598
  0
LINE
  5
225
100
AcDbEntity
  8
00_COMPONENTS_2
100
AcDbLine
 62
7
  6
BYLAYER
 10
5.701139696
 20
13.7499802671
 11
5.701139696
 21
57.1838498252
  0
LINE
  5
226
100
AcDbEntity
  8
00_COMPONENTS_2
100
AcDbLine
 62
7
  6
BYLAYER
 10
7.275939696
 20
13.7500041399
 11
7.275939696
 21
44.4838498252
  0
LINE
  5
227
100
AcDbEntity
  8
00_COMPONENTS_2
100
AcDbLine
 62
7
  6
BYLAYER
 10
43.8517350285
 20
16.1374498252
 11
43.4503483438
 21
16.1374498252
  0
LINE
  5
228
100
AcDbEntity
  8
00_COMPONENTS_2
100
AcDbLine
 62
7
  6
BYLAYER
 10
8.037939696
 20
16.1374498252
 11
23.277939696
 21
16.1374498252
  0
LINE
  5
229
100
AcDbEntity
  8
00_COMPONENTS_2
100
AcDbLine
 62
7
  6
BYLAYER
 10
7.4464142933
 20
16.4190940217
 11
7.275939696
 21
16.4190940217
  0
LINE
  5
22A
100
AcDbEntity
  8
00_COMPONENTS_2
100
AcDbLine
 62
7
  6
BYLAYER
 10
23.277939696
 20
16.6483572954
 11
8.037939696
 21
16.6483572954
  0
LINE
  5
22B
100
AcDbEntity
  8
00_COMPONENTS_2
100
AcDbLine
 62
7
  6
BYLAYER
 10
7.275939696
 20
16.8994498252
 11
7.7868471663
 21
16.8994498252
  0
LINE
  5
22C
100
AcDbEntity
  8
00_COMPONENTS_2
100
AcDbLine
 62
7
  6
BYLAYER
 10
7.7868471663
 20
19.185449824
 11
7.7868471663
 21
16.8994498252
  0
LINE
  5
22D
100
AcDbEntity
  8
00_COMPONENTS_2
100
AcDbLine
 62
7
  6
BYLAYER
 10
8.037939696
 20
16.6483572954
 11
8.037939696
 21
16.1374498252
  0
LINE
  5
22E
100
AcDbEntity
  8
00_COMPONENTS_2
100
AcDbLine
 62
7
  6
BYLAYER
 10
8.749139696
 20
57.1838498252
 11
8.749139696
 21
44.4838498252
  0
LINE
  5
22F
100
AcDbEntity
  8
00_COMPONENTS_2
100
AcDbLine
 62
7
  6
BYLAYER
 10
8.8264099257
 20
18.4499349248
 11
8.8264099257
 21
19.1854498252
  0
LINE
  5
230
100
AcDbEntity
  8
00_COMPONENTS_2
100
AcDbLine
 62
7
  6
BYLAYER
 10
9.5884247765
 20
17.6879200549
 11
23.277939696
 21
17.6879200549
  0
LINE
  5
231
100
AcDbEntity
  8
00_COMPONENTS_2
100
AcDbLine
 62
7
  6
BYLAYER
 10
8.8264099257
 20
19.1854498252
 11
7.275939696
 21
19.185449824
  0
LINE
  5
232
100
AcDbEntity
  8
00_COMPONENTS
100
AcDbLine
 62
7
  6
BYLAYER
 10
39.0259177389
 20
25.7319318855
 11
30.313739696
 21
25.7319318033
  0
LINE
  5
233
100
AcDbEntity
  8
00_COMPONENTS_2
100
AcDbLine
 62
7
  6
BYLAYER
 10
8.8249490906
 20
18.4477419046
 11
8.8264098333
 21
18.4499734511
  0
LINE
  5
234
100
AcDbEntity
  8
00_COMPONENTS_2
100
AcDbLine
 62
7
  6
BYLAYER
 10
7.7868471662
 20
16.8994498252
 11
8.8264070528
 21
18.449928953
  0
LINE
  5
235
100
AcDbEntity
  8
00_COMPONENTS_2
100
AcDbLine
 62
7
  6
BYLAYER
 10
5.701139696
 20
30.7899637221
 11
7.275939696
 21
30.7899637221
  0
LINE
  5
236
100
AcDbEntity
  8
00_COMPONENTS
100
AcDbLine
 62
7
  6
BYLAYER
 10
23.277939696
 20
12.0797998252
 11
23.277939696
 21
43.7923338329
  0
LINE
  5
237
100
AcDbEntity
  8
00_COMPONENTS
100
AcDbLine
 62
7
  6
BYLAYER
 10
23.277939696
 20
32.6537998252
 11
30.313739696
 21
32.6537998252
  0
LINE
  5
238
100
AcDbEntity
  8
00_COMPONENTS
100
AcDbLine
 62
7
  6
BYLAYER
 10
30.313739696
 20
34.0656717395
 11
23.277939696
 21
34.0656717395
  0
LINE
  5
239
100
AcDbEntity
  8
00_COMPONENTS
100
AcDbLine
 62
7
  6
BYLAYER
 10
28.611939696
 20
45.6113769352
 11
28.611939696
 21
45.8586435417
  0
LINE
  5
23A
100
AcDbEntity
  8
00_COMPONENTS
100
AcDbLine
 62
7
  6
BYLAYER
 10
30.313739696
 20
12.0797998252
 11
30.313739696
 21
34.0656717395
  0
LINE
  5
23B
100
AcDbEntity
  8
00_COMPONENTS_2
100
AcDbLine
 62
7
  6
BYLAYER
 10
8.037939696
 20
16.6483572954
 11
9.5884196583
 21
17.6879171364
  0
LINE
  5
23C
100
AcDbEntity
  8
00_COMPONENTS_2
100
AcDbLine
 62
7
  6
BYLAYER
 10
9.5861170895
 20
17.6863822575
 11
9.5884653423
 21
17.6879200547
  0
LINE
  5
23D
100
AcDbEntity
  8
00_COMPONENTS
100
AcDbLine
 62
7
  6
BYLAYER
 10
39.025939696
 20
40.4642998252
 11
23.277939696
 21
40.4642998252
  0
LINE
  5
23E
100
AcDbEntity
  8
00_COMPONENTS
100
AcDbLine
 62
7
  6
BYLAYER
 10
23.6544596211
 20
44.2830241526
 11
40.4590725126
 21
48.785806606
  0
LINE
  5
23F
100
AcDbEntity
  8
00_COMPONENTS_2
100
AcDbLine
 62
7
  6
BYLAYER
 10
40.2720201455
 20
48.9829526818
 11
23.481139696
 21
44.4838498252
  0
LINE
  5
240
100
AcDbEntity
  8
00_COMPONENTS_2
100
AcDbLine
 62
7
  6
BYLAYER
 10
7.275939696
 20
43.8022452693
 11
5.701139696
 21
43.8022452693
  0
LINE
  5
241
100
AcDbEntity
  8
00_COMPONENTS_2
100
AcDbLine
 62
7
  6
BYLAYER
 10
5.701139696
 20
44.4838498252
 11
23.481139696
 21
44.4838498252
  0
LINE
  5
242
100
AcDbEntity
  8
00_COMPONENTS
100
AcDbLine
 62
7
  6
BYLAYER
 10
39.025939696
 20
12.0797998252
 11
39.025939696
 21
25.7319318444
  0
LINE
  5
243
100
AcDbEntity
  8
00_COMPONENTS
100
AcDbLine
 62
7
  6
BYLAYER
 10
39.025939696
 20
25.7334787857
 11
39.025939696
 21
48.4017998252
  0
LINE
  5
244
100
AcDbEntity
  8
00_COMPONENTS_2
100
AcDbLine
 62
7
  6
BYLAYER
 10
42.531139696
 20
54.1358498252
 11
42.531139696
 21
51.9270946004
  0
LINE
  5
245
100
AcDbEntity
  8
00_COMPONENTS
100
AcDbLine
 62
7
  6
BYLAYER
 10
43.597939696
 20
16.9058170143
 11
43.597939696
 21
48.4017998252
  0
LINE
  5
246
100
AcDbEntity
  8
00_COMPONENTS_2
100
AcDbLine
 62
7
  6
BYLAYER
 10
43.851939696
 20
16.1374498252
 11
43.851939696
 21
14.5626498252
  0
LINE
  5
247
100
AcDbEntity
  8
00_COMPONENTS_2
100
AcDbLine
 62
7
  6
BYLAYER
 10
5.701139696
 20
57.1838498252
 11
39.483139696
 21
57.1838498252
  0
LINE
  5
248
100
AcDbEntity
  8
00_COMPONENTS
100
AcDbLine
 62
7
  6
BYLAYER
 10
29.119939696
 20
57.2600498252
 11
41.3876255763
 21
57.2600498252
  0
ARC
  5
249
100
AcDbEntity
  8
00_COMPONENTS_2
100
AcDbCircle
 62
7
  6
BYLAYER
 10
10.1520870483
 20
19.0135971772
 40
3.172377428
100
AcDbArc
 50
221.7916367813
 51
228.2083629782
  0
ARC
  5
24A
100
AcDbEntity
  8
00_COMPONENTS_2
100
AcDbCircle
 62
7
  6
BYLAYER
 10
7.3024099256
 20
19.1854498252
 40
1.524
100
AcDbArc
 50
0.0
 51
71.2306179489
  0
ARC
  5
24B
100
AcDbEntity
  8
00_COMPONENTS_2
100
AcDbCircle
 62
7
  6
BYLAYER
 10
8.037939696
 20
16.8994498252
 40
0.762
100
AcDbArc
 50
180.0
 51
270.0
  0
ARC
  5
24C
100
AcDbEntity
  8
00_COMPONENTS
100
AcDbCircle
 62
7
  6
BYLAYER
 10
23.785939696
 20
43.7923338329
 40
0.508
100
AcDbArc
 50
104.9999999995
 51
180.0
  0
ARC
  5
24D
100
AcDbEntity
  8
00_COMPONENTS
100
AcDbCircle
 62
7
  6
BYLAYER
 10
38.771939696
 20
16.9057998252
 40
4.826
100
AcDbArc
 50
273.0127875042
 51
360.0
  0
ARC
  5
24E
100
AcDbEntity
  8
00_COMPONENTS
100
AcDbCircle
 62
7
  6
BYLAYER
 10
39.025939696
 20
54.1343310914
 40
5.5372
100
AcDbArc
 50
285.0
 51
358.8045832589
  0
ARC
  5
24F
100
AcDbEntity
  8
00_COMPONENTS
100
AcDbCircle
 62
7
  6
BYLAYER
 10
38.771939696
 20
48.4017998252
 40
4.826
100
AcDbArc
 50
0.0
 51
24.8791877259
  0
ARC
  5
250
100
AcDbEntity
  8
00_COMPONENTS
100
AcDbCircle
 62
7
  6
BYLAYER
 10
41.3876255763
 20
54.0850498252
 40
3.175
100
AcDbArc
 50
358.804583259
 51
90.0
  0
ARC
  5
251
100
AcDbEntity
  8
00_COMPONENTS_2
100
AcDbCircle
 62
7
  6
BYLAYER
 10
39.483139696
 20
51.9270946004
 40
3.048
100
AcDbArc
 50
285.0
 51
360.0
  0
ARC
  5
252
100
AcDbEntity
  8
00_COMPONENTS_2
100
AcDbCircle
 62
7
  6
BYLAYER
 10
39.483139696
 20
54.1358498252
 40
3.048
100
AcDbArc
 50
0.0
 51
90.0
  0
CIRCLE
  5
253
100
AcDbEntity
  8
00_COMPONENTS_2
100
AcDbCircle
 62
7
  6
BYLAYER
 10
39.025939696
 20
54.0850498252
 40
0.9271
  0
CIRCLE
  5
254
100
AcDbEntity
  8
00_COMPONENTS_1
100
AcDbCircle
 62
7
  6
BYLAYER
 10
39.025939696
 20
54.0850498252
 40
0.889
  0
ARC
  5
255
100
AcDbEntity
  8
00_COMPONENTS
100
AcDbCircle
 62
7
  6
BYLAYER
 10
29.119939696
 20
56.7520498252
 40
0.508
100
AcDbArc
 50
90.0
 51
113.5575754641
  0
SPLINE
  5
256
100
AcDbEntity
  8
00_COMPONENTS_2
100
AcDbSpline
 62
7
  6
BYLAYER
 70
0
 71
3
 72
31
 73
27
 74
0
 42
0.0000001
 43
0.0000001
 44
0.0000000001
 40
0.0
 40
0.0
 40
0.0
 40
0.0
 40
0.1962106498
 40
0.3848348594
 40
0.4738835404
 40
0.5582803539
 40
0.6372293279
 40
0.7099345007
 40
0.775647087
 40
0.8338068325
 40
0.8839007715
 40
0.9057629002
 40
0.9254164727
 40
0.9428065028
 40
0.9579134823
 40
0.9707266369
 40
0.9812350779
 40
0.9856215993
 40
0.9894278074
 40
0.9926523096
 40
0.995293706
 40
0.9973505902
 40
0.9988215486
 40
0.9993368621
 40
0.999705161
 40
1.0
 40
1.0
 40
1.0
 40
1.0
 10
7.7868480901
 20
19.1854498251
 30
0.0
 10
7.7868480965
 20
19.2798277173
 30
0.0
 10
7.7868760075
 20
19.4649344034
 30
0.0
 10
7.7870046011
 20
19.692873737
 30
0.0
 10
7.7871832883
 20
19.8670302274
 30
0.0
 10
7.7873541316
 20
19.9884325826
 30
0.0
 10
7.7875679603
 20
20.1019735849
 30
0.0
 10
7.787829065
 20
20.2065272935
 30
0.0
 10
7.7881399353
 20
20.3010811561
 30
0.0
 10
7.7885413291
 20
20.3847585076
 30
0.0
 10
7.7890007165
 20
20.4473430569
 30
0.0
 10
7.7894761443
 20
20.4914050425
 30
0.0
 10
7.7898657435
 20
20.5197362454
 30
0.0
 10
7.7903110175
 20
20.544816966
 30
0.0
 10
7.7907855755
 20
20.5666061154
 30
0.0
 10
7.7912619297
 20
20.5850844629
 30
0.0
 10
7.7916577388
 20
20.5984058604
 30
0.0
 10
7.791953702
 20
20.6073970465
 30
0.0
 10
7.7921439272
 20
20.6128837602
 30
0.0
 10
7.792318151
 20
20.6175378469
 30
0.0
 10
7.792457334
 20
20.6213322336
 30
0.0
 10
7.7925998019
 20
20.6243322222
 30
0.0
 10
7.7926374845
 20
20.6262025423
 30
0.0
 10
7.7927482114
 20
20.6274317824
 30
0.0
 10
7.7926672233
 20
20.6278264152
 30
0.0
 10
7.7928880265
 20
20.6284770015
 30
0.0
 10
7.7927640184
 20
20.628408194
 30
0.0
  0
ENDSEC
  0
SECTION
  2
OBJECTS
  0
DICTIONARY
  5
C
100
AcDbDictionary
280
0
281
1
  3
ACAD_GROUP
350
D
  3
ACAD_MLINESTYLE
350
17
  3
ACAD_LAYOUT
350
1A
  3
ACAD_PLOTSETTINGS
350
19
  3
ACAD_PLOTSTYLENAME
350
E
  0
DICTIONARY
  5
D
102
{ACAD_REACTORS
330
C
102
}
100
AcDbDictionary
280
0
281
1
  0
ACDBDICTIONARYWDFLT
  5
E
102
{ACAD_REACTORS
330
C
102
}
100
AcDbDictionary
281
1
  3
Normal
350
F
100
AcDbDictionaryWithDefault
340
F
  0
DICTIONARY
  5
17
102
{ACAD_REACTORS
330
C
102
}
100
AcDbDictionary
280
0
281
1
  3
Standard
350
18
  0
DICTIONARY
  5
19
102
{ACAD_REACTORS
330
C
102
}
100
AcDbDictionary
281
1
  0
DICTIONARY
  5
1A
102
{ACAD_REACTORS
330
C
102
}
100
AcDbDictionary
281
1
  3
Model
350
257
  3
Layout1
350
258
  0
ACDBPLACEHOLDER
  5
F
102
{ACAD_REACTORS
330
E
102
}
  0
MLINESTYLE
  5
18
102
{ACAD_REACTORS
330
17
102
}
100
AcDbMlineStyle
  2
STANDARD
 70
0
  3

 62
256
 51
90.0
 52
90.0
 71
2
 49
0.5
 62
256
  6
BYLAYER
 49
-0.5
 62
256
  6
BYLAYER
  0
LAYOUT
  5
257
102
{ACAD_REACTORS
330
1A
102
}
100
AcDbPlotSettings
  1

  2
none_device
  4

  6

 40
0.0
 41
0.0
 42
0.0
 43
0.0
 44
210.0
 45
297.0
 46
0.0
 47
0.0
 48
0.0
 49
0.0
140
0.0
141
0.0
142
1.0
143
1.0
 70
1024
 72
1
 73
0
 74
0
  7

 75
0
147
1.0
148
0.0
149
0.0
100
AcDbLayout
  1
Model
 70
0
 71
0
 10
0.0
 20
0.0
 11
210.0
 21
297.0
 12
0.0
 22
0.0
 32
0.0
 14
0.0
 24
0.0
 34
0.0
 15
0.0
 25
0.0
 35
0.0
146
0.0
 13
0.0
 23
0.0
 33
0.0
 16
1.0
 26
0.0
 36
0.0
 17
0.0
 27
1.0
 37
0.0
 76
0
330
218
345
0
346
0
  0
LAYOUT
  5
258
102
{ACAD_REACTORS
330
1A
102
}
100
AcDbPlotSettings
  1

  2
none_device
  4

  6

 40
0.0
 41
0.0
 42
0.0
 43
0.0
 44
210.0
 45
297.0
 46
0.0
 47
0.0
 48
0.0
 49
0.0
140
0.0
141
0.0
142
1.0
143
1.0
 70
0
 72
1
 73
0
 74
0
  7

 75
0
147
1.0
148
0.0
149
0.0
100
AcDbLayout
  1
Layout1
 70
0
 71
1
 10
0.0
 20
0.0
 11
210.0
 21
297.0
 12
0.0
 22
0.0
 32
0.0
 14
0.0
 24
0.0
 34
0.0
 15
0.0
 25
0.0
 35
0.0
146
0.0
 13
0.0
 23
0.0
 33
0.0
 16
1.0
 26
0.0
 36
0.0
 17
0.0
 27
1.0
 37
0.0
 76
0
330
219
345
0
346
0
  0
ENDSEC
  0
EOF
