999
DXF file: C:\Users\sesa63760\Dev\_Creo\CAD\MCADID0000748_3D-CAD\drw0001_1.dxf
999
Pro/ENGINEER 2019471 by Parametric Technology Corporation
  0
SECTION
  2
HEADER
  9
$ACADVER
  1
AC1024
  9
$DWGCODEPAGE
  3
ANSI_1252
  9
$EXTMAX
 10
188.8906810973
 20
267.1453918376
 30
0.0
  9
$EXTMIN
 10
0.0
 20
0.0
 30
0.0
  9
$LIMMIN
 10
0.0
 20
0.0
  9
$LIMMAX
 10
188.8906810973
 20
267.1453918376
  9
$VIEWCTR
 10
94.4453405486
 20
133.5726959188
  9
$VIEWSIZE
 40
267.1453918376
  9
$CLAYER
  8
0
  9
$LTSCALE
 40
17.4139218383
  9
$CELTYPE
  6
BYLAYER
  9
$DIMSCALE
 40
1.0
  9
$DIMASZ
 40
2.2486985845
  9
$DIMEXO
 40
1.0
  9
$DIMDLI
 40
12.0314369065
  9
$DIMEXE
 40
1.0
  9
$DIMCEN
 40
2.8495508463
  9
$DIMLFAC
 40
1.0
  9
$DIMBLK
  1
_FILLED
  9
$DIMALT
 70
0
  9
$DIMALTF
 40
0.0393700787
  9
$DIMTXT
 40
3.1481780183
  9
$DIMTOL
 70
1
  9
$DIMLIM
 70
0
  9
$DIMTFAC
 40
1.0
  9
$DIMTP
 40
0.01
  9
$DIMTM
 40
0.01
  9
$DIMGAP
 40
0.625
  9
$DIMDSEP
 70
46
  9
$AUNITS
 70
0
  9
$PDMODE
 70
3
  9
$PDSIZE
 40
0.3125
  9
$HANDSEED
  5
64F
  9
$TILEMODE
 70
1
  9
$MEASUREMENT
 70
1
  9
$INSUNITS
 70
4
  0
ENDSEC
  0
SECTION
  2
CLASSES
  0
CLASS
  1
ACDBDICTIONARYWDFLT
  2
AcDbDictionaryWithDefault
  3
AutoCAD 2000
 90
0
 91
1
280
0
281
0
  0
CLASS
  1
ACDBPLACEHOLDER
  2
AcDbPlaceHolder
  3
AutoCAD 2000
 90
0
 91
1
280
0
281
0
  0
CLASS
  1
LAYOUT
  2
AcDbLayout
  3
AutoCAD 2000
 90
0
 91
0
280
0
281
0
  0
ENDSEC
  0
SECTION
  2
TABLES
  0
TABLE
  2
VPORT
  5
8
100
AcDbSymbolTable
 70
2
  0
VPORT
  5
1F4
100
AcDbSymbolTableRecord
100
AcDbViewportTableRecord
  2
*ACTIVE
 70
0
 10
0.0
 20
0.0
 11
1.0
 21
1.0
 12
94.4453405486
 22
133.5726959188
 13
0.0
 23
0.0
 14
1.0
 24
1.0
 15
0.0
 25
0.0
 16
0.0
 26
0.0
 36
1.0
 17
0.0
 27
0.0
 37
0.0
 40
267.1453918376
 41
0.7070707071
 42
50.0
 43
0.0
 44
0.0
 50
0.0
 51
0.0
 71
0
 72
100
 73
1
 74
1
 75
0
 76
0
 77
0
 78
0
  0
ENDTAB
  0
TABLE
  2
LTYPE
  5
5
100
AcDbSymbolTable
 70
6
  0
LTYPE
  5
14
100
AcDbSymbolTableRecord
100
AcDbLinetypeTableRecord
  2
BYBLOCK
 70
0
  3

 72
65
 73
0
 40
0.0
  0
LTYPE
  5
15
100
AcDbSymbolTableRecord
100
AcDbLinetypeTableRecord
  2
BYLAYER
 70
0
  3

 72
65
 73
0
 40
0.0
  0
LTYPE
  5
16
100
AcDbSymbolTableRecord
100
AcDbLinetypeTableRecord
  2
CONTINUOUS
 70
64
  3
Solid line
 72
65
 73
0
 40
0.0
  0
LTYPE
  5
1F5
100
AcDbSymbolTableRecord
100
AcDbLinetypeTableRecord
  2
CENTER
 70
64
  3
____ _ ____ _ ____ _ ____ _ ____ _ ____ _ ____
 72
65
 73
4
 40
0.6
 49
0.375
 74
0
 49
-0.075
 74
0
 49
0.075
 74
0
 49
-0.075
 74
0
  0
LTYPE
  5
1F6
100
AcDbSymbolTableRecord
100
AcDbLinetypeTableRecord
  2
HIDDEN
 70
64
  3
- - - - - - - - - - - - - - - - - - - -
 72
65
 73
2
 40
0.2
 49
0.1
 74
0
 49
-0.1
 74
0
  0
LTYPE
  5
1F7
100
AcDbSymbolTableRecord
100
AcDbLinetypeTableRecord
  2
PHANTOM
 70
64
  3
_____ _ _ _____ _ _ _____ _ _ _____
 72
65
 73
6
 40
0.8
 49
0.45
 74
0
 49
-0.05
 74
0
 49
0.1
 74
0
 49
-0.05
 74
0
 49
0.1
 74
0
 49
-0.05
 74
0
  0
LTYPE
  5
1F8
100
AcDbSymbolTableRecord
100
AcDbLinetypeTableRecord
  2
DOT
 70
64
  3
. . . . . . . . . . . . . . . . . . . .
 72
65
 73
2
 40
0.2
 49
0.1
 74
0
 49
-0.1
 74
0
  0
LTYPE
  5
1F9
100
AcDbSymbolTableRecord
100
AcDbLinetypeTableRecord
  2
DASHED
 70
64
  3
- - - - - - - - - - - - - - - - - - - -
 72
65
 73
2
 40
0.2
 49
0.1
 74
0
 49
-0.1
 74
0
  0
ENDTAB
  0
TABLE
  2
LAYER
  5
2
100
AcDbSymbolTable
 70
36
  0
LAYER
  5
10
100
AcDbSymbolTableRecord
100
AcDbLayerTableRecord
  2
0
 70
0
 62
7
  6
CONTINUOUS
370
-3
390
F
  0
LAYER
  5
1FA
100
AcDbSymbolTableRecord
100
AcDbLayerTableRecord
  2
DEFAULT_1
 70
0
 62
7
  6
CENTER
370
-3
390
F
  0
LAYER
  5
1FB
100
AcDbSymbolTableRecord
100
AcDbLayerTableRecord
  2
DEFAULT_2
 70
0
 62
8
  6
HIDDEN
370
-3
390
F
  0
LAYER
  5
1FC
100
AcDbSymbolTableRecord
100
AcDbLayerTableRecord
  2
DEFAULT_3
 70
0
 62
7
  6
PHANTOM
370
-3
390
F
  0
LAYER
  5
1FD
100
AcDbSymbolTableRecord
100
AcDbLayerTableRecord
  2
00_COMPONENTS
 70
0
 62
7
  6
CONTINUOUS
370
-3
390
F
  0
LAYER
  5
1FE
100
AcDbSymbolTableRecord
100
AcDbLayerTableRecord
  2
01_1_DEFAULT_DATUMS
 70
0
 62
7
  6
CONTINUOUS
370
-3
390
F
  0
LAYER
  5
1FF
100
AcDbSymbolTableRecord
100
AcDbLayerTableRecord
  2
01_PLANES
 70
0
 62
7
  6
CONTINUOUS
370
-3
390
F
  0
LAYER
  5
200
100
AcDbSymbolTableRecord
100
AcDbLayerTableRecord
  2
02_COORD_SYS
 70
0
 62
7
  6
CONTINUOUS
370
-3
390
F
  0
LAYER
  5
201
100
AcDbSymbolTableRecord
100
AcDbLayerTableRecord
  2
03_AXES
 70
0
 62
7
  6
CONTINUOUS
370
-3
390
F
  0
LAYER
  5
202
100
AcDbSymbolTableRecord
100
AcDbLayerTableRecord
  2
04_POINTS
 70
0
 62
7
  6
CONTINUOUS
370
-3
390
F
  0
LAYER
  5
203
100
AcDbSymbolTableRecord
100
AcDbLayerTableRecord
  2
05_CURVES
 70
0
 62
7
  6
CONTINUOUS
370
-3
390
F
  0
LAYER
  5
204
100
AcDbSymbolTableRecord
100
AcDbLayerTableRecord
  2
06_SURFS
 70
0
 62
7
  6
CONTINUOUS
370
-3
390
F
  0
LAYER
  5
205
100
AcDbSymbolTableRecord
100
AcDbLayerTableRecord
  2
07_COSMETICS
 70
0
 62
7
  6
CONTINUOUS
370
-3
390
F
  0
LAYER
  5
206
100
AcDbSymbolTableRecord
100
AcDbLayerTableRecord
  2
10_NOTES
 70
0
 62
7
  6
CONTINUOUS
370
-3
390
F
  0
LAYER
  5
207
100
AcDbSymbolTableRecord
100
AcDbLayerTableRecord
  2
11_NOTES_PUB
 70
0
 62
7
  6
CONTINUOUS
370
-3
390
F
  0
LAYER
  5
208
100
AcDbSymbolTableRecord
100
AcDbLayerTableRecord
  2
13_REF_GTOL
 70
0
 62
7
  6
CONTINUOUS
370
-3
390
F
  0
LAYER
  5
209
100
AcDbSymbolTableRecord
100
AcDbLayerTableRecord
  2
16_MISC
 70
0
 62
7
  6
CONTINUOUS
370
-3
390
F
  0
LAYER
  5
20A
100
AcDbSymbolTableRecord
100
AcDbLayerTableRecord
  2
17_NO_PRINT
 70
0
 62
7
  6
CONTINUOUS
370
-3
390
F
  0
LAYER
  5
20B
100
AcDbSymbolTableRecord
100
AcDbLayerTableRecord
  2
18_DATUM_CAMS_JOINTS
 70
0
 62
7
  6
CONTINUOUS
370
-3
390
F
  0
LAYER
  5
20C
100
AcDbSymbolTableRecord
100
AcDbLayerTableRecord
  2
19_DATUM_FUNCTIONAL
 70
0
 62
7
  6
CONTINUOUS
370
-3
390
F
  0
LAYER
  5
20D
100
AcDbSymbolTableRecord
100
AcDbLayerTableRecord
  2
20_DATUM_KINEMATIC_SCHEME
 70
0
 62
7
  6
CONTINUOUS
370
-3
390
F
  0
ENDTAB
  0
TABLE
  2
STYLE
  5
3
100
AcDbSymbolTable
 70
1
  0
STYLE
  5
11
100
AcDbSymbolTableRecord
100
AcDbTextStyleTableRecord
  2
STANDARD
 70
0
 40
0.0
 41
0.8
 50
0.0
 71
0
 42
0.2
  3
txt
  4

  0
STYLE
  5
20E
100
AcDbSymbolTableRecord
100
AcDbTextStyleTableRecord
  2
TEXTSTYLE_1
 70
0
 40
0.0
 41
0.8
 50
0.0
 71
0
 42
0.2
  3
gdt
  4

  0
ENDTAB
  0
TABLE
  2
VIEW
  5
6
100
AcDbSymbolTable
 70
0
  0
ENDTAB
  0
TABLE
  2
UCS
  5
7
100
AcDbSymbolTable
 70
0
  0
ENDTAB
  0
TABLE
  2
APPID
  5
9
100
AcDbSymbolTable
 70
1
  0
APPID
  5
20F
100
AcDbSymbolTableRecord
100
AcDbRegAppTableRecord
  2
ACAD
 70
0
  0
ENDTAB
  0
TABLE
  2
BLOCK_RECORD
  5
1
100
AcDbSymbolTable
 70
0
  0
BLOCK_RECORD
  5
210
100
AcDbSymbolTableRecord
100
AcDbBlockTableRecord
  2
*Model_Space
  0
BLOCK_RECORD
  5
211
100
AcDbSymbolTableRecord
100
AcDbBlockTableRecord
  2
*Paper_Space
  0
BLOCK_RECORD
  5
212
100
AcDbSymbolTableRecord
100
AcDbBlockTableRecord
  2
_FILLED
  0
ENDTAB
  0
TABLE
  2
DIMSTYLE
  5
A
100
AcDbSymbolTable
 70
1
100
AcDbDimStyleTable
 71
0
  0
DIMSTYLE
105
213
100
AcDbSymbolTableRecord
100
AcDbDimStyleTableRecord
  2
STANDARD
 70
0
  3

  4

 40
1.0
 41
2.2486985845
 42
1.0
 43
0.38
 44
1.0
 45
0.0
 46
0.0
 47
0.01
 48
0.01
140
3.1481780183
141
0.09
142
0.0
143
25.4
144
1.0
145
0.0
146
1.0
147
0.625
 71
1
 72
0
 73
0
 74
0
 75
0
 76
0
 77
1
 78
8
 79
2
170
0
171
1
172
0
173
0
174
0
175
0
176
0
177
0
178
0
270
2
179
2
271
2
272
2
273
2
274
2
275
0
280
0
281
0
282
0
283
1
284
8
285
0
286
0
287
3
288
0
340
11
278
46
341
212
342
212
343
212
344
212
  0
ENDTAB
  0
ENDSEC
  0
SECTION
  2
BLOCKS
  0
BLOCK
  5
20
100
AcDbEntity
  8
0
100
AcDbBlockBegin
  2
*Model_Space
 70
0
 10
0.0
 20
0.0
 30
0.0
  3
*Model_Space
  1

  0
ENDBLK
  5
21
100
AcDbEntity
  8
0
100
AcDbBlockEnd
  0
BLOCK
  5
1C
100
AcDbEntity
  8
0
100
AcDbBlockBegin
  2
*Paper_Space
 70
0
 10
0.0
 20
0.0
 30
0.0
  3
*Paper_Space
  1

  0
ENDBLK
  5
1D
100
AcDbEntity
  8
0
100
AcDbBlockEnd
  0
BLOCK
  5
214
100
AcDbEntity
  8
0
100
AcDbBlockBegin
  2
_FILLED
 70
64
 10
0.0
 20
0.0
  3
_FILLED
  1

  0
SOLID
  5
215
100
AcDbEntity
  8
0
  6
BYBLOCK
 62
0
100
AcDbTrace
 10
0.0
 20
0.0
 11
-1.0
 21
0.25
 12
-1.0
 22
-0.25
 13
-1.0
 23
-0.25
  0
ENDBLK
  5
216
100
AcDbEntity
  8
0
  6
BYBLOCK
 62
0
100
AcDbBlockEnd
  0
ENDSEC
  0
SECTION
  2
ENTITIES
  0
LINE
  5
217
100
AcDbEntity
  8
0
100
AcDbLine
 62
7
  6
CONTINUOUS
 10
21.9134922462
 20
101.3811169692
 11
21.9134922462
 21
183.0313586822
  0
LINE
  5
218
100
AcDbEntity
  8
0
100
AcDbLine
 62
7
  6
CONTINUOUS
 10
83.6260369076
 20
214.87717965
 11
84.7787131037
 21
215.5663188017
  0
LINE
  5
219
100
AcDbEntity
  8
0
100
AcDbLine
 62
7
  6
CONTINUOUS
 10
82.2623379708
 20
215.6644937869
 11
81.4655601187
 21
215.1934422552
  0
LINE
  5
21A
100
AcDbEntity
  8
0
100
AcDbLine
 62
7
  6
CONTINUOUS
 10
81.5223457233
 20
217.4463408535
 11
21.9134922462
 21
183.0313586822
  0
LINE
  5
21B
100
AcDbEntity
  8
0
100
AcDbLine
 62
7
  6
CONTINUOUS
 10
84.0162222201
 20
212.7406071233
 11
84.6172604817
 21
213.0876146541
  0
LINE
  5
21C
100
AcDbEntity
  8
0
100
AcDbLine
 62
7
  6
CONTINUOUS
 10
28.433043912
 20
153.8088335594
 11
28.433043912
 21
140.5814944019
  0
LINE
  5
21D
100
AcDbEntity
  8
0
100
AcDbLine
 62
7
  6
CONTINUOUS
 10
28.4401150093
 20
136.2091240627
 11
28.4401150093
 21
123.2267356303
  0
LINE
  5
21E
100
AcDbEntity
  8
0
100
AcDbLine
 62
7
  6
CONTINUOUS
 10
28.4401150093
 20
118.7359723361
 11
28.4401150093
 21
105.7535839038
  0
LINE
  5
21F
100
AcDbEntity
  8
0
100
AcDbLine
 62
7
  6
CONTINUOUS
 10
28.7158854469
 20
140.7447920634
 11
28.7158854469
 21
153.6455386173
  0
LINE
  5
220
100
AcDbEntity
  8
0
100
AcDbLine
 62
7
  6
CONTINUOUS
 10
28.7229565442
 20
105.9168815653
 11
28.7229565442
 21
118.572677394
  0
LINE
  5
221
100
AcDbEntity
  8
0
100
AcDbLine
 62
7
  6
CONTINUOUS
 10
28.7229565442
 20
123.3900332919
 11
28.7229565442
 21
136.0458291206
  0
LINE
  5
222
100
AcDbEntity
  8
0
100
AcDbLine
 62
7
  6
CONTINUOUS
 10
28.8785206837
 20
148.9261486875
 11
28.8785206837
 21
145.6029838498
  0
LINE
  5
223
100
AcDbEntity
  8
0
100
AcDbLine
 62
7
  6
CONTINUOUS
 10
29.2886443243
 20
132.1266175184
 11
29.2886443243
 21
126.9826522905
  0
LINE
  5
224
100
AcDbEntity
  8
0
100
AcDbLine
 62
7
  6
CONTINUOUS
 10
29.2886443243
 20
114.6534657918
 11
29.2886443243
 21
109.5095005639
  0
LINE
  5
225
100
AcDbEntity
  8
0
100
AcDbLine
 62
7
  6
CONTINUOUS
 10
29.9109008824
 20
149.240517381
 11
29.9109008824
 21
148.3301171859
  0
LINE
  5
226
100
AcDbEntity
  8
0
100
AcDbLine
 62
7
  6
CONTINUOUS
 10
29.9109008824
 20
145.0069523482
 11
29.9109008824
 21
144.0965521531
  0
LINE
  5
227
100
AcDbEntity
  8
0
100
AcDbLine
 62
7
  6
CONTINUOUS
 10
88.4896394477
 20
210.8519461933
 11
87.8886011861
 21
210.5049386625
  0
LINE
  5
228
100
AcDbEntity
  8
0
100
AcDbLine
 62
7
  6
CONTINUOUS
 10
91.2881931113
 20
208.5422277517
 11
92.9434546171
 21
209.4978877232
  0
LINE
  5
229
100
AcDbEntity
  8
0
100
AcDbLine
 62
7
  6
CONTINUOUS
 10
92.7829410002
 20
210.9451802151
 11
91.5893095101
 21
210.2796860786
  0
LINE
  5
22A
100
AcDbEntity
  8
0
100
AcDbLine
 62
7
  6
CONTINUOUS
 10
72.4060246338
 20
66.3187820377
 11
73.9046078575
 21
65.4535941832
  0
LINE
  5
22B
100
AcDbEntity
  8
0
100
AcDbLine
 62
7
  6
CONTINUOUS
 10
73.6116488937
 20
66.0554843105
 11
73.2158800415
 21
66.2839763947
  0
LINE
  5
22C
100
AcDbEntity
  8
0
100
AcDbLine
 62
7
  6
CONTINUOUS
 10
72.1974294434
 20
66.8719658196
 11
72.5931982956
 21
66.6434737354
  0
LINE
  5
22D
100
AcDbEntity
  8
0
100
AcDbLine
 62
7
  6
CONTINUOUS
 10
72.8264399816
 20
66.7292625483
 11
73.2158800415
 21
66.5044243114
  0
LINE
  5
22E
100
AcDbEntity
  8
0
100
AcDbLine
 62
7
  6
CONTINUOUS
 10
73.802565119
 20
66.1657091867
 11
73.9046078575
 21
66.1067961169
  0
LINE
  5
22F
100
AcDbEntity
  8
0
100
AcDbLine
 62
7
  6
CONTINUOUS
 10
68.163357451
 20
69.9929539274
 11
70.2261085715
 21
68.8020509545
  0
LINE
  5
230
100
AcDbEntity
  8
0
100
AcDbLine
 62
7
  6
CONTINUOUS
 10
70.5675305165
 20
68.604935362
 11
72.1974294434
 21
67.6639340661
  0
LINE
  5
231
100
AcDbEntity
  8
0
100
AcDbLine
 62
7
  6
CONTINUOUS
 10
75.3449268911
 20
65.8467666772
 11
78.5578704107
 21
63.9918148359
  0
LINE
  5
232
100
AcDbEntity
  8
0
100
AcDbLine
 62
7
  6
CONTINUOUS
 10
75.3449268911
 20
66.499968611
 11
74.8632208749
 21
66.7780754175
  0
LINE
  5
233
100
AcDbEntity
  8
0
100
AcDbLine
 62
7
  6
CONTINUOUS
 10
72.1974294434
 20
70.0563252464
 11
72.5931982956
 21
69.8278331622
  0
LINE
  5
234
100
AcDbEntity
  8
0
100
AcDbLine
 62
7
  6
CONTINUOUS
 10
73.2158800415
 20
69.4683358215
 11
73.6116488937
 21
69.2398437373
  0
LINE
  5
235
100
AcDbEntity
  8
0
100
AcDbLine
 62
7
  6
CONTINUOUS
 10
72.4060246338
 20
70.3196438816
 11
73.9046078575
 21
69.4544560272
  0
LINE
  5
236
100
AcDbEntity
  8
0
100
AcDbLine
 62
7
  6
CONTINUOUS
 10
73.6116488937
 20
70.2033165896
 11
73.2158800415
 21
70.4318086737
  0
LINE
  5
237
100
AcDbEntity
  8
0
100
AcDbLine
 62
7
  6
CONTINUOUS
 10
72.1974294434
 20
71.0197980986
 11
72.5931982956
 21
70.7913060144
  0
LINE
  5
238
100
AcDbEntity
  8
0
100
AcDbLine
 62
7
  6
CONTINUOUS
 10
73.9046078575
 20
70.2546283959
 11
73.802565119
 21
70.3135414657
  0
LINE
  5
239
100
AcDbEntity
  8
0
100
AcDbLine
 62
7
  6
CONTINUOUS
 10
73.2158800415
 20
70.6522565904
 11
72.8264399816
 21
70.8770948273
  0
LINE
  5
23A
100
AcDbEntity
  8
0
100
AcDbLine
 62
7
  6
CONTINUOUS
 10
31.0847030262
 20
150.8653745448
 11
31.0847030262
 21
148.5628377285
  0
LINE
  5
23B
100
AcDbEntity
  8
0
100
AcDbLine
 62
7
  6
CONTINUOUS
 10
31.0847030262
 20
143.4188725006
 11
31.0847030262
 21
141.1163356843
  0
LINE
  5
23C
100
AcDbEntity
  8
0
100
AcDbLine
 62
7
  6
CONTINUOUS
 10
31.473613375
 20
133.155442867
 11
31.473613375
 21
130.8651535869
  0
LINE
  5
23D
100
AcDbEntity
  8
0
100
AcDbLine
 62
7
  6
CONTINUOUS
 10
31.473613375
 20
125.721188359
 11
31.473613375
 21
123.430899079
  0
LINE
  5
23E
100
AcDbEntity
  8
0
100
AcDbLine
 62
7
  6
CONTINUOUS
 10
31.473613375
 20
115.6822911404
 11
31.473613375
 21
113.3920018604
  0
LINE
  5
23F
100
AcDbEntity
  8
0
100
AcDbLine
 62
7
  6
CONTINUOUS
 10
31.473613375
 20
108.2480366324
 11
31.473613375
 21
105.9577473524
  0
LINE
  5
240
100
AcDbEntity
  8
0
100
AcDbLine
 62
7
  6
CONTINUOUS
 10
32.3716427259
 20
133.2942615545
 11
32.3716427259
 21
132.6369771087
  0
LINE
  5
241
100
AcDbEntity
  8
0
100
AcDbLine
 62
7
  6
CONTINUOUS
 10
32.3716427259
 20
122.9124333207
 11
32.3716427259
 21
122.2551488749
  0
LINE
  5
242
100
AcDbEntity
  8
0
100
AcDbLine
 62
7
  6
CONTINUOUS
 10
32.3716427259
 20
115.821109828
 11
32.3716427259
 21
115.1638253822
  0
LINE
  5
243
100
AcDbEntity
  8
0
100
AcDbLine
 62
7
  6
CONTINUOUS
 10
32.3716427259
 20
105.4392815942
 11
32.3716427259
 21
104.7819971484
  0
LINE
  5
244
100
AcDbEntity
  8
0
100
AcDbLine
 62
7
  6
CONTINUOUS
 10
34.3515499563
 20
103.6389230357
 11
34.3515499563
 21
104.2962074815
  0
LINE
  5
245
100
AcDbEntity
  8
0
100
AcDbLine
 62
7
  6
CONTINUOUS
 10
34.3515499563
 20
114.0207512695
 11
34.3515499563
 21
114.6780357153
  0
LINE
  5
246
100
AcDbEntity
  8
0
100
AcDbLine
 62
7
  6
CONTINUOUS
 10
34.3515499563
 20
121.1120747623
 11
34.3515499563
 21
121.7693592081
  0
LINE
  5
247
100
AcDbEntity
  8
0
100
AcDbLine
 62
7
  6
CONTINUOUS
 10
34.3515499563
 20
131.4939029961
 11
34.3515499563
 21
132.1511874419
  0
LINE
  5
248
100
AcDbEntity
  8
0
100
AcDbLine
 62
7
  6
CONTINUOUS
 10
35.9354757407
 20
138.3158041083
 11
35.9354757407
 21
148.0648429688
  0
LINE
  5
249
100
AcDbEntity
  8
0
100
AcDbLine
 62
7
  6
CONTINUOUS
 10
36.3031727978
 20
103.169462999
 11
36.3031727978
 21
112.894006787
  0
LINE
  5
24A
100
AcDbEntity
  8
0
100
AcDbLine
 62
7
  6
CONTINUOUS
 10
36.3031727978
 20
120.6426147256
 11
36.3031727978
 21
130.3671585136
  0
LINE
  5
24B
100
AcDbEntity
  8
0
100
AcDbLine
 62
7
  6
CONTINUOUS
 10
36.5834421219
 20
159.5995422523
 11
36.5834421219
 21
129.797204027
  0
LINE
  5
24C
100
AcDbEntity
  8
0
100
AcDbLine
 62
7
  6
CONTINUOUS
 10
37.1065048932
 20
159.2975586522
 11
37.1065048932
 21
129.495220427
  0
LINE
  5
24D
100
AcDbEntity
  8
0
100
AcDbLine
 62
7
  6
CONTINUOUS
 10
37.2577997776
 20
129.5711685627
 11
37.2577997776
 21
159.3735067879
  0
LINE
  5
24E
100
AcDbEntity
  8
0
100
AcDbLine
 62
7
  6
CONTINUOUS
 10
75.3449268911
 20
65.8467666772
 11
73.9046078575
 21
65.4535941832
  0
LINE
  5
24F
100
AcDbEntity
  8
0
100
AcDbLine
 62
7
  6
CONTINUOUS
 10
73.9046078575
 20
66.1067961169
 11
75.3449268911
 21
66.499968611
  0
LINE
  5
250
100
AcDbEntity
  8
0
100
AcDbLine
 62
7
  6
CONTINUOUS
 10
110.3022078896
 20
50.3510226542
 11
82.8285984632
 21
66.2125596162
  0
LINE
  5
251
100
AcDbEntity
  8
0
100
AcDbLine
 62
7
  6
CONTINUOUS
 10
68.163357451
 20
74.6793489179
 11
21.9134922462
 21
101.3811169692
  0
LINE
  5
252
100
AcDbEntity
  8
0
100
AcDbLine
 62
7
  6
CONTINUOUS
 10
75.3449268911
 20
70.64780089
 11
74.8632208749
 21
70.9259076965
  0
LINE
  5
253
100
AcDbEntity
  8
0
100
AcDbLine
 62
7
  6
CONTINUOUS
 10
72.1974294434
 20
74.2041575254
 11
72.5931982956
 21
73.9756654412
  0
LINE
  5
254
100
AcDbEntity
  8
0
100
AcDbLine
 62
7
  6
CONTINUOUS
 10
73.2158800415
 20
73.6161681005
 11
73.6116488937
 21
73.3876760164
  0
LINE
  5
255
100
AcDbEntity
  8
0
100
AcDbLine
 62
7
  6
CONTINUOUS
 10
72.4060246338
 20
74.4674761606
 11
73.9046078575
 21
73.6022883062
  0
LINE
  5
256
100
AcDbEntity
  8
0
100
AcDbLine
 62
7
  6
CONTINUOUS
 10
73.6116488937
 20
74.3511488686
 11
73.2158800415
 21
74.5796409528
  0
LINE
  5
257
100
AcDbEntity
  8
0
100
AcDbLine
 62
7
  6
CONTINUOUS
 10
72.1974294434
 20
75.1676303776
 11
72.5931982956
 21
74.9391382934
  0
LINE
  5
258
100
AcDbEntity
  8
0
100
AcDbLine
 62
7
  6
CONTINUOUS
 10
73.9046078575
 20
74.402460675
 11
73.802565119
 21
74.4613737447
  0
LINE
  5
259
100
AcDbEntity
  8
0
100
AcDbLine
 62
7
  6
CONTINUOUS
 10
73.2158800415
 20
74.8000888694
 11
72.8264399816
 21
75.0249271063
  0
LINE
  5
25A
100
AcDbEntity
  8
0
100
AcDbLine
 62
7
  6
CONTINUOUS
 10
75.3449268911
 20
74.795633169
 11
74.8632208749
 21
75.0737399755
  0
LINE
  5
25B
100
AcDbEntity
  8
0
100
AcDbLine
 62
7
  6
CONTINUOUS
 10
72.1974294434
 20
78.3519898044
 11
72.5931982956
 21
78.1234977202
  0
LINE
  5
25C
100
AcDbEntity
  8
0
100
AcDbLine
 62
7
  6
CONTINUOUS
 10
73.2158800415
 20
77.7640003796
 11
73.6116488937
 21
77.5355082954
  0
LINE
  5
25D
100
AcDbEntity
  8
0
100
AcDbLine
 62
7
  6
CONTINUOUS
 10
72.4060246338
 20
78.6153084396
 11
73.9046078575
 21
77.7501205852
  0
LINE
  5
25E
100
AcDbEntity
  8
0
100
AcDbLine
 62
7
  6
CONTINUOUS
 10
73.6116488937
 20
78.4989811476
 11
73.2158800415
 21
78.7274732318
  0
LINE
  5
25F
100
AcDbEntity
  8
0
100
AcDbLine
 62
7
  6
CONTINUOUS
 10
72.1974294434
 20
79.3154626566
 11
72.5931982956
 21
79.0869705724
  0
LINE
  5
260
100
AcDbEntity
  8
0
100
AcDbLine
 62
7
  6
CONTINUOUS
 10
89.0512806274
 20
69.8052053935
 11
89.7960288043
 21
69.3752345604
  0
LINE
  5
261
100
AcDbEntity
  8
0
100
AcDbLine
 62
7
  6
CONTINUOUS
 10
73.9046078575
 20
78.550292954
 11
73.802565119
 21
78.6092060237
  0
LINE
  5
262
100
AcDbEntity
  8
0
100
AcDbLine
 62
7
  6
CONTINUOUS
 10
73.2158800415
 20
78.9479211484
 11
72.8264399816
 21
79.1727593853
  0
LINE
  5
263
100
AcDbEntity
  8
0
100
AcDbLine
 62
7
  6
CONTINUOUS
 10
37.9860962988
 20
100.2423337177
 11
37.9860962988
 21
113.2247221501
  0
LINE
  5
264
100
AcDbEntity
  8
0
100
AcDbLine
 62
7
  6
CONTINUOUS
 10
37.9860962988
 20
117.7154854443
 11
37.9860962988
 21
125.9462315023
  0
LINE
  5
265
100
AcDbEntity
  8
0
100
AcDbLine
 62
7
  6
CONTINUOUS
 10
38.283108879
 20
158.6999074521
 11
38.283108879
 21
157.8017547933
  0
LINE
  5
266
100
AcDbEntity
  8
0
100
AcDbLine
 62
7
  6
CONTINUOUS
 10
38.283108879
 20
156.0870997173
 11
38.283108879
 21
155.1889470585
  0
LINE
  5
267
100
AcDbEntity
  8
0
100
AcDbLine
 62
7
  6
CONTINUOUS
 10
38.283108879
 20
153.4742919825
 11
38.283108879
 21
152.5761393237
  0
LINE
  5
268
100
AcDbEntity
  8
0
100
AcDbLine
 62
7
  6
CONTINUOUS
 10
38.283108879
 20
150.8614842477
 11
38.283108879
 21
149.9633315889
  0
LINE
  5
269
100
AcDbEntity
  8
0
100
AcDbLine
 62
7
  6
CONTINUOUS
 10
38.283108879
 20
148.2486765129
 11
38.283108879
 21
147.350523854
  0
LINE
  5
26A
100
AcDbEntity
  8
0
100
AcDbLine
 62
7
  6
CONTINUOUS
 10
38.283108879
 20
145.6358687781
 11
38.283108879
 21
144.7377161192
  0
LINE
  5
26B
100
AcDbEntity
  8
0
100
AcDbLine
 62
7
  6
CONTINUOUS
 10
38.283108879
 20
143.0230610433
 11
38.283108879
 21
142.1249083844
  0
LINE
  5
26C
100
AcDbEntity
  8
0
100
AcDbLine
 62
7
  6
CONTINUOUS
 10
38.283108879
 20
140.4102533084
 11
38.283108879
 21
139.5121006496
  0
LINE
  5
26D
100
AcDbEntity
  8
0
100
AcDbLine
 62
7
  6
CONTINUOUS
 10
38.283108879
 20
137.7974455736
 11
38.283108879
 21
136.8992929148
  0
LINE
  5
26E
100
AcDbEntity
  8
0
100
AcDbLine
 62
7
  6
CONTINUOUS
 10
38.283108879
 20
135.1846378388
 11
38.283108879
 21
134.28648518
  0
LINE
  5
26F
100
AcDbEntity
  8
0
100
AcDbLine
 62
7
  6
CONTINUOUS
 10
38.283108879
 20
132.571830104
 11
38.283108879
 21
131.6736774452
  0
LINE
  5
270
100
AcDbEntity
  8
0
100
AcDbLine
 62
7
  6
CONTINUOUS
 10
38.283108879
 20
129.9590223692
 11
38.283108879
 21
129.0608697103
  0
LINE
  5
271
100
AcDbEntity
  8
0
100
AcDbLine
 62
7
  6
CONTINUOUS
 10
38.7073711814
 20
158.454965039
 11
38.7073711814
 21
158.0467012856
  0
LINE
  5
272
100
AcDbEntity
  8
0
100
AcDbLine
 62
7
  6
CONTINUOUS
 10
38.7073711814
 20
155.8421573042
 11
38.7073711814
 21
155.4338935508
  0
LINE
  5
273
100
AcDbEntity
  8
0
100
AcDbLine
 62
7
  6
CONTINUOUS
 10
38.7073711814
 20
153.2293495694
 11
38.7073711814
 21
152.821085816
  0
LINE
  5
274
100
AcDbEntity
  8
0
100
AcDbLine
 62
7
  6
CONTINUOUS
 10
38.7073711814
 20
150.6165418346
 11
38.7073711814
 21
150.2082780812
  0
LINE
  5
275
100
AcDbEntity
  8
0
100
AcDbLine
 62
7
  6
CONTINUOUS
 10
38.7073711814
 20
148.0037340998
 11
38.7073711814
 21
147.5954703464
  0
LINE
  5
276
100
AcDbEntity
  8
0
100
AcDbLine
 62
7
  6
CONTINUOUS
 10
38.7073711814
 20
145.390926365
 11
38.7073711814
 21
144.9826626116
  0
LINE
  5
277
100
AcDbEntity
  8
0
100
AcDbLine
 62
7
  6
CONTINUOUS
 10
38.7073711814
 20
142.7781186301
 11
38.7073711814
 21
142.3698548767
  0
LINE
  5
278
100
AcDbEntity
  8
0
100
AcDbLine
 62
7
  6
CONTINUOUS
 10
38.7073711814
 20
140.1653108953
 11
38.7073711814
 21
139.7570471419
  0
LINE
  5
279
100
AcDbEntity
  8
0
100
AcDbLine
 62
7
  6
CONTINUOUS
 10
38.7073711814
 20
137.5525031605
 11
38.7073711814
 21
137.1442394071
  0
LINE
  5
27A
100
AcDbEntity
  8
0
100
AcDbLine
 62
7
  6
CONTINUOUS
 10
38.7073711814
 20
134.9396954257
 11
38.7073711814
 21
134.5314316723
  0
LINE
  5
27B
100
AcDbEntity
  8
0
100
AcDbLine
 62
7
  6
CONTINUOUS
 10
38.7073711814
 20
132.3268876909
 11
38.7073711814
 21
131.9186239375
  0
LINE
  5
27C
100
AcDbEntity
  8
0
100
AcDbLine
 62
7
  6
CONTINUOUS
 10
38.7073711814
 20
129.7140799561
 11
38.7073711814
 21
129.3058162027
  0
LINE
  5
27D
100
AcDbEntity
  8
0
100
AcDbLine
 62
7
  6
CONTINUOUS
 10
39.6973283293
 20
128.2443882013
 11
39.6973283293
 21
129.1425408601
  0
LINE
  5
27E
100
AcDbEntity
  8
0
100
AcDbLine
 62
7
  6
CONTINUOUS
 10
39.6973283293
 20
130.8571959361
 11
39.6973283293
 21
131.755348595
  0
LINE
  5
27F
100
AcDbEntity
  8
0
100
AcDbLine
 62
7
  6
CONTINUOUS
 10
39.6973283293
 20
133.4700036709
 11
39.6973283293
 21
134.3681563298
  0
LINE
  5
280
100
AcDbEntity
  8
0
100
AcDbLine
 62
7
  6
CONTINUOUS
 10
39.6973283293
 20
136.0828114057
 11
39.6973283293
 21
136.9809640646
  0
LINE
  5
281
100
AcDbEntity
  8
0
100
AcDbLine
 62
7
  6
CONTINUOUS
 10
39.6973283293
 20
138.6956191406
 11
39.6973283293
 21
139.5937717994
  0
LINE
  5
282
100
AcDbEntity
  8
0
100
AcDbLine
 62
7
  6
CONTINUOUS
 10
39.6973283293
 20
141.3084268754
 11
39.6973283293
 21
142.2065795342
  0
LINE
  5
283
100
AcDbEntity
  8
0
100
AcDbLine
 62
7
  6
CONTINUOUS
 10
39.6973283293
 20
143.9212346102
 11
39.6973283293
 21
144.819387269
  0
LINE
  5
284
100
AcDbEntity
  8
0
100
AcDbLine
 62
7
  6
CONTINUOUS
 10
39.6973283293
 20
146.534042345
 11
39.6973283293
 21
147.4321950038
  0
LINE
  5
285
100
AcDbEntity
  8
0
100
AcDbLine
 62
7
  6
CONTINUOUS
 10
39.6973283293
 20
149.1468500798
 11
39.6973283293
 21
150.0450027387
  0
LINE
  5
286
100
AcDbEntity
  8
0
100
AcDbLine
 62
7
  6
CONTINUOUS
 10
39.6973283293
 20
151.7596578146
 11
39.6973283293
 21
152.6578104735
  0
LINE
  5
287
100
AcDbEntity
  8
0
100
AcDbLine
 62
7
  6
CONTINUOUS
 10
39.6973283293
 20
154.3724655495
 11
39.6973283293
 21
155.2706182083
  0
LINE
  5
288
100
AcDbEntity
  8
0
100
AcDbLine
 62
7
  6
CONTINUOUS
 10
39.6973283293
 20
156.9852732843
 11
39.6973283293
 21
157.8834259431
  0
LINE
  5
289
100
AcDbEntity
  8
0
100
AcDbLine
 62
7
  6
CONTINUOUS
 10
37.4815361096
 20
161.7220291897
 11
40.6772868893
 21
163.8513118222
  0
LINE
  5
28A
100
AcDbEntity
  8
0
100
AcDbLine
 62
7
  6
CONTINUOUS
 10
39.9448179107
 20
161.5402889559
 11
43.2682059456
 21
163.6601545479
  0
LINE
  5
28B
100
AcDbEntity
  8
0
100
AcDbLine
 62
7
  6
CONTINUOUS
 10
75.3449268911
 20
69.8476285212
 11
73.9046078575
 21
69.4544560272
  0
LINE
  5
28C
100
AcDbEntity
  8
0
100
AcDbLine
 62
7
  6
CONTINUOUS
 10
73.9046078575
 20
70.2546283959
 11
75.3449268911
 21
70.64780089
  0
LINE
  5
28D
100
AcDbEntity
  8
0
100
AcDbLine
 62
7
  6
CONTINUOUS
 10
75.3449268911
 20
73.9954608002
 11
73.9046078575
 21
73.6022883062
  0
LINE
  5
28E
100
AcDbEntity
  8
0
100
AcDbLine
 62
7
  6
CONTINUOUS
 10
73.9046078575
 20
74.402460675
 11
75.3449268911
 21
74.795633169
  0
LINE
  5
28F
100
AcDbEntity
  8
0
100
AcDbLine
 62
7
  6
CONTINUOUS
 10
97.9011942596
 20
80.8207423789
 11
97.2673858417
 21
80.7638356691
  0
LINE
  5
290
100
AcDbEntity
  8
0
100
AcDbLine
 62
7
  6
CONTINUOUS
 10
28.4401150093
 20
105.7535839038
 11
37.9860962988
 21
100.2423337177
  0
LINE
  5
291
100
AcDbEntity
  8
0
100
AcDbLine
 62
7
  6
CONTINUOUS
 10
75.3449268911
 20
78.943465448
 11
74.8632208749
 21
79.2215722545
  0
LINE
  5
292
100
AcDbEntity
  8
0
100
AcDbLine
 62
7
  6
CONTINUOUS
 10
37.9860962988
 20
100.5689263214
 11
28.7229565442
 21
105.9168815653
  0
LINE
  5
293
100
AcDbEntity
  8
0
100
AcDbLine
 62
7
  6
CONTINUOUS
 10
32.3716427259
 20
104.7819971484
 11
34.3515499563
 21
103.6389230357
  0
LINE
  5
294
100
AcDbEntity
  8
0
100
AcDbLine
 62
7
  6
CONTINUOUS
 10
31.473613375
 20
105.9577473524
 11
32.3716427259
 21
105.4392815942
  0
LINE
  5
295
100
AcDbEntity
  8
0
100
AcDbLine
 62
7
  6
CONTINUOUS
 10
34.3515499563
 20
104.2962074815
 11
36.3031727978
 21
103.169462999
  0
LINE
  5
296
100
AcDbEntity
  8
0
100
AcDbLine
 62
7
  6
CONTINUOUS
 10
72.1974294434
 20
82.4998220834
 11
72.5931982956
 21
82.2713299993
  0
LINE
  5
297
100
AcDbEntity
  8
0
100
AcDbLine
 62
7
  6
CONTINUOUS
 10
73.2158800415
 20
81.9118326586
 11
73.6116488937
 21
81.6833405744
  0
LINE
  5
298
100
AcDbEntity
  8
0
100
AcDbLine
 62
7
  6
CONTINUOUS
 10
72.4060246338
 20
82.7631407187
 11
73.9046078575
 21
81.8979528642
  0
LINE
  5
299
100
AcDbEntity
  8
0
100
AcDbLine
 62
7
  6
CONTINUOUS
 10
73.6116488937
 20
82.6468134266
 11
73.2158800415
 21
82.8753055108
  0
LINE
  5
29A
100
AcDbEntity
  8
0
100
AcDbLine
 62
7
  6
CONTINUOUS
 10
72.1974294434
 20
83.4632949356
 11
72.5931982956
 21
83.2348028515
  0
LINE
  5
29B
100
AcDbEntity
  8
0
100
AcDbLine
 62
7
  6
CONTINUOUS
 10
73.9046078575
 20
82.698125233
 11
73.802565119
 21
82.7570383027
  0
LINE
  5
29C
100
AcDbEntity
  8
0
100
AcDbLine
 62
7
  6
CONTINUOUS
 10
73.2158800415
 20
83.0957534274
 11
72.8264399816
 21
83.3205916643
  0
LINE
  5
29D
100
AcDbEntity
  8
0
100
AcDbLine
 62
7
  6
CONTINUOUS
 10
29.2886443243
 20
109.5095005639
 11
31.473613375
 21
108.2480366324
  0
LINE
  5
29E
100
AcDbEntity
  8
0
100
AcDbLine
 62
7
  6
CONTINUOUS
 10
75.3449268911
 20
83.091297727
 11
74.8632208749
 21
83.3694045335
  0
LINE
  5
29F
100
AcDbEntity
  8
0
100
AcDbLine
 62
7
  6
CONTINUOUS
 10
72.1974294434
 20
86.6476543625
 11
72.5931982956
 21
86.4191622783
  0
LINE
  5
2A0
100
AcDbEntity
  8
0
100
AcDbLine
 62
7
  6
CONTINUOUS
 10
73.2158800415
 20
86.0596649376
 11
73.6116488937
 21
85.8311728534
  0
LINE
  5
2A1
100
AcDbEntity
  8
0
100
AcDbLine
 62
7
  6
CONTINUOUS
 10
73.9046078575
 20
86.0457851432
 11
72.4060246338
 21
86.9109729977
  0
LINE
  5
2A2
100
AcDbEntity
  8
0
100
AcDbLine
 62
7
  6
CONTINUOUS
 10
72.4060246338
 20
87.5641749314
 11
73.9046078575
 21
86.6989870769
  0
LINE
  5
2A3
100
AcDbEntity
  8
0
100
AcDbLine
 62
7
  6
CONTINUOUS
 10
98.3403444284
 20
62.9400682517
 11
100.3116913505
 21
61.1903870903
  0
LINE
  5
2A4
100
AcDbEntity
  8
0
100
AcDbLine
 62
7
  6
CONTINUOUS
 10
45.5556557697
 20
120.3632209882
 11
45.5556557697
 21
112.2552226023
  0
LINE
  5
2A5
100
AcDbEntity
  8
0
100
AcDbLine
 62
7
  6
CONTINUOUS
 10
46.2133798635
 20
119.2240157645
 11
46.2133798635
 21
112.634970642
  0
LINE
  5
2A6
100
AcDbEntity
  8
0
100
AcDbLine
 62
7
  6
CONTINUOUS
 10
46.8136563616
 20
120.6135093492
 11
46.8136563616
 21
156.9706702758
  0
LINE
  5
2A7
100
AcDbEntity
  8
0
100
AcDbLine
 62
7
  6
CONTINUOUS
 10
46.9451765164
 20
118.801522328
 11
46.9451765164
 21
113.0574716073
  0
LINE
  5
2A8
100
AcDbEntity
  8
0
100
AcDbLine
 62
7
  6
CONTINUOUS
 10
47.4899094713
 20
157.1842268597
 11
47.4899094713
 21
119.6191006007
  0
LINE
  5
2A9
100
AcDbEntity
  8
0
100
AcDbLine
 62
7
  6
CONTINUOUS
 10
47.6184730366
 20
129.6452201667
 11
47.6184730366
 21
119.4271571677
  0
LINE
  5
2AA
100
AcDbEntity
  8
0
100
AcDbLine
 62
7
  6
CONTINUOUS
 10
47.6184730366
 20
131.5659668046
 11
47.6184730366
 21
157.1342752456
  0
LINE
  5
2AB
100
AcDbEntity
  8
0
100
AcDbLine
 62
7
  6
CONTINUOUS
 10
47.6219072394
 20
117.8307026328
 11
47.6219072394
 21
116.4033695557
  0
LINE
  5
2AC
100
AcDbEntity
  8
0
100
AcDbLine
 62
7
  6
CONTINUOUS
 10
47.9596785473
 20
131.3689761676
 11
47.9596785473
 21
129.8735867157
  0
LINE
  5
2AD
100
AcDbEntity
  8
0
100
AcDbLine
 62
7
  6
CONTINUOUS
 10
48.7129684931
 20
157.8551180992
 11
48.7129684931
 21
157.9388727775
  0
LINE
  5
2AE
100
AcDbEntity
  8
0
100
AcDbLine
 62
7
  6
CONTINUOUS
 10
49.0912043955
 20
110.9734954614
 11
49.0912043955
 21
117.5625405838
  0
LINE
  5
2AF
100
AcDbEntity
  8
0
100
AcDbLine
 62
7
  6
CONTINUOUS
 10
49.7489284892
 20
109.8342902377
 11
49.7489284892
 21
117.9422886236
  0
LINE
  5
2B0
100
AcDbEntity
  8
0
100
AcDbLine
 62
7
  6
CONTINUOUS
 10
50.4807251421
 20
117.7746725283
 11
50.4807251421
 21
110.1997654176
  0
LINE
  5
2B1
100
AcDbEntity
  8
0
100
AcDbLine
 62
7
  6
CONTINUOUS
 10
48.7129684931
 20
157.9388727775
 11
47.4899094713
 21
157.1842268597
  0
LINE
  5
2B2
100
AcDbEntity
  8
0
100
AcDbLine
 62
7
  6
CONTINUOUS
 10
38.283108879
 20
157.8017547933
 11
38.7073711814
 21
158.0467012856
  0
LINE
  5
2B3
100
AcDbEntity
  8
0
100
AcDbLine
 62
7
  6
CONTINUOUS
 10
38.283108879
 20
155.1889470585
 11
38.7073711814
 21
155.4338935508
  0
LINE
  5
2B4
100
AcDbEntity
  8
0
100
AcDbLine
 62
7
  6
CONTINUOUS
 10
30.6993418504
 20
148.7853210738
 11
29.9109008824
 21
148.3301171859
  0
LINE
  5
2B5
100
AcDbEntity
  8
0
100
AcDbLine
 62
7
  6
CONTINUOUS
 10
31.0847030262
 20
148.5628377285
 11
33.0787869093
 21
149.714115723
  0
LINE
  5
2B6
100
AcDbEntity
  8
0
100
AcDbLine
 62
7
  6
CONTINUOUS
 10
38.283108879
 20
152.5761393237
 11
38.7073711814
 21
152.821085816
  0
LINE
  5
2B7
100
AcDbEntity
  8
0
100
AcDbLine
 62
7
  6
CONTINUOUS
 10
28.8785206837
 20
145.6029838498
 11
34.5390318485
 21
148.8710619867
  0
LINE
  5
2B8
100
AcDbEntity
  8
0
100
AcDbLine
 62
7
  6
CONTINUOUS
 10
37.1065048932
 20
159.2975586522
 11
37.2542251644
 21
159.3799182206
  0
LINE
  5
2B9
100
AcDbEntity
  8
0
100
AcDbLine
 62
7
  6
CONTINUOUS
 10
75.3449268911
 20
78.1432930792
 11
73.9046078575
 21
77.7501205852
  0
LINE
  5
2BA
100
AcDbEntity
  8
0
100
AcDbLine
 62
7
  6
CONTINUOUS
 10
73.9046078575
 20
78.550292954
 11
75.3449268911
 21
78.943465448
  0
LINE
  5
2BB
100
AcDbEntity
  8
0
100
AcDbLine
 62
7
  6
CONTINUOUS
 10
75.3449268911
 20
82.2911253582
 11
73.9046078575
 21
81.8979528642
  0
LINE
  5
2BC
100
AcDbEntity
  8
0
100
AcDbLine
 62
7
  6
CONTINUOUS
 10
99.2746361739
 20
82.2016780588
 11
101.245983096
 21
81.6750953639
  0
LINE
  5
2BD
100
AcDbEntity
  8
0
100
AcDbLine
 62
7
  6
CONTINUOUS
 10
100.3286619839
 20
86.1474045847
 11
98.3573150618
 21
86.6739872797
  0
LINE
  5
2BE
100
AcDbEntity
  8
0
100
AcDbLine
 62
7
  6
CONTINUOUS
 10
100.7437753547
 20
80.0591148222
 11
97.9011942596
 21
80.8207423789
  0
LINE
  5
2BF
100
AcDbEntity
  8
0
100
AcDbLine
 62
7
  6
CONTINUOUS
 10
101.6753488862
 20
81.9229883387
 11
103.2440945231
 21
81.5026661503
  0
LINE
  5
2C0
100
AcDbEntity
  8
0
100
AcDbLine
 62
7
  6
CONTINUOUS
 10
68.163357451
 20
91.2383468211
 11
70.2846866265
 21
90.0136245575
  0
LINE
  5
2C1
100
AcDbEntity
  8
0
100
AcDbLine
 62
7
  6
CONTINUOUS
 10
70.5675305165
 20
89.8503282557
 11
73.4666803896
 21
88.1765411622
  0
LINE
  5
2C2
100
AcDbEntity
  8
0
100
AcDbLine
 62
7
  6
CONTINUOUS
 10
75.3449268911
 20
87.092159571
 11
78.5578704107
 21
85.2372077297
  0
LINE
  5
2C3
100
AcDbEntity
  8
0
100
AcDbLine
 62
7
  6
CONTINUOUS
 10
68.7290405208
 20
91.5649421442
 11
69.7897051085
 21
90.9525810124
  0
LINE
  5
2C4
100
AcDbEntity
  8
0
100
AcDbLine
 62
7
  6
CONTINUOUS
 10
31.473613375
 20
113.3920018604
 11
29.2886443243
 21
114.6534657918
  0
LINE
  5
2C5
100
AcDbEntity
  8
0
100
AcDbLine
 62
7
  6
CONTINUOUS
 10
36.3031727978
 20
112.894006787
 11
34.3515499563
 21
114.0207512695
  0
LINE
  5
2C6
100
AcDbEntity
  8
0
100
AcDbLine
 62
7
  6
CONTINUOUS
 10
32.3716427259
 20
115.1638253822
 11
31.473613375
 21
115.6822911404
  0
LINE
  5
2C7
100
AcDbEntity
  8
0
100
AcDbLine
 62
7
  6
CONTINUOUS
 10
34.3515499563
 20
114.6780357153
 11
32.3716427259
 21
115.821109828
  0
LINE
  5
2C8
100
AcDbEntity
  8
0
100
AcDbLine
 62
7
  6
CONTINUOUS
 10
37.9860962988
 20
113.2247221501
 11
28.4401150093
 21
118.7359723361
  0
LINE
  5
2C9
100
AcDbEntity
  8
0
100
AcDbLine
 62
7
  6
CONTINUOUS
 10
45.5556557697
 20
112.2552226023
 11
49.7489284892
 21
109.8342902377
  0
LINE
  5
2CA
100
AcDbEntity
  8
0
100
AcDbLine
 62
7
  6
CONTINUOUS
 10
97.9011942596
 20
69.2513997266
 11
100.7437753547
 21
66.730771617
  0
LINE
  5
2CB
100
AcDbEntity
  8
0
100
AcDbLine
 62
7
  6
CONTINUOUS
 10
101.2290124626
 20
64.6034890916
 11
99.2576655405
 21
66.353170253
  0
LINE
  5
2CC
100
AcDbEntity
  8
0
100
AcDbLine
 62
7
  6
CONTINUOUS
 10
102.8486990771
 20
66.7913611057
 11
103.7038758929
 21
66.0323436301
  0
LINE
  5
2CD
100
AcDbEntity
  8
0
100
AcDbLine
 62
7
  6
CONTINUOUS
 10
52.5100441727
 20
146.7690790598
 11
52.5100441727
 21
145.2218355872
  0
LINE
  5
2CE
100
AcDbEntity
  8
0
100
AcDbLine
 62
7
  6
CONTINUOUS
 10
53.8255224537
 20
144.4623610292
 11
53.8255224537
 21
146.0096045009
  0
LINE
  5
2CF
100
AcDbEntity
  8
0
100
AcDbLine
 62
7
  6
CONTINUOUS
 10
55.6021906275
 20
144.0818247977
 11
55.6021906275
 21
147.9670835193
  0
LINE
  5
2D0
100
AcDbEntity
  8
0
100
AcDbLine
 62
7
  6
CONTINUOUS
 10
56.6562329175
 20
147.8824000206
 11
56.6562329175
 21
126.3481317476
  0
LINE
  5
2D1
100
AcDbEntity
  8
0
100
AcDbLine
 62
7
  6
CONTINUOUS
 10
56.6562329175
 20
118.2433622788
 11
56.6562329175
 21
124.4273851098
  0
LINE
  5
2D2
100
AcDbEntity
  8
0
100
AcDbLine
 62
7
  6
CONTINUOUS
 10
57.022131244
 20
124.6414955775
 11
57.022131244
 21
126.5280093525
  0
LINE
  5
2D3
100
AcDbEntity
  8
0
100
AcDbLine
 62
7
  6
CONTINUOUS
 10
57.9002645557
 20
118.9131297961
 11
57.9002645557
 21
148.5521675379
  0
LINE
  5
2D4
100
AcDbEntity
  8
0
100
AcDbLine
 62
7
  6
CONTINUOUS
 10
56.5972242646
 20
155.9648163252
 11
54.4757363506
 21
154.6116786325
  0
LINE
  5
2D5
100
AcDbEntity
  8
0
100
AcDbLine
 62
7
  6
CONTINUOUS
 10
54.364716695
 20
154.6758820711
 11
53.1626620785
 21
153.9334086231
  0
LINE
  5
2D6
100
AcDbEntity
  8
0
100
AcDbLine
 62
7
  6
CONTINUOUS
 10
38.283108879
 20
149.9633315889
 11
38.7073711814
 21
150.2082780812
  0
LINE
  5
2D7
100
AcDbEntity
  8
0
100
AcDbLine
 62
7
  6
CONTINUOUS
 10
29.9109008824
 20
145.0069523482
 11
35.5714120472
 21
148.2750304851
  0
LINE
  5
2D8
100
AcDbEntity
  8
0
100
AcDbLine
 62
7
  6
CONTINUOUS
 10
35.9354757407
 20
147.5748213068
 11
29.9109008824
 21
144.0965521531
  0
LINE
  5
2D9
100
AcDbEntity
  8
0
100
AcDbLine
 62
7
  6
CONTINUOUS
 10
35.9354757407
 20
146.2194507159
 11
31.0847030262
 21
143.4188725006
  0
LINE
  5
2DA
100
AcDbEntity
  8
0
100
AcDbLine
 62
7
  6
CONTINUOUS
 10
38.283108879
 20
147.350523854
 11
38.7073711814
 21
147.5954703464
  0
LINE
  5
2DB
100
AcDbEntity
  8
0
100
AcDbLine
 62
7
  6
CONTINUOUS
 10
28.7158854469
 20
140.7447920634
 11
28.433043912
 21
140.5814944019
  0
LINE
  5
2DC
100
AcDbEntity
  8
0
100
AcDbLine
 62
7
  6
CONTINUOUS
 10
31.0847030262
 20
141.1163356843
 11
35.9354757407
 21
143.9169138996
  0
LINE
  5
2DD
100
AcDbEntity
  8
0
100
AcDbLine
 62
7
  6
CONTINUOUS
 10
38.283108879
 20
144.7377161192
 11
38.7073711814
 21
144.9826626116
  0
LINE
  5
2DE
100
AcDbEntity
  8
0
100
AcDbLine
 62
7
  6
CONTINUOUS
 10
73.9046078575
 20
82.698125233
 11
75.3449268911
 21
83.091297727
  0
LINE
  5
2DF
100
AcDbEntity
  8
0
100
AcDbLine
 62
7
  6
CONTINUOUS
 10
75.3449268911
 20
86.4389576373
 11
73.9046078575
 21
86.0457851432
  0
LINE
  5
2E0
100
AcDbEntity
  8
0
100
AcDbLine
 62
7
  6
CONTINUOUS
 10
73.9046078575
 20
86.6989870769
 11
75.3449268911
 21
87.092159571
  0
LINE
  5
2E1
100
AcDbEntity
  8
0
100
AcDbLine
 62
7
  6
CONTINUOUS
 10
84.7980240619
 20
94.0695482258
 11
83.832097158
 21
94.2189730132
  0
LINE
  5
2E2
100
AcDbEntity
  8
0
100
AcDbLine
 62
7
  6
CONTINUOUS
 10
100.832178492
 20
88.1028418182
 11
102.8035254141
 21
87.5762591233
  0
LINE
  5
2E3
100
AcDbEntity
  8
0
100
AcDbLine
 62
7
  6
CONTINUOUS
 10
46.2133798635
 20
112.634970642
 11
49.0912043955
 21
110.9734954614
  0
LINE
  5
2E4
100
AcDbEntity
  8
0
100
AcDbLine
 62
7
  6
CONTINUOUS
 10
28.4401150093
 20
123.2267356303
 11
37.9860962988
 21
117.7154854443
  0
LINE
  5
2E5
100
AcDbEntity
  8
0
100
AcDbLine
 62
7
  6
CONTINUOUS
 10
37.9860962988
 20
118.0420780479
 11
28.7229565442
 21
123.3900332919
  0
LINE
  5
2E6
100
AcDbEntity
  8
0
100
AcDbLine
 62
7
  6
CONTINUOUS
 10
46.9451765164
 20
113.0574716073
 11
49.0912043955
 21
111.8184898632
  0
LINE
  5
2E7
100
AcDbEntity
  8
0
100
AcDbLine
 62
7
  6
CONTINUOUS
 10
32.3716427259
 20
122.2551488749
 11
34.3515499563
 21
121.1120747623
  0
LINE
  5
2E8
100
AcDbEntity
  8
0
100
AcDbLine
 62
7
  6
CONTINUOUS
 10
31.473613375
 20
123.430899079
 11
32.3716427259
 21
122.9124333207
  0
LINE
  5
2E9
100
AcDbEntity
  8
0
100
AcDbLine
 62
7
  6
CONTINUOUS
 10
34.3515499563
 20
121.7693592081
 11
36.3031727978
 21
120.6426147256
  0
LINE
  5
2EA
100
AcDbEntity
  8
0
100
AcDbLine
 62
7
  6
CONTINUOUS
 10
83.832097158
 20
94.2189730132
 11
79.6396615609
 21
96.6394220758
  0
LINE
  5
2EB
100
AcDbEntity
  8
0
100
AcDbLine
 62
7
  6
CONTINUOUS
 10
89.4609424032
 20
91.1654782352
 11
87.9756311928
 21
92.0230036625
  0
LINE
  5
2EC
100
AcDbEntity
  8
0
100
AcDbLine
 62
7
  6
CONTINUOUS
 10
87.9756311928
 20
92.2349973965
 11
84.7980240619
 21
94.0695482258
  0
LINE
  5
2ED
100
AcDbEntity
  8
0
100
AcDbLine
 62
7
  6
CONTINUOUS
 10
87.9756311928
 20
92.5945553545
 11
89.4609424032
 21
91.7370299272
  0
LINE
  5
2EE
100
AcDbEntity
  8
0
100
AcDbLine
 62
7
  6
CONTINUOUS
 10
89.4079091738
 20
91.8901233463
 11
89.043492812
 21
92.1005144712
  0
LINE
  5
2EF
100
AcDbEntity
  8
0
100
AcDbLine
 62
7
  6
CONTINUOUS
 10
88.3581060853
 20
92.4962137304
 11
87.9936897235
 21
92.7066048554
  0
LINE
  5
2F0
100
AcDbEntity
  8
0
100
AcDbLine
 62
7
  6
CONTINUOUS
 10
87.9936897235
 20
92.7879582026
 11
84.0684400306
 21
95.0541509013
  0
LINE
  5
2F1
100
AcDbEntity
  8
0
100
AcDbLine
 62
7
  6
CONTINUOUS
 10
29.2886443243
 20
126.9826522905
 11
31.473613375
 21
125.721188359
  0
LINE
  5
2F2
100
AcDbEntity
  8
0
100
AcDbLine
 62
7
  6
CONTINUOUS
 10
49.0912043955
 20
115.5550896377
 11
47.6219072394
 21
116.4033695557
  0
LINE
  5
2F3
100
AcDbEntity
  8
0
100
AcDbLine
 62
7
  6
CONTINUOUS
 10
87.9936897235
 20
93.1961989571
 11
84.3237822651
 21
95.3149730831
  0
LINE
  5
2F4
100
AcDbEntity
  8
0
100
AcDbLine
 62
7
  6
CONTINUOUS
 10
94.4107016473
 20
89.5325203161
 11
93.1379041421
 21
90.2673536742
  0
LINE
  5
2F5
100
AcDbEntity
  8
0
100
AcDbLine
 62
7
  6
CONTINUOUS
 10
92.796482197
 20
90.4644692668
 11
90.521598159
 21
91.777844466
  0
LINE
  5
2F6
100
AcDbEntity
  8
0
100
AcDbLine
 62
7
  6
CONTINUOUS
 10
87.9936897235
 20
93.2373000644
 11
86.0668068906
 21
94.3497612194
  0
LINE
  5
2F7
100
AcDbEntity
  8
0
100
AcDbLine
 62
7
  6
CONTINUOUS
 10
90.521598159
 20
92.349396158
 11
90.362496638
 21
92.4412513859
  0
LINE
  5
2F8
100
AcDbEntity
  8
0
100
AcDbLine
 62
7
  6
CONTINUOUS
 10
47.6219072394
 20
117.8307026328
 11
49.0912043955
 21
116.9824227149
  0
LINE
  5
2F9
100
AcDbEntity
  8
0
100
AcDbLine
 62
7
  6
CONTINUOUS
 10
49.0912043955
 20
117.0772113747
 11
47.6721326905
 21
117.8964942709
  0
LINE
  5
2FA
100
AcDbEntity
  8
0
100
AcDbLine
 62
7
  6
CONTINUOUS
 10
89.4079091738
 20
94.1763301143
 11
89.043492812
 21
94.3867212392
  0
LINE
  5
2FB
100
AcDbEntity
  8
0
100
AcDbLine
 62
7
  6
CONTINUOUS
 10
88.3581060853
 20
94.7824204984
 11
87.9936897235
 21
94.9928116233
  0
LINE
  5
2FC
100
AcDbEntity
  8
0
100
AcDbLine
 62
7
  6
CONTINUOUS
 10
49.0912043955
 20
117.5625405838
 11
46.2133798635
 21
119.2240157645
  0
LINE
  5
2FD
100
AcDbEntity
  8
0
100
AcDbLine
 62
7
  6
CONTINUOUS
 10
89.4609424032
 20
94.2681874203
 11
87.9756311928
 21
95.1257128476
  0
LINE
  5
2FE
100
AcDbEntity
  8
0
100
AcDbLine
 62
7
  6
CONTINUOUS
 10
89.4609424032
 20
94.8479041364
 11
87.9756311928
 21
95.7054295638
  0
LINE
  5
2FF
100
AcDbEntity
  8
0
100
AcDbLine
 62
7
  6
CONTINUOUS
 10
89.4079091738
 20
95.0009975556
 11
89.043492812
 21
95.2113886805
  0
LINE
  5
300
100
AcDbEntity
  8
0
100
AcDbLine
 62
7
  6
CONTINUOUS
 10
88.3581060853
 20
95.6070879397
 11
87.9936897235
 21
95.8174790646
  0
LINE
  5
301
100
AcDbEntity
  8
0
100
AcDbLine
 62
7
  6
CONTINUOUS
 10
49.7489284892
 20
117.9422886236
 11
45.5556557697
 21
120.3632209882
  0
LINE
  5
302
100
AcDbEntity
  8
0
100
AcDbLine
 62
7
  6
CONTINUOUS
 10
53.1626620785
 20
116.2262905452
 11
47.6184730366
 21
119.4271571677
  0
LINE
  5
303
100
AcDbEntity
  8
0
100
AcDbLine
 62
7
  6
CONTINUOUS
 10
90.4685649296
 20
94.7886963451
 11
90.4155298674
 21
94.8193154599
  0
LINE
  5
304
100
AcDbEntity
  8
0
100
AcDbLine
 62
7
  6
CONTINUOUS
 10
39.9448179107
 20
123.975162697
 11
47.4899094713
 21
119.6191006007
  0
LINE
  5
305
100
AcDbEntity
  8
0
100
AcDbLine
 62
7
  6
CONTINUOUS
 10
60.1327728904
 20
149.841100467
 11
60.1327728904
 21
120.0387622417
  0
LINE
  5
306
100
AcDbEntity
  8
0
100
AcDbLine
 62
7
  6
CONTINUOUS
 10
53.1926920852
 20
147.9935853408
 11
54.3338957787
 21
148.6992758179
  0
LINE
  5
307
100
AcDbEntity
  8
0
100
AcDbLine
 62
7
  6
CONTINUOUS
 10
38.283108879
 20
142.1249083844
 11
38.7073711814
 21
142.3698548767
  0
LINE
  5
308
100
AcDbEntity
  8
0
100
AcDbLine
 62
7
  6
CONTINUOUS
 10
38.283108879
 20
139.5121006496
 11
38.7073711814
 21
139.7570471419
  0
LINE
  5
309
100
AcDbEntity
  8
0
100
AcDbLine
 62
7
  6
CONTINUOUS
 10
54.5324128578
 20
147.2201003625
 11
55.6021906275
 21
147.8377335252
  0
LINE
  5
30A
100
AcDbEntity
  8
0
100
AcDbLine
 62
7
  6
CONTINUOUS
 10
38.283108879
 20
136.8992929148
 11
38.7073711814
 21
137.1442394071
  0
LINE
  5
30B
100
AcDbEntity
  8
0
100
AcDbLine
 62
7
  6
CONTINUOUS
 10
32.9408758912
 20
132.9656220682
 11
32.3716427259
 21
132.6369771087
  0
LINE
  5
30C
100
AcDbEntity
  8
0
100
AcDbLine
 62
7
  6
CONTINUOUS
 10
31.473613375
 20
130.8651535869
 11
34.0263235942
 21
132.3389527218
  0
LINE
  5
30D
100
AcDbEntity
  8
0
100
AcDbLine
 62
7
  6
CONTINUOUS
 10
38.283108879
 20
134.28648518
 11
38.7073711814
 21
134.5314316723
  0
LINE
  5
30E
100
AcDbEntity
  8
0
100
AcDbLine
 62
7
  6
CONTINUOUS
 10
56.6562329175
 20
147.8824000206
 11
57.9002645557
 21
148.5521675379
  0
LINE
  5
30F
100
AcDbEntity
  8
0
100
AcDbLine
 62
7
  6
CONTINUOUS
 10
60.1327728904
 20
149.8411004669
 11
57.9001713177
 21
148.6804162081
  0
LINE
  5
310
100
AcDbEntity
  8
0
100
AcDbLine
 62
7
  6
CONTINUOUS
 10
39.9448179107
 20
124.5791453631
 11
46.8136563616
 21
120.6135093492
  0
LINE
  5
311
100
AcDbEntity
  8
0
100
AcDbLine
 62
7
  6
CONTINUOUS
 10
90.521598159
 20
95.4602703672
 11
90.362496638
 21
95.5521255952
  0
LINE
  5
312
100
AcDbEntity
  8
0
100
AcDbLine
 62
7
  6
CONTINUOUS
 10
46.8136563616
 20
120.7882073332
 11
40.0862386782
 21
124.6721958761
  0
LINE
  5
313
100
AcDbEntity
  8
0
100
AcDbLine
 62
7
  6
CONTINUOUS
 10
89.4079091738
 20
97.2872043235
 11
89.043492812
 21
97.4975954484
  0
LINE
  5
314
100
AcDbEntity
  8
0
100
AcDbLine
 62
7
  6
CONTINUOUS
 10
88.3581060853
 20
97.8932947077
 11
87.9936897235
 21
98.1036858326
  0
LINE
  5
315
100
AcDbEntity
  8
0
100
AcDbLine
 62
7
  6
CONTINUOUS
 10
89.4609424032
 20
97.3790616295
 11
87.9756311928
 21
98.2365870569
  0
LINE
  5
316
100
AcDbEntity
  8
0
100
AcDbLine
 62
7
  6
CONTINUOUS
 10
31.473613375
 20
130.8651535869
 11
29.2886443243
 21
132.1266175184
  0
LINE
  5
317
100
AcDbEntity
  8
0
100
AcDbLine
 62
7
  6
CONTINUOUS
 10
89.4609424032
 20
97.9587783457
 11
87.9756311928
 21
98.816303773
  0
LINE
  5
318
100
AcDbEntity
  8
0
100
AcDbLine
 62
7
  6
CONTINUOUS
 10
89.4079091738
 20
98.1118717648
 11
89.043492812
 21
98.3222628897
  0
LINE
  5
319
100
AcDbEntity
  8
0
100
AcDbLine
 62
7
  6
CONTINUOUS
 10
88.3581060853
 20
98.717962149
 11
87.9936897235
 21
98.9283532739
  0
LINE
  5
31A
100
AcDbEntity
  8
0
100
AcDbLine
 62
7
  6
CONTINUOUS
 10
90.4685649296
 20
97.8995705543
 11
90.4155298674
 21
97.9301896691
  0
LINE
  5
31B
100
AcDbEntity
  8
0
100
AcDbLine
 62
7
  6
CONTINUOUS
 10
90.521598159
 20
98.5711445765
 11
90.362496638
 21
98.6629998044
  0
LINE
  5
31C
100
AcDbEntity
  8
0
100
AcDbLine
 62
7
  6
CONTINUOUS
 10
38.283108879
 20
129.0608697103
 11
39.6973283293
 21
128.2443882013
  0
LINE
  5
31D
100
AcDbEntity
  8
0
100
AcDbLine
 62
7
  6
CONTINUOUS
 10
36.3031727978
 20
130.3671585136
 11
34.3515499563
 21
131.4939029961
  0
LINE
  5
31E
100
AcDbEntity
  8
0
100
AcDbLine
 62
7
  6
CONTINUOUS
 10
32.3716427259
 20
132.6369771087
 11
31.473613375
 21
133.155442867
  0
LINE
  5
31F
100
AcDbEntity
  8
0
100
AcDbLine
 62
7
  6
CONTINUOUS
 10
39.6973283293
 20
128.7342771067
 11
38.7073711814
 21
129.3058162027
  0
LINE
  5
320
100
AcDbEntity
  8
0
100
AcDbLine
 62
7
  6
CONTINUOUS
 10
34.3515499563
 20
132.1511874419
 11
32.3716427259
 21
133.2942615545
  0
LINE
  5
321
100
AcDbEntity
  8
0
100
AcDbLine
 62
7
  6
CONTINUOUS
 10
89.4079091738
 20
100.3980785328
 11
89.043492812
 21
100.6084696577
  0
LINE
  5
322
100
AcDbEntity
  8
0
100
AcDbLine
 62
7
  6
CONTINUOUS
 10
88.3581060853
 20
101.0041689169
 11
87.9936897235
 21
101.2145600418
  0
LINE
  5
323
100
AcDbEntity
  8
0
100
AcDbLine
 62
7
  6
CONTINUOUS
 10
39.6973283293
 20
129.1425408601
 11
38.283108879
 21
129.9590223692
  0
LINE
  5
324
100
AcDbEntity
  8
0
100
AcDbLine
 62
7
  6
CONTINUOUS
 10
89.4609424032
 20
100.4899358388
 11
87.9756311928
 21
101.3474612661
  0
LINE
  5
325
100
AcDbEntity
  8
0
100
AcDbLine
 62
7
  6
CONTINUOUS
 10
36.5834421219
 20
131.5076783231
 11
28.4401150093
 21
136.2091240627
  0
LINE
  5
326
100
AcDbEntity
  8
0
100
AcDbLine
 62
7
  6
CONTINUOUS
 10
89.4609424032
 20
101.0696525549
 11
87.9756311928
 21
101.9271779823
  0
LINE
  5
327
100
AcDbEntity
  8
0
100
AcDbLine
 62
7
  6
CONTINUOUS
 10
89.4079091738
 20
101.2227459741
 11
89.043492812
 21
101.433137099
  0
LINE
  5
328
100
AcDbEntity
  8
0
100
AcDbLine
 62
7
  6
CONTINUOUS
 10
88.3581060853
 20
101.8288363582
 11
87.9936897235
 21
102.0392274831
  0
LINE
  5
329
100
AcDbEntity
  8
0
100
AcDbLine
 62
7
  6
CONTINUOUS
 10
90.4685649296
 20
101.0104447636
 11
90.4155298674
 21
101.0410638784
  0
LINE
  5
32A
100
AcDbEntity
  8
0
100
AcDbLine
 62
7
  6
CONTINUOUS
 10
38.283108879
 20
131.6736774452
 11
39.6973283293
 21
130.8571959361
  0
LINE
  5
32B
100
AcDbEntity
  8
0
100
AcDbLine
 62
7
  6
CONTINUOUS
 10
90.521598159
 20
101.6820187858
 11
90.362496638
 21
101.7738740137
  0
LINE
  5
32C
100
AcDbEntity
  8
0
100
AcDbLine
 62
7
  6
CONTINUOUS
 10
39.6973283293
 20
131.3470848416
 11
38.7073711814
 21
131.9186239375
  0
LINE
  5
32D
100
AcDbEntity
  8
0
100
AcDbLine
 62
7
  6
CONTINUOUS
 10
39.6973283293
 20
131.755348595
 11
38.283108879
 21
132.571830104
  0
LINE
  5
32E
100
AcDbEntity
  8
0
100
AcDbLine
 62
7
  6
CONTINUOUS
 10
89.4079091738
 20
103.5089527421
 11
89.043492812
 21
103.719343867
  0
LINE
  5
32F
100
AcDbEntity
  8
0
100
AcDbLine
 62
7
  6
CONTINUOUS
 10
88.3581060853
 20
104.1150431262
 11
87.9936897235
 21
104.3254342511
  0
LINE
  5
330
100
AcDbEntity
  8
0
100
AcDbLine
 62
7
  6
CONTINUOUS
 10
89.4609424032
 20
103.600810048
 11
87.9756311928
 21
104.4583354754
  0
LINE
  5
331
100
AcDbEntity
  8
0
100
AcDbLine
 62
7
  6
CONTINUOUS
 10
89.4609424032
 20
104.1805267642
 11
87.9756311928
 21
105.0380521916
  0
LINE
  5
332
100
AcDbEntity
  8
0
100
AcDbLine
 62
7
  6
CONTINUOUS
 10
89.4079091738
 20
104.3336201834
 11
89.043492812
 21
104.5440113083
  0
LINE
  5
333
100
AcDbEntity
  8
0
100
AcDbLine
 62
7
  6
CONTINUOUS
 10
88.3581060853
 20
104.9397105675
 11
87.9936897235
 21
105.1501016924
  0
LINE
  5
334
100
AcDbEntity
  8
0
100
AcDbLine
 62
7
  6
CONTINUOUS
 10
54.0362521471
 20
144.0024914053
 11
53.8255224537
 21
144.4622527836
  0
LINE
  5
335
100
AcDbEntity
  8
0
100
AcDbLine
 62
7
  6
CONTINUOUS
 10
52.5100441727
 20
145.221776137
 11
52.7135434024
 21
144.7661403542
  0
LINE
  5
336
100
AcDbEntity
  8
0
100
AcDbLine
 62
7
  6
CONTINUOUS
 10
68.163357451
 20
69.9929539274
 11
68.163357451
 21
91.2383468211
  0
LINE
  5
337
100
AcDbEntity
  8
0
100
AcDbLine
 62
7
  6
CONTINUOUS
 10
70.2261085715
 20
68.6865835129
 11
70.2261085715
 21
89.9319764066
  0
LINE
  5
338
100
AcDbEntity
  8
0
100
AcDbLine
 62
7
  6
CONTINUOUS
 10
70.5675305165
 20
68.604935362
 11
70.5675305165
 21
89.8503282557
  0
LINE
  5
339
100
AcDbEntity
  8
0
100
AcDbLine
 62
7
  6
CONTINUOUS
 10
72.1974294434
 20
86.6476543625
 11
72.1974294434
 21
83.4632949356
  0
LINE
  5
33A
100
AcDbEntity
  8
0
100
AcDbLine
 62
7
  6
CONTINUOUS
 10
72.1974294434
 20
82.4998220834
 11
72.1974294434
 21
79.3154626566
  0
LINE
  5
33B
100
AcDbEntity
  8
0
100
AcDbLine
 62
7
  6
CONTINUOUS
 10
72.1974294434
 20
78.3519898044
 11
72.1974294434
 21
75.1676303776
  0
LINE
  5
33C
100
AcDbEntity
  8
0
100
AcDbLine
 62
7
  6
CONTINUOUS
 10
72.1974294434
 20
74.2041575254
 11
72.1974294434
 21
71.0197980986
  0
LINE
  5
33D
100
AcDbEntity
  8
0
100
AcDbLine
 62
7
  6
CONTINUOUS
 10
72.1974294434
 20
70.0563252464
 11
72.1974294434
 21
66.8719658196
  0
LINE
  5
33E
100
AcDbEntity
  8
0
100
AcDbLine
 62
7
  6
CONTINUOUS
 10
72.4060246338
 20
66.3187820377
 11
72.4060246338
 21
66.7515360547
  0
LINE
  5
33F
100
AcDbEntity
  8
0
100
AcDbLine
 62
7
  6
CONTINUOUS
 10
72.4060246338
 20
70.3196438816
 11
72.4060246338
 21
70.8993683338
  0
LINE
  5
340
100
AcDbEntity
  8
0
100
AcDbLine
 62
7
  6
CONTINUOUS
 10
72.4060246338
 20
74.4674761606
 11
72.4060246338
 21
75.0472006128
  0
LINE
  5
341
100
AcDbEntity
  8
0
100
AcDbLine
 62
7
  6
CONTINUOUS
 10
72.4060246338
 20
78.6153084396
 11
72.4060246338
 21
79.1950328918
  0
LINE
  5
342
100
AcDbEntity
  8
0
100
AcDbLine
 62
7
  6
CONTINUOUS
 10
72.4060246338
 20
82.7631407187
 11
72.4060246338
 21
83.3428651708
  0
LINE
  5
343
100
AcDbEntity
  8
0
100
AcDbLine
 62
7
  6
CONTINUOUS
 10
72.4060246338
 20
86.9109729977
 11
72.4060246338
 21
87.5641749314
  0
LINE
  5
344
100
AcDbEntity
  8
0
100
AcDbLine
 62
7
  6
CONTINUOUS
 10
72.5931982956
 20
66.6434737354
 11
72.5931982956
 21
69.8278331622
  0
LINE
  5
345
100
AcDbEntity
  8
0
100
AcDbLine
 62
7
  6
CONTINUOUS
 10
72.5931982956
 20
70.7913060144
 11
72.5931982956
 21
73.9756654412
  0
LINE
  5
346
100
AcDbEntity
  8
0
100
AcDbLine
 62
7
  6
CONTINUOUS
 10
72.5931982956
 20
74.9391382934
 11
72.5931982956
 21
78.1234977202
  0
LINE
  5
347
100
AcDbEntity
  8
0
100
AcDbLine
 62
7
  6
CONTINUOUS
 10
72.5931982956
 20
79.0869705724
 11
72.5931982956
 21
82.2713299993
  0
LINE
  5
348
100
AcDbEntity
  8
0
100
AcDbLine
 62
7
  6
CONTINUOUS
 10
72.5931982956
 20
83.2348028515
 11
72.5931982956
 21
86.4191622783
  0
LINE
  5
349
100
AcDbEntity
  8
0
100
AcDbLine
 62
7
  6
CONTINUOUS
 10
73.2158800415
 20
86.0596649376
 11
73.2158800415
 21
82.8753055108
  0
LINE
  5
34A
100
AcDbEntity
  8
0
100
AcDbLine
 62
7
  6
CONTINUOUS
 10
73.2158800415
 20
81.9118326586
 11
73.2158800415
 21
78.7274732318
  0
LINE
  5
34B
100
AcDbEntity
  8
0
100
AcDbLine
 62
7
  6
CONTINUOUS
 10
73.2158800415
 20
77.7640003796
 11
73.2158800415
 21
74.5796409528
  0
LINE
  5
34C
100
AcDbEntity
  8
0
100
AcDbLine
 62
7
  6
CONTINUOUS
 10
73.2158800415
 20
73.6161681005
 11
73.2158800415
 21
70.4318086737
  0
LINE
  5
34D
100
AcDbEntity
  8
0
100
AcDbLine
 62
7
  6
CONTINUOUS
 10
73.2158800415
 20
69.4683358215
 11
73.2158800415
 21
66.2839763947
  0
LINE
  5
34E
100
AcDbEntity
  8
0
100
AcDbLine
 62
7
  6
CONTINUOUS
 10
73.6116488937
 20
85.8311728534
 11
73.6116488937
 21
82.6468134266
  0
LINE
  5
34F
100
AcDbEntity
  8
0
100
AcDbLine
 62
7
  6
CONTINUOUS
 10
73.6116488937
 20
81.6833405744
 11
73.6116488937
 21
78.4989811476
  0
LINE
  5
350
100
AcDbEntity
  8
0
100
AcDbLine
 62
7
  6
CONTINUOUS
 10
73.6116488937
 20
77.5355082954
 11
73.6116488937
 21
74.3511488686
  0
LINE
  5
351
100
AcDbEntity
  8
0
100
AcDbLine
 62
7
  6
CONTINUOUS
 10
73.6116488937
 20
73.3876760164
 11
73.6116488937
 21
70.2033165896
  0
LINE
  5
352
100
AcDbEntity
  8
0
100
AcDbLine
 62
7
  6
CONTINUOUS
 10
73.6116488937
 20
69.2398437373
 11
73.6116488937
 21
66.0554843105
  0
LINE
  5
353
100
AcDbEntity
  8
0
100
AcDbLine
 62
7
  6
CONTINUOUS
 10
73.9046078575
 20
86.6989870769
 11
73.9046078575
 21
86.0457851432
  0
LINE
  5
354
100
AcDbEntity
  8
0
100
AcDbLine
 62
7
  6
CONTINUOUS
 10
73.9046078575
 20
66.1067961169
 11
73.9046078575
 21
65.4535941832
  0
LINE
  5
355
100
AcDbEntity
  8
0
100
AcDbLine
 62
7
  6
CONTINUOUS
 10
73.9046078575
 20
69.4544560272
 11
73.9046078575
 21
70.2546283959
  0
LINE
  5
356
100
AcDbEntity
  8
0
100
AcDbLine
 62
7
  6
CONTINUOUS
 10
73.9046078575
 20
73.6022883062
 11
73.9046078575
 21
74.402460675
  0
LINE
  5
357
100
AcDbEntity
  8
0
100
AcDbLine
 62
7
  6
CONTINUOUS
 10
73.9046078575
 20
77.7501205852
 11
73.9046078575
 21
78.550292954
  0
LINE
  5
358
100
AcDbEntity
  8
0
100
AcDbLine
 62
7
  6
CONTINUOUS
 10
73.9046078575
 20
81.8979528642
 11
73.9046078575
 21
82.698125233
  0
LINE
  5
359
100
AcDbEntity
  8
0
100
AcDbLine
 62
7
  6
CONTINUOUS
 10
47.6219072394
 20
117.8307026328
 11
47.6721326905
 21
117.8964942709
  0
LINE
  5
35A
100
AcDbEntity
  8
0
100
AcDbLine
 62
7
  6
CONTINUOUS
 10
47.6184730366
 20
129.6452201667
 11
47.9619538461
 21
129.8763168496
  0
LINE
  5
35B
100
AcDbEntity
  8
0
100
AcDbLine
 62
7
  6
CONTINUOUS
 10
29.2886443243
 20
126.9826522905
 11
35.7269896279
 21
130.6998104962
  0
LINE
  5
35C
100
AcDbEntity
  8
0
100
AcDbLine
 62
7
  6
CONTINUOUS
 10
38.283108879
 20
131.6736774452
 11
38.7073711814
 21
131.9186239375
  0
LINE
  5
35D
100
AcDbEntity
  8
0
100
AcDbLine
 62
7
  6
CONTINUOUS
 10
31.473613375
 20
125.721188359
 11
36.3031727978
 21
128.5095191477
  0
LINE
  5
35E
100
AcDbEntity
  8
0
100
AcDbLine
 62
7
  6
CONTINUOUS
 10
38.283108879
 20
129.0608697103
 11
38.7073711814
 21
129.3058162027
  0
LINE
  5
35F
100
AcDbEntity
  8
0
100
AcDbLine
 62
7
  6
CONTINUOUS
 10
28.7229565442
 20
123.3900332919
 11
28.4401150093
 21
123.2267356303
  0
LINE
  5
360
100
AcDbEntity
  8
0
100
AcDbLine
 62
7
  6
CONTINUOUS
 10
31.473613375
 20
123.430899079
 11
36.3031727978
 21
126.2192298677
  0
LINE
  5
361
100
AcDbEntity
  8
0
100
AcDbLine
 62
7
  6
CONTINUOUS
 10
32.3716427259
 20
122.9124333207
 11
36.3031727978
 21
125.1822897168
  0
LINE
  5
362
100
AcDbEntity
  8
0
100
AcDbLine
 62
7
  6
CONTINUOUS
 10
36.3031727978
 20
124.525005271
 11
32.3716427259
 21
122.2551488749
  0
LINE
  5
363
100
AcDbEntity
  8
0
100
AcDbLine
 62
7
  6
CONTINUOUS
 10
37.2542251644
 20
129.5775799954
 11
37.1065048932
 21
129.495220427
  0
LINE
  5
364
100
AcDbEntity
  8
0
100
AcDbLine
 62
7
  6
CONTINUOUS
 10
54.5324252734
 20
144.0401074536
 11
55.6021906275
 21
144.6153497379
  0
LINE
  5
365
100
AcDbEntity
  8
0
100
AcDbLine
 62
7
  6
CONTINUOUS
 10
90.4685649296
 20
104.1213189729
 11
90.4155298674
 21
104.1519380877
  0
LINE
  5
366
100
AcDbEntity
  8
0
100
AcDbLine
 62
7
  6
CONTINUOUS
 10
38.283108879
 20
134.28648518
 11
39.6973283293
 21
133.4700036709
  0
LINE
  5
367
100
AcDbEntity
  8
0
100
AcDbLine
 62
7
  6
CONTINUOUS
 10
103.5139739583
 20
96.9307656073
 11
106.2717018864
 21
95.3386266647
  0
LINE
  5
368
100
AcDbEntity
  8
0
100
AcDbLine
 62
7
  6
CONTINUOUS
 10
39.6973283293
 20
133.9598925764
 11
38.7073711814
 21
134.5314316723
  0
LINE
  5
369
100
AcDbEntity
  8
0
100
AcDbLine
 62
7
  6
CONTINUOUS
 10
28.433043912
 20
140.5814944019
 11
36.5834421219
 21
135.8759662547
  0
LINE
  5
36A
100
AcDbEntity
  8
0
100
AcDbLine
 62
7
  6
CONTINUOUS
 10
90.521598159
 20
104.792892995
 11
90.362496638
 21
104.884748223
  0
LINE
  5
36B
100
AcDbEntity
  8
0
100
AcDbLine
 62
7
  6
CONTINUOUS
 10
47.6184730366
 20
129.6452201667
 11
56.6562329175
 21
124.4273851098
  0
LINE
  5
36C
100
AcDbEntity
  8
0
100
AcDbLine
 62
7
  6
CONTINUOUS
 10
103.5139739583
 20
97.4313553
 11
106.2717018864
 21
95.8392163573
  0
LINE
  5
36D
100
AcDbEntity
  8
0
100
AcDbLine
 62
7
  6
CONTINUOUS
 10
39.6973283293
 20
134.3681563298
 11
38.283108879
 21
135.1846378388
  0
LINE
  5
36E
100
AcDbEntity
  8
0
100
AcDbLine
 62
7
  6
CONTINUOUS
 10
36.5834421219
 20
136.2025588583
 11
28.7158854469
 21
140.7447920634
  0
LINE
  5
36F
100
AcDbEntity
  8
0
100
AcDbLine
 62
7
  6
CONTINUOUS
 10
106.4131226538
 20
95.9322668703
 11
103.6553947258
 21
97.5244058129
  0
LINE
  5
370
100
AcDbEntity
  8
0
100
AcDbLine
 62
7
  6
CONTINUOUS
 10
47.9619538461
 20
129.8763168496
 11
57.0194685863
 21
124.6470765774
  0
LINE
  5
371
100
AcDbEntity
  8
0
100
AcDbLine
 62
7
  6
CONTINUOUS
 10
89.4079091738
 20
106.6198269513
 11
89.043492812
 21
106.8302180762
  0
LINE
  5
372
100
AcDbEntity
  8
0
100
AcDbLine
 62
7
  6
CONTINUOUS
 10
88.3581060853
 20
107.2259173355
 11
87.9936897235
 21
107.4363084604
  0
LINE
  5
373
100
AcDbEntity
  8
0
100
AcDbLine
 62
7
  6
CONTINUOUS
 10
89.4609424032
 20
106.7116842573
 11
87.9756311928
 21
107.5692096847
  0
LINE
  5
374
100
AcDbEntity
  8
0
100
AcDbLine
 62
7
  6
CONTINUOUS
 10
89.4609424032
 20
107.2914009735
 11
87.9756311928
 21
108.1489264008
  0
LINE
  5
375
100
AcDbEntity
  8
0
100
AcDbLine
 62
7
  6
CONTINUOUS
 10
38.283108879
 20
136.8992929148
 11
39.6973283293
 21
136.0828114057
  0
LINE
  5
376
100
AcDbEntity
  8
0
100
AcDbLine
 62
7
  6
CONTINUOUS
 10
56.6562329175
 20
126.3481317476
 11
47.6184730366
 21
131.5659668046
  0
LINE
  5
377
100
AcDbEntity
  8
0
100
AcDbLine
 62
7
  6
CONTINUOUS
 10
31.0847030262
 20
141.1163356843
 11
35.9354757407
 21
138.3158041083
  0
LINE
  5
378
100
AcDbEntity
  8
0
100
AcDbLine
 62
7
  6
CONTINUOUS
 10
89.4079091738
 20
107.4444943926
 11
89.043492812
 21
107.6548855175
  0
LINE
  5
379
100
AcDbEntity
  8
0
100
AcDbLine
 62
7
  6
CONTINUOUS
 10
88.3581060853
 20
108.0505847768
 11
87.9936897235
 21
108.2609759017
  0
LINE
  5
37A
100
AcDbEntity
  8
0
100
AcDbLine
 62
7
  6
CONTINUOUS
 10
103.690750212
 20
99.4635995763
 11
105.1049696623
 21
98.6471180672
  0
LINE
  5
37B
100
AcDbEntity
  8
0
100
AcDbLine
 62
7
  6
CONTINUOUS
 10
90.4685649296
 20
107.2321931821
 11
90.4155298674
 21
107.2628122969
  0
LINE
  5
37C
100
AcDbEntity
  8
0
100
AcDbLine
 62
7
  6
CONTINUOUS
 10
39.6973283293
 20
136.5727003112
 11
38.7073711814
 21
137.1442394071
  0
LINE
  5
37D
100
AcDbEntity
  8
0
100
AcDbLine
 62
7
  6
CONTINUOUS
 10
105.1049696623
 20
99.1370069727
 11
104.1150125144
 21
99.7085460686
  0
LINE
  5
37E
100
AcDbEntity
  8
0
100
AcDbLine
 62
7
  6
CONTINUOUS
 10
39.6973283293
 20
136.9809640646
 11
38.283108879
 21
137.7974455736
  0
LINE
  5
37F
100
AcDbEntity
  8
0
100
AcDbLine
 62
7
  6
CONTINUOUS
 10
90.521598159
 20
107.9037672043
 11
90.362496638
 21
107.9956224322
  0
LINE
  5
380
100
AcDbEntity
  8
0
100
AcDbLine
 62
7
  6
CONTINUOUS
 10
105.1049696623
 20
99.5452707261
 11
103.690750212
 21
100.3617522351
  0
LINE
  5
381
100
AcDbEntity
  8
0
100
AcDbLine
 62
7
  6
CONTINUOUS
 10
89.4079091738
 20
109.7307011606
 11
89.043492812
 21
109.9410922855
  0
LINE
  5
382
100
AcDbEntity
  8
0
100
AcDbLine
 62
7
  6
CONTINUOUS
 10
88.3581060853
 20
110.3367915447
 11
87.9936897235
 21
110.5471826696
  0
LINE
  5
383
100
AcDbEntity
  8
0
100
AcDbLine
 62
7
  6
CONTINUOUS
 10
29.9109008824
 20
144.0965521531
 11
31.0847030262
 21
143.4188725006
  0
LINE
  5
384
100
AcDbEntity
  8
0
100
AcDbLine
 62
7
  6
CONTINUOUS
 10
89.4609424032
 20
109.8225584666
 11
87.9756311928
 21
110.6800838939
  0
LINE
  5
385
100
AcDbEntity
  8
0
100
AcDbLine
 62
7
  6
CONTINUOUS
 10
38.283108879
 20
139.5121006496
 11
39.6973283293
 21
138.6956191406
  0
LINE
  5
386
100
AcDbEntity
  8
0
100
AcDbLine
 62
7
  6
CONTINUOUS
 10
103.690750212
 20
102.0764073111
 11
105.1049696623
 21
101.2599258021
  0
LINE
  5
387
100
AcDbEntity
  8
0
100
AcDbLine
 62
7
  6
CONTINUOUS
 10
89.4609424032
 20
110.4022751827
 11
87.9756311928
 21
111.2598006101
  0
LINE
  5
388
100
AcDbEntity
  8
0
100
AcDbLine
 62
7
  6
CONTINUOUS
 10
39.6973283293
 20
139.185508046
 11
38.7073711814
 21
139.7570471419
  0
LINE
  5
389
100
AcDbEntity
  8
0
100
AcDbLine
 62
7
  6
CONTINUOUS
 10
89.4079091738
 20
110.5553686019
 11
89.043492812
 21
110.7657597268
  0
LINE
  5
38A
100
AcDbEntity
  8
0
100
AcDbLine
 62
7
  6
CONTINUOUS
 10
88.3581060853
 20
111.161458986
 11
87.9936897235
 21
111.3718501109
  0
LINE
  5
38B
100
AcDbEntity
  8
0
100
AcDbLine
 62
7
  6
CONTINUOUS
 10
28.8785206837
 20
145.6029838498
 11
29.9109008824
 21
145.0069523482
  0
LINE
  5
38C
100
AcDbEntity
  8
0
100
AcDbLine
 62
7
  6
CONTINUOUS
 10
105.1049696623
 20
101.7498147075
 11
104.1150125144
 21
102.3213538034
  0
LINE
  5
38D
100
AcDbEntity
  8
0
100
AcDbLine
 62
7
  6
CONTINUOUS
 10
39.6973283293
 20
139.5937717994
 11
38.283108879
 21
140.4102533084
  0
LINE
  5
38E
100
AcDbEntity
  8
0
100
AcDbLine
 62
7
  6
CONTINUOUS
 10
90.4685649296
 20
110.3430673914
 11
90.4155298674
 21
110.3736865062
  0
LINE
  5
38F
100
AcDbEntity
  8
0
100
AcDbLine
 62
7
  6
CONTINUOUS
 10
105.1049696623
 20
102.1580784609
 11
103.690750212
 21
102.9745599699
  0
LINE
  5
390
100
AcDbEntity
  8
0
100
AcDbLine
 62
7
  6
CONTINUOUS
 10
90.521598159
 20
111.0146414135
 11
90.362496638
 21
111.1064966415
  0
LINE
  5
391
100
AcDbEntity
  8
0
100
AcDbLine
 62
7
  6
CONTINUOUS
 10
38.283108879
 20
142.1249083844
 11
39.6973283293
 21
141.3084268754
  0
LINE
  5
392
100
AcDbEntity
  8
0
100
AcDbLine
 62
7
  6
CONTINUOUS
 10
89.4079091738
 20
112.8415753699
 11
89.043492812
 21
113.0519664948
  0
LINE
  5
393
100
AcDbEntity
  8
0
100
AcDbLine
 62
7
  6
CONTINUOUS
 10
88.3581060853
 20
113.447665754
 11
87.9936897235
 21
113.6580568789
  0
LINE
  5
394
100
AcDbEntity
  8
0
100
AcDbLine
 62
7
  6
CONTINUOUS
 10
103.690750212
 20
104.6892150459
 11
105.1049696623
 21
103.8727335369
  0
LINE
  5
395
100
AcDbEntity
  8
0
100
AcDbLine
 62
7
  6
CONTINUOUS
 10
89.4609424032
 20
112.9334326758
 11
87.9756311928
 21
113.7909581032
  0
LINE
  5
396
100
AcDbEntity
  8
0
100
AcDbLine
 62
7
  6
CONTINUOUS
 10
97.8303021568
 20
84.7011240167
 11
99.2746361739
 21
82.2016780588
  0
LINE
  5
397
100
AcDbEntity
  8
0
100
AcDbLine
 62
7
  6
CONTINUOUS
 10
74.9339330693
 20
66.8189008783
 11
74.9339330693
 21
69.7354370815
  0
LINE
  5
398
100
AcDbEntity
  8
0
100
AcDbLine
 62
7
  6
CONTINUOUS
 10
74.9339330693
 20
70.9667331573
 11
74.9339330693
 21
73.8832693605
  0
LINE
  5
399
100
AcDbEntity
  8
0
100
AcDbLine
 62
7
  6
CONTINUOUS
 10
74.9339330693
 20
75.1145654363
 11
74.9339330693
 21
78.0311016396
  0
LINE
  5
39A
100
AcDbEntity
  8
0
100
AcDbLine
 62
7
  6
CONTINUOUS
 10
74.9339330693
 20
79.2623977153
 11
74.9339330693
 21
82.1789339186
  0
LINE
  5
39B
100
AcDbEntity
  8
0
100
AcDbLine
 62
7
  6
CONTINUOUS
 10
74.9339330693
 20
83.4102299943
 11
74.9339330693
 21
86.3267661976
  0
LINE
  5
39C
100
AcDbEntity
  8
0
100
AcDbLine
 62
7
  6
CONTINUOUS
 10
75.3449268911
 20
65.8467666772
 11
75.3449268911
 21
66.499968611
  0
LINE
  5
39D
100
AcDbEntity
  8
0
100
AcDbLine
 62
7
  6
CONTINUOUS
 10
75.3449268911
 20
69.8476285212
 11
75.3449268911
 21
70.64780089
  0
LINE
  5
39E
100
AcDbEntity
  8
0
100
AcDbLine
 62
7
  6
CONTINUOUS
 10
75.3449268911
 20
73.9954608002
 11
75.3449268911
 21
74.795633169
  0
LINE
  5
39F
100
AcDbEntity
  8
0
100
AcDbLine
 62
7
  6
CONTINUOUS
 10
75.3449268911
 20
78.1432930792
 11
75.3449268911
 21
78.943465448
  0
LINE
  5
3A0
100
AcDbEntity
  8
0
100
AcDbLine
 62
7
  6
CONTINUOUS
 10
75.3449268911
 20
82.2911253582
 11
75.3449268911
 21
83.091297727
  0
LINE
  5
3A1
100
AcDbEntity
  8
0
100
AcDbLine
 62
7
  6
CONTINUOUS
 10
75.3449268911
 20
86.4389576373
 11
75.3449268911
 21
87.092159571
  0
LINE
  5
3A2
100
AcDbEntity
  8
0
100
AcDbLine
 62
7
  6
CONTINUOUS
 10
78.5578704107
 20
85.2372077297
 11
78.5578704107
 21
63.9918148359
  0
LINE
  5
3A3
100
AcDbEntity
  8
0
100
AcDbLine
 62
7
  6
CONTINUOUS
 10
78.9821344794
 20
63.9918158557
 11
78.9821344794
 21
85.2372087495
  0
LINE
  5
3A4
100
AcDbEntity
  8
0
100
AcDbLine
 62
7
  6
CONTINUOUS
 10
80.720272538
 20
141.1174847606
 11
80.720272538
 21
127.8444214678
  0
LINE
  5
3A5
100
AcDbEntity
  8
0
100
AcDbLine
 62
7
  6
CONTINUOUS
 10
81.0031140729
 20
128.0077191293
 11
81.0031140729
 21
140.9541898186
  0
LINE
  5
3A6
100
AcDbEntity
  8
0
100
AcDbLine
 62
7
  6
CONTINUOUS
 10
81.6112284365
 20
135.9522966385
 11
81.6112284365
 21
132.6340308153
  0
LINE
  5
3A7
100
AcDbEntity
  8
0
100
AcDbLine
 62
7
  6
CONTINUOUS
 10
45.5556557697
 20
120.3632209882
 11
45.8565616493
 21
120.5620930721
  0
LINE
  5
3A8
100
AcDbEntity
  8
0
100
AcDbLine
 62
7
  6
CONTINUOUS
 10
39.9448179107
 20
124.5791453631
 11
40.0900038698
 21
124.6658943256
  0
LINE
  5
3A9
100
AcDbEntity
  8
0
100
AcDbLine
 62
7
  6
CONTINUOUS
 10
36.3031727978
 20
122.896122455
 11
34.3515499563
 21
121.7693592081
  0
LINE
  5
3AA
100
AcDbEntity
  8
0
100
AcDbLine
 62
7
  6
CONTINUOUS
 10
32.9408758912
 20
115.4924703416
 11
32.3716427259
 21
115.1638253822
  0
LINE
  5
3AB
100
AcDbEntity
  8
0
100
AcDbLine
 62
7
  6
CONTINUOUS
 10
31.473613375
 20
113.3920018604
 11
34.0263235942
 21
114.8658009952
  0
LINE
  5
3AC
100
AcDbEntity
  8
0
100
AcDbLine
 62
7
  6
CONTINUOUS
 10
39.6973283293
 20
141.7983157808
 11
38.7073711814
 21
142.3698548767
  0
LINE
  5
3AD
100
AcDbEntity
  8
0
100
AcDbLine
 62
7
  6
CONTINUOUS
 10
105.1049696623
 20
104.3626224423
 11
104.1150125144
 21
104.9341615382
  0
LINE
  5
3AE
100
AcDbEntity
  8
0
100
AcDbLine
 62
7
  6
CONTINUOUS
 10
39.6973283293
 20
142.2065795342
 11
38.283108879
 21
143.0230610433
  0
LINE
  5
3AF
100
AcDbEntity
  8
0
100
AcDbLine
 62
7
  6
CONTINUOUS
 10
89.4609424032
 20
113.513149392
 11
87.9756311928
 21
114.3706748194
  0
LINE
  5
3B0
100
AcDbEntity
  8
0
100
AcDbLine
 62
7
  6
CONTINUOUS
 10
89.4079091738
 20
113.6662428112
 11
89.043492812
 21
113.8766339361
  0
LINE
  5
3B1
100
AcDbEntity
  8
0
100
AcDbLine
 62
7
  6
CONTINUOUS
 10
88.3581060853
 20
114.2723331953
 11
87.9936897235
 21
114.4827243202
  0
LINE
  5
3B2
100
AcDbEntity
  8
0
100
AcDbLine
 62
7
  6
CONTINUOUS
 10
105.1049696623
 20
104.7708861957
 11
103.690750212
 21
105.5873677048
  0
LINE
  5
3B3
100
AcDbEntity
  8
0
100
AcDbLine
 62
7
  6
CONTINUOUS
 10
29.9109008824
 20
148.3301171859
 11
28.8785206837
 21
148.9261486875
  0
LINE
  5
3B4
100
AcDbEntity
  8
0
100
AcDbLine
 62
7
  6
CONTINUOUS
 10
90.4685649296
 20
113.4539416007
 11
90.4155298674
 21
113.4845607154
  0
LINE
  5
3B5
100
AcDbEntity
  8
0
100
AcDbLine
 62
7
  6
CONTINUOUS
 10
90.521598159
 20
114.1255156228
 11
90.362496638
 21
114.2173708508
  0
LINE
  5
3B6
100
AcDbEntity
  8
0
100
AcDbLine
 62
7
  6
CONTINUOUS
 10
31.0847030262
 20
148.5628377285
 11
29.9109008824
 21
149.240517381
  0
LINE
  5
3B7
100
AcDbEntity
  8
0
100
AcDbLine
 62
7
  6
CONTINUOUS
 10
38.283108879
 20
144.7377161192
 11
39.6973283293
 21
143.9212346102
  0
LINE
  5
3B8
100
AcDbEntity
  8
0
100
AcDbLine
 62
7
  6
CONTINUOUS
 10
103.690750212
 20
107.3020227807
 11
105.1049696623
 21
106.4855412717
  0
LINE
  5
3B9
100
AcDbEntity
  8
0
100
AcDbLine
 62
7
  6
CONTINUOUS
 10
39.6973283293
 20
144.4111235156
 11
38.7073711814
 21
144.9826626116
  0
LINE
  5
3BA
100
AcDbEntity
  8
0
100
AcDbLine
 62
7
  6
CONTINUOUS
 10
89.4079091738
 20
115.9524495791
 11
89.043492812
 21
116.162840704
  0
LINE
  5
3BB
100
AcDbEntity
  8
0
100
AcDbLine
 62
7
  6
CONTINUOUS
 10
88.3581060853
 20
116.5585399632
 11
87.9936897235
 21
116.7689310882
  0
LINE
  5
3BC
100
AcDbEntity
  8
0
100
AcDbLine
 62
7
  6
CONTINUOUS
 10
105.1049696623
 20
106.9754301771
 11
104.1150125144
 21
107.546969273
  0
LINE
  5
3BD
100
AcDbEntity
  8
0
100
AcDbLine
 62
7
  6
CONTINUOUS
 10
89.4609424032
 20
116.0443068851
 11
87.9756311928
 21
116.9018323125
  0
LINE
  5
3BE
100
AcDbEntity
  8
0
100
AcDbLine
 62
7
  6
CONTINUOUS
 10
39.6973283293
 20
144.819387269
 11
38.283108879
 21
145.6358687781
  0
LINE
  5
3BF
100
AcDbEntity
  8
0
100
AcDbLine
 62
7
  6
CONTINUOUS
 10
105.1049696623
 20
107.3836939305
 11
103.690750212
 21
108.2001754396
  0
LINE
  5
3C0
100
AcDbEntity
  8
0
100
AcDbLine
 62
7
  6
CONTINUOUS
 10
89.4609424032
 20
116.6240236013
 11
87.9756311928
 21
117.4815490286
  0
LINE
  5
3C1
100
AcDbEntity
  8
0
100
AcDbLine
 62
7
  6
CONTINUOUS
 10
89.4079091738
 20
116.7771170204
 11
89.043492812
 21
116.9875081453
  0
LINE
  5
3C2
100
AcDbEntity
  8
0
100
AcDbLine
 62
7
  6
CONTINUOUS
 10
88.3581060853
 20
117.3832074045
 11
87.9936897235
 21
117.5935985295
  0
LINE
  5
3C3
100
AcDbEntity
  8
0
100
AcDbLine
 62
7
  6
CONTINUOUS
 10
90.4685649296
 20
116.5648158099
 11
90.4155298674
 21
116.5954349247
  0
LINE
  5
3C4
100
AcDbEntity
  8
0
100
AcDbLine
 62
7
  6
CONTINUOUS
 10
35.9354757407
 20
148.0648429688
 11
31.0847030262
 21
150.8653745448
  0
LINE
  5
3C5
100
AcDbEntity
  8
0
100
AcDbLine
 62
7
  6
CONTINUOUS
 10
38.283108879
 20
147.350523854
 11
39.6973283293
 21
146.534042345
  0
LINE
  5
3C6
100
AcDbEntity
  8
0
100
AcDbLine
 62
7
  6
CONTINUOUS
 10
90.521598159
 20
117.2363898321
 11
90.362496638
 21
117.32824506
  0
LINE
  5
3C7
100
AcDbEntity
  8
0
100
AcDbLine
 62
7
  6
CONTINUOUS
 10
39.6973283293
 20
147.0239312504
 11
38.7073711814
 21
147.5954703464
  0
LINE
  5
3C8
100
AcDbEntity
  8
0
100
AcDbLine
 62
7
  6
CONTINUOUS
 10
36.5834421219
 20
149.1033054122
 11
28.433043912
 21
153.8088335594
  0
LINE
  5
3C9
100
AcDbEntity
  8
0
100
AcDbLine
 62
7
  6
CONTINUOUS
 10
39.6973283293
 20
147.4321950038
 11
38.283108879
 21
148.2486765129
  0
LINE
  5
3CA
100
AcDbEntity
  8
0
100
AcDbLine
 62
7
  6
CONTINUOUS
 10
89.4079091738
 20
119.0633237884
 11
89.043492812
 21
119.2737149133
  0
LINE
  5
3CB
100
AcDbEntity
  8
0
100
AcDbLine
 62
7
  6
CONTINUOUS
 10
88.3581060853
 20
119.6694141725
 11
87.9936897235
 21
119.8798052974
  0
LINE
  5
3CC
100
AcDbEntity
  8
0
100
AcDbLine
 62
7
  6
CONTINUOUS
 10
89.4609424032
 20
119.1551810944
 11
87.9756311928
 21
120.0127065217
  0
LINE
  5
3CD
100
AcDbEntity
  8
0
100
AcDbLine
 62
7
  6
CONTINUOUS
 10
89.4609424032
 20
119.7348978105
 11
87.9756311928
 21
120.5924232379
  0
LINE
  5
3CE
100
AcDbEntity
  8
0
100
AcDbLine
 62
7
  6
CONTINUOUS
 10
89.4079091738
 20
119.8879912297
 11
89.043492812
 21
120.0983823546
  0
LINE
  5
3CF
100
AcDbEntity
  8
0
100
AcDbLine
 62
7
  6
CONTINUOUS
 10
88.3581060853
 20
120.4940816138
 11
87.9936897235
 21
120.7044727387
  0
LINE
  5
3D0
100
AcDbEntity
  8
0
100
AcDbLine
 62
7
  6
CONTINUOUS
 10
90.4685649296
 20
119.6756900192
 11
90.4155298674
 21
119.706309134
  0
LINE
  5
3D1
100
AcDbEntity
  8
0
100
AcDbLine
 62
7
  6
CONTINUOUS
 10
38.283108879
 20
149.9633315889
 11
39.6973283293
 21
149.1468500798
  0
LINE
  5
3D2
100
AcDbEntity
  8
0
100
AcDbLine
 62
7
  6
CONTINUOUS
 10
39.6973283293
 20
149.6367389853
 11
38.7073711814
 21
150.2082780812
  0
LINE
  5
3D3
100
AcDbEntity
  8
0
100
AcDbLine
 62
7
  6
CONTINUOUS
 10
90.521598159
 20
120.3472640413
 11
90.362496638
 21
120.4391192693
  0
LINE
  5
3D4
100
AcDbEntity
  8
0
100
AcDbLine
 62
7
  6
CONTINUOUS
 10
103.690750212
 20
112.7725889755
 11
105.1049696623
 21
111.9561074665
  0
LINE
  5
3D5
100
AcDbEntity
  8
0
100
AcDbLine
 62
7
  6
CONTINUOUS
 10
39.6973283293
 20
150.0450027387
 11
38.283108879
 21
150.8614842477
  0
LINE
  5
3D6
100
AcDbEntity
  8
0
100
AcDbLine
 62
7
  6
CONTINUOUS
 10
105.1049696623
 20
112.4459963719
 11
104.1150125144
 21
113.0175354678
  0
LINE
  5
3D7
100
AcDbEntity
  8
0
100
AcDbLine
 62
7
  6
CONTINUOUS
 10
101.772996001
 20
83.6479586268
 11
100.3286619839
 21
86.1474045847
  0
LINE
  5
3D8
100
AcDbEntity
  8
0
100
AcDbLine
 62
7
  6
CONTINUOUS
 10
102.8035254141
 20
87.5762591233
 11
104.2478594313
 21
85.0768131654
  0
LINE
  5
3D9
100
AcDbEntity
  8
0
100
AcDbLine
 62
7
  6
CONTINUOUS
 10
82.4194548524
 20
136.3981189072
 11
82.4194548524
 21
135.4856774561
  0
LINE
  5
3DA
100
AcDbEntity
  8
0
100
AcDbLine
 62
7
  6
CONTINUOUS
 10
82.4194548524
 20
132.1674116328
 11
82.4194548524
 21
131.2549701817
  0
LINE
  5
3DB
100
AcDbEntity
  8
0
100
AcDbLine
 62
7
  6
CONTINUOUS
 10
83.6045707517
 20
138.0058296875
 11
83.6045707517
 21
135.7139074026
  0
LINE
  5
3DC
100
AcDbEntity
  8
0
100
AcDbLine
 62
7
  6
CONTINUOUS
 10
83.6045707517
 20
130.5707586771
 11
83.6045707517
 21
128.2788363922
  0
LINE
  5
3DD
100
AcDbEntity
  8
0
100
AcDbLine
 62
7
  6
CONTINUOUS
 10
84.0684400306
 20
95.0541509013
 11
84.0684400306
 21
94.1824117751
  0
LINE
  5
3DE
100
AcDbEntity
  8
0
100
AcDbLine
 62
7
  6
CONTINUOUS
 10
84.7787131037
 20
212.9944020481
 11
84.7787131037
 21
215.5663188017
  0
LINE
  5
3DF
100
AcDbEntity
  8
0
100
AcDbLine
 62
7
  6
CONTINUOUS
 10
84.9692925213
 20
137.5392187324
 11
84.9692925213
 21
137.2179250313
  0
LINE
  5
3E0
100
AcDbEntity
  8
0
100
AcDbLine
 62
7
  6
CONTINUOUS
 10
84.9692925213
 20
127.490931736
 11
84.9692925213
 21
127.1696380349
  0
LINE
  5
3E1
100
AcDbEntity
  8
0
100
AcDbLine
 62
7
  6
CONTINUOUS
 10
85.9789380418
 20
129.336887677
 11
85.9789380418
 21
94.4722344656
  0
LINE
  5
3E2
100
AcDbEntity
  8
0
100
AcDbLine
 62
7
  6
CONTINUOUS
 10
86.0668068906
 20
94.3497612194
 11
86.0668068906
 21
129.2144144309
  0
LINE
  5
3E3
100
AcDbEntity
  8
0
100
AcDbLine
 62
7
  6
CONTINUOUS
 10
86.9449570933
 20
136.0773003631
 11
86.9449570933
 21
136.3985940643
  0
LINE
  5
3E4
100
AcDbEntity
  8
0
100
AcDbLine
 62
7
  6
CONTINUOUS
 10
87.9756311928
 20
92.5945553545
 11
87.9756311928
 21
92.0230036625
  0
LINE
  5
3E5
100
AcDbEntity
  8
0
100
AcDbLine
 62
7
  6
CONTINUOUS
 10
87.9756311928
 20
95.1257128476
 11
87.9756311928
 21
95.7054295638
  0
LINE
  5
3E6
100
AcDbEntity
  8
0
100
AcDbLine
 62
7
  6
CONTINUOUS
 10
87.9756311928
 20
98.2365870569
 11
87.9756311928
 21
98.816303773
  0
LINE
  5
3E7
100
AcDbEntity
  8
0
100
AcDbLine
 62
7
  6
CONTINUOUS
 10
87.9756311928
 20
101.3474612661
 11
87.9756311928
 21
101.9271779823
  0
LINE
  5
3E8
100
AcDbEntity
  8
0
100
AcDbLine
 62
7
  6
CONTINUOUS
 10
87.9756311928
 20
104.4583354754
 11
87.9756311928
 21
105.0380521916
  0
LINE
  5
3E9
100
AcDbEntity
  8
0
100
AcDbLine
 62
7
  6
CONTINUOUS
 10
87.9756311928
 20
107.5692096847
 11
87.9756311928
 21
108.1489264008
  0
LINE
  5
3EA
100
AcDbEntity
  8
0
100
AcDbLine
 62
7
  6
CONTINUOUS
 10
87.9756311928
 20
110.6800838939
 11
87.9756311928
 21
111.2598006101
  0
LINE
  5
3EB
100
AcDbEntity
  8
0
100
AcDbLine
 62
7
  6
CONTINUOUS
 10
87.9756311928
 20
113.7909581032
 11
87.9756311928
 21
114.3706748194
  0
LINE
  5
3EC
100
AcDbEntity
  8
0
100
AcDbLine
 62
7
  6
CONTINUOUS
 10
87.9756311928
 20
116.9018323125
 11
87.9756311928
 21
117.4815490286
  0
LINE
  5
3ED
100
AcDbEntity
  8
0
100
AcDbLine
 62
7
  6
CONTINUOUS
 10
87.9756311928
 20
120.0127065217
 11
87.9756311928
 21
120.5924232379
  0
LINE
  5
3EE
100
AcDbEntity
  8
0
100
AcDbLine
 62
7
  6
CONTINUOUS
 10
87.9756311928
 20
123.123580731
 11
87.9756311928
 21
123.7032974471
  0
LINE
  5
3EF
100
AcDbEntity
  8
0
100
AcDbLine
 62
7
  6
CONTINUOUS
 10
87.9756311928
 20
126.2344549402
 11
87.9756311928
 21
126.8876568739
  0
LINE
  5
3F0
100
AcDbEntity
  8
0
100
AcDbLine
 62
7
  6
CONTINUOUS
 10
87.9936897235
 20
126.101553716
 11
87.9936897235
 21
123.815346948
  0
LINE
  5
3F1
100
AcDbEntity
  8
0
100
AcDbLine
 62
7
  6
CONTINUOUS
 10
87.9936897235
 20
122.9906795067
 11
87.9936897235
 21
120.7044727387
  0
LINE
  5
3F2
100
AcDbEntity
  8
0
100
AcDbLine
 62
7
  6
CONTINUOUS
 10
87.9936897235
 20
119.8798052974
 11
87.9936897235
 21
117.5935985295
  0
LINE
  5
3F3
100
AcDbEntity
  8
0
100
AcDbLine
 62
7
  6
CONTINUOUS
 10
87.9936897235
 20
116.7689310882
 11
87.9936897235
 21
114.4827243202
  0
LINE
  5
3F4
100
AcDbEntity
  8
0
100
AcDbLine
 62
7
  6
CONTINUOUS
 10
87.9936897235
 20
113.6580568789
 11
87.9936897235
 21
111.3718501109
  0
LINE
  5
3F5
100
AcDbEntity
  8
0
100
AcDbLine
 62
7
  6
CONTINUOUS
 10
87.9936897235
 20
110.5471826696
 11
87.9936897235
 21
108.2609759017
  0
LINE
  5
3F6
100
AcDbEntity
  8
0
100
AcDbLine
 62
7
  6
CONTINUOUS
 10
87.9936897235
 20
107.4363084604
 11
87.9936897235
 21
105.1501016924
  0
LINE
  5
3F7
100
AcDbEntity
  8
0
100
AcDbLine
 62
7
  6
CONTINUOUS
 10
87.9936897235
 20
104.3254342511
 11
87.9936897235
 21
102.0392274831
  0
LINE
  5
3F8
100
AcDbEntity
  8
0
100
AcDbLine
 62
7
  6
CONTINUOUS
 10
87.9936897235
 20
101.2145600418
 11
87.9936897235
 21
98.9283532739
  0
LINE
  5
3F9
100
AcDbEntity
  8
0
100
AcDbLine
 62
7
  6
CONTINUOUS
 10
87.9936897235
 20
98.1036858326
 11
87.9936897235
 21
95.8174790646
  0
LINE
  5
3FA
100
AcDbEntity
  8
0
100
AcDbLine
 62
7
  6
CONTINUOUS
 10
87.9936897235
 20
94.9928116233
 11
87.9936897235
 21
92.7066048554
  0
LINE
  5
3FB
100
AcDbEntity
  8
0
100
AcDbLine
 62
7
  6
CONTINUOUS
 10
88.3581060853
 20
92.4962137304
 11
88.3581060853
 21
94.7824204984
  0
LINE
  5
3FC
100
AcDbEntity
  8
0
100
AcDbLine
 62
7
  6
CONTINUOUS
 10
88.3581060853
 20
95.6070879397
 11
88.3581060853
 21
97.8932947077
  0
LINE
  5
3FD
100
AcDbEntity
  8
0
100
AcDbLine
 62
7
  6
CONTINUOUS
 10
88.3581060853
 20
98.717962149
 11
88.3581060853
 21
101.0041689169
  0
LINE
  5
3FE
100
AcDbEntity
  8
0
100
AcDbLine
 62
7
  6
CONTINUOUS
 10
88.3581060853
 20
101.8288363582
 11
88.3581060853
 21
104.1150431262
  0
LINE
  5
3FF
100
AcDbEntity
  8
0
100
AcDbLine
 62
7
  6
CONTINUOUS
 10
88.3581060853
 20
104.9397105675
 11
88.3581060853
 21
107.2259173355
  0
LINE
  5
400
100
AcDbEntity
  8
0
100
AcDbLine
 62
7
  6
CONTINUOUS
 10
88.3581060853
 20
108.0505847768
 11
88.3581060853
 21
110.3367915447
  0
LINE
  5
401
100
AcDbEntity
  8
0
100
AcDbLine
 62
7
  6
CONTINUOUS
 10
88.3581060853
 20
111.161458986
 11
88.3581060853
 21
113.447665754
  0
LINE
  5
402
100
AcDbEntity
  8
0
100
AcDbLine
 62
7
  6
CONTINUOUS
 10
88.3581060853
 20
114.2723331953
 11
88.3581060853
 21
116.5585399632
  0
LINE
  5
403
100
AcDbEntity
  8
0
100
AcDbLine
 62
7
  6
CONTINUOUS
 10
88.3581060853
 20
117.3832074045
 11
88.3581060853
 21
119.6694141725
  0
LINE
  5
404
100
AcDbEntity
  8
0
100
AcDbLine
 62
7
  6
CONTINUOUS
 10
88.3581060853
 20
120.4940816138
 11
88.3581060853
 21
122.7802883818
  0
LINE
  5
405
100
AcDbEntity
  8
0
100
AcDbLine
 62
7
  6
CONTINUOUS
 10
88.3581060853
 20
123.6049558231
 11
88.3581060853
 21
125.891162591
  0
LINE
  5
406
100
AcDbEntity
  8
0
100
AcDbLine
 62
7
  6
CONTINUOUS
 10
88.818797865
 20
131.0482141689
 11
88.818797865
 21
134.9954623637
  0
LINE
  5
407
100
AcDbEntity
  8
0
100
AcDbLine
 62
7
  6
CONTINUOUS
 10
89.043492812
 20
125.4954633318
 11
89.043492812
 21
123.2092565639
  0
LINE
  5
408
100
AcDbEntity
  8
0
100
AcDbLine
 62
7
  6
CONTINUOUS
 10
89.043492812
 20
122.3845891226
 11
89.043492812
 21
120.0983823546
  0
LINE
  5
409
100
AcDbEntity
  8
0
100
AcDbLine
 62
7
  6
CONTINUOUS
 10
89.043492812
 20
119.2737149133
 11
89.043492812
 21
116.9875081453
  0
LINE
  5
40A
100
AcDbEntity
  8
0
100
AcDbLine
 62
7
  6
CONTINUOUS
 10
89.043492812
 20
116.162840704
 11
89.043492812
 21
113.8766339361
  0
LINE
  5
40B
100
AcDbEntity
  8
0
100
AcDbLine
 62
7
  6
CONTINUOUS
 10
89.043492812
 20
113.0519664948
 11
89.043492812
 21
110.7657597268
  0
LINE
  5
40C
100
AcDbEntity
  8
0
100
AcDbLine
 62
7
  6
CONTINUOUS
 10
89.043492812
 20
109.9410922855
 11
89.043492812
 21
107.6548855175
  0
LINE
  5
40D
100
AcDbEntity
  8
0
100
AcDbLine
 62
7
  6
CONTINUOUS
 10
89.043492812
 20
106.8302180762
 11
89.043492812
 21
104.5440113083
  0
LINE
  5
40E
100
AcDbEntity
  8
0
100
AcDbLine
 62
7
  6
CONTINUOUS
 10
89.043492812
 20
103.719343867
 11
89.043492812
 21
101.433137099
  0
LINE
  5
40F
100
AcDbEntity
  8
0
100
AcDbLine
 62
7
  6
CONTINUOUS
 10
89.043492812
 20
100.6084696577
 11
89.043492812
 21
98.3222628897
  0
LINE
  5
410
100
AcDbEntity
  8
0
100
AcDbLine
 62
7
  6
CONTINUOUS
 10
89.043492812
 20
97.4975954484
 11
89.043492812
 21
95.2113886805
  0
LINE
  5
411
100
AcDbEntity
  8
0
100
AcDbLine
 62
7
  6
CONTINUOUS
 10
89.043492812
 20
94.3867212392
 11
89.043492812
 21
92.1005144712
  0
LINE
  5
412
100
AcDbEntity
  8
0
100
AcDbLine
 62
7
  6
CONTINUOUS
 10
89.4079091738
 20
91.8901233463
 11
89.4079091738
 21
94.1763301143
  0
LINE
  5
413
100
AcDbEntity
  8
0
100
AcDbLine
 62
7
  6
CONTINUOUS
 10
89.4079091738
 20
95.0009975556
 11
89.4079091738
 21
97.2872043235
  0
LINE
  5
414
100
AcDbEntity
  8
0
100
AcDbLine
 62
7
  6
CONTINUOUS
 10
89.4079091738
 20
98.1118717648
 11
89.4079091738
 21
100.3980785328
  0
LINE
  5
415
100
AcDbEntity
  8
0
100
AcDbLine
 62
7
  6
CONTINUOUS
 10
89.4079091738
 20
101.2227459741
 11
89.4079091738
 21
103.5089527421
  0
LINE
  5
416
100
AcDbEntity
  8
0
100
AcDbLine
 62
7
  6
CONTINUOUS
 10
89.4079091738
 20
104.3336201834
 11
89.4079091738
 21
106.6198269513
  0
LINE
  5
417
100
AcDbEntity
  8
0
100
AcDbLine
 62
7
  6
CONTINUOUS
 10
89.4079091738
 20
107.4444943926
 11
89.4079091738
 21
109.7307011606
  0
LINE
  5
418
100
AcDbEntity
  8
0
100
AcDbLine
 62
7
  6
CONTINUOUS
 10
89.4079091738
 20
110.5553686019
 11
89.4079091738
 21
112.8415753699
  0
LINE
  5
419
100
AcDbEntity
  8
0
100
AcDbLine
 62
7
  6
CONTINUOUS
 10
89.4079091738
 20
113.6662428112
 11
89.4079091738
 21
115.9524495791
  0
LINE
  5
41A
100
AcDbEntity
  8
0
100
AcDbLine
 62
7
  6
CONTINUOUS
 10
89.4079091738
 20
116.7771170204
 11
89.4079091738
 21
119.0633237884
  0
LINE
  5
41B
100
AcDbEntity
  8
0
100
AcDbLine
 62
7
  6
CONTINUOUS
 10
89.4079091738
 20
119.8879912297
 11
89.4079091738
 21
122.1741979976
  0
LINE
  5
41C
100
AcDbEntity
  8
0
100
AcDbLine
 62
7
  6
CONTINUOUS
 10
89.4079091738
 20
122.9988654389
 11
89.4079091738
 21
125.2850722069
  0
LINE
  5
41D
100
AcDbEntity
  8
0
100
AcDbLine
 62
7
  6
CONTINUOUS
 10
89.4609424032
 20
126.0301314466
 11
89.4609424032
 21
125.3769295129
  0
LINE
  5
41E
100
AcDbEntity
  8
0
100
AcDbLine
 62
7
  6
CONTINUOUS
 10
89.4609424032
 20
122.8457720198
 11
89.4609424032
 21
122.2660553036
  0
LINE
  5
41F
100
AcDbEntity
  8
0
100
AcDbLine
 62
7
  6
CONTINUOUS
 10
89.4609424032
 20
119.7348978105
 11
89.4609424032
 21
119.1551810944
  0
LINE
  5
420
100
AcDbEntity
  8
0
100
AcDbLine
 62
7
  6
CONTINUOUS
 10
89.4609424032
 20
110.4022751827
 11
89.4609424032
 21
109.8225584666
  0
LINE
  5
421
100
AcDbEntity
  8
0
100
AcDbLine
 62
7
  6
CONTINUOUS
 10
89.4609424032
 20
107.2914009735
 11
89.4609424032
 21
106.7116842573
  0
LINE
  5
422
100
AcDbEntity
  8
0
100
AcDbLine
 62
7
  6
CONTINUOUS
 10
89.4609424032
 20
104.1805267642
 11
89.4609424032
 21
103.600810048
  0
LINE
  5
423
100
AcDbEntity
  8
0
100
AcDbLine
 62
7
  6
CONTINUOUS
 10
89.4609424032
 20
101.0696525549
 11
89.4609424032
 21
100.4899358388
  0
LINE
  5
424
100
AcDbEntity
  8
0
100
AcDbLine
 62
7
  6
CONTINUOUS
 10
89.4609424032
 20
97.9587783457
 11
89.4609424032
 21
97.3790616295
  0
LINE
  5
425
100
AcDbEntity
  8
0
100
AcDbLine
 62
7
  6
CONTINUOUS
 10
89.4609424032
 20
91.1654782352
 11
89.4609424032
 21
91.7370299272
  0
LINE
  5
426
100
AcDbEntity
  8
0
100
AcDbLine
 62
7
  6
CONTINUOUS
 10
89.4609424032
 20
94.2681874203
 11
89.4609424032
 21
94.8479041364
  0
LINE
  5
427
100
AcDbEntity
  8
0
100
AcDbLine
 62
7
  6
CONTINUOUS
 10
89.4609424032
 20
112.9334326758
 11
89.4609424032
 21
113.513149392
  0
LINE
  5
428
100
AcDbEntity
  8
0
100
AcDbLine
 62
7
  6
CONTINUOUS
 10
89.4609424032
 20
116.0443068851
 11
89.4609424032
 21
116.6240236013
  0
LINE
  5
429
100
AcDbEntity
  8
0
100
AcDbLine
 62
7
  6
CONTINUOUS
 10
82.2442613074
 20
213.7636260894
 11
82.2443434739
 21
213.8002059251
  0
LINE
  5
42A
100
AcDbEntity
  8
0
100
AcDbLine
 62
7
  6
CONTINUOUS
 10
83.6260369076
 20
214.87717965
 11
83.6119669511
 21
212.9739987317
  0
LINE
  5
42B
100
AcDbEntity
  8
0
100
AcDbLine
 62
7
  6
CONTINUOUS
 10
57.0194685863
 20
124.6470765774
 11
56.6562329175
 21
124.4273851098
  0
LINE
  5
42C
100
AcDbEntity
  8
0
100
AcDbLine
 62
7
  6
CONTINUOUS
 10
29.2886443243
 20
109.5095005639
 11
35.7269896279
 21
113.2266587697
  0
LINE
  5
42D
100
AcDbEntity
  8
0
100
AcDbLine
 62
7
  6
CONTINUOUS
 10
31.473613375
 20
108.2480366324
 11
36.3031727978
 21
111.0363674212
  0
LINE
  5
42E
100
AcDbEntity
  8
0
100
AcDbLine
 62
7
  6
CONTINUOUS
 10
28.7229565442
 20
105.9168815653
 11
28.4401150093
 21
105.7535839038
  0
LINE
  5
42F
100
AcDbEntity
  8
0
100
AcDbLine
 62
7
  6
CONTINUOUS
 10
49.9696617683
 20
118.0697284296
 11
49.7489284892
 21
117.9422886236
  0
LINE
  5
430
100
AcDbEntity
  8
0
100
AcDbLine
 62
7
  6
CONTINUOUS
 10
85.2475450064
 20
137.3785732195
 11
84.9692925213
 21
137.2179250313
  0
LINE
  5
431
100
AcDbEntity
  8
0
100
AcDbLine
 62
7
  6
CONTINUOUS
 10
83.2096636252
 20
135.9419019805
 11
82.4194548524
 21
135.4856774561
  0
LINE
  5
432
100
AcDbEntity
  8
0
100
AcDbLine
 62
7
  6
CONTINUOUS
 10
31.473613375
 20
105.9577473524
 11
36.3031727978
 21
108.7460781411
  0
LINE
  5
433
100
AcDbEntity
  8
0
100
AcDbLine
 62
7
  6
CONTINUOUS
 10
83.6045707517
 20
135.7139074026
 11
85.8677145347
 21
137.0205262755
  0
LINE
  5
434
100
AcDbEntity
  8
0
100
AcDbLine
 62
7
  6
CONTINUOUS
 10
32.3716427259
 20
105.4392815942
 11
36.3031727978
 21
107.7091379902
  0
LINE
  5
435
100
AcDbEntity
  8
0
100
AcDbLine
 62
7
  6
CONTINUOUS
 10
36.3031727978
 20
107.0518535444
 11
32.3716427259
 21
104.7819971484
  0
LINE
  5
436
100
AcDbEntity
  8
0
100
AcDbLine
 62
7
  6
CONTINUOUS
 10
47.4899094713
 20
119.6191006007
 11
47.6184730366
 21
119.6831329148
  0
LINE
  5
437
100
AcDbEntity
  8
0
100
AcDbLine
 62
7
  6
CONTINUOUS
 10
56.6562329175
 20
126.3481317476
 11
57.0194685863
 21
126.5250555782
  0
LINE
  5
438
100
AcDbEntity
  8
0
100
AcDbLine
 62
7
  6
CONTINUOUS
 10
105.1049696623
 20
112.8542601253
 11
103.690750212
 21
113.6707416343
  0
LINE
  5
439
100
AcDbEntity
  8
0
100
AcDbLine
 62
7
  6
CONTINUOUS
 10
89.4079091738
 20
122.1741979976
 11
89.043492812
 21
122.3845891226
  0
LINE
  5
43A
100
AcDbEntity
  8
0
100
AcDbLine
 62
7
  6
CONTINUOUS
 10
88.3581060853
 20
122.7802883818
 11
87.9936897235
 21
122.9906795067
  0
LINE
  5
43B
100
AcDbEntity
  8
0
100
AcDbLine
 62
7
  6
CONTINUOUS
 10
89.4609424032
 20
122.2660553036
 11
87.9756311928
 21
123.123580731
  0
LINE
  5
43C
100
AcDbEntity
  8
0
100
AcDbLine
 62
7
  6
CONTINUOUS
 10
80.720272538
 20
127.8444214678
 11
85.9789380418
 21
124.8083982076
  0
LINE
  5
43D
100
AcDbEntity
  8
0
100
AcDbLine
 62
7
  6
CONTINUOUS
 10
89.4609424032
 20
122.8457720198
 11
87.9756311928
 21
123.7032974471
  0
LINE
  5
43E
100
AcDbEntity
  8
0
100
AcDbLine
 62
7
  6
CONTINUOUS
 10
89.4079091738
 20
122.9988654389
 11
89.043492812
 21
123.2092565639
  0
LINE
  5
43F
100
AcDbEntity
  8
0
100
AcDbLine
 62
7
  6
CONTINUOUS
 10
88.3581060853
 20
123.6049558231
 11
87.9936897235
 21
123.815346948
  0
LINE
  5
440
100
AcDbEntity
  8
0
100
AcDbLine
 62
7
  6
CONTINUOUS
 10
38.283108879
 20
152.5761393237
 11
39.6973283293
 21
151.7596578146
  0
LINE
  5
441
100
AcDbEntity
  8
0
100
AcDbLine
 62
7
  6
CONTINUOUS
 10
85.9789380418
 20
125.1349908113
 11
81.0031140729
 21
128.0077191293
  0
LINE
  5
442
100
AcDbEntity
  8
0
100
AcDbLine
 62
7
  6
CONTINUOUS
 10
90.4685649296
 20
122.7865642285
 11
90.4155298674
 21
122.8171833432
  0
LINE
  5
443
100
AcDbEntity
  8
0
100
AcDbLine
 62
7
  6
CONTINUOUS
 10
39.6973283293
 20
152.2495467201
 11
38.7073711814
 21
152.821085816
  0
LINE
  5
444
100
AcDbEntity
  8
0
100
AcDbLine
 62
7
  6
CONTINUOUS
 10
54.0362499635
 20
144.0024877043
 11
52.7135413043
 21
144.7661366287
  0
LINE
  5
445
100
AcDbEntity
  8
0
100
AcDbLine
 62
7
  6
CONTINUOUS
 10
103.690750212
 20
115.3853967103
 11
105.1049696623
 21
114.5689152013
  0
LINE
  5
446
100
AcDbEntity
  8
0
100
AcDbLine
 62
7
  6
CONTINUOUS
 10
53.8255224537
 20
144.4623610292
 11
52.5100441727
 21
145.2218355872
  0
LINE
  5
447
100
AcDbEntity
  8
0
100
AcDbLine
 62
7
  6
CONTINUOUS
 10
39.6973283293
 20
152.6578104735
 11
38.283108879
 21
153.4742919825
  0
LINE
  5
448
100
AcDbEntity
  8
0
100
AcDbLine
 62
7
  6
CONTINUOUS
 10
90.521598159
 20
123.4581382506
 11
90.362496638
 21
123.5499934786
  0
LINE
  5
449
100
AcDbEntity
  8
0
100
AcDbLine
 62
7
  6
CONTINUOUS
 10
105.1049696623
 20
115.0588041067
 11
104.1150125144
 21
115.6303432026
  0
LINE
  5
44A
100
AcDbEntity
  8
0
100
AcDbLine
 62
7
  6
CONTINUOUS
 10
105.1049696623
 20
115.4670678601
 11
103.690750212
 21
116.2835493691
  0
LINE
  5
44B
100
AcDbEntity
  8
0
100
AcDbLine
 62
7
  6
CONTINUOUS
 10
55.1237207079
 20
144.3580632886
 11
55.6021906303
 21
144.0818247994
  0
LINE
  5
44C
100
AcDbEntity
  8
0
100
AcDbLine
 62
7
  6
CONTINUOUS
 10
84.9692925213
 20
127.1696380349
 11
85.9789380418
 21
126.5867321089
  0
LINE
  5
44D
100
AcDbEntity
  8
0
100
AcDbLine
 62
7
  6
CONTINUOUS
 10
83.6045707517
 20
128.2788363922
 11
84.9692925213
 21
127.490931736
  0
LINE
  5
44E
100
AcDbEntity
  8
0
100
AcDbLine
 62
7
  6
CONTINUOUS
 10
89.4079091738
 20
125.2850722069
 11
89.043492812
 21
125.4954633318
  0
LINE
  5
44F
100
AcDbEntity
  8
0
100
AcDbLine
 62
7
  6
CONTINUOUS
 10
88.3581060853
 20
125.891162591
 11
87.9936897235
 21
126.101553716
  0
LINE
  5
450
100
AcDbEntity
  8
0
100
AcDbLine
 62
7
  6
CONTINUOUS
 10
89.4609424032
 20
125.3769295129
 11
87.9756311928
 21
126.2344549402
  0
LINE
  5
451
100
AcDbEntity
  8
0
100
AcDbLine
 62
7
  6
CONTINUOUS
 10
52.5100441727
 20
146.7690790598
 11
53.8255224537
 21
146.0096045009
  0
LINE
  5
452
100
AcDbEntity
  8
0
100
AcDbLine
 62
7
  6
CONTINUOUS
 10
38.283108879
 20
155.1889470585
 11
39.6973283293
 21
154.3724655495
  0
LINE
  5
453
100
AcDbEntity
  8
0
100
AcDbLine
 62
7
  6
CONTINUOUS
 10
89.4609424032
 20
126.0301314466
 11
87.9756311928
 21
126.8876568739
  0
LINE
  5
454
100
AcDbEntity
  8
0
100
AcDbLine
 62
7
  6
CONTINUOUS
 10
39.6973283293
 20
154.8623544549
 11
38.7073711814
 21
155.4338935508
  0
LINE
  5
455
100
AcDbEntity
  8
0
100
AcDbLine
 62
7
  6
CONTINUOUS
 10
103.690750212
 20
117.9982044451
 11
105.1049696623
 21
117.1817229361
  0
LINE
  5
456
100
AcDbEntity
  8
0
100
AcDbLine
 62
7
  6
CONTINUOUS
 10
90.4685649296
 20
125.8974384377
 11
90.4155298674
 21
125.9280575525
  0
LINE
  5
457
100
AcDbEntity
  8
0
100
AcDbLine
 62
7
  6
CONTINUOUS
 10
39.6973283293
 20
155.2706182083
 11
38.283108879
 21
156.0870997173
  0
LINE
  5
458
100
AcDbEntity
  8
0
100
AcDbLine
 62
7
  6
CONTINUOUS
 10
105.1049696623
 20
117.6716118415
 11
104.1150125144
 21
118.2431509374
  0
LINE
  5
459
100
AcDbEntity
  8
0
100
AcDbLine
 62
7
  6
CONTINUOUS
 10
54.5324128578
 20
147.2201003625
 11
53.1926801025
 21
147.993577931
  0
LINE
  5
45A
100
AcDbEntity
  8
0
100
AcDbLine
 62
7
  6
CONTINUOUS
 10
105.1049696623
 20
118.0798755949
 11
103.690750212
 21
118.896357104
  0
LINE
  5
45B
100
AcDbEntity
  8
0
100
AcDbLine
 62
7
  6
CONTINUOUS
 10
82.4194548524
 20
131.2549701817
 11
83.6045707517
 21
130.5707586771
  0
LINE
  5
45C
100
AcDbEntity
  8
0
100
AcDbLine
 62
7
  6
CONTINUOUS
 10
94.4107016473
 20
124.3971735275
 11
93.1379041421
 21
125.1320068857
  0
LINE
  5
45D
100
AcDbEntity
  8
0
100
AcDbLine
 62
7
  6
CONTINUOUS
 10
92.855060252
 20
125.2953031875
 11
90.521598159
 21
126.6424976774
  0
LINE
  5
45E
100
AcDbEntity
  8
0
100
AcDbLine
 62
7
  6
CONTINUOUS
 10
88.5416909286
 20
127.7855717901
 11
86.0668068906
 21
129.2144144309
  0
LINE
  5
45F
100
AcDbEntity
  8
0
100
AcDbLine
 62
7
  6
CONTINUOUS
 10
81.6112284365
 20
132.6340308153
 11
82.4194548524
 21
132.1674116328
  0
LINE
  5
460
100
AcDbEntity
  8
0
100
AcDbLine
 62
7
  6
CONTINUOUS
 10
38.283108879
 20
157.8017547933
 11
39.6973283293
 21
156.9852732843
  0
LINE
  5
461
100
AcDbEntity
  8
0
100
AcDbLine
 62
7
  6
CONTINUOUS
 10
54.3338957817
 20
148.6992528007
 11
54.0048574288
 21
148.8892232646
  0
LINE
  5
462
100
AcDbEntity
  8
0
100
AcDbLine
 62
7
  6
CONTINUOUS
 10
39.6973283293
 20
157.4751621897
 11
38.7073711814
 21
158.0467012856
  0
LINE
  5
463
100
AcDbEntity
  8
0
100
AcDbLine
 62
7
  6
CONTINUOUS
 10
103.690750212
 20
120.6110121799
 11
105.1049696623
 21
119.7945306709
  0
LINE
  5
464
100
AcDbEntity
  8
0
100
AcDbLine
 62
7
  6
CONTINUOUS
 10
39.6973283293
 20
157.8834259431
 11
38.283108879
 21
158.6999074521
  0
LINE
  5
465
100
AcDbEntity
  8
0
100
AcDbLine
 62
7
  6
CONTINUOUS
 10
105.1049696623
 20
120.2844195763
 11
104.1150125144
 21
120.8559586723
  0
LINE
  5
466
100
AcDbEntity
  8
0
100
AcDbLine
 62
7
  6
CONTINUOUS
 10
105.1049696623
 20
120.6926833297
 11
103.690750212
 21
121.5091648388
  0
LINE
  5
467
100
AcDbEntity
  8
0
100
AcDbLine
 62
7
  6
CONTINUOUS
 10
97.8133315234
 20
65.521459833
 11
98.3403444284
 21
62.9400682517
  0
LINE
  5
468
100
AcDbEntity
  8
0
100
AcDbLine
 62
7
  6
CONTINUOUS
 10
101.7560253676
 20
62.0220975103
 11
101.2290124626
 21
64.6034890916
  0
LINE
  5
469
100
AcDbEntity
  8
0
100
AcDbLine
 62
7
  6
CONTINUOUS
 10
88.4896394477
 20
210.8519461933
 11
88.5001304283
 21
210.1518800771
  0
LINE
  5
46A
100
AcDbEntity
  8
0
100
AcDbLine
 62
7
  6
CONTINUOUS
 10
89.539194769
 20
70.086901073
 11
89.539194769
 21
91.2106569899
  0
LINE
  5
46B
100
AcDbEntity
  8
0
100
AcDbLine
 62
7
  6
CONTINUOUS
 10
89.7960288043
 20
91.3589393042
 11
89.7960288043
 21
69.3752345604
  0
LINE
  5
46C
100
AcDbEntity
  8
0
100
AcDbLine
 62
7
  6
CONTINUOUS
 10
89.9289624886
 20
131.6891641873
 11
89.9289624886
 21
135.8009654145
  0
LINE
  5
46D
100
AcDbEntity
  8
0
100
AcDbLine
 62
7
  6
CONTINUOUS
 10
90.1495807229
 20
69.5793566373
 11
90.1495807229
 21
91.5630613811
  0
LINE
  5
46E
100
AcDbEntity
  8
0
100
AcDbLine
 62
7
  6
CONTINUOUS
 10
90.4685649296
 20
92.5024895771
 11
90.4685649296
 21
94.7886963451
  0
LINE
  5
46F
100
AcDbEntity
  8
0
100
AcDbLine
 62
7
  6
CONTINUOUS
 10
90.4685649296
 20
95.6133637864
 11
90.4685649296
 21
97.8995705543
  0
LINE
  5
470
100
AcDbEntity
  8
0
100
AcDbLine
 62
7
  6
CONTINUOUS
 10
90.4685649296
 20
98.7242379956
 11
90.4685649296
 21
101.0104447636
  0
LINE
  5
471
100
AcDbEntity
  8
0
100
AcDbLine
 62
7
  6
CONTINUOUS
 10
90.4685649296
 20
101.8351122049
 11
90.4685649296
 21
104.1213189729
  0
LINE
  5
472
100
AcDbEntity
  8
0
100
AcDbLine
 62
7
  6
CONTINUOUS
 10
90.4685649296
 20
104.9459864142
 11
90.4685649296
 21
107.2321931821
  0
LINE
  5
473
100
AcDbEntity
  8
0
100
AcDbLine
 62
7
  6
CONTINUOUS
 10
90.4685649296
 20
108.0568606234
 11
90.4685649296
 21
110.3430673914
  0
LINE
  5
474
100
AcDbEntity
  8
0
100
AcDbLine
 62
7
  6
CONTINUOUS
 10
90.4685649296
 20
111.1677348327
 11
90.4685649296
 21
113.4539416007
  0
LINE
  5
475
100
AcDbEntity
  8
0
100
AcDbLine
 62
7
  6
CONTINUOUS
 10
90.4685649296
 20
114.278609042
 11
90.4685649296
 21
116.5648158099
  0
LINE
  5
476
100
AcDbEntity
  8
0
100
AcDbLine
 62
7
  6
CONTINUOUS
 10
90.4685649296
 20
117.3894832512
 11
90.4685649296
 21
119.6756900192
  0
LINE
  5
477
100
AcDbEntity
  8
0
100
AcDbLine
 62
7
  6
CONTINUOUS
 10
90.4685649296
 20
120.5003574605
 11
90.4685649296
 21
122.7865642285
  0
LINE
  5
478
100
AcDbEntity
  8
0
100
AcDbLine
 62
7
  6
CONTINUOUS
 10
90.4685649296
 20
123.6112316698
 11
90.4685649296
 21
125.8974384377
  0
LINE
  5
479
100
AcDbEntity
  8
0
100
AcDbLine
 62
7
  6
CONTINUOUS
 10
90.521598159
 20
123.4581382506
 11
90.521598159
 21
122.8784215344
  0
LINE
  5
47A
100
AcDbEntity
  8
0
100
AcDbLine
 62
7
  6
CONTINUOUS
 10
90.521598159
 20
120.3472640413
 11
90.521598159
 21
119.7675473252
  0
LINE
  5
47B
100
AcDbEntity
  8
0
100
AcDbLine
 62
7
  6
CONTINUOUS
 10
90.521598159
 20
117.2363898321
 11
90.521598159
 21
116.6566731159
  0
LINE
  5
47C
100
AcDbEntity
  8
0
100
AcDbLine
 62
7
  6
CONTINUOUS
 10
90.521598159
 20
114.1255156228
 11
90.521598159
 21
113.5457989066
  0
LINE
  5
47D
100
AcDbEntity
  8
0
100
AcDbLine
 62
7
  6
CONTINUOUS
 10
90.521598159
 20
111.0146414135
 11
90.521598159
 21
110.4349246974
  0
LINE
  5
47E
100
AcDbEntity
  8
0
100
AcDbLine
 62
7
  6
CONTINUOUS
 10
90.521598159
 20
107.9037672043
 11
90.521598159
 21
107.3240504881
  0
LINE
  5
47F
100
AcDbEntity
  8
0
100
AcDbLine
 62
7
  6
CONTINUOUS
 10
90.521598159
 20
104.792892995
 11
90.521598159
 21
104.2131762789
  0
LINE
  5
480
100
AcDbEntity
  8
0
100
AcDbLine
 62
7
  6
CONTINUOUS
 10
90.521598159
 20
101.6820187858
 11
90.521598159
 21
101.1023020696
  0
LINE
  5
481
100
AcDbEntity
  8
0
100
AcDbLine
 62
7
  6
CONTINUOUS
 10
90.521598159
 20
98.5711445765
 11
90.521598159
 21
97.9914278603
  0
LINE
  5
482
100
AcDbEntity
  8
0
100
AcDbLine
 62
7
  6
CONTINUOUS
 10
90.521598159
 20
95.4602703672
 11
90.521598159
 21
94.8805536511
  0
LINE
  5
483
100
AcDbEntity
  8
0
100
AcDbLine
 62
7
  6
CONTINUOUS
 10
90.521598159
 20
91.777844466
 11
90.521598159
 21
92.349396158
  0
LINE
  5
484
100
AcDbEntity
  8
0
100
AcDbLine
 62
7
  6
CONTINUOUS
 10
90.521598159
 20
125.9892957437
 11
90.521598159
 21
126.6424976774
  0
LINE
  5
485
100
AcDbEntity
  8
0
100
AcDbLine
 62
7
  6
CONTINUOUS
 10
92.796482197
 20
125.2136550366
 11
92.796482197
 21
90.3490018251
  0
LINE
  5
486
100
AcDbEntity
  8
0
100
AcDbLine
 62
7
  6
CONTINUOUS
 10
93.1379041421
 20
90.2673536742
 11
93.1379041421
 21
125.1320068857
  0
LINE
  5
487
100
AcDbEntity
  8
0
100
AcDbLine
 62
7
  6
CONTINUOUS
 10
94.4107016473
 20
124.3971735275
 11
94.4107016473
 21
89.5325203161
  0
LINE
  5
488
100
AcDbEntity
  8
0
100
AcDbLine
 62
7
  6
CONTINUOUS
 10
94.834965716
 20
89.5325213359
 11
94.834965716
 21
124.3971745473
  0
LINE
  5
489
100
AcDbEntity
  8
0
100
AcDbLine
 62
7
  6
CONTINUOUS
 10
96.853001737
 20
79.8485413796
 11
96.853001737
 21
71.433921815
  0
LINE
  5
48A
100
AcDbEntity
  8
0
100
AcDbLine
 62
7
  6
CONTINUOUS
 10
91.5772842649
 20
208.7091336108
 11
91.5893095101
 21
210.2796860786
  0
LINE
  5
48B
100
AcDbEntity
  8
0
100
AcDbLine
 62
7
  6
CONTINUOUS
 10
88.5416909286
 20
127.7855717901
 11
87.9756311928
 21
126.8876568739
  0
LINE
  5
48C
100
AcDbEntity
  8
0
100
AcDbLine
 62
7
  6
CONTINUOUS
 10
88.0313155557
 20
123.7916270295
 11
87.9756311928
 21
123.7032974471
  0
LINE
  5
48D
100
AcDbEntity
  8
0
100
AcDbLine
 62
7
  6
CONTINUOUS
 10
88.0313155557
 20
120.6807528202
 11
87.9756311928
 21
120.5924232379
  0
LINE
  5
48E
100
AcDbEntity
  8
0
100
AcDbLine
 62
7
  6
CONTINUOUS
 10
46.2133798635
 20
112.634970642
 11
46.9451765164
 21
113.0574716073
  0
LINE
  5
48F
100
AcDbEntity
  8
0
100
AcDbLine
 62
7
  6
CONTINUOUS
 10
81.6112284365
 20
132.6340308153
 11
87.2600720893
 21
135.8953727512
  0
LINE
  5
490
100
AcDbEntity
  8
0
100
AcDbLine
 62
7
  6
CONTINUOUS
 10
82.4194548524
 20
132.1674116328
 11
88.0682985051
 21
135.4287535688
  0
LINE
  5
491
100
AcDbEntity
  8
0
100
AcDbLine
 62
7
  6
CONTINUOUS
 10
36.3031727978
 20
105.4229707285
 11
34.3515499563
 21
104.2962074815
  0
LINE
  5
492
100
AcDbEntity
  8
0
100
AcDbLine
 62
7
  6
CONTINUOUS
 10
88.818797865
 20
134.9496105386
 11
82.4194548524
 21
131.2549701817
  0
LINE
  5
493
100
AcDbEntity
  8
0
100
AcDbLine
 62
7
  6
CONTINUOUS
 10
156.1436447867
 20
173.0100663807
 11
154.488383281
 21
172.0544064093
  0
LINE
  5
494
100
AcDbEntity
  8
0
100
AcDbLine
 62
7
  6
CONTINUOUS
 10
88.818797865
 20
133.5811761348
 11
83.6045707517
 21
130.5707586771
  0
LINE
  5
495
100
AcDbEntity
  8
0
100
AcDbLine
 62
7
  6
CONTINUOUS
 10
158.6504660898
 20
172.9174071769
 11
157.4773122467
 21
172.2400905328
  0
LINE
  5
496
100
AcDbEntity
  8
0
100
AcDbLine
 62
7
  6
CONTINUOUS
 10
80.720272538
 20
127.8444214678
 11
81.0031140729
 21
128.0077191293
  0
LINE
  5
497
100
AcDbEntity
  8
0
100
AcDbLine
 62
7
  6
CONTINUOUS
 10
88.818797865
 20
131.2892538499
 11
83.6045707517
 21
128.2788363922
  0
LINE
  5
498
100
AcDbEntity
  8
0
100
AcDbLine
 62
7
  6
CONTINUOUS
 10
94.8348927057
 20
134.5215874114
 11
86.0668051242
 21
129.4593599034
  0
LINE
  5
499
100
AcDbEntity
  8
0
100
AcDbLine
 62
7
  6
CONTINUOUS
 10
158.4890134678
 20
170.4387030294
 11
157.8879752062
 21
170.0916954986
  0
LINE
  5
49A
100
AcDbEntity
  8
0
100
AcDbLine
 62
7
  6
CONTINUOUS
 10
84.9692925213
 20
127.490931736
 11
85.9789380418
 21
128.0738473695
  0
LINE
  5
49B
100
AcDbEntity
  8
0
100
AcDbLine
 62
7
  6
CONTINUOUS
 10
85.9789380418
 20
127.7525536684
 11
84.9692925213
 21
127.1696380349
  0
LINE
  5
49C
100
AcDbEntity
  8
0
100
AcDbLine
 62
7
  6
CONTINUOUS
 10
57.9002645557
 20
118.9131297961
 11
56.6562329175
 21
118.2433622788
  0
LINE
  5
49D
100
AcDbEntity
  8
0
100
AcDbLine
 62
7
  6
CONTINUOUS
 10
55.6420130424
 20
115.9885657426
 11
56.872941872
 21
116.6307153525
  0
LINE
  5
49E
100
AcDbEntity
  8
0
100
AcDbLine
 62
7
  6
CONTINUOUS
 10
60.1327728904
 20
120.0387622417
 11
57.900215763
 21
118.8781904392
  0
LINE
  5
49F
100
AcDbEntity
  8
0
100
AcDbLine
 62
7
  6
CONTINUOUS
 10
50.4807251421
 20
110.1997654176
 11
49.7489284892
 21
109.8342902377
  0
LINE
  5
4A0
100
AcDbEntity
  8
0
100
AcDbLine
 62
7
  6
CONTINUOUS
 10
56.9330599045
 20
116.6752510575
 11
59.0028483241
 21
117.6993171766
  0
LINE
  5
4A1
100
AcDbEntity
  8
0
100
AcDbLine
 62
7
  6
CONTINUOUS
 10
82.4194548524
 20
135.4856774561
 11
81.6112284365
 21
135.9522966385
  0
LINE
  5
4A2
100
AcDbEntity
  8
0
100
AcDbLine
 62
7
  6
CONTINUOUS
 10
83.6045707517
 20
135.7139074026
 11
82.4194548524
 21
136.3981189072
  0
LINE
  5
4A3
100
AcDbEntity
  8
0
100
AcDbLine
 62
7
  6
CONTINUOUS
 10
46.8136563616
 20
156.9706702758
 11
39.9448179107
 21
160.9363062897
  0
LINE
  5
4A4
100
AcDbEntity
  8
0
100
AcDbLine
 62
7
  6
CONTINUOUS
 10
47.4899094713
 20
157.1842268597
 11
39.9448179107
 21
161.540288956
  0
LINE
  5
4A5
100
AcDbEntity
  8
0
100
AcDbLine
 62
7
  6
CONTINUOUS
 10
47.6184730366
 20
157.1342752456
 11
53.1626620785
 21
153.9334086231
  0
LINE
  5
4A6
100
AcDbEntity
  8
0
100
AcDbLine
 62
7
  6
CONTINUOUS
 10
106.2717018864
 20
123.9497028709
 11
103.5139739583
 21
125.5418418135
  0
LINE
  5
4A7
100
AcDbEntity
  8
0
100
AcDbLine
 62
7
  6
CONTINUOUS
 10
106.2717018864
 20
124.4502925635
 11
103.5139739583
 21
126.0424315062
  0
LINE
  5
4A8
100
AcDbEntity
  8
0
100
AcDbLine
 62
7
  6
CONTINUOUS
 10
54.364716695
 20
154.6758820711
 11
48.7810183953
 21
157.8995588736
  0
LINE
  5
4A9
100
AcDbEntity
  8
0
100
AcDbLine
 62
7
  6
CONTINUOUS
 10
88.818797865
 20
134.9954623637
 11
86.9449570933
 21
136.0773003631
  0
LINE
  5
4AA
100
AcDbEntity
  8
0
100
AcDbLine
 62
7
  6
CONTINUOUS
 10
84.9692925213
 20
137.2179250313
 11
83.6045707517
 21
138.0058296875
  0
LINE
  5
4AB
100
AcDbEntity
  8
0
100
AcDbLine
 62
7
  6
CONTINUOUS
 10
86.9449570933
 20
136.3985940643
 11
84.9692925213
 21
137.5392187324
  0
LINE
  5
4AC
100
AcDbEntity
  8
0
100
AcDbLine
 62
7
  6
CONTINUOUS
 10
89.9289624886
 20
135.8009654145
 11
80.720272538
 21
141.1174847606
  0
LINE
  5
4AD
100
AcDbEntity
  8
0
100
AcDbLine
 62
7
  6
CONTINUOUS
 10
43.2682059456
 20
163.6601545479
 11
56.5972242647
 21
155.9648163252
  0
LINE
  5
4AE
100
AcDbEntity
  8
0
100
AcDbLine
 62
7
  6
CONTINUOUS
 10
105.8474166211
 20
127.5308477729
 11
108.6051445201
 21
125.9387088471
  0
LINE
  5
4AF
100
AcDbEntity
  8
0
100
AcDbLine
 62
7
  6
CONTINUOUS
 10
102.9666563112
 20
129.5818732619
 11
103.3909221463
 21
129.3369288092
  0
LINE
  5
4B0
100
AcDbEntity
  8
0
100
AcDbLine
 62
7
  6
CONTINUOUS
 10
102.2241896278
 20
130.2146472812
 11
97.3451325243
 21
133.0315084874
  0
LINE
  5
4B1
100
AcDbEntity
  8
0
100
AcDbLine
 62
7
  6
CONTINUOUS
 10
102.9666545449
 20
129.8268187344
 11
102.3207823182
 21
130.1997048025
  0
LINE
  5
4B2
100
AcDbEntity
  8
0
100
AcDbLine
 62
7
  6
CONTINUOUS
 10
97.3451325243
 20
133.0723325629
 11
94.8348927057
 21
134.5215874114
  0
LINE
  5
4B3
100
AcDbEntity
  8
0
100
AcDbLine
 62
7
  6
CONTINUOUS
 10
102.2241896278
 20
130.4595980064
 11
97.3451325243
 21
133.2764592126
  0
LINE
  5
4B4
100
AcDbEntity
  8
0
100
AcDbLine
 62
7
  6
CONTINUOUS
 10
102.6838077108
 20
130.6433082156
 11
97.7340396348
 21
133.5009934972
  0
LINE
  5
4B5
100
AcDbEntity
  8
0
100
AcDbLine
 62
7
  6
CONTINUOUS
 10
103.7038758929
 20
66.0323436301
 11
104.2308887979
 21
63.4509520488
  0
LINE
  5
4B6
100
AcDbEntity
  8
0
100
AcDbLine
 62
7
  6
CONTINUOUS
 10
97.3451325243
 20
133.2764592126
 11
97.3451325243
 21
133.0315084874
  0
LINE
  5
4B7
100
AcDbEntity
  8
0
100
AcDbLine
 62
7
  6
CONTINUOUS
 10
101.9392021843
 20
125.1332106033
 11
101.9392021843
 21
99.6583351889
  0
LINE
  5
4B8
100
AcDbEntity
  8
0
100
AcDbLine
 62
7
  6
CONTINUOUS
 10
102.2241896278
 20
130.4595980064
 11
102.2241896278
 21
130.2146472812
  0
LINE
  5
4B9
100
AcDbEntity
  8
0
100
AcDbLine
 62
7
  6
CONTINUOUS
 10
102.3656109841
 20
130.1738235457
 11
102.3656109841
 21
130.4595983463
  0
LINE
  5
4BA
100
AcDbEntity
  8
0
100
AcDbLine
 62
7
  6
CONTINUOUS
 10
102.3727242812
 20
124.8829221663
 11
102.3727242812
 21
99.4080467519
  0
LINE
  5
4BB
100
AcDbEntity
  8
0
100
AcDbLine
 62
7
  6
CONTINUOUS
 10
102.5240191655
 20
99.4839948875
 11
102.5240191655
 21
124.958870302
  0
LINE
  5
4BC
100
AcDbEntity
  8
0
100
AcDbLine
 62
7
  6
CONTINUOUS
 10
102.5240217327
 20
67.2803306873
 11
102.5240217327
 21
77.4539508048
  0
LINE
  5
4BD
100
AcDbEntity
  8
0
100
AcDbLine
 62
7
  6
CONTINUOUS
 10
102.6838077108
 20
129.9901167359
 11
102.6838077108
 21
130.6433082156
  0
LINE
  5
4BE
100
AcDbEntity
  8
0
100
AcDbLine
 62
7
  6
CONTINUOUS
 10
103.0545233937
 20
129.7043454883
 11
103.0545233937
 21
129.5311443258
  0
LINE
  5
4BF
100
AcDbEntity
  8
0
100
AcDbLine
 62
7
  6
CONTINUOUS
 10
103.3909221463
 20
129.3369288092
 11
103.3909221463
 21
126.8144965927
  0
LINE
  5
4C0
100
AcDbEntity
  8
0
100
AcDbLine
 62
7
  6
CONTINUOUS
 10
103.3909221463
 20
97.0480144248
 11
103.3909221463
 21
94.4722755978
  0
LINE
  5
4C1
100
AcDbEntity
  8
0
100
AcDbLine
 62
7
  6
CONTINUOUS
 10
103.690750212
 20
121.5091648388
 11
103.690750212
 21
120.6110121799
  0
LINE
  5
4C2
100
AcDbEntity
  8
0
100
AcDbLine
 62
7
  6
CONTINUOUS
 10
103.690750212
 20
118.896357104
 11
103.690750212
 21
117.9982044451
  0
LINE
  5
4C3
100
AcDbEntity
  8
0
100
AcDbLine
 62
7
  6
CONTINUOUS
 10
103.690750212
 20
116.2835493691
 11
103.690750212
 21
115.3853967103
  0
LINE
  5
4C4
100
AcDbEntity
  8
0
100
AcDbLine
 62
7
  6
CONTINUOUS
 10
103.690750212
 20
113.6707416343
 11
103.690750212
 21
112.7725889755
  0
LINE
  5
4C5
100
AcDbEntity
  8
0
100
AcDbLine
 62
7
  6
CONTINUOUS
 10
103.690750212
 20
108.2001754396
 11
103.690750212
 21
107.3020227807
  0
LINE
  5
4C6
100
AcDbEntity
  8
0
100
AcDbLine
 62
7
  6
CONTINUOUS
 10
103.690750212
 20
105.5873677048
 11
103.690750212
 21
104.6892150459
  0
LINE
  5
4C7
100
AcDbEntity
  8
0
100
AcDbLine
 62
7
  6
CONTINUOUS
 10
103.690750212
 20
102.9745599699
 11
103.690750212
 21
102.0764073111
  0
LINE
  5
4C8
100
AcDbEntity
  8
0
100
AcDbLine
 62
7
  6
CONTINUOUS
 10
103.690750212
 20
100.3617522351
 11
103.690750212
 21
99.4635995763
  0
LINE
  5
4C9
100
AcDbEntity
  8
0
100
AcDbLine
 62
7
  6
CONTINUOUS
 10
104.1150125144
 20
99.7085460686
 11
104.1150125144
 21
100.116809822
  0
LINE
  5
4CA
100
AcDbEntity
  8
0
100
AcDbLine
 62
7
  6
CONTINUOUS
 10
104.1150125144
 20
102.3213538034
 11
104.1150125144
 21
102.7296175568
  0
LINE
  5
4CB
100
AcDbEntity
  8
0
100
AcDbLine
 62
7
  6
CONTINUOUS
 10
104.1150125144
 20
104.9341615382
 11
104.1150125144
 21
105.3424252916
  0
LINE
  5
4CC
100
AcDbEntity
  8
0
100
AcDbLine
 62
7
  6
CONTINUOUS
 10
104.1150125144
 20
107.546969273
 11
104.1150125144
 21
107.9552330264
  0
LINE
  5
4CD
100
AcDbEntity
  8
0
100
AcDbLine
 62
7
  6
CONTINUOUS
 10
104.1150125144
 20
113.0175354678
 11
104.1150125144
 21
113.4257992212
  0
LINE
  5
4CE
100
AcDbEntity
  8
0
100
AcDbLine
 62
7
  6
CONTINUOUS
 10
104.1150125144
 20
115.6303432026
 11
104.1150125144
 21
116.038606956
  0
LINE
  5
4CF
100
AcDbEntity
  8
0
100
AcDbLine
 62
7
  6
CONTINUOUS
 10
104.1150125144
 20
118.2431509374
 11
104.1150125144
 21
118.6514146908
  0
LINE
  5
4D0
100
AcDbEntity
  8
0
100
AcDbLine
 62
7
  6
CONTINUOUS
 10
104.1150125144
 20
120.8559586723
 11
104.1150125144
 21
121.2642224257
  0
LINE
  5
4D1
100
AcDbEntity
  8
0
100
AcDbLine
 62
7
  6
CONTINUOUS
 10
88.0313155557
 20
117.569878611
 11
87.9756311928
 21
117.4815490286
  0
LINE
  5
4D2
100
AcDbEntity
  8
0
100
AcDbLine
 62
7
  6
CONTINUOUS
 10
88.0313155557
 20
114.4590044017
 11
87.9756311928
 21
114.3706748194
  0
LINE
  5
4D3
100
AcDbEntity
  8
0
100
AcDbLine
 62
7
  6
CONTINUOUS
 10
88.0313155557
 20
111.3481301924
 11
87.9756311928
 21
111.2598006101
  0
LINE
  5
4D4
100
AcDbEntity
  8
0
100
AcDbLine
 62
7
  6
CONTINUOUS
 10
88.0313155557
 20
108.2372559832
 11
87.9756311928
 21
108.1489264008
  0
LINE
  5
4D5
100
AcDbEntity
  8
0
100
AcDbLine
 62
7
  6
CONTINUOUS
 10
89.1260461337
 20
125.5702775901
 11
89.043492812
 21
125.4954633318
  0
LINE
  5
4D6
100
AcDbEntity
  8
0
100
AcDbLine
 62
7
  6
CONTINUOUS
 10
89.1260461337
 20
122.4594033808
 11
89.043492812
 21
122.3845891226
  0
LINE
  5
4D7
100
AcDbEntity
  8
0
100
AcDbLine
 62
7
  6
CONTINUOUS
 10
89.1260461337
 20
119.3485291716
 11
89.043492812
 21
119.2737149133
  0
LINE
  5
4D8
100
AcDbEntity
  8
0
100
AcDbLine
 62
7
  6
CONTINUOUS
 10
97.3451325243
 20
133.2764592126
 11
97.7340396348
 21
133.5009934972
  0
LINE
  5
4D9
100
AcDbEntity
  8
0
100
AcDbLine
 62
7
  6
CONTINUOUS
 10
87.9936897235
 20
126.101553716
 11
88.0997580152
 21
126.1627919072
  0
LINE
  5
4DA
100
AcDbEntity
  8
0
100
AcDbLine
 62
7
  6
CONTINUOUS
 10
161.7603541722
 20
167.8560270377
 11
162.3613924338
 21
168.2030345685
  0
LINE
  5
4DB
100
AcDbEntity
  8
0
100
AcDbLine
 62
7
  6
CONTINUOUS
 10
90.521598159
 20
126.6424976774
 11
89.4609424032
 21
126.0301314466
  0
LINE
  5
4DC
100
AcDbEntity
  8
0
100
AcDbLine
 62
7
  6
CONTINUOUS
 10
90.521598159
 20
125.9892957437
 11
89.4609424032
 21
125.3769295129
  0
LINE
  5
4DD
100
AcDbEntity
  8
0
100
AcDbLine
 62
7
  6
CONTINUOUS
 10
89.4079091738
 20
125.2850722069
 11
90.4685649296
 21
125.8974384377
  0
LINE
  5
4DE
100
AcDbEntity
  8
0
100
AcDbLine
 62
7
  6
CONTINUOUS
 10
87.9936897235
 20
122.9906795067
 11
88.0997580152
 21
123.0519176979
  0
LINE
  5
4DF
100
AcDbEntity
  8
0
100
AcDbLine
 62
7
  6
CONTINUOUS
 10
165.4815401432
 20
167.6189519463
 11
166.6546939863
 21
168.2962685904
  0
LINE
  5
4E0
100
AcDbEntity
  8
0
100
AcDbLine
 62
7
  6
CONTINUOUS
 10
90.4685649296
 20
123.6112316698
 11
89.4079091738
 21
122.9988654389
  0
LINE
  5
4E1
100
AcDbEntity
  8
0
100
AcDbLine
 62
7
  6
CONTINUOUS
 10
102.3656109841
 20
130.4595983463
 11
102.6838077108
 21
130.6433082156
  0
LINE
  5
4E2
100
AcDbEntity
  8
0
100
AcDbLine
 62
7
  6
CONTINUOUS
 10
90.521598159
 20
123.4581382506
 11
89.4609424032
 21
122.8457720198
  0
LINE
  5
4E3
100
AcDbEntity
  8
0
100
AcDbLine
 62
7
  6
CONTINUOUS
 10
90.521598159
 20
122.8784215344
 11
89.4609424032
 21
122.2660553036
  0
LINE
  5
4E4
100
AcDbEntity
  8
0
100
AcDbLine
 62
7
  6
CONTINUOUS
 10
89.4079091738
 20
122.1741979976
 11
90.4685649296
 21
122.7865642285
  0
LINE
  5
4E5
100
AcDbEntity
  8
0
100
AcDbLine
 62
7
  6
CONTINUOUS
 10
165.1599460974
 20
165.893316127
 11
166.8152076032
 21
166.8489760984
  0
LINE
  5
4E6
100
AcDbEntity
  8
0
100
AcDbLine
 62
7
  6
CONTINUOUS
 10
103.3909221463
 20
129.3369288092
 11
94.834965716
 21
124.3971745473
  0
LINE
  5
4E7
100
AcDbEntity
  8
0
100
AcDbLine
 62
7
  6
CONTINUOUS
 10
87.9936897235
 20
119.8798052974
 11
88.0997580152
 21
119.9410434886
  0
LINE
  5
4E8
100
AcDbEntity
  8
0
100
AcDbLine
 62
7
  6
CONTINUOUS
 10
88.3581060853
 20
125.891162591
 11
88.4876893469
 21
125.9388247151
  0
LINE
  5
4E9
100
AcDbEntity
  8
0
100
AcDbLine
 62
7
  6
CONTINUOUS
 10
89.043492812
 20
123.8570484686
 11
88.3581060853
 21
123.6049558231
  0
LINE
  5
4EA
100
AcDbEntity
  8
0
100
AcDbLine
 62
7
  6
CONTINUOUS
 10
88.3581060853
 20
122.7802883818
 11
88.4876893469
 21
122.8279505059
  0
LINE
  5
4EB
100
AcDbEntity
  8
0
100
AcDbLine
 62
7
  6
CONTINUOUS
 10
21.9134922462
 20
183.0313586822
 11
110.3022078896
 21
132.0012643671
  0
LINE
  5
4EC
100
AcDbEntity
  8
0
100
AcDbLine
 62
7
  6
CONTINUOUS
 10
105.0243409011
 20
78.8975021329
 11
105.0243409011
 21
68.7238820154
  0
LINE
  5
4ED
100
AcDbEntity
  8
0
100
AcDbLine
 62
7
  6
CONTINUOUS
 10
105.1049696623
 20
98.6471180672
 11
105.1049696623
 21
99.5452707261
  0
LINE
  5
4EE
100
AcDbEntity
  8
0
100
AcDbLine
 62
7
  6
CONTINUOUS
 10
105.1049696623
 20
101.2599258021
 11
105.1049696623
 21
102.1580784609
  0
LINE
  5
4EF
100
AcDbEntity
  8
0
100
AcDbLine
 62
7
  6
CONTINUOUS
 10
105.1049696623
 20
103.8727335369
 11
105.1049696623
 21
104.7708861957
  0
LINE
  5
4F0
100
AcDbEntity
  8
0
100
AcDbLine
 62
7
  6
CONTINUOUS
 10
105.1049696623
 20
106.4855412717
 11
105.1049696623
 21
107.3836939305
  0
LINE
  5
4F1
100
AcDbEntity
  8
0
100
AcDbLine
 62
7
  6
CONTINUOUS
 10
105.1049696623
 20
111.9561074665
 11
105.1049696623
 21
112.8542601253
  0
LINE
  5
4F2
100
AcDbEntity
  8
0
100
AcDbLine
 62
7
  6
CONTINUOUS
 10
105.1049696623
 20
114.5689152013
 11
105.1049696623
 21
115.4670678601
  0
LINE
  5
4F3
100
AcDbEntity
  8
0
100
AcDbLine
 62
7
  6
CONTINUOUS
 10
105.1049696623
 20
117.1817229361
 11
105.1049696623
 21
118.0798755949
  0
LINE
  5
4F4
100
AcDbEntity
  8
0
100
AcDbLine
 62
7
  6
CONTINUOUS
 10
105.1049696623
 20
119.7945306709
 11
105.1049696623
 21
120.6926833297
  0
LINE
  5
4F5
100
AcDbEntity
  8
0
100
AcDbLine
 62
7
  6
CONTINUOUS
 10
107.4129515636
 20
96.4981360046
 11
107.4129515636
 21
121.973011419
  0
LINE
  5
4F6
100
AcDbEntity
  8
0
100
AcDbLine
 62
7
  6
CONTINUOUS
 10
107.8464736604
 20
96.2478475676
 11
107.8464736604
 21
121.7227229819
  0
LINE
  5
4F7
100
AcDbEntity
  8
0
100
AcDbLine
 62
7
  6
CONTINUOUS
 10
110.3022078896
 20
132.0012643671
 11
110.3022078896
 21
50.3510226542
  0
LINE
  5
4F8
100
AcDbEntity
  8
0
100
AcDbLine
 62
7
  6
CONTINUOUS
 10
98.3573150618
 20
86.6739872797
 11
97.8303021568
 21
84.7011240167
  0
LINE
  5
4F9
100
AcDbEntity
  8
0
100
AcDbLine
 62
7
  6
CONTINUOUS
 10
88.0313155557
 20
105.1263817739
 11
87.9756311928
 21
105.0380521916
  0
LINE
  5
4FA
100
AcDbEntity
  8
0
100
AcDbLine
 62
7
  6
CONTINUOUS
 10
88.0313155557
 20
102.0155075647
 11
87.9756311928
 21
101.9271779823
  0
LINE
  5
4FB
100
AcDbEntity
  8
0
100
AcDbLine
 62
7
  6
CONTINUOUS
 10
88.0313155557
 20
98.9046333554
 11
87.9756311928
 21
98.816303773
  0
LINE
  5
4FC
100
AcDbEntity
  8
0
100
AcDbLine
 62
7
  6
CONTINUOUS
 10
88.0313155557
 20
95.7937591461
 11
87.9756311928
 21
95.7054295638
  0
LINE
  5
4FD
100
AcDbEntity
  8
0
100
AcDbLine
 62
7
  6
CONTINUOUS
 10
88.0313155557
 20
92.6828849369
 11
87.9756311928
 21
92.5945553545
  0
LINE
  5
4FE
100
AcDbEntity
  8
0
100
AcDbLine
 62
7
  6
CONTINUOUS
 10
89.1260461337
 20
116.2376549623
 11
89.043492812
 21
116.162840704
  0
LINE
  5
4FF
100
AcDbEntity
  8
0
100
AcDbLine
 62
7
  6
CONTINUOUS
 10
89.1260461337
 20
113.1267807531
 11
89.043492812
 21
113.0519664948
  0
LINE
  5
500
100
AcDbEntity
  8
0
100
AcDbLine
 62
7
  6
CONTINUOUS
 10
89.1260461337
 20
110.0159065438
 11
89.043492812
 21
109.9410922855
  0
LINE
  5
501
100
AcDbEntity
  8
0
100
AcDbLine
 62
7
  6
CONTINUOUS
 10
89.1260461337
 20
106.9050323345
 11
89.043492812
 21
106.8302180762
  0
LINE
  5
502
100
AcDbEntity
  8
0
100
AcDbLine
 62
7
  6
CONTINUOUS
 10
102.3599504586
 20
126.1275750332
 11
104.6037754741
 21
127.6226032645
  0
LINE
  5
503
100
AcDbEntity
  8
0
100
AcDbLine
 62
7
  6
CONTINUOUS
 10
103.5139739583
 20
126.0424315062
 11
105.8474166211
 21
127.5308477729
  0
LINE
  5
504
100
AcDbEntity
  8
0
100
AcDbLine
 62
7
  6
CONTINUOUS
 10
108.6051445505
 20
125.9387088295
 11
106.2717018877
 21
124.4502925628
  0
LINE
  5
505
100
AcDbEntity
  8
0
100
AcDbLine
 62
7
  6
CONTINUOUS
 10
169.9110613667
 20
166.4162465385
 11
110.3022078896
 21
132.0012643671
  0
LINE
  5
506
100
AcDbEntity
  8
0
100
AcDbLine
 62
7
  6
CONTINUOUS
 10
90.4685649296
 20
120.5003574605
 11
89.4079091738
 21
119.8879912297
  0
LINE
  5
507
100
AcDbEntity
  8
0
100
AcDbLine
 62
7
  6
CONTINUOUS
 10
90.521598159
 20
120.3472640413
 11
89.4609424032
 21
119.7348978105
  0
LINE
  5
508
100
AcDbEntity
  8
0
100
AcDbLine
 62
7
  6
CONTINUOUS
 10
90.521598159
 20
119.7675473252
 11
89.4609424032
 21
119.1551810944
  0
LINE
  5
509
100
AcDbEntity
  8
0
100
AcDbLine
 62
7
  6
CONTINUOUS
 10
89.4079091738
 20
119.0633237884
 11
90.4685649296
 21
119.6756900192
  0
LINE
  5
50A
100
AcDbEntity
  8
0
100
AcDbLine
 62
7
  6
CONTINUOUS
 10
87.9936897235
 20
116.7689310882
 11
88.0997580152
 21
116.8301692794
  0
LINE
  5
50B
100
AcDbEntity
  8
0
100
AcDbLine
 62
7
  6
CONTINUOUS
 10
90.4685649296
 20
117.3894832512
 11
89.4079091738
 21
116.7771170204
  0
LINE
  5
50C
100
AcDbEntity
  8
0
100
AcDbLine
 62
7
  6
CONTINUOUS
 10
90.521598159
 20
117.2363898321
 11
89.4609424032
 21
116.6240236013
  0
LINE
  5
50D
100
AcDbEntity
  8
0
100
AcDbLine
 62
7
  6
CONTINUOUS
 10
90.521598159
 20
116.6566731159
 11
89.4609424032
 21
116.0443068851
  0
LINE
  5
50E
100
AcDbEntity
  8
0
100
AcDbLine
 62
7
  6
CONTINUOUS
 10
89.4079091738
 20
115.9524495791
 11
90.4685649296
 21
116.5648158099
  0
LINE
  5
50F
100
AcDbEntity
  8
0
100
AcDbLine
 62
7
  6
CONTINUOUS
 10
161.0966447687
 20
155.8693385908
 11
159.7531474779
 21
155.0936746985
  0
LINE
  5
510
100
AcDbEntity
  8
0
100
AcDbLine
 62
7
  6
CONTINUOUS
 10
87.9936897235
 20
113.6580568789
 11
88.0997580152
 21
113.7192950701
  0
LINE
  5
511
100
AcDbEntity
  8
0
100
AcDbLine
 62
7
  6
CONTINUOUS
 10
159.7531474779
 20
154.6854234899
 11
158.4096501872
 21
153.9097595976
  0
LINE
  5
512
100
AcDbEntity
  8
0
100
AcDbLine
 62
7
  6
CONTINUOUS
 10
90.4685649296
 20
114.278609042
 11
89.4079091738
 21
113.6662428112
  0
LINE
  5
513
100
AcDbEntity
  8
0
100
AcDbLine
 62
7
  6
CONTINUOUS
 10
90.521598159
 20
114.1255156228
 11
89.4609424032
 21
113.513149392
  0
LINE
  5
514
100
AcDbEntity
  8
0
100
AcDbLine
 62
7
  6
CONTINUOUS
 10
162.4412169367
 20
155.0930670493
 11
161.097719646
 21
154.3174031569
  0
LINE
  5
515
100
AcDbEntity
  8
0
100
AcDbLine
 62
7
  6
CONTINUOUS
 10
90.521598159
 20
113.5457989066
 11
89.4609424032
 21
112.9334326758
  0
LINE
  5
516
100
AcDbEntity
  8
0
100
AcDbLine
 62
7
  6
CONTINUOUS
 10
89.4079091738
 20
112.8415753699
 11
90.4685649296
 21
113.4539416007
  0
LINE
  5
517
100
AcDbEntity
  8
0
100
AcDbLine
 62
7
  6
CONTINUOUS
 10
162.4412181143
 20
154.7664695842
 11
161.3805623585
 21
154.1541033534
  0
LINE
  5
518
100
AcDbEntity
  8
0
100
AcDbLine
 62
7
  6
CONTINUOUS
 10
161.097719646
 20
153.9091519483
 11
159.7542223553
 21
153.133488056
  0
LINE
  5
519
100
AcDbEntity
  8
0
100
AcDbLine
 62
7
  6
CONTINUOUS
 10
104.1150125144
 20
120.8559586723
 11
103.690750212
 21
120.6110121799
  0
LINE
  5
51A
100
AcDbEntity
  8
0
100
AcDbLine
 62
7
  6
CONTINUOUS
 10
161.3805623585
 20
153.7458521448
 11
160.0370650678
 21
152.9701882524
  0
LINE
  5
51B
100
AcDbEntity
  8
0
100
AcDbLine
 62
7
  6
CONTINUOUS
 10
160.7088137131
 20
153.1130694735
 11
161.769469469
 21
153.7254357043
  0
LINE
  5
51C
100
AcDbEntity
  8
0
100
AcDbLine
 62
7
  6
CONTINUOUS
 10
102.3727242812
 20
124.8829221663
 11
102.5204445523
 21
124.9652817347
  0
LINE
  5
51D
100
AcDbEntity
  8
0
100
AcDbLine
 62
7
  6
CONTINUOUS
 10
157.1881308189
 20
154.9611295225
 11
164.9563959842
 21
159.2895386831
  0
LINE
  5
51E
100
AcDbEntity
  8
0
100
AcDbLine
 62
7
  6
CONTINUOUS
 10
89.043492812
 20
120.7461742593
 11
88.3581060853
 21
120.4940816138
  0
LINE
  5
51F
100
AcDbEntity
  8
0
100
AcDbLine
 62
7
  6
CONTINUOUS
 10
88.3581060853
 20
119.6694141725
 11
88.4876893469
 21
119.7170762966
  0
LINE
  5
520
100
AcDbEntity
  8
0
100
AcDbLine
 62
7
  6
CONTINUOUS
 10
89.043492812
 20
117.63530005
 11
88.3581060853
 21
117.3832074045
  0
LINE
  5
521
100
AcDbEntity
  8
0
100
AcDbLine
 62
7
  6
CONTINUOUS
 10
88.3581060853
 20
116.5585399632
 11
88.4876893469
 21
116.6062020874
  0
LINE
  5
522
100
AcDbEntity
  8
0
100
AcDbLine
 62
7
  6
CONTINUOUS
 10
89.043492812
 20
114.5244258408
 11
88.3581060853
 21
114.2723331953
  0
LINE
  5
523
100
AcDbEntity
  8
0
100
AcDbLine
 62
7
  6
CONTINUOUS
 10
54.5324252734
 20
144.0401074536
 11
54.0362521471
 21
144.0024914053
  0
LINE
  5
524
100
AcDbEntity
  8
0
100
AcDbLine
 62
7
  6
CONTINUOUS
 10
101.245983096
 20
81.6750953639
 11
101.772996001
 21
83.6479586268
  0
LINE
  5
525
100
AcDbEntity
  8
0
100
AcDbLine
 62
7
  6
CONTINUOUS
 10
104.2478594313
 20
85.0768131654
 11
103.7208465263
 21
83.1039499024
  0
LINE
  5
526
100
AcDbEntity
  8
0
100
AcDbLine
 62
7
  6
CONTINUOUS
 10
84.3237822651
 20
95.3149730831
 11
84.0684400306
 21
95.0541509013
  0
LINE
  5
527
100
AcDbEntity
  8
0
100
AcDbLine
 62
7
  6
CONTINUOUS
 10
89.1260461337
 20
103.7941581253
 11
89.043492812
 21
103.719343867
  0
LINE
  5
528
100
AcDbEntity
  8
0
100
AcDbLine
 62
7
  6
CONTINUOUS
 10
89.1260461337
 20
100.683283916
 11
89.043492812
 21
100.6084696577
  0
LINE
  5
529
100
AcDbEntity
  8
0
100
AcDbLine
 62
7
  6
CONTINUOUS
 10
73.4745419018
 20
86.2940782214
 11
73.2158800415
 21
86.0596649376
  0
LINE
  5
52A
100
AcDbEntity
  8
0
100
AcDbLine
 62
7
  6
CONTINUOUS
 10
89.1260461337
 20
97.5724097067
 11
89.043492812
 21
97.4975954484
  0
LINE
  5
52B
100
AcDbEntity
  8
0
100
AcDbLine
 62
7
  6
CONTINUOUS
 10
73.4745419018
 20
82.1462459424
 11
73.2158800415
 21
81.9118326586
  0
LINE
  5
52C
100
AcDbEntity
  8
0
100
AcDbLine
 62
7
  6
CONTINUOUS
 10
167.0826460178
 20
152.5357336661
 11
169.9110613667
 21
154.3398745954
  0
LINE
  5
52D
100
AcDbEntity
  8
0
100
AcDbLine
 62
7
  6
CONTINUOUS
 10
87.9936897235
 20
110.5471826696
 11
88.0997580152
 21
110.6084208608
  0
LINE
  5
52E
100
AcDbEntity
  8
0
100
AcDbLine
 62
7
  6
CONTINUOUS
 10
90.4685649296
 20
111.1677348327
 11
89.4079091738
 21
110.5553686019
  0
LINE
  5
52F
100
AcDbEntity
  8
0
100
AcDbLine
 62
7
  6
CONTINUOUS
 10
90.521598159
 20
111.0146414135
 11
89.4609424032
 21
110.4022751827
  0
LINE
  5
530
100
AcDbEntity
  8
0
100
AcDbLine
 62
7
  6
CONTINUOUS
 10
90.521598159
 20
110.4349246974
 11
89.4609424032
 21
109.8225584666
  0
LINE
  5
531
100
AcDbEntity
  8
0
100
AcDbLine
 62
7
  6
CONTINUOUS
 10
104.1150125144
 20
118.2431509374
 11
103.690750212
 21
117.9982044451
  0
LINE
  5
532
100
AcDbEntity
  8
0
100
AcDbLine
 62
7
  6
CONTINUOUS
 10
89.4079091738
 20
109.7307011606
 11
90.4685649296
 21
110.3430673914
  0
LINE
  5
533
100
AcDbEntity
  8
0
100
AcDbLine
 62
7
  6
CONTINUOUS
 10
87.9936897235
 20
107.4363084604
 11
88.0997580152
 21
107.4975466516
  0
LINE
  5
534
100
AcDbEntity
  8
0
100
AcDbLine
 62
7
  6
CONTINUOUS
 10
90.4685649296
 20
108.0568606234
 11
89.4079091738
 21
107.4444943926
  0
LINE
  5
535
100
AcDbEntity
  8
0
100
AcDbLine
 62
7
  6
CONTINUOUS
 10
90.521598159
 20
107.9037672043
 11
89.4609424032
 21
107.2914009735
  0
LINE
  5
536
100
AcDbEntity
  8
0
100
AcDbLine
 62
7
  6
CONTINUOUS
 10
103.690750212
 20
115.3853967103
 11
104.1150125144
 21
115.6303432026
  0
LINE
  5
537
100
AcDbEntity
  8
0
100
AcDbLine
 62
7
  6
CONTINUOUS
 10
90.521598159
 20
107.3240504881
 11
89.4609424032
 21
106.7116842573
  0
LINE
  5
538
100
AcDbEntity
  8
0
100
AcDbLine
 62
7
  6
CONTINUOUS
 10
89.4079091738
 20
106.6198269513
 11
90.4685649296
 21
107.2321931821
  0
LINE
  5
539
100
AcDbEntity
  8
0
100
AcDbLine
 62
7
  6
CONTINUOUS
 10
87.9936897235
 20
104.3254342511
 11
88.0997580152
 21
104.3866724423
  0
LINE
  5
53A
100
AcDbEntity
  8
0
100
AcDbLine
 62
7
  6
CONTINUOUS
 10
103.690750212
 20
112.7725889755
 11
104.1150125144
 21
113.0175354678
  0
LINE
  5
53B
100
AcDbEntity
  8
0
100
AcDbLine
 62
7
  6
CONTINUOUS
 10
90.4685649296
 20
104.9459864142
 11
89.4079091738
 21
104.3336201834
  0
LINE
  5
53C
100
AcDbEntity
  8
0
100
AcDbLine
 62
7
  6
CONTINUOUS
 10
90.521598159
 20
104.792892995
 11
89.4609424032
 21
104.1805267642
  0
LINE
  5
53D
100
AcDbEntity
  8
0
100
AcDbLine
 62
7
  6
CONTINUOUS
 10
90.521598159
 20
104.2131762789
 11
89.4609424032
 21
103.600810048
  0
LINE
  5
53E
100
AcDbEntity
  8
0
100
AcDbLine
 62
7
  6
CONTINUOUS
 10
89.4079091738
 20
103.5089527421
 11
90.4685649296
 21
104.1213189729
  0
LINE
  5
53F
100
AcDbEntity
  8
0
100
AcDbLine
 62
7
  6
CONTINUOUS
 10
68.7290405208
 20
91.5649421442
 11
68.163357451
 21
91.2383468211
  0
LINE
  5
540
100
AcDbEntity
  8
0
100
AcDbLine
 62
7
  6
CONTINUOUS
 10
110.3022078896
 20
122.9993252183
 11
107.8464736604
 21
121.7227229796
  0
LINE
  5
541
100
AcDbEntity
  8
0
100
AcDbLine
 62
7
  6
CONTINUOUS
 10
88.3581060853
 20
113.447665754
 11
88.4876893469
 21
113.4953278781
  0
LINE
  5
542
100
AcDbEntity
  8
0
100
AcDbLine
 62
7
  6
CONTINUOUS
 10
89.043492812
 20
111.4135516315
 11
88.3581060853
 21
111.161458986
  0
LINE
  5
543
100
AcDbEntity
  8
0
100
AcDbLine
 62
7
  6
CONTINUOUS
 10
88.3581060853
 20
110.3367915447
 11
88.4876893469
 21
110.3844536688
  0
LINE
  5
544
100
AcDbEntity
  8
0
100
AcDbLine
 62
7
  6
CONTINUOUS
 10
89.043492812
 20
108.3026774222
 11
88.3581060853
 21
108.0505847768
  0
LINE
  5
545
100
AcDbEntity
  8
0
100
AcDbLine
 62
7
  6
CONTINUOUS
 10
88.3581060853
 20
107.2259173355
 11
88.4876893469
 21
107.2735794596
  0
LINE
  5
546
100
AcDbEntity
  8
0
100
AcDbLine
 62
7
  6
CONTINUOUS
 10
169.9110613667
 20
115.131876477
 11
167.0826460178
 21
116.7648258977
  0
LINE
  5
547
100
AcDbEntity
  8
0
100
AcDbLine
 62
7
  6
CONTINUOUS
 10
89.1260461337
 20
94.4615354975
 11
89.043492812
 21
94.3867212392
  0
LINE
  5
548
100
AcDbEntity
  8
0
100
AcDbLine
 62
7
  6
CONTINUOUS
 10
73.4745419018
 20
77.9984136633
 11
73.2158800415
 21
77.7640003796
  0
LINE
  5
549
100
AcDbEntity
  8
0
100
AcDbLine
 62
7
  6
CONTINUOUS
 10
73.4745419018
 20
73.8505813843
 11
73.2158800415
 21
73.6161681005
  0
LINE
  5
54A
100
AcDbEntity
  8
0
100
AcDbLine
 62
7
  6
CONTINUOUS
 10
167.0826460178
 20
142.476423887
 11
168.1433017736
 21
143.1101682719
  0
LINE
  5
54B
100
AcDbEntity
  8
0
100
AcDbLine
 62
7
  6
CONTINUOUS
 10
79.6396615609
 20
96.6394220758
 11
69.7897051085
 21
90.9525810124
  0
LINE
  5
54C
100
AcDbEntity
  8
0
100
AcDbLine
 62
7
  6
CONTINUOUS
 10
87.9936897235
 20
101.2145600418
 11
88.0997580152
 21
101.275798233
  0
LINE
  5
54D
100
AcDbEntity
  8
0
100
AcDbLine
 62
7
  6
CONTINUOUS
 10
90.4685649296
 20
101.8351122049
 11
89.4079091738
 21
101.2227459741
  0
LINE
  5
54E
100
AcDbEntity
  8
0
100
AcDbLine
 62
7
  6
CONTINUOUS
 10
90.521598159
 20
101.6820187858
 11
89.4609424032
 21
101.0696525549
  0
LINE
  5
54F
100
AcDbEntity
  8
0
100
AcDbLine
 62
7
  6
CONTINUOUS
 10
90.521598159
 20
101.1023020696
 11
89.4609424032
 21
100.4899358388
  0
LINE
  5
550
100
AcDbEntity
  8
0
100
AcDbLine
 62
7
  6
CONTINUOUS
 10
89.4079091738
 20
100.3980785328
 11
90.4685649296
 21
101.0104447636
  0
LINE
  5
551
100
AcDbEntity
  8
0
100
AcDbLine
 62
7
  6
CONTINUOUS
 10
103.690750212
 20
107.3020227807
 11
104.1150125144
 21
107.546969273
  0
LINE
  5
552
100
AcDbEntity
  8
0
100
AcDbLine
 62
7
  6
CONTINUOUS
 10
87.9936897235
 20
98.1036858326
 11
88.0997580152
 21
98.1649240238
  0
LINE
  5
553
100
AcDbEntity
  8
0
100
AcDbLine
 62
7
  6
CONTINUOUS
 10
90.4685649296
 20
98.7242379956
 11
89.4079091738
 21
98.1118717648
  0
LINE
  5
554
100
AcDbEntity
  8
0
100
AcDbLine
 62
7
  6
CONTINUOUS
 10
90.521598159
 20
98.5711445765
 11
89.4609424032
 21
97.9587783457
  0
LINE
  5
555
100
AcDbEntity
  8
0
100
AcDbLine
 62
7
  6
CONTINUOUS
 10
73.4666803896
 20
88.1765411622
 11
72.4060246338
 21
87.5641749314
  0
LINE
  5
556
100
AcDbEntity
  8
0
100
AcDbLine
 62
7
  6
CONTINUOUS
 10
90.521598159
 20
97.9914278603
 11
89.4609424032
 21
97.3790616295
  0
LINE
  5
557
100
AcDbEntity
  8
0
100
AcDbLine
 62
7
  6
CONTINUOUS
 10
89.4079091738
 20
97.2872043235
 11
90.4685649296
 21
97.8995705543
  0
LINE
  5
558
100
AcDbEntity
  8
0
100
AcDbLine
 62
7
  6
CONTINUOUS
 10
160.7088137131
 20
138.4160259651
 11
161.769469469
 21
139.0283921959
  0
LINE
  5
559
100
AcDbEntity
  8
0
100
AcDbLine
 62
7
  6
CONTINUOUS
 10
161.3805623585
 20
138.5589071862
 11
159.7542223553
 21
137.6199421305
  0
LINE
  5
55A
100
AcDbEntity
  8
0
100
AcDbLine
 62
7
  6
CONTINUOUS
 10
161.097719646
 20
137.9873548143
 11
162.4412181143
 21
138.7630222084
  0
LINE
  5
55B
100
AcDbEntity
  8
0
100
AcDbLine
 62
7
  6
CONTINUOUS
 10
72.5297700576
 20
86.8395301602
 11
72.1974294434
 21
86.6476543625
  0
LINE
  5
55C
100
AcDbEntity
  8
0
100
AcDbLine
 62
7
  6
CONTINUOUS
 10
103.690750212
 20
104.6892150459
 11
104.1150125144
 21
104.9341615382
  0
LINE
  5
55D
100
AcDbEntity
  8
0
100
AcDbLine
 62
7
  6
CONTINUOUS
 10
87.9936897235
 20
94.9928116233
 11
88.0997580152
 21
95.0540498145
  0
LINE
  5
55E
100
AcDbEntity
  8
0
100
AcDbLine
 62
7
  6
CONTINUOUS
 10
90.4685649296
 20
95.6133637864
 11
89.4079091738
 21
95.0009975556
  0
LINE
  5
55F
100
AcDbEntity
  8
0
100
AcDbLine
 62
7
  6
CONTINUOUS
 10
74.0540090347
 20
86.0865680754
 11
73.6116488937
 21
85.8311728534
  0
LINE
  5
560
100
AcDbEntity
  8
0
100
AcDbLine
 62
7
  6
CONTINUOUS
 10
90.521598159
 20
95.4602703672
 11
89.4609424032
 21
94.8479041364
  0
LINE
  5
561
100
AcDbEntity
  8
0
100
AcDbLine
 62
7
  6
CONTINUOUS
 10
167.0826460178
 20
144.9259311384
 11
168.1433017736
 21
145.5169192152
  0
LINE
  5
562
100
AcDbEntity
  8
0
100
AcDbLine
 62
7
  6
CONTINUOUS
 10
89.043492812
 20
105.191803213
 11
88.3581060853
 21
104.9397105675
  0
LINE
  5
563
100
AcDbEntity
  8
0
100
AcDbLine
 62
7
  6
CONTINUOUS
 10
88.3581060853
 20
104.1150431262
 11
88.4876893469
 21
104.1627052503
  0
LINE
  5
564
100
AcDbEntity
  8
0
100
AcDbLine
 62
7
  6
CONTINUOUS
 10
89.043492812
 20
102.0809290037
 11
88.3581060853
 21
101.8288363582
  0
LINE
  5
565
100
AcDbEntity
  8
0
100
AcDbLine
 62
7
  6
CONTINUOUS
 10
88.3581060853
 20
101.0041689169
 11
88.4876893469
 21
101.051831041
  0
LINE
  5
566
100
AcDbEntity
  8
0
100
AcDbLine
 62
7
  6
CONTINUOUS
 10
89.043492812
 20
98.9700547944
 11
88.3581060853
 21
98.717962149
  0
LINE
  5
567
100
AcDbEntity
  8
0
100
AcDbLine
 62
7
  6
CONTINUOUS
 10
81.563653039
 20
215.003369167
 11
81.4655601187
 21
215.1934422552
  0
LINE
  5
568
100
AcDbEntity
  8
0
100
AcDbLine
 62
7
  6
CONTINUOUS
 10
73.4745419018
 20
69.7027491053
 11
73.2158800415
 21
69.4683358215
  0
LINE
  5
569
100
AcDbEntity
  8
0
100
AcDbLine
 62
7
  6
CONTINUOUS
 10
157.1881308189
 20
134.4721965994
 11
163.6775737745
 21
138.3496544942
  0
LINE
  5
56A
100
AcDbEntity
  8
0
100
AcDbLine
 62
7
  6
CONTINUOUS
 10
164.8199125612
 20
137.6901398084
 11
157.1881308189
 21
133.1301317199
  0
LINE
  5
56B
100
AcDbEntity
  8
0
100
AcDbLine
 62
7
  6
CONTINUOUS
 10
157.1881308189
 20
132.9696870613
 11
164.9563959842
 21
137.6112443258
  0
LINE
  5
56C
100
AcDbEntity
  8
0
100
AcDbLine
 62
7
  6
CONTINUOUS
 10
103.5139739583
 20
97.4313553
 11
103.6591599174
 21
97.5181042624
  0
LINE
  5
56D
100
AcDbEntity
  8
0
100
AcDbLine
 62
7
  6
CONTINUOUS
 10
106.4168878455
 20
95.9259653198
 11
106.2717018864
 21
95.8392163573
  0
LINE
  5
56E
100
AcDbEntity
  8
0
100
AcDbLine
 62
7
  6
CONTINUOUS
 10
90.521598159
 20
94.8805536511
 11
89.4609424032
 21
94.2681874203
  0
LINE
  5
56F
100
AcDbEntity
  8
0
100
AcDbLine
 62
7
  6
CONTINUOUS
 10
89.4079091738
 20
94.1763301143
 11
90.4685649296
 21
94.7886963451
  0
LINE
  5
570
100
AcDbEntity
  8
0
100
AcDbLine
 62
7
  6
CONTINUOUS
 10
103.690750212
 20
102.0764073111
 11
104.1150125144
 21
102.3213538034
  0
LINE
  5
571
100
AcDbEntity
  8
0
100
AcDbLine
 62
7
  6
CONTINUOUS
 10
72.5297700576
 20
82.6916978812
 11
72.1974294434
 21
82.4998220834
  0
LINE
  5
572
100
AcDbEntity
  8
0
100
AcDbLine
 62
7
  6
CONTINUOUS
 10
90.4685649296
 20
92.5024895771
 11
89.4079091738
 21
91.8901233463
  0
LINE
  5
573
100
AcDbEntity
  8
0
100
AcDbLine
 62
7
  6
CONTINUOUS
 10
73.6116488937
 20
82.6468134266
 11
74.9339330693
 21
83.4102299943
  0
LINE
  5
574
100
AcDbEntity
  8
0
100
AcDbLine
 62
7
  6
CONTINUOUS
 10
89.4609424032
 20
91.7370299272
 11
90.521598159
 21
92.349396158
  0
LINE
  5
575
100
AcDbEntity
  8
0
100
AcDbLine
 62
7
  6
CONTINUOUS
 10
78.9821344794
 20
85.2372087495
 11
89.3556001853
 21
91.2262962172
  0
LINE
  5
576
100
AcDbEntity
  8
0
100
AcDbLine
 62
7
  6
CONTINUOUS
 10
103.690750212
 20
99.4635995763
 11
104.1150125144
 21
99.7085460686
  0
LINE
  5
577
100
AcDbEntity
  8
0
100
AcDbLine
 62
7
  6
CONTINUOUS
 10
90.521598159
 20
91.777844466
 11
89.4609424032
 21
91.1654782352
  0
LINE
  5
578
100
AcDbEntity
  8
0
100
AcDbLine
 62
7
  6
CONTINUOUS
 10
74.0540090347
 20
81.9387357964
 11
73.6116488937
 21
81.6833405744
  0
LINE
  5
579
100
AcDbEntity
  8
0
100
AcDbLine
 62
7
  6
CONTINUOUS
 10
72.5297700576
 20
78.5438656021
 11
72.1974294434
 21
78.3519898044
  0
LINE
  5
57A
100
AcDbEntity
  8
0
100
AcDbLine
 62
7
  6
CONTINUOUS
 10
73.6116488937
 20
78.4989811476
 11
74.9339330693
 21
79.2623977153
  0
LINE
  5
57B
100
AcDbEntity
  8
0
100
AcDbLine
 62
7
  6
CONTINUOUS
 10
74.0540090347
 20
77.7909035174
 11
73.6116488937
 21
77.5355082954
  0
LINE
  5
57C
100
AcDbEntity
  8
0
100
AcDbLine
 62
7
  6
CONTINUOUS
 10
103.3909221463
 20
94.4722755978
 11
94.834965716
 21
89.5325213359
  0
LINE
  5
57D
100
AcDbEntity
  8
0
100
AcDbLine
 62
7
  6
CONTINUOUS
 10
102.5204445523
 20
99.4904063202
 11
102.3727242812
 21
99.4080467519
  0
LINE
  5
57E
100
AcDbEntity
  8
0
100
AcDbLine
 62
7
  6
CONTINUOUS
 10
88.3581060853
 20
97.8932947077
 11
88.4876893469
 21
97.9409568318
  0
LINE
  5
57F
100
AcDbEntity
  8
0
100
AcDbLine
 62
7
  6
CONTINUOUS
 10
89.043492812
 20
95.8591805852
 11
88.3581060853
 21
95.6070879397
  0
LINE
  5
580
100
AcDbEntity
  8
0
100
AcDbLine
 62
7
  6
CONTINUOUS
 10
88.3581060853
 20
94.7824204984
 11
88.4876893469
 21
94.8300826225
  0
LINE
  5
581
100
AcDbEntity
  8
0
100
AcDbLine
 62
7
  6
CONTINUOUS
 10
89.043492812
 20
92.7483063759
 11
88.3581060853
 21
92.4962137304
  0
LINE
  5
582
100
AcDbEntity
  8
0
100
AcDbLine
 62
7
  6
CONTINUOUS
 10
72.5931982956
 20
86.4191622783
 11
72.9992176637
 21
86.56850059
  0
LINE
  5
583
100
AcDbEntity
  8
0
100
AcDbLine
 62
7
  6
CONTINUOUS
 10
158.4096501872
 20
138.3962136721
 11
159.7542223553
 21
137.6199421305
  0
LINE
  5
584
100
AcDbEntity
  8
0
100
AcDbLine
 62
7
  6
CONTINUOUS
 10
160.74415623
 20
138.1914801298
 11
161.097719646
 21
137.9873548143
  0
LINE
  5
585
100
AcDbEntity
  8
0
100
AcDbLine
 62
7
  6
CONTINUOUS
 10
160.7088137131
 20
139.6407482287
 11
161.769469469
 21
139.0283921959
  0
LINE
  5
586
100
AcDbEntity
  8
0
100
AcDbLine
 62
7
  6
CONTINUOUS
 10
164.9563959842
 20
137.6112443258
 11
163.6775737745
 21
138.3496544942
  0
LINE
  5
587
100
AcDbEntity
  8
0
100
AcDbLine
 62
7
  6
CONTINUOUS
 10
72.5297700576
 20
74.3960333231
 11
72.1974294434
 21
74.2041575254
  0
LINE
  5
588
100
AcDbEntity
  8
0
100
AcDbLine
 62
7
  6
CONTINUOUS
 10
73.6116488937
 20
74.3511488686
 11
74.9339330693
 21
75.1145654363
  0
LINE
  5
589
100
AcDbEntity
  8
0
100
AcDbLine
 62
7
  6
CONTINUOUS
 10
74.0540090347
 20
73.6430712383
 11
73.6116488937
 21
73.3876760164
  0
LINE
  5
58A
100
AcDbEntity
  8
0
100
AcDbLine
 62
7
  6
CONTINUOUS
 10
100.832178492
 20
88.1028418182
 11
98.3573150618
 21
86.6739872797
  0
LINE
  5
58B
100
AcDbEntity
  8
0
100
AcDbLine
 62
7
  6
CONTINUOUS
 10
72.5297700576
 20
70.2482010441
 11
72.1974294434
 21
70.0563252464
  0
LINE
  5
58C
100
AcDbEntity
  8
0
100
AcDbLine
 62
7
  6
CONTINUOUS
 10
102.8035254141
 20
87.5762591233
 11
100.3286619839
 21
86.1474045847
  0
LINE
  5
58D
100
AcDbEntity
  8
0
100
AcDbLine
 62
7
  6
CONTINUOUS
 10
73.6116488937
 20
70.2033165896
 11
74.9339330693
 21
70.9667331573
  0
LINE
  5
58E
100
AcDbEntity
  8
0
100
AcDbLine
 62
7
  6
CONTINUOUS
 10
74.0540090347
 20
69.4952389593
 11
73.6116488937
 21
69.2398437373
  0
LINE
  5
58F
100
AcDbEntity
  8
0
100
AcDbLine
 62
7
  6
CONTINUOUS
 10
110.3022078896
 20
97.5244498031
 11
107.8464736604
 21
96.2478475675
  0
LINE
  5
590
100
AcDbEntity
  8
0
100
AcDbLine
 62
7
  6
CONTINUOUS
 10
107.3431929812
 20
95.2058333159
 11
109.7598440977
 21
96.4015161726
  0
LINE
  5
591
100
AcDbEntity
  8
0
100
AcDbLine
 62
7
  6
CONTINUOUS
 10
73.2158800415
 20
83.4638319273
 11
72.5931982956
 21
83.2348028515
  0
LINE
  5
592
100
AcDbEntity
  8
0
100
AcDbLine
 62
7
  6
CONTINUOUS
 10
72.5931982956
 20
82.2713299993
 11
72.9992176637
 21
82.4206683109
  0
LINE
  5
593
100
AcDbEntity
  8
0
100
AcDbLine
 62
7
  6
CONTINUOUS
 10
73.2158800415
 20
79.3159996483
 11
72.5931982956
 21
79.0869705724
  0
LINE
  5
594
100
AcDbEntity
  8
0
100
AcDbLine
 62
7
  6
CONTINUOUS
 10
72.5931982956
 20
78.1234977202
 11
72.9992176637
 21
78.2728360319
  0
LINE
  5
595
100
AcDbEntity
  8
0
100
AcDbLine
 62
7
  6
CONTINUOUS
 10
104.2478594313
 20
85.0768131654
 11
101.772996001
 21
83.6479586268
  0
LINE
  5
596
100
AcDbEntity
  8
0
100
AcDbLine
 62
7
  6
CONTINUOUS
 10
97.2672256642
 20
80.7641132629
 11
99.6045405505
 21
82.1135545866
  0
LINE
  5
597
100
AcDbEntity
  8
0
100
AcDbLine
 62
7
  6
CONTINUOUS
 10
97.9011942596
 20
80.8207423789
 11
99.9709152611
 21
82.0156892234
  0
LINE
  5
598
100
AcDbEntity
  8
0
100
AcDbLine
 62
7
  6
CONTINUOUS
 10
73.6116488937
 20
66.0554843105
 11
74.9339330693
 21
66.8189008783
  0
LINE
  5
599
100
AcDbEntity
  8
0
100
AcDbLine
 62
7
  6
CONTINUOUS
 10
103.7208465263
 20
83.1039499024
 11
101.245983096
 21
81.6750953639
  0
LINE
  5
59A
100
AcDbEntity
  8
0
100
AcDbLine
 62
7
  6
CONTINUOUS
 10
103.2440945231
 20
81.5026661503
 11
100.7437753547
 21
80.0591148222
  0
LINE
  5
59B
100
AcDbEntity
  8
0
100
AcDbLine
 62
7
  6
CONTINUOUS
 10
89.539194769
 20
70.086901073
 11
78.9821344794
 21
63.9918158557
  0
LINE
  5
59C
100
AcDbEntity
  8
0
100
AcDbLine
 62
7
  6
CONTINUOUS
 10
102.5240217327
 20
77.4539508048
 11
105.0243409011
 21
78.8975021329
  0
LINE
  5
59D
100
AcDbEntity
  8
0
100
AcDbLine
 62
7
  6
CONTINUOUS
 10
89.7960288043
 20
69.3752345604
 11
90.1495807229
 21
69.5793566373
  0
LINE
  5
59E
100
AcDbEntity
  8
0
100
AcDbLine
 62
7
  6
CONTINUOUS
 10
169.9110613667
 20
115.131876477
 11
167.0826460178
 21
113.5559082723
  0
LINE
  5
59F
100
AcDbEntity
  8
0
100
AcDbLine
 62
7
  6
CONTINUOUS
 10
73.2158800415
 20
75.1681673693
 11
72.5931982956
 21
74.9391382934
  0
LINE
  5
5A0
100
AcDbEntity
  8
0
100
AcDbLine
 62
7
  6
CONTINUOUS
 10
72.5931982956
 20
73.9756654412
 11
72.9992176637
 21
74.1250037529
  0
LINE
  5
5A1
100
AcDbEntity
  8
0
100
AcDbLine
 62
7
  6
CONTINUOUS
 10
73.2158800415
 20
71.0203350903
 11
72.5931982956
 21
70.7913060144
  0
LINE
  5
5A2
100
AcDbEntity
  8
0
100
AcDbLine
 62
7
  6
CONTINUOUS
 10
72.5931982956
 20
69.8278331622
 11
72.9992176637
 21
69.9771714739
  0
LINE
  5
5A3
100
AcDbEntity
  8
0
100
AcDbLine
 62
7
  6
CONTINUOUS
 10
167.0826460178
 20
146.129275248
 11
168.1433017736
 21
145.5169192152
  0
LINE
  5
5A4
100
AcDbEntity
  8
0
100
AcDbLine
 62
7
  6
CONTINUOUS
 10
160.0370650678
 20
152.9701882524
 11
158.4096501872
 21
153.9097595976
  0
LINE
  5
5A5
100
AcDbEntity
  8
0
100
AcDbLine
 62
7
  6
CONTINUOUS
 10
159.7531474779
 20
154.6854234899
 11
161.3805623585
 21
153.7458521448
  0
LINE
  5
5A6
100
AcDbEntity
  8
0
100
AcDbLine
 62
7
  6
CONTINUOUS
 10
161.3805623585
 20
154.1541033534
 11
159.7531474779
 21
155.0936746985
  0
LINE
  5
5A7
100
AcDbEntity
  8
0
100
AcDbLine
 62
7
  6
CONTINUOUS
 10
161.0966447687
 20
155.8693385908
 11
162.4412169367
 21
155.0930670493
  0
LINE
  5
5A8
100
AcDbEntity
  8
0
100
AcDbLine
 62
7
  6
CONTINUOUS
 10
156.1436447867
 20
173.0100663807
 11
156.143644906
 21
171.0987622841
  0
LINE
  5
5A9
100
AcDbEntity
  8
0
100
AcDbLine
 62
7
  6
CONTINUOUS
 10
100.4156529592
 20
67.0217306102
 11
97.8133315234
 21
65.521459833
  0
LINE
  5
5AA
100
AcDbEntity
  8
0
100
AcDbLine
 62
7
  6
CONTINUOUS
 10
73.2158800415
 20
66.8725028112
 11
72.5931982956
 21
66.6434737354
  0
LINE
  5
5AB
100
AcDbEntity
  8
0
100
AcDbLine
 62
7
  6
CONTINUOUS
 10
162.3613924338
 20
168.2030345685
 11
162.3718834144
 21
167.5029684524
  0
LINE
  5
5AC
100
AcDbEntity
  8
0
100
AcDbLine
 62
7
  6
CONTINUOUS
 10
157.1881308189
 20
154.9611295225
 11
157.1881308189
 21
132.9696870613
  0
LINE
  5
5AD
100
AcDbEntity
  8
0
100
AcDbLine
 62
7
  6
CONTINUOUS
 10
158.4096501872
 20
153.9097595976
 11
158.4096501872
 21
138.3962136721
  0
LINE
  5
5AE
100
AcDbEntity
  8
0
100
AcDbLine
 62
7
  6
CONTINUOUS
 10
158.6504660898
 20
170.3454904233
 11
158.6504660898
 21
172.9174071769
  0
LINE
  5
5AF
100
AcDbEntity
  8
0
100
AcDbLine
 62
7
  6
CONTINUOUS
 10
159.7531474779
 20
154.6854234899
 11
159.7531474779
 21
155.0936746985
  0
LINE
  5
5B0
100
AcDbEntity
  8
0
100
AcDbLine
 62
7
  6
CONTINUOUS
 10
159.7542223553
 20
137.6199421305
 11
159.7542223553
 21
153.133488056
  0
LINE
  5
5B1
100
AcDbEntity
  8
0
100
AcDbLine
 62
7
  6
CONTINUOUS
 10
160.0370650678
 20
152.9701882524
 11
160.0370650678
 21
137.7832432938
  0
LINE
  5
5B2
100
AcDbEntity
  8
0
100
AcDbLine
 62
7
  6
CONTINUOUS
 10
160.7088137131
 20
153.1130694735
 11
160.7088137131
 21
138.4160259651
  0
LINE
  5
5B3
100
AcDbEntity
  8
0
100
AcDbLine
 62
7
  6
CONTINUOUS
 10
161.097719646
 20
154.3174031569
 11
161.097719646
 21
153.9091519483
  0
LINE
  5
5B4
100
AcDbEntity
  8
0
100
AcDbLine
 62
7
  6
CONTINUOUS
 10
161.097719646
 20
138.3956060229
 11
161.097719646
 21
137.9873548143
  0
LINE
  5
5B5
100
AcDbEntity
  8
0
100
AcDbLine
 62
7
  6
CONTINUOUS
 10
161.3805623585
 20
138.5589071862
 11
161.3805623585
 21
138.1506559776
  0
LINE
  5
5B6
100
AcDbEntity
  8
0
100
AcDbLine
 62
7
  6
CONTINUOUS
 10
161.3805623585
 20
153.7458521448
 11
161.3805623585
 21
154.1541033534
  0
LINE
  5
5B7
100
AcDbEntity
  8
0
100
AcDbLine
 62
7
  6
CONTINUOUS
 10
161.769469469
 20
139.0283921959
 11
161.769469469
 21
153.7254357043
  0
LINE
  5
5B8
100
AcDbEntity
  8
0
100
AcDbLine
 62
7
  6
CONTINUOUS
 10
162.4412181143
 20
138.7630222084
 11
162.4412169367
 21
155.0930670493
  0
LINE
  5
5B9
100
AcDbEntity
  8
0
100
AcDbLine
 62
7
  6
CONTINUOUS
 10
163.6775737745
 20
158.5769901734
 11
163.6775737745
 21
138.3496544942
  0
LINE
  5
5BA
100
AcDbEntity
  8
0
100
AcDbLine
 62
7
  6
CONTINUOUS
 10
157.4773122467
 20
172.2400905328
 11
157.4629923331
 21
170.337053924
  0
LINE
  5
5BB
100
AcDbEntity
  8
0
100
AcDbLine
 62
7
  6
CONTINUOUS
 10
105.0243409011
 20
68.7238820154
 11
102.5240217327
 21
67.2803306873
  0
LINE
  5
5BC
100
AcDbEntity
  8
0
100
AcDbLine
 62
7
  6
CONTINUOUS
 10
102.1097978055
 20
66.3647588041
 11
104.6101169739
 21
67.8083101322
  0
LINE
  5
5BD
100
AcDbEntity
  8
0
100
AcDbLine
 62
7
  6
CONTINUOUS
 10
101.2290124626
 20
64.6034890916
 11
103.7038758929
 21
66.0323436301
  0
LINE
  5
5BE
100
AcDbEntity
  8
0
100
AcDbLine
 62
7
  6
CONTINUOUS
 10
100.3116913505
 20
61.1903870903
 11
104.2308887979
 21
63.4509520488
  0
LINE
  5
5BF
100
AcDbEntity
  8
0
100
AcDbLine
 62
7
  6
CONTINUOUS
 10
80.6297257993
 20
214.6957575121
 11
84.0162222201
 21
212.7406071233
  0
LINE
  5
5C0
100
AcDbEntity
  8
0
100
AcDbLine
 62
7
  6
CONTINUOUS
 10
87.8886011861
 20
210.5049386625
 11
91.2881931113
 21
208.5422277517
  0
LINE
  5
5C1
100
AcDbEntity
  8
0
100
AcDbLine
 62
7
  6
CONTINUOUS
 10
154.488383281
 20
172.0544064093
 11
157.8879752062
 21
170.0916954986
  0
LINE
  5
5C2
100
AcDbEntity
  8
0
100
AcDbLine
 62
7
  6
CONTINUOUS
 10
161.7603541722
 20
167.8560270377
 11
165.1599460974
 21
165.893316127
  0
LINE
  5
5C3
100
AcDbEntity
  8
0
100
AcDbLine
 62
7
  6
CONTINUOUS
 10
84.6172604817
 20
213.0876146541
 11
88.4896394477
 21
210.8519461933
  0
LINE
  5
5C4
100
AcDbEntity
  8
0
100
AcDbLine
 62
7
  6
CONTINUOUS
 10
158.4890134678
 20
170.4387030294
 11
162.3613924338
 21
168.2030345685
  0
LINE
  5
5C5
100
AcDbEntity
  8
0
100
AcDbLine
 62
7
  6
CONTINUOUS
 10
166.8152076032
 20
166.8489760984
 11
165.4815401432
 21
167.6189519463
  0
LINE
  5
5C6
100
AcDbEntity
  8
0
100
AcDbLine
 62
7
  6
CONTINUOUS
 10
157.4773122467
 20
172.2400905328
 11
156.1436447867
 21
173.0100663807
  0
LINE
  5
5C7
100
AcDbEntity
  8
0
100
AcDbLine
 62
7
  6
CONTINUOUS
 10
92.9434546171
 20
209.4978877232
 11
91.5893095101
 21
210.2796860786
  0
LINE
  5
5C8
100
AcDbEntity
  8
0
100
AcDbLine
 62
7
  6
CONTINUOUS
 10
83.6260369079
 20
214.8771796499
 11
82.2623386495
 21
215.664493395
  0
LINE
  5
5C9
100
AcDbEntity
  8
0
100
AcDbLine
 62
7
  6
CONTINUOUS
 10
81.5223457233
 20
217.4463408535
 11
84.7787131037
 21
215.5663188016
  0
LINE
  5
5CA
100
AcDbEntity
  8
0
100
AcDbLine
 62
7
  6
CONTINUOUS
 10
92.7829410002
 20
210.9451802151
 11
158.6504660898
 21
172.9174071769
  0
LINE
  5
5CB
100
AcDbEntity
  8
0
100
AcDbLine
 62
7
  6
CONTINUOUS
 10
166.6546939863
 20
168.2962685904
 11
169.9110613667
 21
166.4162465385
  0
LINE
  5
5CC
100
AcDbEntity
  8
0
100
AcDbLine
 62
7
  6
CONTINUOUS
 10
164.8199125612
 20
137.6901398084
 11
164.8199125612
 21
159.2134913179
  0
LINE
  5
5CD
100
AcDbEntity
  8
0
100
AcDbLine
 62
7
  6
CONTINUOUS
 10
164.9563959842
 20
137.6112443258
 11
164.9563959842
 21
159.2895386831
  0
LINE
  5
5CE
100
AcDbEntity
  8
0
100
AcDbLine
 62
7
  6
CONTINUOUS
 10
167.0826460178
 20
152.5357336661
 11
167.0826460178
 21
144.9259311384
  0
LINE
  5
5CF
100
AcDbEntity
  8
0
100
AcDbLine
 62
7
  6
CONTINUOUS
 10
167.0826460178
 20
142.476423887
 11
167.0826460178
 21
113.5559082723
  0
LINE
  5
5D0
100
AcDbEntity
  8
0
100
AcDbLine
 62
7
  6
CONTINUOUS
 10
168.1433017736
 20
145.5169192152
 11
168.1433017736
 21
143.1101682719
  0
LINE
  5
5D1
100
AcDbEntity
  8
0
100
AcDbLine
 62
7
  6
CONTINUOUS
 10
169.9110613667
 20
166.4162465385
 11
169.9110613667
 21
154.3398745954
  0
LINE
  5
5D2
100
AcDbEntity
  8
0
100
AcDbLine
 62
7
  6
CONTINUOUS
 10
169.9110613667
 20
115.131876477
 11
169.9110613667
 21
84.7660048255
  0
LINE
  5
5D3
100
AcDbEntity
  8
0
100
AcDbLine
 62
7
  6
CONTINUOUS
 10
165.4699017016
 20
166.0722680103
 11
165.4815401432
 21
167.6189519463
  0
LINE
  5
5D4
100
AcDbEntity
  8
0
100
AcDbLine
 62
7
  6
CONTINUOUS
 10
165.9202915076
 20
82.2912023637
 11
163.9436564365
 21
80.8975332038
  0
LINE
  5
5D5
100
AcDbEntity
  8
0
100
AcDbLine
 62
7
  6
CONTINUOUS
 10
110.3022078896
 20
50.3510226542
 11
169.9110613667
 21
84.7660048255
  0
ARC
  5
5D6
100
AcDbEntity
  8
0
100
AcDbCircle
 62
7
  6
CONTINUOUS
 10
-60.9570055547
 20
148.5280556814
 40
115.035516574
100
AcDbArc
 50
0.0060737182
 51
0.1600742959
  0
ARC
  5
5D7
100
AcDbEntity
  8
0
100
AcDbCircle
 62
7
  6
CONTINUOUS
 10
-55.4650575578
 20
148.4931548424
 40
109.4728373185
100
AcDbArc
 50
0.0017264219
 51
0.2079789337
  0
ARC
  5
5D8
100
AcDbEntity
  8
0
100
AcDbCircle
 62
7
  6
CONTINUOUS
 10
37.4696432236
 20
125.320747313
 40
33.8698370385
100
AcDbArc
 50
59.8608737964
 51
60.0778433079
  0
ARC
  5
5D9
100
AcDbEntity
  8
0
100
AcDbCircle
 62
7
  6
CONTINUOUS
 10
24.0535158837
 20
148.5978534507
 40
33.8467561323
100
AcDbArc
 50
359.9226430053
 51
0.1397623518
  0
ARC
  5
5DA
100
AcDbEntity
  8
0
100
AcDbCircle
 62
7
  6
CONTINUOUS
 10
42.3457589481
 20
128.1230215409
 40
4.792624631
100
AcDbArc
 50
236.1043372803
 51
239.9360825204
  0
ARC
  5
5DB
100
AcDbEntity
  8
0
100
AcDbCircle
 62
7
  6
CONTINUOUS
 10
40.7540711872
 20
159.298091556
 40
3.6475663329
100
AcDbArc
 50
178.0360655554
 51
180.0083708246
  0
ARC
  5
5DC
100
AcDbEntity
  8
0
100
AcDbCircle
 62
7
  6
CONTINUOUS
 10
54.4416879224
 20
118.8981697544
 40
3.4585855486
100
AcDbArc
 50
359.6690159046
 51
0.2476380448
  0
ARC
  5
5DD
100
AcDbEntity
  8
0
100
AcDbCircle
 62
7
  6
CONTINUOUS
 10
56.0992084754
 20
118.1128561315
 40
1.6719816888
100
AcDbArc
 50
297.56629165
 51
300.1145924359
  0
ARC
  5
5DE
100
AcDbEntity
  8
0
100
AcDbCircle
 62
7
  6
CONTINUOUS
 10
54.8131149593
 20
117.4016922572
 40
1.6397299197
100
AcDbArc
 50
297.5370552723
 51
300.2787190687
  0
ARC
  5
5DF
100
AcDbEntity
  8
0
100
AcDbCircle
 62
7
  6
CONTINUOUS
 10
38.6133610483
 20
159.9620115368
 40
1.3537156945
100
AcDbArc
 50
113.1466419987
 51
114.6705390738
  0
ARC
  5
5E0
100
AcDbEntity
  8
0
100
AcDbCircle
 62
7
  6
CONTINUOUS
 10
38.6076041628
 20
159.9743895845
 40
1.3400645572
100
AcDbArc
 50
114.667767703
 51
118.7630468025
  0
ARC
  5
5E1
100
AcDbEntity
  8
0
100
AcDbCircle
 62
7
  6
CONTINUOUS
 10
102.9884301087
 20
125.1231223401
 40
0.573028523
100
AcDbArc
 50
103.9182467333
 51
105.8587993856
  0
ARC
  5
5E2
100
AcDbEntity
  8
0
100
AcDbCircle
 62
7
  6
CONTINUOUS
 10
106.7875928337
 20
96.2523050741
 40
0.5729769367
100
AcDbArc
 50
314.1417671823
 51
316.062589174
  0
ARC
  5
5E3
100
AcDbEntity
  8
0
100
AcDbCircle
 62
7
  6
CONTINUOUS
 10
102.9826536592
 20
125.1424082655
 40
0.5528982151
100
AcDbArc
 50
105.8291235504
 51
118.7091088948
  0
ARC
  5
5E4
100
AcDbEntity
  8
0
100
AcDbCircle
 62
7
  6
CONTINUOUS
 10
106.8013707505
 20
96.2376960205
 40
0.5528978408
100
AcDbArc
 50
301.2905845792
 51
314.1715064227
  0
ARC
  5
5E5
100
AcDbEntity
  8
0
100
AcDbCircle
 62
7
  6
CONTINUOUS
 10
103.132274819
 20
125.2147016008
 40
0.5511781736
100
AcDbArc
 50
123.1754838918
 51
135.3124216757
  0
ARC
  5
5E6
100
AcDbEntity
  8
0
100
AcDbCircle
 62
7
  6
CONTINUOUS
 10
106.9387958896
 20
96.3311080036
 40
0.5511604064
100
AcDbArc
 50
284.6944977012
 51
296.8253548041
  0
SPLINE
  5
5E7
100
AcDbEntity
  8
0
100
AcDbSpline
 62
7
  6
CONTINUOUS
 70
0
 71
3
 72
9
 73
5
 74
0
 42
0.0000001
 43
0.0000001
 44
0.0000000001
 40
0.0
 40
0.0
 40
0.0
 40
0.0
 40
0.5500408388
 40
1.0
 40
1.0
 40
1.0
 40
1.0
 10
70.2846866265
 20
90.0136245575
 30
0.0
 10
70.2681729713
 20
90.0040904512
 30
0.0
 10
70.2398775655
 20
89.9822582766
 30
0.0
 10
70.226090121
 20
89.9475751629
 30
0.0
 10
70.2260901131
 20
89.9319764022
 30
0.0
  0
SPLINE
  5
5E8
100
AcDbEntity
  8
0
100
AcDbSpline
 62
7
  6
CONTINUOUS
 70
0
 71
3
 72
9
 73
5
 74
0
 42
0.0000001
 43
0.0000001
 44
0.0000000001
 40
0.0
 40
0.0
 40
0.0
 40
0.0
 40
0.5500415763
 40
1.0
 40
1.0
 40
1.0
 40
1.0
 10
70.284687804
 20
68.6049346821
 30
0.0
 10
70.268173847
 20
68.614468804
 30
0.0
 10
70.239877905
 20
68.6363010416
 30
0.0
 10
70.226090121
 20
68.6709845831
 30
0.0
 10
70.2260901131
 20
68.6865835174
 30
0.0
  0
SPLINE
  5
5E9
100
AcDbEntity
  8
0
100
AcDbSpline
 62
7
  6
CONTINUOUS
 70
0
 71
3
 72
9
 73
5
 74
0
 42
0.0000001
 43
0.0000001
 44
0.0000000001
 40
0.0
 40
0.0
 40
0.0
 40
0.0
 40
0.4999975881
 40
1.0
 40
1.0
 40
1.0
 40
1.0
 10
70.5675305165
 20
68.604935362
 30
0.0
 10
70.525553969
 20
68.5807003357
 30
0.0
 10
70.4261095161
 20
68.5615088758
 30
0.0
 10
70.3266649313
 20
68.5806997247
 30
0.0
 10
70.284687804
 20
68.6049346821
 30
0.0
  0
SPLINE
  5
5EA
100
AcDbEntity
  8
0
100
AcDbSpline
 62
7
  6
CONTINUOUS
 70
0
 71
3
 72
9
 73
5
 74
0
 42
0.0000001
 43
0.0000001
 44
0.0000000001
 40
0.0
 40
0.0
 40
0.0
 40
0.0
 40
0.4999975881
 40
1.0
 40
1.0
 40
1.0
 40
1.0
 10
78.9821344794
 20
63.9918158557
 30
0.0
 10
78.9191696581
 20
63.9554633162
 30
0.0
 10
78.7700029788
 20
63.9266761265
 30
0.0
 10
78.6208361016
 20
63.9554623997
 30
0.0
 10
78.5578704107
 20
63.9918148359
 30
0.0
  0
SPLINE
  5
5EB
100
AcDbEntity
  8
0
100
AcDbSpline
 62
7
  6
CONTINUOUS
 70
0
 71
3
 72
11
 73
7
 74
0
 42
0.0000001
 43
0.0000001
 44
0.0000000001
 40
0.0
 40
0.0
 40
0.0
 40
0.0
 40
0.2179264642
 40
0.452520419
 40
0.712284828
 40
1.0
 40
1.0
 40
1.0
 40
1.0
 10
37.9802721479
 20
161.136553221
 30
0.0
 10
37.863404669
 20
161.0534508447
 30
0.0
 10
37.6478303632
 20
160.84014291
 30
0.0
 10
37.4203133805
 20
160.4244990004
 30
0.0
 10
37.2847916724
 20
159.9241147002
 30
0.0
 10
37.2577997776
 20
159.5628312458
 30
0.0
 10
37.2577997776
 20
159.3735067879
 30
0.0
  0
SPLINE
  5
5EC
100
AcDbEntity
  8
0
100
AcDbSpline
 62
7
  6
CONTINUOUS
 70
0
 71
3
 72
9
 73
5
 74
0
 42
0.0000001
 43
0.0000001
 44
0.0000000001
 40
0.0
 40
0.0
 40
0.0
 40
0.0
 40
0.245407116
 40
1.0
 40
1.0
 40
1.0
 40
1.0
 10
38.0812346679
 20
161.2067555655
 30
0.0
 10
38.115637921
 20
161.2214635081
 30
0.0
 10
38.2582635647
 20
161.2756205485
 30
0.0
 10
38.4095978045
 20
161.3060403083
 30
0.0
 10
38.5241774104
 20
161.3163998734
 30
0.0
  0
SPLINE
  5
5ED
100
AcDbEntity
  8
0
100
AcDbSpline
 62
7
  6
CONTINUOUS
 70
0
 71
3
 72
9
 73
5
 74
0
 42
0.0000001
 43
0.0000001
 44
0.0000000001
 40
0.0
 40
0.0
 40
0.0
 40
0.0
 40
0.2244733977
 40
1.0
 40
1.0
 40
1.0
 40
1.0
 10
38.5241774104
 20
161.3163998734
 30
0.0
 10
38.6347943214
 20
161.3264011565
 30
0.0
 10
39.1325799135
 20
161.3195580559
 30
0.0
 10
39.612499565
 20
161.1281660357
 30
0.0
 10
39.9448179107
 20
160.9363062897
 30
0.0
  0
SPLINE
  5
5EE
100
AcDbEntity
  8
0
100
AcDbSpline
 62
7
  6
CONTINUOUS
 70
0
 71
3
 72
11
 73
7
 74
0
 42
0.0000001
 43
0.0000001
 44
0.0000000001
 40
0.0
 40
0.0
 40
0.0
 40
0.0
 40
0.2178138247
 40
0.4519393201
 40
0.7116136892
 40
1.0
 40
1.0
 40
1.0
 40
1.0
 10
37.4815568272
 20
161.7219951653
 30
0.0
 10
37.3369616956
 20
161.6255977383
 30
0.0
 10
37.0690560178
 20
161.3737766184
 30
0.0
 10
36.7856136129
 20
160.8741227063
 30
0.0
 10
36.6169163354
 20
160.2682193861
 30
0.0
 10
36.5834421219
 20
159.8296303879
 30
0.0
 10
36.5834421219
 20
159.5995422523
 30
0.0
  0
SPLINE
  5
5EF
100
AcDbEntity
  8
0
100
AcDbSpline
 62
7
  6
CONTINUOUS
 70
0
 71
3
 72
11
 73
7
 74
0
 42
0.0000001
 43
0.0000001
 44
0.0000000001
 40
0.0
 40
0.0
 40
0.0
 40
0.0
 40
0.2176740747
 40
0.4508332348
 40
0.7104848197
 40
1.0
 40
1.0
 40
1.0
 40
1.0
 10
97.267248577
 20
80.76407342
 30
0.0
 10
97.2013099555
 20
80.7260039992
 30
0.0
 10
97.0778739343
 20
80.6222997297
 30
0.0
 10
96.9463747488
 20
80.407399788
 30
0.0
 10
96.8684939923
 20
80.1425318013
 30
0.0
 10
96.853001737
 20
79.9498095872
 30
0.0
 10
96.853001737
 20
79.8485413796
 30
0.0
  0
SPLINE
  5
5F0
100
AcDbEntity
  8
0
100
AcDbSpline
 62
7
  6
CONTINUOUS
 70
0
 71
3
 72
9
 73
5
 74
0
 42
0.0000001
 43
0.0000001
 44
0.0000000001
 40
0.0
 40
0.0
 40
0.0
 40
0.0
 40
0.4499591041
 40
1.0
 40
1.0
 40
1.0
 40
1.0
 10
103.0545510813
 20
129.7043454949
 30
0.0
 10
103.0545510932
 20
129.7277439082
 30
0.0
 10
103.0338688758
 20
129.7797689385
 30
0.0
 10
102.9914254247
 20
129.8125175838
 30
0.0
 10
102.9666545449
 20
129.8268187344
 30
0.0
  0
SPLINE
  5
5F1
100
AcDbEntity
  8
0
100
AcDbSpline
 62
7
  6
CONTINUOUS
 70
0
 71
3
 72
9
 73
5
 74
0
 42
0.0000001
 43
0.0000001
 44
0.0000000001
 40
0.0
 40
0.0
 40
0.0
 40
0.0
 40
0.4562611328
 40
1.0
 40
1.0
 40
1.0
 40
1.0
 10
102.7404136203
 20
125.6023124623
 30
0.0
 10
102.666385752
 20
125.5275747822
 30
0.0
 10
102.55096779
 20
125.3170934075
 30
0.0
 10
102.5240191655
 20
125.0842332559
 30
0.0
 10
102.5240191655
 20
124.958870302
 30
0.0
  0
SPLINE
  5
5F2
100
AcDbEntity
  8
0
100
AcDbSpline
 62
7
  6
CONTINUOUS
 70
0
 71
3
 72
9
 73
5
 74
0
 42
0.0000001
 43
0.0000001
 44
0.0000000001
 40
0.0
 40
0.0
 40
0.0
 40
0.0
 40
0.4567597745
 40
1.0
 40
1.0
 40
1.0
 40
1.0
 10
102.8505954494
 20
125.6793267044
 30
0.0
 10
102.9525347706
 20
125.7045935543
 30
0.0
 10
103.1914566028
 20
125.6973028329
 30
0.0
 10
103.4057992629
 20
125.6042950902
 30
0.0
 10
103.5139739583
 20
125.5418418135
 30
0.0
  0
SPLINE
  5
5F3
100
AcDbEntity
  8
0
100
AcDbSpline
 62
7
  6
CONTINUOUS
 70
0
 71
3
 72
11
 73
7
 74
0
 42
0.0000001
 43
0.0000001
 44
0.0000000001
 40
0.0
 40
0.0
 40
0.0
 40
0.0
 40
0.2176899422
 40
0.4508856506
 40
0.7106204681
 40
1.0
 40
1.0
 40
1.0
 40
1.0
 10
128.2566221837
 20
63.2411302725
 30
0.0
 10
128.2142380841
 20
63.2655574256
 30
0.0
 10
128.1349308684
 20
63.3322057571
 30
0.0
 10
128.0504163762
 20
63.4702847594
 30
0.0
 10
128.0004702261
 20
63.6404735511
 30
0.0
 10
127.990473925
 20
63.7642671335
 30
0.0
 10
127.990473925
 20
63.8292965207
 30
0.0
  0
SPLINE
  5
5F4
100
AcDbEntity
  8
0
100
AcDbSpline
 62
7
  6
CONTINUOUS
 70
0
 71
3
 72
11
 73
7
 74
0
 42
0.0000001
 43
0.0000001
 44
0.0000000001
 40
0.0
 40
0.0
 40
0.0
 40
0.0
 40
0.2176899422
 40
0.4508856506
 40
0.7106204681
 40
1.0
 40
1.0
 40
1.0
 40
1.0
 10
128.2566221837
 20
138.3593526484
 30
0.0
 10
128.2142380841
 20
138.3837798015
 30
0.0
 10
128.1349308684
 20
138.4504281331
 30
0.0
 10
128.0504163762
 20
138.5885071353
 30
0.0
 10
128.0004702261
 20
138.758695927
 30
0.0
 10
127.990473925
 20
138.8824895094
 30
0.0
 10
127.990473925
 20
138.9475188967
 30
0.0
  0
SPLINE
  5
5F5
100
AcDbEntity
  8
0
100
AcDbSpline
 62
7
  6
CONTINUOUS
 70
0
 71
3
 72
11
 73
7
 74
0
 42
0.0000001
 43
0.0000001
 44
0.0000000001
 40
0.0
 40
0.0
 40
0.0
 40
0.0
 40
0.2176899422
 40
0.4508856506
 40
0.7106204681
 40
1.0
 40
1.0
 40
1.0
 40
1.0
 10
166.4576834138
 20
160.4592639613
 30
0.0
 10
166.4164508612
 20
160.4830274454
 30
0.0
 10
166.3392983683
 20
160.5478649873
 30
0.0
 10
166.2570800771
 20
160.6821924774
 30
0.0
 10
166.2084909298
 20
160.847757356
 30
0.0
 10
166.1987662213
 20
160.9681875514
 30
0.0
 10
166.1987662213
 20
161.0314501347
 30
0.0
  0
SPLINE
  5
5F6
100
AcDbEntity
  8
0
100
AcDbSpline
 62
7
  6
CONTINUOUS
 70
0
 71
3
 72
9
 73
5
 74
0
 42
0.0000001
 43
0.0000001
 44
0.0000000001
 40
0.0
 40
0.0
 40
0.0
 40
0.0
 40
0.2442088536
 40
1.0
 40
1.0
 40
1.0
 40
1.0
 10
165.9202818744
 20
82.2912177783
 30
0.0
 10
165.9489495958
 20
82.3114439305
 30
0.0
 10
166.0620106001
 20
82.400355598
 30
0.0
 10
166.1558189063
 20
82.5128244557
 30
0.0
 10
166.2138287286
 20
82.6046118313
 30
0.0
  0
SPLINE
  5
5F7
100
AcDbEntity
  8
0
100
AcDbSpline
 62
7
  6
CONTINUOUS
 70
0
 71
3
 72
11
 73
7
 74
0
 42
0.0000001
 43
0.0000001
 44
0.0000000001
 40
0.0
 40
0.0
 40
0.0
 40
0.0
 40
0.2177627546
 40
0.4519157887
 40
0.7117851435
 40
1.0
 40
1.0
 40
1.0
 40
1.0
 10
102.3600101001
 20
126.127476198
 30
0.0
 10
102.292257223
 20
126.0823700124
 30
0.0
 10
102.1666949069
 20
125.9644584262
 30
0.0
 10
102.0338596471
 20
125.7303138326
 30
0.0
 10
101.9549967102
 20
125.4463995196
 30
0.0
 10
101.9392021843
 20
125.2409380508
 30
0.0
 10
101.9392021843
 20
125.1332106033
 30
0.0
  0
SPLINE
  5
5F8
100
AcDbEntity
  8
0
100
AcDbSpline
 62
7
  6
CONTINUOUS
 70
0
 71
3
 72
15
 73
11
 74
0
 42
0.0000001
 43
0.0000001
 44
0.0000000001
 40
0.0
 40
0.0
 40
0.0
 40
0.0
 40
0.1287974769
 40
0.2706060703
 40
0.4178807568
 40
0.5623765801
 40
0.6961925898
 40
0.8135912016
 40
0.913066129
 40
1.0
 40
1.0
 40
1.0
 40
1.0
 10
166.1987662213
 20
161.0314501347
 30
0.0
 10
166.1987662213
 20
161.1382662416
 30
0.0
 10
166.2287153677
 20
161.3629346272
 30
0.0
 10
166.3401821077
 20
161.6928073624
 30
0.0
 10
166.5122017898
 20
162.0105469222
 30
0.0
 10
166.7305035091
 20
162.2900857237
 30
0.0
 10
166.9778580742
 20
162.5091228455
 30
0.0
 10
167.2357952787
 20
162.6500429911
 30
0.0
 10
167.4883262125
 20
162.7006760565
 30
0.0
 10
167.6451429876
 20
162.6602474012
 30
0.0
 10
167.7076086219
 20
162.6242466927
 30
0.0
  0
SPLINE
  5
5F9
100
AcDbEntity
  8
0
100
AcDbSpline
 62
7
  6
CONTINUOUS
 70
0
 71
3
 72
15
 73
11
 74
0
 42
0.0000001
 43
0.0000001
 44
0.0000000001
 40
0.0
 40
0.0
 40
0.0
 40
0.0
 40
0.1287974769
 40
0.2706060703
 40
0.4178807568
 40
0.5623765801
 40
0.6961925898
 40
0.8135912016
 40
0.913066129
 40
1.0
 40
1.0
 40
1.0
 40
1.0
 10
127.990473925
 20
138.9475188967
 30
0.0
 10
127.990473925
 20
139.0573181749
 30
0.0
 10
128.0212594943
 20
139.2882611226
 30
0.0
 10
128.1358392889
 20
139.6273465777
 30
0.0
 10
128.3126631546
 20
139.953960001
 30
0.0
 10
128.537061627
 20
140.2413057912
 30
0.0
 10
128.7913243361
 20
140.4664602045
 30
0.0
 10
129.0564652376
 20
140.6113159825
 30
0.0
 10
129.3160488815
 20
140.6633631335
 30
0.0
 10
129.4772452518
 20
140.6218053825
 30
0.0
 10
129.5414554328
 20
140.5847992425
 30
0.0
  0
SPLINE
  5
5FA
100
AcDbEntity
  8
0
100
AcDbSpline
 62
7
  6
CONTINUOUS
 70
0
 71
3
 72
15
 73
11
 74
0
 42
0.0000001
 43
0.0000001
 44
0.0000000001
 40
0.0
 40
0.0
 40
0.0
 40
0.0
 40
0.1287974769
 40
0.2706060703
 40
0.4178807568
 40
0.5623765801
 40
0.6961925898
 40
0.8135912016
 40
0.913066129
 40
1.0
 40
1.0
 40
1.0
 40
1.0
 10
127.990473925
 20
63.8292965207
 30
0.0
 10
127.990473925
 20
63.939095799
 30
0.0
 10
128.0212594943
 20
64.1700387466
 30
0.0
 10
128.1358392889
 20
64.5091242018
 30
0.0
 10
128.3126631546
 20
64.835737625
 30
0.0
 10
128.537061627
 20
65.1230834153
 30
0.0
 10
128.7913243361
 20
65.3482378285
 30
0.0
 10
129.0564652376
 20
65.4930936066
 30
0.0
 10
129.3160488815
 20
65.5451407576
 30
0.0
 10
129.4772452518
 20
65.5035830065
 30
0.0
 10
129.5414554328
 20
65.4665768665
 30
0.0
  0
LINE
  5
5FB
100
AcDbEntity
  8
0
100
AcDbLine
 62
7
  6
CONTINUOUS
 10
55.6021907922
 20
147.9670834211
 11
54.3338957817
 21
148.6992528007
  0
SPLINE
  5
5FC
100
AcDbEntity
  8
0
100
AcDbSpline
 62
7
  6
CONTINUOUS
 70
0
 71
3
 72
10
 73
6
 74
0
 42
0.0000001
 43
0.0000001
 44
0.0000000001
 40
0.0
 40
0.0
 40
0.0
 40
0.0
 40
0.4993852746
 40
0.7495261458
 40
1.0
 40
1.0
 40
1.0
 40
1.0
 10
47.6184730366
 20
157.1342752456
 30
0.0
 10
47.8117593091
 20
157.2620203195
 30
0.0
 10
48.1014734373
 20
157.4543403489
 30
0.0
 10
48.4890319416
 20
157.7093740448
 30
0.0
 10
48.6840728903
 20
157.8354864978
 30
0.0
 10
48.7810183953
 20
157.8995588736
 30
0.0
  0
SPLINE
  5
5FD
100
AcDbEntity
  8
0
100
AcDbSpline
 62
7
  6
CONTINUOUS
 70
0
 71
3
 72
11
 73
7
 74
0
 42
0.0000001
 43
0.0000001
 44
0.0000000001
 40
0.0
 40
0.0
 40
0.0
 40
0.0
 40
0.2888418084
 40
0.5484344504
 40
0.7822274214
 40
1.0
 40
1.0
 40
1.0
 40
1.0
 10
53.1626620785
 20
116.2262905452
 30
0.0
 10
53.3729977382
 20
116.1048559426
 30
0.0
 10
53.7915412513
 20
115.9045917691
 30
0.0
 10
54.4345271655
 20
115.7424484911
 30
0.0
 10
55.0399177913
 20
115.7444461098
 30
0.0
 10
55.4088300212
 20
115.8630632857
 30
0.0
 10
55.5711984686
 20
115.9477240311
 30
0.0
  0
SPLINE
  5
5FE
100
AcDbEntity
  8
0
100
AcDbSpline
 62
7
  6
CONTINUOUS
 70
0
 71
3
 72
11
 73
7
 74
0
 42
0.0000001
 43
0.0000001
 44
0.0000000001
 40
0.0
 40
0.0
 40
0.0
 40
0.0
 40
0.2372543196
 40
0.5000017971
 40
0.7627512679
 40
1.0
 40
1.0
 40
1.0
 40
1.0
 10
53.1926920852
 20
147.9935853408
 30
0.0
 10
53.0951569599
 20
147.9332721726
 30
0.0
 10
52.9114210818
 20
147.7706057734
 30
0.0
 10
52.6975974721
 20
147.4671123138
 30
0.0
 10
52.551838573
 20
147.1256782434
 30
0.0
 10
52.5100441727
 20
146.8838614503
 30
0.0
 10
52.5100441727
 20
146.7691873054
 30
0.0
  0
SPLINE
  5
5FF
100
AcDbEntity
  8
0
100
AcDbSpline
 62
7
  6
CONTINUOUS
 70
0
 71
3
 72
11
 73
7
 74
0
 42
0.0000001
 43
0.0000001
 44
0.0000000001
 40
0.0
 40
0.0
 40
0.0
 40
0.0
 40
0.2372413576
 40
0.5000010231
 40
0.762760128
 40
1.0
 40
1.0
 40
1.0
 40
1.0
 10
37.2577997776
 20
129.5711685627
 30
0.0
 10
37.2577997776
 20
129.1074880997
 30
0.0
 10
37.4317239374
 20
128.1296230692
 30
0.0
 10
38.0378837512
 20
126.7555558567
 30
0.0
 10
38.9247845972
 20
125.543578736
 30
0.0
 10
39.6846798614
 20
124.9040307222
 30
0.0
 10
40.0862386782
 20
124.6721958761
 30
0.0
  0
SPLINE
  5
600
100
AcDbEntity
  8
0
100
AcDbSpline
 62
7
  6
CONTINUOUS
 70
0
 71
3
 72
11
 73
7
 74
0
 42
0.0000001
 43
0.0000001
 44
0.0000000001
 40
0.0
 40
0.0
 40
0.0
 40
0.0
 40
0.2349526735
 40
0.4950871186
 40
0.7578634025
 40
1.0
 40
1.0
 40
1.0
 40
1.0
 10
36.5834421219
 20
129.797204027
 30
0.0
 10
36.5834421219
 20
129.2763236153
 30
0.0
 10
36.7687063265
 20
128.1778461495
 30
0.0
 10
37.4237226027
 20
126.6182420285
 30
0.0
 10
38.3933570388
 20
125.2126671784
 30
0.0
 10
39.2273132069
 20
124.4440932699
 30
0.0
 10
39.6729971378
 20
124.1448818803
 30
0.0
  0
SPLINE
  5
601
100
AcDbEntity
  8
0
100
AcDbSpline
 62
7
  6
CONTINUOUS
 70
0
 71
3
 72
9
 73
5
 74
0
 42
0.0000001
 43
0.0000001
 44
0.0000000001
 40
0.0
 40
0.0
 40
0.0
 40
0.0
 40
0.5209854541
 40
1.0
 40
1.0
 40
1.0
 40
1.0
 10
163.0845358438
 20
80.7280775079
 30
0.0
 10
163.2375796017
 20
80.7030665712
 30
0.0
 10
163.5424477666
 20
80.6973951672
 30
0.0
 10
163.827077592
 20
80.8154567449
 30
0.0
 10
163.9435872728
 20
80.8976447674
 30
0.0
  0
SPLINE
  5
602
100
AcDbEntity
  8
0
100
AcDbSpline
 62
7
  6
CONTINUOUS
 70
0
 71
3
 72
9
 73
5
 74
0
 42
0.0000001
 43
0.0000001
 44
0.0000000001
 40
0.0
 40
0.0
 40
0.0
 40
0.0
 40
0.2525692761
 40
1.0
 40
1.0
 40
1.0
 40
1.0
 10
57.2953872016
 20
116.9436276756
 30
0.0
 10
57.2685777155
 20
116.916515999
 30
0.0
 10
57.1590182878
 20
116.8126072235
 30
0.0
 10
57.0356950899
 20
116.7231634044
 30
0.0
 10
56.9380906863
 20
116.6665508556
 30
0.0
  0
SPLINE
  5
603
100
AcDbEntity
  8
0
100
AcDbSpline
 62
7
  6
CONTINUOUS
 70
0
 71
3
 72
11
 73
7
 74
0
 42
0.0000001
 43
0.0000001
 44
0.0000000001
 40
0.0
 40
0.0
 40
0.0
 40
0.0
 40
0.3019563915
 40
0.5672088222
 40
0.7956468592
 40
1.0
 40
1.0
 40
1.0
 40
1.0
 10
100.7437753547
 20
66.730771617
 30
0.0
 10
100.8567397681
 20
66.6306016425
 30
0.0
 10
101.0856925643
 20
66.4596817988
 30
0.0
 10
101.45251869
 20
66.2954673734
 30
0.0
 10
101.8055677846
 20
66.2506448289
 30
0.0
 10
102.0212838088
 20
66.3137136658
 30
0.0
 10
102.1097616058
 20
66.3648213033
 30
0.0
  0
SPLINE
  5
604
100
AcDbEntity
  8
0
100
AcDbSpline
 62
7
  6
CONTINUOUS
 70
0
 71
3
 72
11
 73
7
 74
0
 42
0.0000001
 43
0.0000001
 44
0.0000000001
 40
0.0
 40
0.0
 40
0.0
 40
0.0
 40
0.2309836412
 40
0.4860570535
 40
0.7485166935
 40
1.0
 40
1.0
 40
1.0
 40
1.0
 10
96.853001737
 20
71.433921815
 30
0.0
 10
96.853001737
 20
71.2428530904
 30
0.0
 10
96.9125982052
 20
70.8403706018
 30
0.0
 10
97.1300181891
 20
70.2569306615
 30
0.0
 10
97.4597347136
 20
69.7089196534
 30
0.0
 10
97.7455476864
 20
69.3894176457
 30
0.0
 10
97.9011942596
 20
69.2513997266
 30
0.0
  0
SPLINE
  5
605
100
AcDbEntity
  8
0
100
AcDbSpline
 62
7
  6
CONTINUOUS
 70
0
 71
3
 72
11
 73
7
 74
0
 42
0.0000001
 43
0.0000001
 44
0.0000000001
 40
0.0
 40
0.0
 40
0.0
 40
0.0
 40
0.2882138263
 40
0.5480830303
 40
0.7822364462
 40
1.0
 40
1.0
 40
1.0
 40
1.0
 10
106.2717018864
 20
95.3386266647
 30
0.0
 10
106.364994185
 20
95.2847655495
 30
0.0
 10
106.5508215906
 20
95.1957178388
 30
0.0
 10
106.8361223332
 20
95.1220622305
 30
0.0
 10
107.1053079089
 20
95.1200301912
 30
0.0
 10
107.2701992843
 20
95.1698129427
 30
0.0
 10
107.3431372234
 20
95.2059343558
 30
0.0
  0
SPLINE
  5
606
100
AcDbEntity
  8
0
100
AcDbSpline
 62
7
  6
CONTINUOUS
 70
0
 71
3
 72
11
 73
7
 74
0
 42
0.0000001
 43
0.0000001
 44
0.0000000001
 40
0.0
 40
0.0
 40
0.0
 40
0.0
 40
0.2333156569
 40
0.491455343
 40
0.7541379638
 40
1.0
 40
1.0
 40
1.0
 40
1.0
 10
101.9392021843
 20
99.6583351889
 30
0.0
 10
101.9392021843
 20
99.4257714586
 30
0.0
 10
102.0181812376
 20
98.9354405536
 30
0.0
 10
102.3008761194
 20
98.2337806639
 30
0.0
 10
102.7229636629
 20
97.5909764963
 30
0.0
 10
103.0872351604
 20
97.2304111496
 30
0.0
 10
103.2834361692
 20
97.0835632355
 30
0.0
  0
SPLINE
  5
607
100
AcDbEntity
  8
0
100
AcDbSpline
 62
7
  6
CONTINUOUS
 70
0
 71
3
 72
9
 73
5
 74
0
 42
0.0000001
 43
0.0000001
 44
0.0000000001
 40
0.0
 40
0.0
 40
0.0
 40
0.0
 40
0.2567494154
 40
1.0
 40
1.0
 40
1.0
 40
1.0
 10
103.2834361692
 20
97.0835632355
 30
0.0
 10
103.3023925877
 20
97.0693751814
 30
0.0
 10
103.3769760515
 20
97.0151318453
 30
0.0
 10
103.4546126436
 20
96.9650371031
 30
0.0
 10
103.5139739583
 20
96.9307656073
 30
0.0
  0
SPLINE
  5
608
100
AcDbEntity
  8
0
100
AcDbSpline
 62
7
  6
CONTINUOUS
 70
0
 71
3
 72
9
 73
5
 74
0
 42
0.0000001
 43
0.0000001
 44
0.0000000001
 40
0.0
 40
0.0
 40
0.0
 40
0.0
 40
0.543253318
 40
1.0
 40
1.0
 40
1.0
 40
1.0
 10
107.4129515636
 20
96.4981360046
 30
0.0
 10
107.4129515636
 20
96.3731866918
 30
0.0
 10
107.3863154146
 20
96.1409841084
 30
0.0
 10
107.2730889785
 20
95.9303772641
 30
0.0
 10
107.2001924984
 20
95.8547323303
 30
0.0
  0
SPLINE
  5
609
100
AcDbEntity
  8
0
100
AcDbSpline
 62
7
  6
CONTINUOUS
 70
0
 71
3
 72
11
 73
7
 74
0
 42
0.0000001
 43
0.0000001
 44
0.0000000001
 40
0.0
 40
0.0
 40
0.0
 40
0.0
 40
0.2372523758
 40
0.4999990758
 40
0.7627462798
 40
1.0
 40
1.0
 40
1.0
 40
1.0
 10
106.2717018864
 20
123.9497028709
 30
0.0
 10
106.4337352504
 20
123.8561549809
 30
0.0
 10
106.7403690867
 20
123.5981211876
 30
0.0
 10
107.0981158932
 20
123.1090401255
 30
0.0
 10
107.342801916
 20
122.554681843
 30
0.0
 10
107.4129515636
 20
122.1601114337
 30
0.0
 10
107.4129515636
 20
121.973011419
 30
0.0
  0
SPLINE
  5
60A
100
AcDbEntity
  8
0
100
AcDbSpline
 62
7
  6
CONTINUOUS
 70
0
 71
3
 72
11
 73
7
 74
0
 42
0.0000001
 43
0.0000001
 44
0.0000000001
 40
0.0
 40
0.0
 40
0.0
 40
0.0
 40
0.2372539654
 40
0.5000012591
 40
0.7627478695
 40
1.0
 40
1.0
 40
1.0
 40
1.0
 10
102.5240191655
 20
99.4839948875
 30
0.0
 10
102.5240191655
 20
99.2985134745
 30
0.0
 10
102.5935619905
 20
98.9073566353
 30
0.0
 10
102.8361311989
 20
98.3577945577
 30
0.0
 10
103.1907827799
 20
97.8729452787
 30
0.0
 10
103.494763444
 20
97.6171442286
 30
0.0
 10
103.6553947258
 20
97.5244058129
 30
0.0
  0
SPLINE
  5
60B
100
AcDbEntity
  8
0
100
AcDbSpline
 62
7
  6
CONTINUOUS
 70
0
 71
3
 72
9
 73
5
 74
0
 42
0.0000001
 43
0.0000001
 44
0.0000000001
 40
0.0
 40
0.0
 40
0.0
 40
0.0
 40
0.5437419876
 40
1.0
 40
1.0
 40
1.0
 40
1.0
 10
106.4131226538
 20
95.9322668703
 30
0.0
 10
106.5216988242
 20
95.8695818072
 30
0.0
 10
106.7368534243
 20
95.7764871159
 30
0.0
 10
106.9768642923
 20
95.7712198947
 30
0.0
 10
107.0786060236
 20
95.7979748869
 30
0.0
  0
SPLINE
  5
60C
100
AcDbEntity
  8
0
100
AcDbSpline
 62
7
  6
CONTINUOUS
 70
0
 71
3
 72
9
 73
5
 74
0
 42
0.0000001
 43
0.0000001
 44
0.0000000001
 40
0.0
 40
0.0
 40
0.0
 40
0.0
 40
0.5500408388
 40
1.0
 40
1.0
 40
1.0
 40
1.0
 10
86.0668051242
 20
129.4593599034
 30
0.0
 10
86.0420346415
 20
129.4450587439
 30
0.0
 10
85.9995915328
 20
129.412310482
 30
0.0
 10
85.978910366
 20
129.3602858114
 30
0.0
 10
85.9789103541
 20
129.3368876704
 30
0.0
  0
SPLINE
  5
60D
100
AcDbEntity
  8
0
100
AcDbSpline
 62
7
  6
CONTINUOUS
 70
0
 71
3
 72
9
 73
5
 74
0
 42
0.0000001
 43
0.0000001
 44
0.0000000001
 40
0.0
 40
0.0
 40
0.0
 40
0.0
 40
0.5500408388
 40
1.0
 40
1.0
 40
1.0
 40
1.0
 10
92.855060252
 20
125.2953031875
 30
0.0
 10
92.8385465968
 20
125.2857690811
 30
0.0
 10
92.8102511911
 20
125.2639369065
 30
0.0
 10
92.7964637465
 20
125.2292537928
 30
0.0
 10
92.7964637386
 20
125.2136550321
 30
0.0
  0
SPLINE
  5
60E
100
AcDbEntity
  8
0
100
AcDbSpline
 62
7
  6
CONTINUOUS
 70
0
 71
3
 72
9
 73
5
 74
0
 42
0.0000001
 43
0.0000001
 44
0.0000000001
 40
0.0
 40
0.0
 40
0.0
 40
0.0
 40
0.4999975881
 40
1.0
 40
1.0
 40
1.0
 40
1.0
 10
94.834965716
 20
89.5325213359
 30
0.0
 10
94.7720008947
 20
89.4961687964
 30
0.0
 10
94.6228342154
 20
89.4673816067
 30
0.0
 10
94.4736673382
 20
89.4961678799
 30
0.0
 10
94.4107016473
 20
89.5325203161
 30
0.0
  0
SPLINE
  5
60F
100
AcDbEntity
  8
0
100
AcDbSpline
 62
7
  6
CONTINUOUS
 70
0
 71
3
 72
9
 73
5
 74
0
 42
0.0000001
 43
0.0000001
 44
0.0000000001
 40
0.0
 40
0.0
 40
0.0
 40
0.0
 40
0.4999975881
 40
1.0
 40
1.0
 40
1.0
 40
1.0
 10
93.1379041421
 20
90.2673536742
 30
0.0
 10
93.0959275945
 20
90.2431186479
 30
0.0
 10
92.9964831416
 20
90.2239271881
 30
0.0
 10
92.8970385569
 20
90.2431180369
 30
0.0
 10
92.8550614296
 20
90.2673529944
 30
0.0
  0
SPLINE
  5
610
100
AcDbEntity
  8
0
100
AcDbSpline
 62
7
  6
CONTINUOUS
 70
0
 71
3
 72
9
 73
5
 74
0
 42
0.0000001
 43
0.0000001
 44
0.0000000001
 40
0.0
 40
0.0
 40
0.0
 40
0.0
 40
0.5500415763
 40
1.0
 40
1.0
 40
1.0
 40
1.0
 10
92.8550614296
 20
90.2673529944
 30
0.0
 10
92.8385474726
 20
90.2768871162
 30
0.0
 10
92.8102515306
 20
90.2987193538
 30
0.0
 10
92.7964637465
 20
90.3334028953
 30
0.0
 10
92.7964637386
 20
90.3490018297
 30
0.0
  0
SPLINE
  5
611
100
AcDbEntity
  8
0
100
AcDbSpline
 62
7
  6
CONTINUOUS
 70
0
 71
3
 72
9
 73
5
 74
0
 42
0.0000001
 43
0.0000001
 44
0.0000000001
 40
0.0
 40
0.0
 40
0.0
 40
0.0
 40
0.5500415763
 40
1.0
 40
1.0
 40
1.0
 40
1.0
 10
86.0668068906
 20
94.3497612194
 30
0.0
 10
86.0420359551
 20
94.3640624022
 30
0.0
 10
85.9995920421
 20
94.3968107586
 30
0.0
 10
85.978910366
 20
94.4488360708
 30
0.0
 10
85.9789103541
 20
94.4722344724
 30
0.0
  0
SPLINE
  5
612
100
AcDbEntity
  8
0
100
AcDbSpline
 62
7
  6
CONTINUOUS
 70
0
 71
3
 72
11
 73
7
 74
0
 42
0.0000001
 43
0.0000001
 44
0.0000000001
 40
0.0
 40
0.0
 40
0.0
 40
0.0
 40
0.2908604786
 40
0.5498209784
 40
0.7819496839
 40
1.0
 40
1.0
 40
1.0
 40
1.0
 10
60.1327728904
 20
120.0387622417
 30
0.0
 10
60.1327732571
 20
119.7741568371
 30
0.0
 10
60.0910574271
 20
119.272065216
 30
0.0
 10
59.877405263
 20
118.5860253572
 30
0.0
 10
59.5168167711
 20
118.0387971003
 30
0.0
 10
59.1806475773
 20
117.7872742418
 30
0.0
 10
59.0028282192
 20
117.6993539564
 30
0.0
  0
SPLINE
  5
613
100
AcDbEntity
  8
0
100
AcDbSpline
 62
7
  6
CONTINUOUS
 70
0
 71
3
 72
13
 73
9
 74
0
 42
0.0000001
 43
0.0000001
 44
0.0000000001
 40
0.0
 40
0.0
 40
0.0
 40
0.0
 40
0.1142234698
 40
0.2375554011
 40
0.4999989155
 40
0.7624430235
 40
0.8857756484
 40
1.0
 40
1.0
 40
1.0
 40
1.0
 10
53.2334585857
 20
153.9742862344
 30
0.0
 10
53.4725518761
 20
153.8362487817
 30
0.0
 10
53.9449776308
 20
153.5050203076
 30
0.0
 10
54.8295088725
 20
152.6773170778
 30
0.0
 10
55.7637362128
 20
151.4011383123
 30
0.0
 10
56.4018329267
 20
149.9539858475
 30
0.0
 10
56.6763879868
 20
148.7741043959
 30
0.0
 10
56.7270324323
 20
148.1993541439
 30
0.0
 10
56.7270324323
 20
147.9232724228
 30
0.0
  0
SPLINE
  5
614
100
AcDbEntity
  8
0
100
AcDbSpline
 62
7
  6
CONTINUOUS
 70
0
 71
3
 72
13
 73
9
 74
0
 42
0.0000001
 43
0.0000001
 44
0.0000000001
 40
0.0
 40
0.0
 40
0.0
 40
0.0
 40
0.2369170445
 40
0.3667787256
 40
0.5000010179
 40
0.6332231754
 40
0.7630844404
 40
1.0
 40
1.0
 40
1.0
 40
1.0
 10
57.8981798857
 20
148.6816931102
 30
0.0
 10
57.8981818862
 20
149.2425781602
 30
0.0
 10
57.7462409991
 20
150.1134347601
 30
0.0
 10
57.3362145039
 20
151.2247098399
 30
0.0
 10
56.9127955357
 20
152.06454575
 30
0.0
 10
56.3971826909
 20
152.8511521151
 30
0.0
 10
55.6398019086
 20
153.7618753766
 30
0.0
 10
54.9615878933
 20
154.3288812527
 30
0.0
 10
54.4758464883
 20
154.6093155292
 30
0.0
  0
SPLINE
  5
615
100
AcDbEntity
  8
0
100
AcDbSpline
 62
7
  6
CONTINUOUS
 70
0
 71
3
 72
13
 73
9
 74
0
 42
0.0000001
 43
0.0000001
 44
0.0000000001
 40
0.0
 40
0.0
 40
0.0
 40
0.0
 40
0.1142250065
 40
0.237558445
 40
0.4999988469
 40
0.7624398758
 40
0.8857740734
 40
1.0
 40
1.0
 40
1.0
 40
1.0
 10
56.5972242647
 20
155.9648163252
 30
0.0
 10
56.8391937346
 20
155.8251194977
 30
0.0
 10
57.3172971518
 20
155.4899009654
 30
0.0
 10
58.2124507076
 20
154.6522499436
 30
0.0
 10
59.1578854047
 20
153.3607428613
 30
0.0
 10
59.803653497
 20
151.896220315
 30
0.0
 10
60.0815126115
 20
150.7021654073
 30
0.0
 10
60.1327738869
 20
150.1205028392
 30
0.0
 10
60.1327728904
 20
149.841100467
 30
0.0
  0
SPLINE
  5
616
100
AcDbEntity
  8
0
100
AcDbSpline
 62
7
  6
CONTINUOUS
 70
0
 71
3
 72
13
 73
9
 74
0
 42
0.0000001
 43
0.0000001
 44
0.0000000001
 40
0.0
 40
0.0
 40
0.0
 40
0.0
 40
0.1151031548
 40
0.2386196725
 40
0.4999989006
 40
0.7613787196
 40
0.8848959705
 40
1.0
 40
1.0
 40
1.0
 40
1.0
 10
54.4758464883
 20
154.6093155292
 30
0.0
 10
54.7073330588
 20
154.4672646076
 30
0.0
 10
55.1624828103
 20
154.1316582408
 30
0.0
 10
56.0150528374
 20
153.3127212649
 30
0.0
 10
56.9193744789
 20
152.0683434192
 30
0.0
 10
57.544883491
 20
150.6629904419
 30
0.0
 10
57.8278274337
 20
149.515171488
 30
0.0
 10
57.890900873
 20
148.9531938169
 30
0.0
 10
57.8981798857
 20
148.6816931102
 30
0.0
  0
SPLINE
  5
617
100
AcDbEntity
  8
0
100
AcDbSpline
 62
7
  6
CONTINUOUS
 70
0
 71
3
 72
15
 73
11
 74
0
 42
0.0000001
 43
0.0000001
 44
0.0000000001
 40
0.0
 40
0.0
 40
0.0
 40
0.0
 40
0.1287974769
 40
0.2706060703
 40
0.4178807568
 40
0.5623765801
 40
0.6961925898
 40
0.8135912016
 40
0.913066129
 40
1.0
 40
1.0
 40
1.0
 40
1.0
 10
167.9665258143
 20
162.0520605193
 30
0.0
 10
167.9665258143
 20
161.9452444124
 30
0.0
 10
167.9365766679
 20
161.7205760268
 30
0.0
 10
167.825109928
 20
161.3907032916
 30
0.0
 10
167.6530902458
 20
161.0729637318
 30
0.0
 10
167.4347885265
 20
160.7934249303
 30
0.0
 10
167.1874339614
 20
160.5743878085
 30
0.0
 10
166.929496757
 20
160.4334676629
 30
0.0
 10
166.6769658232
 20
160.3828345975
 30
0.0
 10
166.5201490481
 20
160.4232632528
 30
0.0
 10
166.4576834138
 20
160.4592639613
 30
0.0
  0
SPLINE
  5
618
100
AcDbEntity
  8
0
100
AcDbSpline
 62
7
  6
CONTINUOUS
 70
0
 71
3
 72
15
 73
11
 74
0
 42
0.0000001
 43
0.0000001
 44
0.0000000001
 40
0.0
 40
0.0
 40
0.0
 40
0.0
 40
0.1287974769
 40
0.2706060703
 40
0.4178807568
 40
0.5623765801
 40
0.6961925898
 40
0.8135912016
 40
0.913066129
 40
1.0
 40
1.0
 40
1.0
 40
1.0
 10
129.8076036916
 20
139.9966329942
 30
0.0
 10
129.8076036916
 20
139.8868337159
 30
0.0
 10
129.7768181223
 20
139.6558907683
 30
0.0
 10
129.6622383277
 20
139.3168053131
 30
0.0
 10
129.4854144619
 20
138.9901918899
 30
0.0
 10
129.2610159895
 20
138.7028460996
 30
0.0
 10
129.0067532805
 20
138.4776916864
 30
0.0
 10
128.7416123789
 20
138.3328359084
 30
0.0
 10
128.482028735
 20
138.2807887574
 30
0.0
 10
128.3208323647
 20
138.3223465084
 30
0.0
 10
128.2566221837
 20
138.3593526484
 30
0.0
  0
SPLINE
  5
619
100
AcDbEntity
  8
0
100
AcDbSpline
 62
7
  6
CONTINUOUS
 70
0
 71
3
 72
15
 73
11
 74
0
 42
0.0000001
 43
0.0000001
 44
0.0000000001
 40
0.0
 40
0.0
 40
0.0
 40
0.0
 40
0.1287974769
 40
0.2706060703
 40
0.4178807568
 40
0.5623765801
 40
0.6961925898
 40
0.8135912016
 40
0.913066129
 40
1.0
 40
1.0
 40
1.0
 40
1.0
 10
129.8076036916
 20
64.8784106183
 30
0.0
 10
129.8076036916
 20
64.76861134
 30
0.0
 10
129.7768181223
 20
64.5376683924
 30
0.0
 10
129.6622383277
 20
64.1985829372
 30
0.0
 10
129.4854144619
 20
63.871969514
 30
0.0
 10
129.2610159895
 20
63.5846237237
 30
0.0
 10
129.0067532805
 20
63.3594693105
 30
0.0
 10
128.7416123789
 20
63.2146135324
 30
0.0
 10
128.482028735
 20
63.1625663814
 30
0.0
 10
128.3208323647
 20
63.2041241325
 30
0.0
 10
128.2566221837
 20
63.2411302725
 30
0.0
  0
SPLINE
  5
61A
100
AcDbEntity
  8
0
100
AcDbSpline
 62
7
  6
CONTINUOUS
 70
0
 71
3
 72
8
 73
4
 74
0
 42
0.0000001
 43
0.0000001
 44
0.0000000001
 40
0.0
 40
0.0
 40
0.0
 40
0.0
 40
1.0
 40
1.0
 40
1.0
 40
1.0
 10
107.0885341076
 20
95.7652203823
 30
0.0
 10
107.043480619
 20
95.7379165444
 30
0.0
 10
106.9938898641
 20
95.7171313685
 30
0.0
 10
106.9429394992
 20
95.7037382091
 30
0.0
  0
SPLINE
  5
61B
100
AcDbEntity
  8
0
100
AcDbSpline
 62
7
  6
CONTINUOUS
 70
0
 71
3
 72
9
 73
5
 74
0
 42
0.0000001
 43
0.0000001
 44
0.0000000001
 40
0.0
 40
0.0
 40
0.0
 40
0.0
 40
0.4641011565
 40
1.0
 40
1.0
 40
1.0
 40
1.0
 10
106.9429394992
 20
95.7037382091
 30
0.0
 10
106.858715597
 20
95.6815985413
 30
0.0
 10
106.6655216065
 20
95.6761571022
 30
0.0
 10
106.4845388596
 20
95.7352067682
 30
0.0
 10
106.3929554757
 20
95.7767314021
 30
0.0
  0
SPLINE
  5
61C
100
AcDbEntity
  8
0
100
AcDbSpline
 62
7
  6
CONTINUOUS
 70
0
 71
3
 72
9
 73
5
 74
0
 42
0.0000001
 43
0.0000001
 44
0.0000000001
 40
0.0
 40
0.0
 40
0.0
 40
0.0
 40
0.2451122674
 40
1.0
 40
1.0
 40
1.0
 40
1.0
 10
106.3929554757
 20
95.7767314021
 30
0.0
 10
106.382802803
 20
95.7813347045
 30
0.0
 10
106.3416264052
 20
95.8006505704
 30
0.0
 10
106.3014341919
 20
95.8220507911
 30
0.0
 10
106.2717018864
 20
95.8392163573
 30
0.0
  0
SPLINE
  5
61D
100
AcDbEntity
  8
0
100
AcDbSpline
 62
7
  6
CONTINUOUS
 70
0
 71
3
 72
10
 73
6
 74
0
 42
0.0000001
 43
0.0000001
 44
0.0000000001
 40
0.0
 40
0.0
 40
0.0
 40
0.0
 40
0.2510326335
 40
0.5015454874
 40
1.0
 40
1.0
 40
1.0
 40
1.0
 10
80.6296938012
 20
214.6957759857
 30
0.0
 10
80.699330099
 20
214.7379331306
 30
0.0
 10
80.840617714
 20
214.8185315544
 30
0.0
 10
81.119538273
 20
214.9839292959
 30
0.0
 10
81.3272891442
 20
215.1097343372
 30
0.0
 10
81.4655601188
 20
215.1934422552
 30
0.0
  0
SPLINE
  5
61E
100
AcDbEntity
  8
0
100
AcDbSpline
 62
7
  6
CONTINUOUS
 70
0
 71
3
 72
11
 73
7
 74
0
 42
0.0000001
 43
0.0000001
 44
0.0000000001
 40
0.0
 40
0.0
 40
0.0
 40
0.0
 40
0.2879590515
 40
0.5463170211
 40
0.7800201297
 40
1.0
 40
1.0
 40
1.0
 40
1.0
 10
37.1086474458
 20
159.4230951519
 30
0.0
 10
37.1152864944
 20
159.6158700823
 30
0.0
 10
37.1571512807
 20
159.9818706549
 30
0.0
 10
37.3242600312
 20
160.4818635583
 30
0.0
 10
37.5906085837
 20
160.8851848153
 30
0.0
 10
37.8336142983
 20
161.0781972378
 30
0.0
 10
37.9627806485
 20
161.1491132341
 30
0.0
  0
SPLINE
  5
61F
100
AcDbEntity
  8
0
100
AcDbSpline
 62
7
  6
CONTINUOUS
 70
0
 71
3
 72
11
 73
7
 74
0
 42
0.0000001
 43
0.0000001
 44
0.0000000001
 40
0.0
 40
0.0
 40
0.0
 40
0.0
 40
0.237239768
 40
0.4999988393
 40
0.7627585384
 40
1.0
 40
1.0
 40
1.0
 40
1.0
 10
39.9448179107
 20
124.5791453631
 30
0.0
 10
39.5418574235
 20
124.8117894458
 30
0.0
 10
38.7793095255
 20
125.4535698876
 30
0.0
 10
37.8893124946
 20
126.6697777837
 30
0.0
 10
37.2810363493
 20
128.0486420068
 30
0.0
 10
37.1065048932
 20
129.0299210456
 30
0.0
 10
37.1065048932
 20
129.495220427
 30
0.0
  0
SPLINE
  5
620
100
AcDbEntity
  8
0
100
AcDbSpline
 62
7
  6
CONTINUOUS
 70
0
 71
3
 72
11
 73
7
 74
0
 42
0.0000001
 43
0.0000001
 44
0.0000000001
 40
0.0
 40
0.0
 40
0.0
 40
0.0
 40
0.2908594346
 40
0.5498195844
 40
0.7819487134
 40
1.0
 40
1.0
 40
1.0
 40
1.0
 10
39.9448179107
 20
161.540288956
 30
0.0
 10
39.7269569882
 20
161.6660681727
 30
0.0
 10
39.2937338348
 20
161.8703896611
 30
0.0
 10
38.6273278866
 20
162.0205887527
 30
0.0
 10
38.0053640782
 20
161.9838261346
 30
0.0
 10
37.638473971
 20
161.8266073246
 30
0.0
 10
37.4815568272
 20
161.7219951653
 30
0.0
  0
SPLINE
  5
621
100
AcDbEntity
  8
0
100
AcDbSpline
 62
7
  6
CONTINUOUS
 70
0
 71
3
 72
8
 73
4
 74
0
 42
0.0000001
 43
0.0000001
 44
0.0000000001
 40
0.0
 40
0.0
 40
0.0
 40
0.0
 40
1.0
 40
1.0
 40
1.0
 40
1.0
 10
48.7810410547
 20
157.8981222408
 30
0.0
 10
48.7581380871
 20
157.9113449762
 30
0.0
 10
48.7358714606
 20
157.9256500422
 30
0.0
 10
48.7129684931
 20
157.9388727775
 30
0.0
  0
SPLINE
  5
622
100
AcDbEntity
  8
0
100
AcDbSpline
 62
7
  6
CONTINUOUS
 70
0
 71
3
 72
10
 73
6
 74
0
 42
0.0000001
 43
0.0000001
 44
0.0000000001
 40
0.0
 40
0.0
 40
0.0
 40
0.0
 40
0.4579897769
 40
0.7178651426
 40
1.0
 40
1.0
 40
1.0
 40
1.0
 10
57.284731173
 20
116.9717692541
 30
0.0
 10
57.4923279973
 20
117.2038236814
 30
0.0
 10
57.7242615583
 20
117.654158093
 30
0.0
 10
57.8705066635
 20
118.3185894213
 30
0.0
 10
57.8962764974
 20
118.6879513234
 30
0.0
 10
57.8977121038
 20
118.8797532962
 30
0.0
  0
SPLINE
  5
623
100
AcDbEntity
  8
0
100
AcDbSpline
 62
7
  6
CONTINUOUS
 70
0
 71
3
 72
11
 73
7
 74
0
 42
0.0000001
 43
0.0000001
 44
0.0000000001
 40
0.0
 40
0.0
 40
0.0
 40
0.0
 40
0.2176899422
 40
0.4508856506
 40
0.7106204681
 40
1.0
 40
1.0
 40
1.0
 40
1.0
 10
129.5414554328
 20
65.4665768665
 30
0.0
 10
129.5838395325
 20
65.4421497134
 30
0.0
 10
129.6631467482
 20
65.3755013819
 30
0.0
 10
129.7476612403
 20
65.2374223796
 30
0.0
 10
129.7976073904
 20
65.0672335879
 30
0.0
 10
129.8076036916
 20
64.9434400055
 30
0.0
 10
129.8076036916
 20
64.8784106183
 30
0.0
  0
SPLINE
  5
624
100
AcDbEntity
  8
0
100
AcDbSpline
 62
7
  6
CONTINUOUS
 70
0
 71
3
 72
9
 73
5
 74
0
 42
0.0000001
 43
0.0000001
 44
0.0000000001
 40
0.0
 40
0.0
 40
0.0
 40
0.0
 40
0.2751282298
 40
1.0
 40
1.0
 40
1.0
 40
1.0
 10
56.7270324323
 20
118.284234681
 30
0.0
 10
56.7270324323
 20
118.1363939107
 30
0.0
 10
56.7016953044
 20
117.600665634
 30
0.0
 10
56.5636211711
 20
117.0606603413
 30
0.0
 10
56.3737866564
 20
116.7205397139
 30
0.0
  0
SPLINE
  5
625
100
AcDbEntity
  8
0
100
AcDbSpline
 62
7
  6
CONTINUOUS
 70
0
 71
3
 72
9
 73
5
 74
0
 42
0.0000001
 43
0.0000001
 44
0.0000000001
 40
0.0
 40
0.0
 40
0.0
 40
0.0
 40
0.5125672975
 40
1.0
 40
1.0
 40
1.0
 40
1.0
 10
56.3737866564
 20
116.7205397139
 30
0.0
 10
56.2866649715
 20
116.5644464861
 30
0.0
 10
56.0778729204
 20
116.2788719052
 30
0.0
 10
55.7927440675
 20
116.0671675163
 30
0.0
 10
55.6420089885
 20
115.9885730024
 30
0.0
  0
SPLINE
  5
626
100
AcDbEntity
  8
0
100
AcDbSpline
 62
7
  6
CONTINUOUS
 70
0
 71
3
 72
8
 73
4
 74
0
 42
0.0000001
 43
0.0000001
 44
0.0000000001
 40
0.0
 40
0.0
 40
0.0
 40
0.0
 40
1.0
 40
1.0
 40
1.0
 40
1.0
 10
57.284731173
 20
116.9717692541
 30
0.0
 10
57.2874693683
 20
116.9621567629
 30
0.0
 10
57.2908621539
 20
116.9526605515
 30
0.0
 10
57.2953335957
 20
116.9437216529
 30
0.0
  0
SPLINE
  5
627
100
AcDbEntity
  8
0
100
AcDbSpline
 62
7
  6
CONTINUOUS
 70
0
 71
3
 72
11
 73
7
 74
0
 42
0.0000001
 43
0.0000001
 44
0.0000000001
 40
0.0
 40
0.0
 40
0.0
 40
0.0
 40
0.2176899422
 40
0.4508856506
 40
0.7106204681
 40
1.0
 40
1.0
 40
1.0
 40
1.0
 10
129.5414554328
 20
140.5847992425
 30
0.0
 10
129.5838395325
 20
140.5603720893
 30
0.0
 10
129.6631467482
 20
140.4937237578
 30
0.0
 10
129.7476612403
 20
140.3556447556
 30
0.0
 10
129.7976073904
 20
140.1854559639
 30
0.0
 10
129.8076036916
 20
140.0616623814
 30
0.0
 10
129.8076036916
 20
139.9966329942
 30
0.0
  0
SPLINE
  5
628
100
AcDbEntity
  8
0
100
AcDbSpline
 62
7
  6
CONTINUOUS
 70
0
 71
3
 72
11
 73
7
 74
0
 42
0.0000001
 43
0.0000001
 44
0.0000000001
 40
0.0
 40
0.0
 40
0.0
 40
0.0
 40
0.2176899422
 40
0.4508856506
 40
0.7106204681
 40
1.0
 40
1.0
 40
1.0
 40
1.0
 10
167.7076086219
 20
162.6242466927
 30
0.0
 10
167.7488411745
 20
162.6004832086
 30
0.0
 10
167.8259936673
 20
162.5356456667
 30
0.0
 10
167.9082119585
 20
162.4013181766
 30
0.0
 10
167.9568011059
 20
162.235753298
 30
0.0
 10
167.9665258143
 20
162.1153231026
 30
0.0
 10
167.9665258143
 20
162.0520605193
 30
0.0
  0
SPLINE
  5
629
100
AcDbEntity
  8
0
100
AcDbSpline
 62
7
  6
CONTINUOUS
 70
0
 71
3
 72
11
 73
7
 74
0
 42
0.0000001
 43
0.0000001
 44
0.0000000001
 40
0.0
 40
0.0
 40
0.0
 40
0.0
 40
0.2465654628
 40
0.5188924247
 40
0.7805530678
 40
1.0
 40
1.0
 40
1.0
 40
1.0
 10
102.5240217327
 20
77.4539508048
 30
0.0
 10
102.5240217327
 20
77.7271659645
 30
0.0
 10
102.4048826782
 20
78.3020997763
 30
0.0
 10
102.0080622089
 20
79.080031502
 30
0.0
 10
101.4518488926
 20
79.7130515102
 30
0.0
 10
100.9786560695
 20
79.996182009
 30
0.0
 10
100.7437753547
 20
80.0591148222
 30
0.0
  0
SPLINE
  5
62A
100
AcDbEntity
  8
0
100
AcDbSpline
 62
7
  6
CONTINUOUS
 70
0
 71
3
 72
11
 73
7
 74
0
 42
0.0000001
 43
0.0000001
 44
0.0000000001
 40
0.0
 40
0.0
 40
0.0
 40
0.0
 40
0.2177754667
 40
0.4509781589
 40
0.7103909544
 40
1.0
 40
1.0
 40
1.0
 40
1.0
 10
55.6398781066
 20
115.9856495643
 30
0.0
 10
55.8018887482
 20
116.080245479
 30
0.0
 10
56.1047758493
 20
116.3370786999
 30
0.0
 10
56.4270669796
 20
116.8670362382
 30
0.0
 10
56.6185218812
 20
117.5193203042
 30
0.0
 10
56.6562329175
 20
117.9938747702
 30
0.0
 10
56.6562329175
 20
118.2433622788
 30
0.0
  0
SPLINE
  5
62B
100
AcDbEntity
  8
0
100
AcDbSpline
 62
7
  6
CONTINUOUS
 70
0
 71
3
 72
9
 73
5
 74
0
 42
0.0000001
 43
0.0000001
 44
0.0000000001
 40
0.0
 40
0.0
 40
0.0
 40
0.0
 40
0.4798600437
 40
1.0
 40
1.0
 40
1.0
 40
1.0
 10
163.9435872728
 20
80.8976447674
 30
0.0
 10
164.037031741
 20
80.9635621744
 30
0.0
 10
164.2086572753
 20
81.1357992949
 30
0.0
 10
164.3195296924
 20
81.3504683391
 30
0.0
 10
164.3633834594
 20
81.4664051715
 30
0.0
  0
SPLINE
  5
62C
100
AcDbEntity
  8
0
100
AcDbSpline
 62
7
  6
CONTINUOUS
 70
0
 71
3
 72
9
 73
5
 74
0
 42
0.0000001
 43
0.0000001
 44
0.0000000001
 40
0.0
 40
0.0
 40
0.0
 40
0.0
 40
0.499998676
 40
1.0
 40
1.0
 40
1.0
 40
1.0
 10
78.5578704107
 20
85.2372077297
 30
0.0
 10
78.6208356311
 20
85.2008555651
 30
0.0
 10
78.7700023269
 20
85.1720690202
 30
0.0
 10
78.9191691876
 20
85.2008559383
 30
0.0
 10
78.9821344794
 20
85.2372087495
 30
0.0
  0
SPLINE
  5
62D
100
AcDbEntity
  8
0
100
AcDbSpline
 62
7
  6
CONTINUOUS
 70
0
 71
3
 72
11
 73
7
 74
0
 42
0.0000001
 43
0.0000001
 44
0.0000000001
 40
0.0
 40
0.0
 40
0.0
 40
0.0
 40
0.2180512435
 40
0.4501803413
 40
0.7091405572
 40
1.0
 40
1.0
 40
1.0
 40
1.0
 10
40.6773086624
 20
163.8512760635
 30
0.0
 10
40.8423566017
 20
163.961308748
 30
0.0
 10
41.228257379
 20
164.1266739773
 30
0.0
 10
41.8824488207
 20
164.165341553
 30
0.0
 10
42.5833852405
 20
164.0073596843
 30
0.0
 10
43.0390563494
 20
163.792451136
 30
0.0
 10
43.2682059456
 20
163.6601545479
 30
0.0
  0
SPLINE
  5
62E
100
AcDbEntity
  8
0
100
AcDbSpline
 62
7
  6
CONTINUOUS
 70
0
 71
3
 72
11
 73
7
 74
0
 42
0.0000001
 43
0.0000001
 44
0.0000000001
 40
0.0
 40
0.0
 40
0.0
 40
0.0
 40
0.2180302913
 40
0.4501532194
 40
0.7092955116
 40
1.0
 40
1.0
 40
1.0
 40
1.0
 10
104.6038397327
 20
127.6224967759
 30
0.0
 10
104.6830879122
 20
127.6752558571
 30
0.0
 10
104.8681735272
 20
127.7548811559
 30
0.0
 10
105.1823173543
 20
127.7733539406
 30
0.0
 10
105.5187079007
 20
127.6973658659
 30
0.0
 10
105.7374849025
 20
127.5943154444
 30
0.0
 10
105.8474166211
 20
127.5308477729
 30
0.0
  0
SPLINE
  5
62F
100
AcDbEntity
  8
0
100
AcDbSpline
 62
7
  6
CONTINUOUS
 70
0
 71
3
 72
9
 73
5
 74
0
 42
0.0000001
 43
0.0000001
 44
0.0000000001
 40
0.0
 40
0.0
 40
0.0
 40
0.0
 40
0.2489119109
 40
1.0
 40
1.0
 40
1.0
 40
1.0
 10
82.2443434739
 20
213.8002059251
 30
0.0
 10
82.1861535958
 20
213.8990476945
 30
0.0
 10
81.9546828027
 20
214.2975061954
 30
0.0
 10
81.7312240744
 20
214.7005391845
 30
0.0
 10
81.563653039
 20
215.003369167
 30
0.0
  0
SPLINE
  5
630
100
AcDbEntity
  8
0
100
AcDbSpline
 62
7
  6
CONTINUOUS
 70
0
 71
3
 72
9
 73
5
 74
0
 42
0.0000001
 43
0.0000001
 44
0.0000000001
 40
0.0
 40
0.0
 40
0.0
 40
0.0
 40
0.5004725719
 40
1.0
 40
1.0
 40
1.0
 40
1.0
 10
82.2449265306
 20
213.7999038671
 30
0.0
 10
82.2472392933
 20
214.1109595133
 30
0.0
 10
82.2565867673
 20
214.7324398362
 30
0.0
 10
82.2599695911
 20
215.3539756572
 30
0.0
 10
82.2622779862
 20
215.664443874
 30
0.0
  0
SPLINE
  5
631
100
AcDbEntity
  8
0
100
AcDbSpline
 62
7
  6
CONTINUOUS
 70
0
 71
3
 72
9
 73
5
 74
0
 42
0.0000001
 43
0.0000001
 44
0.0000000001
 40
0.0
 40
0.0
 40
0.0
 40
0.0
 40
0.4823259245
 40
1.0
 40
1.0
 40
1.0
 40
1.0
 10
107.3431372234
 20
95.2059343558
 30
0.0
 10
107.4272991173
 20
95.2476142629
 30
0.0
 10
107.5862324472
 20
95.3691246955
 30
0.0
 10
107.6901452888
 20
95.5384205031
 30
0.0
 10
107.7308327694
 20
95.6306440724
 30
0.0
  0
SPLINE
  5
632
100
AcDbEntity
  8
0
100
AcDbSpline
 62
7
  6
CONTINUOUS
 70
0
 71
3
 72
9
 73
5
 74
0
 42
0.0000001
 43
0.0000001
 44
0.0000000001
 40
0.0
 40
0.0
 40
0.0
 40
0.0
 40
0.236860328
 40
1.0
 40
1.0
 40
1.0
 40
1.0
 10
107.7308327694
 20
95.6306440724
 30
0.0
 10
107.7434249458
 20
95.6591859098
 30
0.0
 10
107.7914603742
 20
95.7819450488
 30
0.0
 10
107.819498396
 20
95.9120176523
 30
0.0
 10
107.8320941232
 20
96.0117360729
 30
0.0
  0
SPLINE
  5
633
100
AcDbEntity
  8
0
100
AcDbSpline
 62
7
  6
CONTINUOUS
 70
0
 71
3
 72
9
 73
5
 74
0
 42
0.0000001
 43
0.0000001
 44
0.0000000001
 40
0.0
 40
0.0
 40
0.0
 40
0.0
 40
0.2437253697
 40
1.0
 40
1.0
 40
1.0
 40
1.0
 10
107.8320941232
 20
96.0117360729
 30
0.0
 10
107.8345033286
 20
96.0308093781
 30
0.0
 10
107.8430650471
 20
96.1092308407
 30
0.0
 10
107.8464736604
 20
96.1881932362
 30
0.0
 10
107.8464736604
 20
96.2478475676
 30
0.0
  0
SPLINE
  5
634
100
AcDbEntity
  8
0
100
AcDbSpline
 62
7
  6
CONTINUOUS
 70
0
 71
3
 72
9
 73
5
 74
0
 42
0.0000001
 43
0.0000001
 44
0.0000000001
 40
0.0
 40
0.0
 40
0.0
 40
0.0
 40
0.2310220216
 40
1.0
 40
1.0
 40
1.0
 40
1.0
 10
70.284687804
 20
89.8503275759
 30
0.0
 10
70.2910350219
 20
89.8466630908
 30
0.0
 10
70.3194734766
 20
89.8324887596
 30
0.0
 10
70.350601971
 20
89.8241250696
 30
0.0
 10
70.3747102056
 20
89.8203919058
 30
0.0
  0
SPLINE
  5
635
100
AcDbEntity
  8
0
100
AcDbSpline
 62
7
  6
CONTINUOUS
 70
0
 71
3
 72
9
 73
5
 74
0
 42
0.0000001
 43
0.0000001
 44
0.0000000001
 40
0.0
 40
0.0
 40
0.0
 40
0.0
 40
0.2630944952
 40
1.0
 40
1.0
 40
1.0
 40
1.0
 10
70.3747102056
 20
89.8203919058
 30
0.0
 10
70.3917801968
 20
89.817748615
 30
0.0
 10
70.4571282142
 20
89.8130243613
 30
0.0
 10
70.5256308998
 20
89.8261376451
 30
0.0
 10
70.5675305165
 20
89.8503282557
 30
0.0
  0
SPLINE
  5
636
100
AcDbEntity
  8
0
100
AcDbSpline
 62
7
  6
CONTINUOUS
 70
0
 71
3
 72
9
 73
5
 74
0
 42
0.0000001
 43
0.0000001
 44
0.0000000001
 40
0.0
 40
0.0
 40
0.0
 40
0.0
 40
0.4499591041
 40
1.0
 40
1.0
 40
1.0
 40
1.0
 10
70.2260901131
 20
89.9319764022
 30
0.0
 10
70.2260901051
 20
89.91637746
 30
0.0
 10
70.2398782501
 20
89.8816941065
 30
0.0
 10
70.2681738841
 20
89.8598616763
 30
0.0
 10
70.284687804
 20
89.8503275759
 30
0.0
  0
SPLINE
  5
637
100
AcDbEntity
  8
0
100
AcDbSpline
 62
7
  6
CONTINUOUS
 70
0
 71
3
 72
11
 73
7
 74
0
 42
0.0000001
 43
0.0000001
 44
0.0000000001
 40
0.0
 40
0.0
 40
0.0
 40
0.0
 40
0.2177472614
 40
0.4508813176
 40
0.7104246225
 40
1.0
 40
1.0
 40
1.0
 40
1.0
 10
102.1097616058
 20
66.3648213033
 30
0.0
 10
102.1757148918
 20
66.4029180547
 30
0.0
 10
102.2992267517
 20
66.5065629389
 30
0.0
 10
102.430635287
 20
66.7215081279
 30
0.0
 10
102.5085820585
 20
66.9863216658
 30
0.0
 10
102.5240217327
 20
67.1790404033
 30
0.0
 10
102.5240217327
 20
67.2803306873
 30
0.0
  0
SPLINE
  5
638
100
AcDbEntity
  8
0
100
AcDbSpline
 62
7
  6
CONTINUOUS
 70
0
 71
3
 72
9
 73
5
 74
0
 42
0.0000001
 43
0.0000001
 44
0.0000000001
 40
0.0
 40
0.0
 40
0.0
 40
0.0
 40
0.2563181166
 40
1.0
 40
1.0
 40
1.0
 40
1.0
 10
103.5139739583
 20
126.0424315062
 30
0.0
 10
103.4964661672
 20
126.0525394054
 30
0.0
 10
103.42758808
 20
126.0909673513
 30
0.0
 10
103.3563955387
 20
126.125292972
 30
0.0
 10
103.3023238532
 20
126.1480235624
 30
0.0
  0
SPLINE
  5
639
100
AcDbEntity
  8
0
100
AcDbSpline
 62
7
  6
CONTINUOUS
 70
0
 71
3
 72
11
 73
7
 74
0
 42
0.0000001
 43
0.0000001
 44
0.0000000001
 40
0.0
 40
0.0
 40
0.0
 40
0.0
 40
0.2826961686
 40
0.5387424151
 40
0.774335626
 40
1.0
 40
1.0
 40
1.0
 40
1.0
 10
103.3023238532
 20
126.1480235624
 30
0.0
 10
103.2171651149
 20
126.183822491
 30
0.0
 10
103.048838152
 20
126.2393128739
 30
0.0
 10
102.7951330552
 20
126.2671530274
 30
0.0
 10
102.5603114418
 20
126.233353002
 30
0.0
 10
102.4213923344
 20
126.1683411556
 30
0.0
 10
102.3600101001
 20
126.127476198
 30
0.0
  0
SPLINE
  5
63A
100
AcDbEntity
  8
0
100
AcDbSpline
 62
7
  6
CONTINUOUS
 70
0
 71
3
 72
11
 73
7
 74
0
 42
0.0000001
 43
0.0000001
 44
0.0000000001
 40
0.0
 40
0.0
 40
0.0
 40
0.0
 40
0.2372539654
 40
0.5000012591
 40
0.7627478695
 40
1.0
 40
1.0
 40
1.0
 40
1.0
 10
107.8464736604
 20
121.7227229819
 30
0.0
 10
107.8464736609
 20
121.9808962218
 30
0.0
 10
107.7496763792
 20
122.5253509292
 30
0.0
 10
107.4120421262
 20
123.2902913064
 30
0.0
 10
106.9183994145
 20
123.9651573599
 30
0.0
 10
106.4952860059
 20
124.321209132
 30
0.0
 10
106.2717018864
 20
124.4502925635
 30
0.0
  0
SPLINE
  5
63B
100
AcDbEntity
  8
0
100
AcDbSpline
 62
7
  6
CONTINUOUS
 70
0
 71
3
 72
9
 73
5
 74
0
 42
0.0000001
 43
0.0000001
 44
0.0000000001
 40
0.0
 40
0.0
 40
0.0
 40
0.0
 40
0.2549108053
 40
1.0
 40
1.0
 40
1.0
 40
1.0
 10
102.3727242812
 20
124.8829221663
 30
0.0
 10
102.3727242812
 20
124.8945155525
 30
0.0
 10
102.3732529478
 20
124.9399934173
 30
0.0
 10
102.3759239875
 20
124.9854523867
 30
0.0
 10
102.379236371
 20
125.0191768893
 30
0.0
  0
SPLINE
  5
63C
100
AcDbEntity
  8
0
100
AcDbSpline
 62
7
  6
CONTINUOUS
 70
0
 71
3
 72
9
 73
5
 74
0
 42
0.0000001
 43
0.0000001
 44
0.0000000001
 40
0.0
 40
0.0
 40
0.0
 40
0.0
 40
0.5359023401
 40
1.0
 40
1.0
 40
1.0
 40
1.0
 10
102.379236371
 20
125.0191768893
 30
0.0
 10
102.3890667875
 20
125.1192637013
 30
0.0
 10
102.4284233266
 20
125.3055438739
 30
0.0
 10
102.529750686
 20
125.4701479198
 30
0.0
 10
102.5910464517
 20
125.5320195054
 30
0.0
  0
SPLINE
  5
63D
100
AcDbEntity
  8
0
100
AcDbSpline
 62
7
  6
CONTINUOUS
 70
0
 71
3
 72
8
 73
4
 74
0
 42
0.0000001
 43
0.0000001
 44
0.0000000001
 40
0.0
 40
0.0
 40
0.0
 40
0.0
 40
1.0
 40
1.0
 40
1.0
 40
1.0
 10
102.5910464517
 20
125.5320195054
 30
0.0
 10
102.628114093
 20
125.5694353645
 30
0.0
 10
102.6709004588
 20
125.601979519
 30
0.0
 10
102.7170618469
 20
125.6273385961
 30
0.0
  0
SPLINE
  5
63E
100
AcDbEntity
  8
0
100
AcDbSpline
 62
7
  6
CONTINUOUS
 70
0
 71
3
 72
11
 73
7
 74
0
 42
0.0000001
 43
0.0000001
 44
0.0000000001
 40
0.0
 40
0.0
 40
0.0
 40
0.0
 40
0.2372523758
 40
0.4999990758
 40
0.7627462798
 40
1.0
 40
1.0
 40
1.0
 40
1.0
 10
103.5139739583
 20
97.4313553
 30
0.0
 10
103.3519405943
 20
97.5249031899
 30
0.0
 10
103.045306758
 20
97.7829369833
 30
0.0
 10
102.6875599515
 20
98.2720180453
 30
0.0
 10
102.4428739287
 20
98.8263763278
 30
0.0
 10
102.3727242812
 20
99.2209467372
 30
0.0
 10
102.3727242812
 20
99.4080467519
 30
0.0
  0
SPLINE
  5
63F
100
AcDbEntity
  8
0
100
AcDbSpline
 62
7
  6
CONTINUOUS
 70
0
 71
3
 72
9
 73
5
 74
0
 42
0.0000001
 43
0.0000001
 44
0.0000000001
 40
0.0
 40
0.0
 40
0.0
 40
0.0
 40
0.4499591041
 40
1.0
 40
1.0
 40
1.0
 40
1.0
 10
85.9789103541
 20
129.3368876704
 30
0.0
 10
85.9789103422
 20
129.3134892571
 30
0.0
 10
85.9995925596
 20
129.2614642268
 30
0.0
 10
86.0420360107
 20
129.2287155815
 30
0.0
 10
86.0668068906
 20
129.2144144309
 30
0.0
  0
SPLINE
  5
640
100
AcDbEntity
  8
0
100
AcDbSpline
 62
7
  6
CONTINUOUS
 70
0
 71
3
 72
9
 73
5
 74
0
 42
0.0000001
 43
0.0000001
 44
0.0000000001
 40
0.0
 40
0.0
 40
0.0
 40
0.0
 40
0.4499591041
 40
1.0
 40
1.0
 40
1.0
 40
1.0
 10
92.7964637386
 20
125.2136550321
 30
0.0
 10
92.7964637307
 20
125.1980560899
 30
0.0
 10
92.8102518756
 20
125.1633727364
 30
0.0
 10
92.8385475097
 20
125.1415403062
 30
0.0
 10
92.8550614296
 20
125.1320062058
 30
0.0
  0
SPLINE
  5
641
100
AcDbEntity
  8
0
100
AcDbSpline
 62
7
  6
CONTINUOUS
 70
0
 71
3
 72
9
 73
5
 74
0
 42
0.0000001
 43
0.0000001
 44
0.0000000001
 40
0.0
 40
0.0
 40
0.0
 40
0.0
 40
0.2629615661
 40
1.0
 40
1.0
 40
1.0
 40
1.0
 10
102.3207823182
 20
130.1997048025
 30
0.0
 10
102.3122360888
 20
130.1983826931
 30
0.0
 10
102.2795078997
 20
130.1959893998
 30
0.0
 10
102.2451810146
 20
130.2025281726
 30
0.0
 10
102.2241896278
 20
130.2146472812
 30
0.0
  0
SPLINE
  5
642
100
AcDbEntity
  8
0
100
AcDbSpline
 62
7
  6
CONTINUOUS
 70
0
 71
3
 72
9
 73
5
 74
0
 42
0.0000001
 43
0.0000001
 44
0.0000000001
 40
0.0
 40
0.0
 40
0.0
 40
0.0
 40
0.2310220216
 40
1.0
 40
1.0
 40
1.0
 40
1.0
 10
92.8550614296
 20
125.1320062058
 30
0.0
 10
92.8614086475
 20
125.1283417207
 30
0.0
 10
92.8898471022
 20
125.1141673896
 30
0.0
 10
92.9209755966
 20
125.1058036995
 30
0.0
 10
92.9450838312
 20
125.1020705357
 30
0.0
  0
SPLINE
  5
643
100
AcDbEntity
  8
0
100
AcDbSpline
 62
7
  6
CONTINUOUS
 70
0
 71
3
 72
9
 73
5
 74
0
 42
0.0000001
 43
0.0000001
 44
0.0000000001
 40
0.0
 40
0.0
 40
0.0
 40
0.0
 40
0.2630944952
 40
1.0
 40
1.0
 40
1.0
 40
1.0
 10
92.9450838312
 20
125.1020705357
 30
0.0
 10
92.9621538224
 20
125.0994272449
 30
0.0
 10
93.0275018397
 20
125.0947029913
 30
0.0
 10
93.0960045254
 20
125.1078162751
 30
0.0
 10
93.1379041421
 20
125.1320068857
 30
0.0
  0
SPLINE
  5
644
100
AcDbEntity
  8
0
100
AcDbSpline
 62
7
  6
CONTINUOUS
 70
0
 71
3
 72
9
 73
5
 74
0
 42
0.0000001
 43
0.0000001
 44
0.0000000001
 40
0.0
 40
0.0
 40
0.0
 40
0.0
 40
0.499998676
 40
1.0
 40
1.0
 40
1.0
 40
1.0
 10
94.4107016473
 20
124.3971735275
 30
0.0
 10
94.4736668678
 20
124.360821363
 30
0.0
 10
94.6228335635
 20
124.3320348181
 30
0.0
 10
94.7720004243
 20
124.3608217362
 30
0.0
 10
94.834965716
 20
124.3971745473
 30
0.0
  0
SPLINE
  5
645
100
AcDbEntity
  8
0
100
AcDbSpline
 62
7
  6
CONTINUOUS
 70
0
 71
3
 72
9
 73
5
 74
0
 42
0.0000001
 43
0.0000001
 44
0.0000000001
 40
0.0
 40
0.0
 40
0.0
 40
0.0
 40
0.5500408388
 40
1.0
 40
1.0
 40
1.0
 40
1.0
 10
102.9666563112
 20
129.5818732619
 30
0.0
 10
102.991426794
 20
129.5961744214
 30
0.0
 10
103.0338699026
 20
129.6289226833
 30
0.0
 10
103.0545510694
 20
129.6809473539
 30
0.0
 10
103.0545510813
 20
129.7043454949
 30
0.0
  0
SPLINE
  5
646
100
AcDbEntity
  8
0
100
AcDbSpline
 62
7
  6
CONTINUOUS
 70
0
 71
3
 72
9
 73
5
 74
0
 42
0.0000001
 43
0.0000001
 44
0.0000000001
 40
0.0
 40
0.0
 40
0.0
 40
0.0
 40
0.499998676
 40
1.0
 40
1.0
 40
1.0
 40
1.0
 10
102.2241896278
 20
130.4595980064
 30
0.0
 10
102.2451780347
 20
130.4474806182
 30
0.0
 10
102.2949002666
 20
130.4378851032
 30
0.0
 10
102.3446225535
 20
130.4474807426
 30
0.0
 10
102.3656109841
 20
130.4595983463
 30
0.0
  0
SPLINE
  5
647
100
AcDbEntity
  8
0
100
AcDbSpline
 62
7
  6
CONTINUOUS
 70
0
 71
3
 72
13
 73
9
 74
0
 42
0.0000001
 43
0.0000001
 44
0.0000000001
 40
0.0
 40
0.0
 40
0.0
 40
0.0
 40
0.1142259181
 40
0.2375599982
 40
0.5000010158
 40
0.7624414734
 40
0.8857749255
 40
1.0
 40
1.0
 40
1.0
 40
1.0
 10
56.6562329175
 20
147.8824000206
 30
0.0
 10
56.6562329175
 20
148.1584850093
 30
0.0
 10
56.6055812721
 20
148.733241094
 30
0.0
 10
56.3310216084
 20
149.9131188156
 30
0.0
 10
55.6929205896
 20
151.3602526407
 30
0.0
 10
54.7587115989
 20
152.6364260791
 30
0.0
 10
53.8741856425
 20
153.4641316491
 30
0.0
 10
53.4017582788
 20
153.7953694904
 30
0.0
 10
53.1626620785
 20
153.9334086231
 30
0.0
  0
SPLINE
  5
648
100
AcDbEntity
  8
0
100
AcDbSpline
 62
7
  6
CONTINUOUS
 70
0
 71
3
 72
11
 73
7
 74
0
 42
0.0000001
 43
0.0000001
 44
0.0000000001
 40
0.0
 40
0.0
 40
0.0
 40
0.0
 40
0.2907054983
 40
0.5498483482
 40
0.7819708137
 40
1.0
 40
1.0
 40
1.0
 40
1.0
 10
110.3022078896
 20
97.5244498039
 30
0.0
 10
110.3022078895
 20
97.3975086081
 30
0.0
 10
110.2820652732
 20
97.1565098988
 30
0.0
 10
110.1796777376
 20
96.8271832277
 30
0.0
 10
110.0066049958
 20
96.5643556918
 30
0.0
 10
109.845100781
 20
96.4438768821
 30
0.0
 10
109.7597839984
 20
96.4016250823
 30
0.0
  0
SPLINE
  5
649
100
AcDbEntity
  8
0
100
AcDbSpline
 62
7
  6
CONTINUOUS
 70
0
 71
3
 72
11
 73
7
 74
0
 42
0.0000001
 43
0.0000001
 44
0.0000000001
 40
0.0
 40
0.0
 40
0.0
 40
0.0
 40
0.2372523757
 40
0.4999990758
 40
0.76274628
 40
1.0
 40
1.0
 40
1.0
 40
1.0
 10
108.6051445201
 20
125.9387088471
 30
0.0
 10
108.8460916959
 20
125.799601077
 30
0.0
 10
109.3020629574
 20
125.4158991548
 30
0.0
 10
109.8340403299
 20
124.6886248596
 30
0.0
 10
110.1978938248
 20
123.8642818989
 30
0.0
 10
110.3022078899
 20
123.2775470214
 30
0.0
 10
110.3022078896
 20
122.9993251846
 30
0.0
  0
SPLINE
  5
64A
100
AcDbEntity
  8
0
100
AcDbSpline
 62
7
  6
CONTINUOUS
 70
0
 71
3
 72
11
 73
7
 74
0
 42
0.0000001
 43
0.0000001
 44
0.0000000001
 40
0.0
 40
0.0
 40
0.0
 40
0.0
 40
0.2895754156
 40
0.5491185741
 40
0.7822526455
 40
1.0
 40
1.0
 40
1.0
 40
1.0
 10
105.0243409011
 20
68.7238820154
 30
0.0
 10
105.0243409011
 20
68.6225917163
 30
0.0
 10
105.008901314
 20
68.4298729994
 30
0.0
 10
104.9309544479
 20
68.1650595218
 30
0.0
 10
104.7995459855
 20
67.950114304
 30
0.0
 10
104.676034092
 20
67.8464693938
 30
0.0
 10
104.6100807887
 20
67.8083726045
 30
0.0
  0
SPLINE
  5
64B
100
AcDbEntity
  8
0
100
AcDbSpline
 62
7
  6
CONTINUOUS
 70
0
 71
3
 72
11
 73
7
 74
0
 42
0.0000001
 43
0.0000001
 44
0.0000000001
 40
0.0
 40
0.0
 40
0.0
 40
0.0
 40
0.2361852563
 40
0.4978542987
 40
0.7606877358
 40
1.0
 40
1.0
 40
1.0
 40
1.0
 10
53.8255224537
 20
146.009663842
 30
0.0
 10
53.8255224537
 20
146.1240826786
 30
0.0
 10
53.8687641777
 20
146.3654464461
 30
0.0
 10
54.0201235113
 20
146.7044939909
 30
0.0
 10
54.2421264516
 20
147.0040099895
 30
0.0
 10
54.4320071876
 20
147.1621314323
 30
0.0
 10
54.5324088522
 20
147.2200980499
 30
0.0
  0
SPLINE
  5
64C
100
AcDbEntity
  8
0
100
AcDbSpline
 62
7
  6
CONTINUOUS
 70
0
 71
3
 72
11
 73
7
 74
0
 42
0.0000001
 43
0.0000001
 44
0.0000000001
 40
0.0
 40
0.0
 40
0.0
 40
0.0
 40
0.2194467499
 40
0.4811073171
 40
0.7534343393
 40
1.0
 40
1.0
 40
1.0
 40
1.0
 10
103.2440945231
 20
81.5026661503
 30
0.0
 10
103.4789750429
 20
81.4397333894
 30
0.0
 10
103.9521676529
 20
81.1566031557
 30
0.0
 10
104.5083809725
 20
80.52358343
 30
0.0
 10
104.9052016924
 20
79.7456516082
 30
0.0
 10
105.0243409011
 20
79.1707175121
 30
0.0
 10
105.0243409011
 20
78.8975021329
 30
0.0
  0
ENDSEC
  0
SECTION
  2
OBJECTS
  0
DICTIONARY
  5
C
100
AcDbDictionary
280
0
281
1
  3
ACAD_GROUP
350
D
  3
ACAD_MLINESTYLE
350
17
  3
ACAD_LAYOUT
350
1A
  3
ACAD_PLOTSETTINGS
350
19
  3
ACAD_PLOTSTYLENAME
350
E
  0
DICTIONARY
  5
D
102
{ACAD_REACTORS
330
C
102
}
100
AcDbDictionary
280
0
281
1
  0
ACDBDICTIONARYWDFLT
  5
E
102
{ACAD_REACTORS
330
C
102
}
100
AcDbDictionary
281
1
  3
Normal
350
F
100
AcDbDictionaryWithDefault
340
F
  0
DICTIONARY
  5
17
102
{ACAD_REACTORS
330
C
102
}
100
AcDbDictionary
280
0
281
1
  3
Standard
350
18
  0
DICTIONARY
  5
19
102
{ACAD_REACTORS
330
C
102
}
100
AcDbDictionary
281
1
  0
DICTIONARY
  5
1A
102
{ACAD_REACTORS
330
C
102
}
100
AcDbDictionary
281
1
  3
Model
350
64D
  3
Layout1
350
64E
  0
ACDBPLACEHOLDER
  5
F
102
{ACAD_REACTORS
330
E
102
}
  0
MLINESTYLE
  5
18
102
{ACAD_REACTORS
330
17
102
}
100
AcDbMlineStyle
  2
STANDARD
 70
0
  3

 62
256
 51
90.0
 52
90.0
 71
2
 49
0.5
 62
256
  6
BYLAYER
 49
-0.5
 62
256
  6
BYLAYER
  0
LAYOUT
  5
64D
102
{ACAD_REACTORS
330
1A
102
}
100
AcDbPlotSettings
  1

  2
none_device
  4

  6

 40
0.0
 41
0.0
 42
0.0
 43
0.0
 44
210.0
 45
297.0
 46
0.0
 47
0.0
 48
0.0
 49
0.0
140
0.0
141
0.0
142
1.0
143
1.0
 70
1024
 72
1
 73
0
 74
0
  7

 75
0
147
1.0
148
0.0
149
0.0
100
AcDbLayout
  1
Model
 70
0
 71
0
 10
0.0
 20
0.0
 11
210.0
 21
297.0
 12
0.0
 22
0.0
 32
0.0
 14
0.0
 24
0.0
 34
0.0
 15
0.0
 25
0.0
 35
0.0
146
0.0
 13
0.0
 23
0.0
 33
0.0
 16
1.0
 26
0.0
 36
0.0
 17
0.0
 27
1.0
 37
0.0
 76
0
330
210
345
0
346
0
  0
LAYOUT
  5
64E
102
{ACAD_REACTORS
330
1A
102
}
100
AcDbPlotSettings
  1

  2
none_device
  4

  6

 40
0.0
 41
0.0
 42
0.0
 43
0.0
 44
210.0
 45
297.0
 46
0.0
 47
0.0
 48
0.0
 49
0.0
140
0.0
141
0.0
142
1.0
143
1.0
 70
0
 72
1
 73
0
 74
0
  7

 75
0
147
1.0
148
0.0
149
0.0
100
AcDbLayout
  1
Layout1
 70
0
 71
1
 10
0.0
 20
0.0
 11
210.0
 21
297.0
 12
0.0
 22
0.0
 32
0.0
 14
0.0
 24
0.0
 34
0.0
 15
0.0
 25
0.0
 35
0.0
146
0.0
 13
0.0
 23
0.0
 33
0.0
 16
1.0
 26
0.0
 36
0.0
 17
0.0
 27
1.0
 37
0.0
 76
0
330
211
345
0
346
0
  0
ENDSEC
  0
EOF
