999
DXF file: C:\Users\sesa63760\Dev\_Creo\CAD\MCADPP0003102_3D-CAD\drw0001_5.dxf
999
Pro/ENGINEER 2019471 by Parametric Technology Corporation
  0
SECTION
  2
HEADER
  9
$ACADVER
  1
AC1024
  9
$DWGCODEPAGE
  3
ANSI_1252
  9
$EXTMAX
 10
175.8201404018
 20
248.659912854
 30
0.0
  9
$EXTMIN
 10
0.0
 20
0.0
 30
0.0
  9
$LIMMIN
 10
0.0
 20
0.0
  9
$LIMMAX
 10
175.8201404018
 20
248.659912854
  9
$VIEWCTR
 10
87.9100702009
 20
124.329956427
  9
$VIEWSIZE
 40
248.659912854
  9
$CLAYER
  8
0
  9
$LTSCALE
 40
16.2089424675
  9
$CELTYPE
  6
BYLAYER
  9
$DIMSCALE
 40
1.0
  9
$DIMASZ
 40
2.0930969095
  9
$DIMEXO
 40
1.0
  9
$DIMDLI
 40
11.1989057048
  9
$DIMEXE
 40
1.0
  9
$DIMCEN
 40
2.6523724038
  9
$DIMLFAC
 40
1.0
  9
$DIMBLK
  1
_FILLED
  9
$DIMALT
 70
0
  9
$DIMALTF
 40
0.0393700787
  9
$DIMTXT
 40
2.9303356734
  9
$DIMTOL
 70
1
  9
$DIMLIM
 70
0
  9
$DIMTFAC
 40
1.0
  9
$DIMTP
 40
0.01
  9
$DIMTM
 40
0.01
  9
$DIMGAP
 40
0.625
  9
$DIMDSEP
 70
46
  9
$AUNITS
 70
0
  9
$PDMODE
 70
3
  9
$PDSIZE
 40
0.3125
  9
$HANDSEED
  5
26C
  9
$TILEMODE
 70
1
  9
$MEASUREMENT
 70
1
  9
$INSUNITS
 70
4
  0
ENDSEC
  0
SECTION
  2
CLASSES
  0
CLASS
  1
ACDBDICTIONARYWDFLT
  2
AcDbDictionaryWithDefault
  3
AutoCAD 2000
 90
0
 91
1
280
0
281
0
  0
CLASS
  1
ACDBPLACEHOLDER
  2
AcDbPlaceHolder
  3
AutoCAD 2000
 90
0
 91
1
280
0
281
0
  0
CLASS
  1
LAYOUT
  2
AcDbLayout
  3
AutoCAD 2000
 90
0
 91
0
280
0
281
0
  0
ENDSEC
  0
SECTION
  2
TABLES
  0
TABLE
  2
VPORT
  5
8
100
AcDbSymbolTable
 70
2
  0
VPORT
  5
1F4
100
AcDbSymbolTableRecord
100
AcDbViewportTableRecord
  2
*ACTIVE
 70
0
 10
0.0
 20
0.0
 11
1.0
 21
1.0
 12
87.9100702009
 22
124.329956427
 13
0.0
 23
0.0
 14
1.0
 24
1.0
 15
0.0
 25
0.0
 16
0.0
 26
0.0
 36
1.0
 17
0.0
 27
0.0
 37
0.0
 40
248.659912854
 41
0.7070707071
 42
50.0
 43
0.0
 44
0.0
 50
0.0
 51
0.0
 71
0
 72
100
 73
1
 74
1
 75
0
 76
0
 77
0
 78
0
  0
ENDTAB
  0
TABLE
  2
LTYPE
  5
5
100
AcDbSymbolTable
 70
6
  0
LTYPE
  5
14
100
AcDbSymbolTableRecord
100
AcDbLinetypeTableRecord
  2
BYBLOCK
 70
0
  3

 72
65
 73
0
 40
0.0
  0
LTYPE
  5
15
100
AcDbSymbolTableRecord
100
AcDbLinetypeTableRecord
  2
BYLAYER
 70
0
  3

 72
65
 73
0
 40
0.0
  0
LTYPE
  5
16
100
AcDbSymbolTableRecord
100
AcDbLinetypeTableRecord
  2
CONTINUOUS
 70
64
  3
Solid line
 72
65
 73
0
 40
0.0
  0
LTYPE
  5
1F5
100
AcDbSymbolTableRecord
100
AcDbLinetypeTableRecord
  2
CENTER
 70
64
  3
____ _ ____ _ ____ _ ____ _ ____ _ ____ _ ____
 72
65
 73
4
 40
0.6
 49
0.375
 74
0
 49
-0.075
 74
0
 49
0.075
 74
0
 49
-0.075
 74
0
  0
LTYPE
  5
1F6
100
AcDbSymbolTableRecord
100
AcDbLinetypeTableRecord
  2
HIDDEN
 70
64
  3
- - - - - - - - - - - - - - - - - - - -
 72
65
 73
2
 40
0.2
 49
0.1
 74
0
 49
-0.1
 74
0
  0
LTYPE
  5
1F7
100
AcDbSymbolTableRecord
100
AcDbLinetypeTableRecord
  2
PHANTOM
 70
64
  3
_____ _ _ _____ _ _ _____ _ _ _____
 72
65
 73
6
 40
0.8
 49
0.45
 74
0
 49
-0.05
 74
0
 49
0.1
 74
0
 49
-0.05
 74
0
 49
0.1
 74
0
 49
-0.05
 74
0
  0
LTYPE
  5
1F8
100
AcDbSymbolTableRecord
100
AcDbLinetypeTableRecord
  2
DOT
 70
64
  3
. . . . . . . . . . . . . . . . . . . .
 72
65
 73
2
 40
0.2
 49
0.1
 74
0
 49
-0.1
 74
0
  0
LTYPE
  5
1F9
100
AcDbSymbolTableRecord
100
AcDbLinetypeTableRecord
  2
DASHED
 70
64
  3
- - - - - - - - - - - - - - - - - - - -
 72
65
 73
2
 40
0.2
 49
0.1
 74
0
 49
-0.1
 74
0
  0
ENDTAB
  0
TABLE
  2
LAYER
  5
2
100
AcDbSymbolTable
 70
36
  0
LAYER
  5
10
100
AcDbSymbolTableRecord
100
AcDbLayerTableRecord
  2
0
 70
0
 62
7
  6
CONTINUOUS
370
-3
390
F
  0
LAYER
  5
1FA
100
AcDbSymbolTableRecord
100
AcDbLayerTableRecord
  2
DEFAULT_1
 70
0
 62
7
  6
CENTER
370
-3
390
F
  0
LAYER
  5
1FB
100
AcDbSymbolTableRecord
100
AcDbLayerTableRecord
  2
DEFAULT_2
 70
0
 62
8
  6
HIDDEN
370
-3
390
F
  0
LAYER
  5
1FC
100
AcDbSymbolTableRecord
100
AcDbLayerTableRecord
  2
DEFAULT_3
 70
0
 62
7
  6
PHANTOM
370
-3
390
F
  0
LAYER
  5
1FD
100
AcDbSymbolTableRecord
100
AcDbLayerTableRecord
  2
00_COMPONENTS
 70
0
 62
7
  6
CONTINUOUS
370
-3
390
F
  0
LAYER
  5
1FE
100
AcDbSymbolTableRecord
100
AcDbLayerTableRecord
  2
01_1_DEFAULT_DATUMS
 70
0
 62
7
  6
CONTINUOUS
370
-3
390
F
  0
LAYER
  5
1FF
100
AcDbSymbolTableRecord
100
AcDbLayerTableRecord
  2
01_PLANES
 70
0
 62
7
  6
CONTINUOUS
370
-3
390
F
  0
LAYER
  5
200
100
AcDbSymbolTableRecord
100
AcDbLayerTableRecord
  2
02_COORD_SYS
 70
0
 62
7
  6
CONTINUOUS
370
-3
390
F
  0
LAYER
  5
201
100
AcDbSymbolTableRecord
100
AcDbLayerTableRecord
  2
03_AXES
 70
0
 62
7
  6
CONTINUOUS
370
-3
390
F
  0
LAYER
  5
202
100
AcDbSymbolTableRecord
100
AcDbLayerTableRecord
  2
04_POINTS
 70
0
 62
7
  6
CONTINUOUS
370
-3
390
F
  0
LAYER
  5
203
100
AcDbSymbolTableRecord
100
AcDbLayerTableRecord
  2
05_CURVES
 70
0
 62
7
  6
CONTINUOUS
370
-3
390
F
  0
LAYER
  5
204
100
AcDbSymbolTableRecord
100
AcDbLayerTableRecord
  2
06_SURFS
 70
0
 62
7
  6
CONTINUOUS
370
-3
390
F
  0
LAYER
  5
205
100
AcDbSymbolTableRecord
100
AcDbLayerTableRecord
  2
07_COSMETICS
 70
0
 62
7
  6
CONTINUOUS
370
-3
390
F
  0
LAYER
  5
206
100
AcDbSymbolTableRecord
100
AcDbLayerTableRecord
  2
10_NOTES
 70
0
 62
7
  6
CONTINUOUS
370
-3
390
F
  0
LAYER
  5
207
100
AcDbSymbolTableRecord
100
AcDbLayerTableRecord
  2
11_NOTES_PUB
 70
0
 62
7
  6
CONTINUOUS
370
-3
390
F
  0
LAYER
  5
208
100
AcDbSymbolTableRecord
100
AcDbLayerTableRecord
  2
13_REF_GTOL
 70
0
 62
7
  6
CONTINUOUS
370
-3
390
F
  0
LAYER
  5
209
100
AcDbSymbolTableRecord
100
AcDbLayerTableRecord
  2
16_MISC
 70
0
 62
7
  6
CONTINUOUS
370
-3
390
F
  0
LAYER
  5
20A
100
AcDbSymbolTableRecord
100
AcDbLayerTableRecord
  2
17_NO_PRINT
 70
0
 62
7
  6
CONTINUOUS
370
-3
390
F
  0
LAYER
  5
20B
100
AcDbSymbolTableRecord
100
AcDbLayerTableRecord
  2
18_DATUM_CAMS_JOINTS
 70
0
 62
7
  6
CONTINUOUS
370
-3
390
F
  0
LAYER
  5
20C
100
AcDbSymbolTableRecord
100
AcDbLayerTableRecord
  2
19_DATUM_FUNCTIONAL
 70
0
 62
7
  6
CONTINUOUS
370
-3
390
F
  0
LAYER
  5
20D
100
AcDbSymbolTableRecord
100
AcDbLayerTableRecord
  2
20_DATUM_KINEMATIC_SCHEME
 70
0
 62
7
  6
CONTINUOUS
370
-3
390
F
  0
LAYER
  5
20E
100
AcDbSymbolTableRecord
100
AcDbLayerTableRecord
  2
SHELL3
 70
0
 62
7
  6
CONTINUOUS
370
-3
390
F
  0
ENDTAB
  0
TABLE
  2
STYLE
  5
3
100
AcDbSymbolTable
 70
1
  0
STYLE
  5
11
100
AcDbSymbolTableRecord
100
AcDbTextStyleTableRecord
  2
STANDARD
 70
0
 40
0.0
 41
0.8
 50
0.0
 71
0
 42
0.2
  3
txt
  4

  0
STYLE
  5
20F
100
AcDbSymbolTableRecord
100
AcDbTextStyleTableRecord
  2
TEXTSTYLE_1
 70
0
 40
0.0
 41
0.8
 50
0.0
 71
0
 42
0.2
  3
gdt
  4

  0
ENDTAB
  0
TABLE
  2
VIEW
  5
6
100
AcDbSymbolTable
 70
0
  0
ENDTAB
  0
TABLE
  2
UCS
  5
7
100
AcDbSymbolTable
 70
0
  0
ENDTAB
  0
TABLE
  2
APPID
  5
9
100
AcDbSymbolTable
 70
1
  0
APPID
  5
210
100
AcDbSymbolTableRecord
100
AcDbRegAppTableRecord
  2
ACAD
 70
0
  0
ENDTAB
  0
TABLE
  2
BLOCK_RECORD
  5
1
100
AcDbSymbolTable
 70
0
  0
BLOCK_RECORD
  5
211
100
AcDbSymbolTableRecord
100
AcDbBlockTableRecord
  2
*Model_Space
  0
BLOCK_RECORD
  5
212
100
AcDbSymbolTableRecord
100
AcDbBlockTableRecord
  2
*Paper_Space
  0
BLOCK_RECORD
  5
213
100
AcDbSymbolTableRecord
100
AcDbBlockTableRecord
  2
_FILLED
  0
ENDTAB
  0
TABLE
  2
DIMSTYLE
  5
A
100
AcDbSymbolTable
 70
1
100
AcDbDimStyleTable
 71
0
  0
DIMSTYLE
105
214
100
AcDbSymbolTableRecord
100
AcDbDimStyleTableRecord
  2
STANDARD
 70
0
  3

  4

 40
1.0
 41
2.0930969095
 42
1.0
 43
0.38
 44
1.0
 45
0.0
 46
0.0
 47
0.01
 48
0.01
140
2.9303356734
141
0.09
142
0.0
143
25.4
144
1.0
145
0.0
146
1.0
147
0.625
 71
1
 72
0
 73
0
 74
0
 75
0
 76
0
 77
1
 78
8
 79
2
170
0
171
1
172
0
173
0
174
0
175
0
176
0
177
0
178
0
270
2
179
2
271
2
272
2
273
2
274
2
275
0
280
0
281
0
282
0
283
1
284
8
285
0
286
0
287
3
288
0
340
11
278
46
341
213
342
213
343
213
344
213
  0
ENDTAB
  0
ENDSEC
  0
SECTION
  2
BLOCKS
  0
BLOCK
  5
20
100
AcDbEntity
  8
0
100
AcDbBlockBegin
  2
*Model_Space
 70
0
 10
0.0
 20
0.0
 30
0.0
  3
*Model_Space
  1

  0
ENDBLK
  5
21
100
AcDbEntity
  8
0
100
AcDbBlockEnd
  0
BLOCK
  5
1C
100
AcDbEntity
  8
0
100
AcDbBlockBegin
  2
*Paper_Space
 70
0
 10
0.0
 20
0.0
 30
0.0
  3
*Paper_Space
  1

  0
ENDBLK
  5
1D
100
AcDbEntity
  8
0
100
AcDbBlockEnd
  0
BLOCK
  5
215
100
AcDbEntity
  8
0
100
AcDbBlockBegin
  2
_FILLED
 70
64
 10
0.0
 20
0.0
  3
_FILLED
  1

  0
SOLID
  5
216
100
AcDbEntity
  8
0
  6
BYBLOCK
 62
0
100
AcDbTrace
 10
0.0
 20
0.0
 11
-1.0
 21
0.25
 12
-1.0
 22
-0.25
 13
-1.0
 23
-0.25
  0
ENDBLK
  5
217
100
AcDbEntity
  8
0
  6
BYBLOCK
 62
0
100
AcDbBlockEnd
  0
ENDSEC
  0
SECTION
  2
ENTITIES
  0
LINE
  5
218
100
AcDbEntity
  8
SHELL3
100
AcDbLine
 62
7
  6
CONTINUOUS
 10
20.4949285887
 20
151.5583137255
 11
20.4949285887
 21
97.710313753
  0
LINE
  5
219
100
AcDbEntity
  8
SHELL3
100
AcDbLine
 62
7
  6
CONTINUOUS
 10
20.4949285887
 20
151.5583137255
 11
20.4949285887
 21
164.2583137255
  0
LINE
  5
21A
100
AcDbEntity
  8
SHELL3
100
AcDbLine
 62
7
  6
CONTINUOUS
 10
23.6699285887
 20
156.8923137255
 11
23.6699285887
 21
151.5583137255
  0
LINE
  5
21B
100
AcDbEntity
  8
SHELL3
100
AcDbLine
 62
7
  6
CONTINUOUS
 10
26.7179285887
 20
156.8923137255
 11
26.7179285887
 21
164.2583137255
  0
LINE
  5
21C
100
AcDbEntity
  8
SHELL3
100
AcDbLine
 62
7
  6
CONTINUOUS
 10
33.3219285887
 20
156.8923137255
 11
33.3219285887
 21
164.2583137255
  0
LINE
  5
21D
100
AcDbEntity
  8
SHELL3
100
AcDbLine
 62
7
  6
CONTINUOUS
 10
36.3699285887
 20
156.8923137255
 11
36.3699285887
 21
151.5583137255
  0
LINE
  5
21E
100
AcDbEntity
  8
SHELL3
100
AcDbLine
 62
7
  6
CONTINUOUS
 10
37.9574285887
 20
145.4623137031
 11
37.9574285887
 21
103.8063137479
  0
LINE
  5
21F
100
AcDbEntity
  8
SHELL3
100
AcDbLine
 62
7
  6
CONTINUOUS
 10
41.4227971059
 20
151.5583137255
 11
41.4227971059
 21
85.0103137255
  0
LINE
  5
220
100
AcDbEntity
  8
SHELL3
100
AcDbLine
 62
7
  6
CONTINUOUS
 10
45.8949285887
 20
136.3183137255
 11
45.8949285887
 21
97.7103137255
  0
LINE
  5
221
100
AcDbEntity
  8
SHELL3
100
AcDbLine
 62
7
  6
CONTINUOUS
 10
48.5936785887
 20
97.7103137255
 11
48.5936785887
 21
96.4403137255
  0
LINE
  5
222
100
AcDbEntity
  8
SHELL3
100
AcDbLine
 62
7
  6
CONTINUOUS
 10
50.3670600716
 20
85.0103137255
 11
50.3670600716
 21
151.5583137255
  0
LINE
  5
223
100
AcDbEntity
  8
SHELL3
100
AcDbLine
 62
7
  6
CONTINUOUS
 10
51.7686785887
 20
98.8215637255
 11
51.7686785887
 21
96.4403137255
  0
LINE
  5
224
100
AcDbEntity
  8
SHELL3
100
AcDbLine
 62
7
  6
CONTINUOUS
 10
52.2449285887
 20
151.5583137255
 11
52.2449285887
 21
136.3183137255
  0
LINE
  5
225
100
AcDbEntity
  8
SHELL3
100
AcDbLine
 62
7
  6
CONTINUOUS
 10
50.3670600716
 20
85.0103137255
 11
33.1949285887
 21
85.0103137255
  0
LINE
  5
226
100
AcDbEntity
  8
SHELL3
100
AcDbLine
 62
7
  6
CONTINUOUS
 10
147.4949285612
 20
85.0103137255
 11
50.3670600716
 21
85.0103137255
  0
LINE
  5
227
100
AcDbEntity
  8
SHELL3
100
AcDbLine
 62
7
  6
CONTINUOUS
 10
54.1499285887
 20
98.8215637255
 11
54.1499285887
 21
96.4403137255
  0
LINE
  5
228
100
AcDbEntity
  8
SHELL3
100
AcDbLine
 62
7
  6
CONTINUOUS
 10
56.5311785887
 20
98.8215637255
 11
56.5311785887
 21
96.4403137255
  0
LINE
  5
229
100
AcDbEntity
  8
SHELL3
100
AcDbLine
 62
7
  6
CONTINUOUS
 10
59.7061785887
 20
97.7103137255
 11
59.7061785887
 21
96.4403137255
  0
LINE
  5
22A
100
AcDbEntity
  8
SHELL3
100
AcDbLine
 62
7
  6
CONTINUOUS
 10
62.3795285887
 20
101.6790637255
 11
62.3795285887
 21
113.0455637255
  0
LINE
  5
22B
100
AcDbEntity
  8
SHELL3
100
AcDbLine
 62
7
  6
CONTINUOUS
 10
62.4049285887
 20
117.0143137255
 11
62.4049285887
 21
97.7103137255
  0
LINE
  5
22C
100
AcDbEntity
  8
SHELL3
100
AcDbLine
 62
7
  6
CONTINUOUS
 10
46.8474286112
 20
94.9163137255
 11
133.8424285663
 21
94.9163137255
  0
LINE
  5
22D
100
AcDbEntity
  8
SHELL3
100
AcDbLine
 62
7
  6
CONTINUOUS
 10
83.9949285887
 20
95.1957137255
 11
96.6949285887
 21
95.1957137255
  0
LINE
  5
22E
100
AcDbEntity
  8
SHELL3
100
AcDbLine
 62
7
  6
CONTINUOUS
 10
48.5936785887
 20
96.4403137255
 11
59.7061785887
 21
96.4403137255
  0
LINE
  5
22F
100
AcDbEntity
  8
SHELL3
100
AcDbLine
 62
7
  6
CONTINUOUS
 10
107.9661785887
 20
96.4403137255
 11
128.6036785887
 21
96.4403137255
  0
LINE
  5
230
100
AcDbEntity
  8
SHELL3
100
AcDbLine
 62
7
  6
CONTINUOUS
 10
45.8949285887
 20
97.7103137255
 11
62.4049285887
 21
97.7103137255
  0
LINE
  5
231
100
AcDbEntity
  8
SHELL3
100
AcDbLine
 62
7
  6
CONTINUOUS
 10
101.7749285887
 20
97.7103137255
 11
134.7949285887
 21
97.7103137255
  0
LINE
  5
232
100
AcDbEntity
  8
SHELL3
100
AcDbLine
 62
7
  6
CONTINUOUS
 10
101.7749285887
 20
97.7357137255
 11
78.9149285887
 21
97.7357137255
  0
LINE
  5
233
100
AcDbEntity
  8
SHELL3
100
AcDbLine
 62
7
  6
CONTINUOUS
 10
101.7749285887
 20
97.7230137255
 11
134.7949285887
 21
97.7103137255
  0
LINE
  5
234
100
AcDbEntity
  8
SHELL3
100
AcDbLine
 62
7
  6
CONTINUOUS
 10
65.1036785887
 20
117.0143137255
 11
65.1036785887
 21
115.7443137255
  0
LINE
  5
235
100
AcDbEntity
  8
SHELL3
100
AcDbLine
 62
7
  6
CONTINUOUS
 10
68.2786785887
 20
118.1255637255
 11
68.2786785887
 21
115.7443137255
  0
LINE
  5
236
100
AcDbEntity
  8
SHELL3
100
AcDbLine
 62
7
  6
CONTINUOUS
 10
56.5311785887
 20
98.8215637255
 11
51.7686785887
 21
98.8215637255
  0
LINE
  5
237
100
AcDbEntity
  8
SHELL3
100
AcDbLine
 62
7
  6
CONTINUOUS
 10
123.0474285887
 20
101.2028137255
 11
113.5224285887
 21
101.2028137255
  0
LINE
  5
238
100
AcDbEntity
  8
SHELL3
100
AcDbLine
 62
7
  6
CONTINUOUS
 10
45.8949285887
 20
101.6790637255
 11
62.3795285887
 21
101.6790637255
  0
LINE
  5
239
100
AcDbEntity
  8
SHELL3
100
AcDbLine
 62
7
  6
CONTINUOUS
 10
70.6599285887
 20
118.1255637255
 11
70.6599285887
 21
115.7443137255
  0
LINE
  5
23A
100
AcDbEntity
  8
SHELL3
100
AcDbLine
 62
7
  6
CONTINUOUS
 10
73.0411785887
 20
118.1255637255
 11
73.0411785887
 21
115.7443137255
  0
LINE
  5
23B
100
AcDbEntity
  8
SHELL3
100
AcDbLine
 62
7
  6
CONTINUOUS
 10
134.7949285887
 20
106.6828637255
 11
101.8003285887
 21
106.6828637255
  0
LINE
  5
23C
100
AcDbEntity
  8
SHELL3
100
AcDbLine
 62
7
  6
CONTINUOUS
 10
76.2161785887
 20
117.0143137255
 11
76.2161785887
 21
115.7443137255
  0
LINE
  5
23D
100
AcDbEntity
  8
SHELL3
100
AcDbLine
 62
7
  6
CONTINUOUS
 10
78.8895285887
 20
120.9830637255
 11
78.8895285887
 21
132.3495637255
  0
LINE
  5
23E
100
AcDbEntity
  8
SHELL3
100
AcDbLine
 62
7
  6
CONTINUOUS
 10
78.9149285887
 20
117.0143137255
 11
78.9149285887
 21
97.7357137255
  0
LINE
  5
23F
100
AcDbEntity
  8
SHELL3
100
AcDbLine
 62
7
  6
CONTINUOUS
 10
45.8949285887
 20
113.0455637255
 11
62.3795285887
 21
113.0455637255
  0
LINE
  5
240
100
AcDbEntity
  8
SHELL3
100
AcDbLine
 62
7
  6
CONTINUOUS
 10
83.9949285887
 20
97.7357137255
 11
83.9949285887
 21
95.1957137255
  0
LINE
  5
241
100
AcDbEntity
  8
SHELL3
100
AcDbLine
 62
7
  6
CONTINUOUS
 10
65.1036785887
 20
115.7443137255
 11
76.2161785887
 21
115.7443137255
  0
LINE
  5
242
100
AcDbEntity
  8
SHELL3
100
AcDbLine
 62
7
  6
CONTINUOUS
 10
78.9149285887
 20
117.0143137255
 11
62.4049285887
 21
117.0143137255
  0
LINE
  5
243
100
AcDbEntity
  8
SHELL3
100
AcDbLine
 62
7
  6
CONTINUOUS
 10
73.0411785887
 20
118.1255637255
 11
68.2786785887
 21
118.1255637255
  0
LINE
  5
244
100
AcDbEntity
  8
SHELL3
100
AcDbLine
 62
7
  6
CONTINUOUS
 10
85.8727971059
 20
151.5583137255
 11
85.8727971059
 21
85.0103137255
  0
LINE
  5
245
100
AcDbEntity
  8
SHELL3
100
AcDbLine
 62
7
  6
CONTINUOUS
 10
90.3449285887
 20
151.5583137255
 11
90.3449285887
 21
97.7357137255
  0
LINE
  5
246
100
AcDbEntity
  8
SHELL3
100
AcDbLine
 62
7
  6
CONTINUOUS
 10
45.8949285887
 20
120.9830637255
 11
78.8895285887
 21
120.9830637255
  0
LINE
  5
247
100
AcDbEntity
  8
SHELL3
100
AcDbLine
 62
7
  6
CONTINUOUS
 10
94.8170600716
 20
151.5583137255
 11
94.8170600716
 21
85.0103137255
  0
LINE
  5
248
100
AcDbEntity
  8
SHELL3
100
AcDbLine
 62
7
  6
CONTINUOUS
 10
134.7949285887
 20
127.3457637255
 11
101.8003285887
 21
127.3457637255
  0
LINE
  5
249
100
AcDbEntity
  8
SHELL3
100
AcDbLine
 62
7
  6
CONTINUOUS
 10
96.6949285887
 20
97.7357137255
 11
96.6949285887
 21
95.1957137255
  0
LINE
  5
24A
100
AcDbEntity
  8
SHELL3
100
AcDbLine
 62
7
  6
CONTINUOUS
 10
45.8949285887
 20
132.3495637255
 11
78.8895285887
 21
132.3495637255
  0
LINE
  5
24B
100
AcDbEntity
  8
SHELL3
100
AcDbLine
 62
7
  6
CONTINUOUS
 10
101.8003285887
 20
106.6828637255
 11
101.8003285887
 21
127.3457637255
  0
LINE
  5
24C
100
AcDbEntity
  8
SHELL3
100
AcDbLine
 62
7
  6
CONTINUOUS
 10
134.7949285887
 20
136.3183137255
 11
128.4449285887
 21
136.3183137255
  0
LINE
  5
24D
100
AcDbEntity
  8
SHELL3
100
AcDbLine
 62
7
  6
CONTINUOUS
 10
52.2449285887
 20
136.3183137255
 11
45.8949285887
 21
136.3183137255
  0
LINE
  5
24E
100
AcDbEntity
  8
SHELL3
100
AcDbLine
 62
7
  6
CONTINUOUS
 10
107.9661785887
 20
97.7103137255
 11
107.9661785887
 21
96.4403137255
  0
LINE
  5
24F
100
AcDbEntity
  8
SHELL3
100
AcDbLine
 62
7
  6
CONTINUOUS
 10
113.5224285887
 20
101.2028137255
 11
113.5224285887
 21
96.4403137255
  0
LINE
  5
250
100
AcDbEntity
  8
SHELL3
100
AcDbLine
 62
7
  6
CONTINUOUS
 10
50.3670600716
 20
151.5583137255
 11
20.4949285887
 21
151.5583137255
  0
LINE
  5
251
100
AcDbEntity
  8
SHELL3
100
AcDbLine
 62
7
  6
CONTINUOUS
 10
50.3670600716
 20
151.5583137255
 11
160.1949285887
 21
151.5583137255
  0
LINE
  5
252
100
AcDbEntity
  8
SHELL3
100
AcDbLine
 62
7
  6
CONTINUOUS
 10
118.2849285887
 20
101.2028137255
 11
118.2849285887
 21
96.4403137255
  0
LINE
  5
253
100
AcDbEntity
  8
SHELL3
100
AcDbLine
 62
7
  6
CONTINUOUS
 10
123.0474285887
 20
101.2028137255
 11
123.0474285887
 21
96.4403137255
  0
LINE
  5
254
100
AcDbEntity
  8
SHELL3
100
AcDbLine
 62
7
  6
CONTINUOUS
 10
133.8424285663
 20
154.3523137255
 11
46.8474286112
 21
154.3523137255
  0
LINE
  5
255
100
AcDbEntity
  8
SHELL3
100
AcDbLine
 62
7
  6
CONTINUOUS
 10
23.6699285887
 20
156.8923137255
 11
36.3699285887
 21
156.8923137255
  0
LINE
  5
256
100
AcDbEntity
  8
SHELL3
100
AcDbLine
 62
7
  6
CONTINUOUS
 10
144.3199285887
 20
156.8923137255
 11
157.0199285887
 21
156.8923137255
  0
LINE
  5
257
100
AcDbEntity
  8
SHELL3
100
AcDbLine
 62
7
  6
CONTINUOUS
 10
128.4449285887
 20
151.5583137255
 11
128.4449285887
 21
136.3183137255
  0
LINE
  5
258
100
AcDbEntity
  8
SHELL3
100
AcDbLine
 62
7
  6
CONTINUOUS
 10
128.6036785887
 20
97.7103137255
 11
128.6036785887
 21
96.4403137255
  0
LINE
  5
259
100
AcDbEntity
  8
SHELL3
100
AcDbLine
 62
7
  6
CONTINUOUS
 10
130.3227971059
 20
151.5583137255
 11
130.3227971059
 21
85.0103137255
  0
LINE
  5
25A
100
AcDbEntity
  8
SHELL3
100
AcDbLine
 62
7
  6
CONTINUOUS
 10
160.1949285887
 20
164.2583137255
 11
20.4949285887
 21
164.2583137255
  0
LINE
  5
25B
100
AcDbEntity
  8
SHELL3
100
AcDbLine
 62
7
  6
CONTINUOUS
 10
134.7949285887
 20
136.3183137255
 11
134.7949285887
 21
97.7103137255
  0
LINE
  5
25C
100
AcDbEntity
  8
SHELL3
100
AcDbLine
 62
7
  6
CONTINUOUS
 10
139.2670600716
 20
151.5583137255
 11
139.2670600716
 21
85.0103137255
  0
LINE
  5
25D
100
AcDbEntity
  8
SHELL3
100
AcDbLine
 62
7
  6
CONTINUOUS
 10
142.7324285887
 20
103.8063137479
 11
142.7324285887
 21
145.4623137031
  0
LINE
  5
25E
100
AcDbEntity
  8
SHELL3
100
AcDbLine
 62
7
  6
CONTINUOUS
 10
144.3199285887
 20
156.8923137255
 11
144.3199285887
 21
151.5583137255
  0
LINE
  5
25F
100
AcDbEntity
  8
SHELL3
100
AcDbLine
 62
7
  6
CONTINUOUS
 10
147.3679285887
 20
156.8923137255
 11
147.3679285887
 21
164.2583137255
  0
LINE
  5
260
100
AcDbEntity
  8
SHELL3
100
AcDbLine
 62
7
  6
CONTINUOUS
 10
153.9719285887
 20
156.8923137255
 11
153.9719285887
 21
164.2583137255
  0
LINE
  5
261
100
AcDbEntity
  8
SHELL3
100
AcDbLine
 62
7
  6
CONTINUOUS
 10
157.0199285887
 20
156.8923137255
 11
157.0199285887
 21
151.5583137255
  0
LINE
  5
262
100
AcDbEntity
  8
SHELL3
100
AcDbLine
 62
7
  6
CONTINUOUS
 10
160.1949285887
 20
164.2583137255
 11
160.1949285887
 21
97.7103137479
  0
ARC
  5
263
100
AcDbEntity
  8
SHELL3
100
AcDbCircle
 62
7
  6
CONTINUOUS
 10
33.1949285913
 20
97.710313728
 40
12.7
100
AcDbArc
 50
180.0000000115
 51
269.9999999885
  0
ARC
  5
264
100
AcDbEntity
  8
SHELL3
100
AcDbCircle
 62
7
  6
CONTINUOUS
 10
147.4949285862
 20
97.710313728
 40
12.7
100
AcDbArc
 50
269.9999998873
 51
0.0000000897
  0
SPLINE
  5
265
100
AcDbEntity
  8
SHELL3
100
AcDbSpline
 62
7
  6
CONTINUOUS
 70
0
 71
3
 72
14
 73
10
 74
0
 42
0.0000001
 43
0.0000001
 44
0.0000000001
 40
0.0
 40
0.0
 40
0.0
 40
0.0
 40
0.1435567813
 40
0.2864145667
 40
0.4288516657
 40
0.5711483343
 40
0.7135854333
 40
0.8564432187
 40
1.0
 40
1.0
 40
1.0
 40
1.0
 10
142.7324285887
 20
103.8063137479
 30
0.0
 10
142.7298707093
 20
103.1394932457
 30
0.0
 10
142.5826393539
 20
101.8042156849
 30
0.0
 10
141.9155736986
 20
99.9096892599
 30
0.0
 10
140.8490800631
 20
98.2144950995
 30
0.0
 10
139.4342472147
 20
96.7996622511
 30
0.0
 10
137.7390530544
 20
95.7331686156
 30
0.0
 10
135.8445266293
 20
95.0661029603
 30
0.0
 10
134.5092490685
 20
94.9188716049
 30
0.0
 10
133.8424285663
 20
94.9163137255
 30
0.0
  0
SPLINE
  5
266
100
AcDbEntity
  8
SHELL3
100
AcDbSpline
 62
7
  6
CONTINUOUS
 70
0
 71
3
 72
14
 73
10
 74
0
 42
0.0000001
 43
0.0000001
 44
0.0000000001
 40
0.0
 40
0.0
 40
0.0
 40
0.0
 40
0.1435567813
 40
0.2864145667
 40
0.4288516657
 40
0.5711483343
 40
0.7135854333
 40
0.8564432187
 40
1.0
 40
1.0
 40
1.0
 40
1.0
 10
133.8424285663
 20
154.3523137255
 30
0.0
 10
134.5092490685
 20
154.3497558461
 30
0.0
 10
135.8445266293
 20
154.2025244906
 30
0.0
 10
137.7390530544
 20
153.5354588354
 30
0.0
 10
139.4342472147
 20
152.4689651999
 30
0.0
 10
140.8490800631
 20
151.0541323515
 30
0.0
 10
141.9155736986
 20
149.3589381911
 30
0.0
 10
142.5826393539
 20
147.4644117661
 30
0.0
 10
142.7298707093
 20
146.1291342052
 30
0.0
 10
142.7324285887
 20
145.4623137031
 30
0.0
  0
SPLINE
  5
267
100
AcDbEntity
  8
SHELL3
100
AcDbSpline
 62
7
  6
CONTINUOUS
 70
0
 71
3
 72
14
 73
10
 74
0
 42
0.0000001
 43
0.0000001
 44
0.0000000001
 40
0.0
 40
0.0
 40
0.0
 40
0.0
 40
0.1435567813
 40
0.2864145667
 40
0.4288516657
 40
0.5711483343
 40
0.7135854333
 40
0.8564432187
 40
1.0
 40
1.0
 40
1.0
 40
1.0
 10
37.9574285887
 20
145.4623137031
 30
0.0
 10
37.9599864681
 20
146.1291342052
 30
0.0
 10
38.1072178236
 20
147.4644117661
 30
0.0
 10
38.7742834788
 20
149.3589381911
 30
0.0
 10
39.8407771143
 20
151.0541323515
 30
0.0
 10
41.2556099627
 20
152.4689651999
 30
0.0
 10
42.9508041231
 20
153.5354588354
 30
0.0
 10
44.8453305481
 20
154.2025244906
 30
0.0
 10
46.180608109
 20
154.3497558461
 30
0.0
 10
46.8474286112
 20
154.3523137255
 30
0.0
  0
SPLINE
  5
268
100
AcDbEntity
  8
SHELL3
100
AcDbSpline
 62
7
  6
CONTINUOUS
 70
0
 71
3
 72
14
 73
10
 74
0
 42
0.0000001
 43
0.0000001
 44
0.0000000001
 40
0.0
 40
0.0
 40
0.0
 40
0.0
 40
0.1435567813
 40
0.2864145667
 40
0.4288516657
 40
0.5711483343
 40
0.7135854333
 40
0.8564432187
 40
1.0
 40
1.0
 40
1.0
 40
1.0
 10
46.8474286112
 20
94.9163137255
 30
0.0
 10
46.180608109
 20
94.9188716049
 30
0.0
 10
44.8453305481
 20
95.0661029603
 30
0.0
 10
42.9508041231
 20
95.7331686156
 30
0.0
 10
41.2556099627
 20
96.7996622511
 30
0.0
 10
39.8407771143
 20
98.2144950995
 30
0.0
 10
38.7742834788
 20
99.9096892599
 30
0.0
 10
38.1072178236
 20
101.8042156849
 30
0.0
 10
37.9599864681
 20
103.1394932457
 30
0.0
 10
37.9574285887
 20
103.8063137479
 30
0.0
  0
SPLINE
  5
269
100
AcDbEntity
  8
SHELL3
100
AcDbSpline
 62
7
  6
CONTINUOUS
 70
0
 71
3
 72
14
 73
10
 74
0
 42
0.0000001
 43
0.0000001
 44
0.0000000001
 40
0.0
 40
0.0
 40
0.0
 40
0.0
 40
0.1435568649
 40
0.286414664
 40
0.4288517071
 40
0.5711482929
 40
0.713585336
 40
0.8564431351
 40
1.0
 40
1.0
 40
1.0
 40
1.0
 10
20.4949285887
 20
97.710313753
 30
0.0
 10
20.4985839457
 20
96.7577132245
 30
0.0
 10
20.7089170922
 20
94.8501747248
 30
0.0
 10
21.6618760096
 20
92.1437132091
 30
0.0
 10
23.1854406408
 20
89.7220128407
 30
0.0
 10
25.2066276999
 20
87.7008257808
 30
0.0
 10
27.6283280677
 20
86.1772611486
 30
0.0
 10
30.334789583
 20
85.2243022301
 30
0.0
 10
32.2423280826
 20
85.0139690828
 30
0.0
 10
33.1949286112
 20
85.0103137255
 30
0.0
  0
ENDSEC
  0
SECTION
  2
OBJECTS
  0
DICTIONARY
  5
C
100
AcDbDictionary
280
0
281
1
  3
ACAD_GROUP
350
D
  3
ACAD_MLINESTYLE
350
17
  3
ACAD_LAYOUT
350
1A
  3
ACAD_PLOTSETTINGS
350
19
  3
ACAD_PLOTSTYLENAME
350
E
  0
DICTIONARY
  5
D
102
{ACAD_REACTORS
330
C
102
}
100
AcDbDictionary
280
0
281
1
  0
ACDBDICTIONARYWDFLT
  5
E
102
{ACAD_REACTORS
330
C
102
}
100
AcDbDictionary
281
1
  3
Normal
350
F
100
AcDbDictionaryWithDefault
340
F
  0
DICTIONARY
  5
17
102
{ACAD_REACTORS
330
C
102
}
100
AcDbDictionary
280
0
281
1
  3
Standard
350
18
  0
DICTIONARY
  5
19
102
{ACAD_REACTORS
330
C
102
}
100
AcDbDictionary
281
1
  0
DICTIONARY
  5
1A
102
{ACAD_REACTORS
330
C
102
}
100
AcDbDictionary
281
1
  3
Model
350
26A
  3
Layout1
350
26B
  0
ACDBPLACEHOLDER
  5
F
102
{ACAD_REACTORS
330
E
102
}
  0
MLINESTYLE
  5
18
102
{ACAD_REACTORS
330
17
102
}
100
AcDbMlineStyle
  2
STANDARD
 70
0
  3

 62
256
 51
90.0
 52
90.0
 71
2
 49
0.5
 62
256
  6
BYLAYER
 49
-0.5
 62
256
  6
BYLAYER
  0
LAYOUT
  5
26A
102
{ACAD_REACTORS
330
1A
102
}
100
AcDbPlotSettings
  1

  2
none_device
  4

  6

 40
0.0
 41
0.0
 42
0.0
 43
0.0
 44
210.0
 45
297.0
 46
0.0
 47
0.0
 48
0.0
 49
0.0
140
0.0
141
0.0
142
1.0
143
1.0
 70
1024
 72
1
 73
0
 74
0
  7

 75
0
147
1.0
148
0.0
149
0.0
100
AcDbLayout
  1
Model
 70
0
 71
0
 10
0.0
 20
0.0
 11
210.0
 21
297.0
 12
0.0
 22
0.0
 32
0.0
 14
0.0
 24
0.0
 34
0.0
 15
0.0
 25
0.0
 35
0.0
146
0.0
 13
0.0
 23
0.0
 33
0.0
 16
1.0
 26
0.0
 36
0.0
 17
0.0
 27
1.0
 37
0.0
 76
0
330
211
345
0
346
0
  0
LAYOUT
  5
26B
102
{ACAD_REACTORS
330
1A
102
}
100
AcDbPlotSettings
  1

  2
none_device
  4

  6

 40
0.0
 41
0.0
 42
0.0
 43
0.0
 44
210.0
 45
297.0
 46
0.0
 47
0.0
 48
0.0
 49
0.0
140
0.0
141
0.0
142
1.0
143
1.0
 70
0
 72
1
 73
0
 74
0
  7

 75
0
147
1.0
148
0.0
149
0.0
100
AcDbLayout
  1
Layout1
 70
0
 71
1
 10
0.0
 20
0.0
 11
210.0
 21
297.0
 12
0.0
 22
0.0
 32
0.0
 14
0.0
 24
0.0
 34
0.0
 15
0.0
 25
0.0
 35
0.0
146
0.0
 13
0.0
 23
0.0
 33
0.0
 16
1.0
 26
0.0
 36
0.0
 17
0.0
 27
1.0
 37
0.0
 76
0
330
212
345
0
346
0
  0
ENDSEC
  0
EOF
