999
DXF file: C:\Users\sesa63760\Dev\_Creo\CAD\MCADUE0002377_3D-CAD\drw0001_1.dxf
999
Pro/ENGINEER 2019471 by Parametric Technology Corporation
  0
SECTION
  2
HEADER
  9
$ACADVER
  1
AC1024
  9
$DWGCODEPAGE
  3
ANSI_1252
  9
$EXTMAX
 10
277.4354961778
 20
392.37305888
 30
0.0
  9
$EXTMIN
 10
-0.0
 20
0.0
 30
0.0
  9
$LIMMIN
 10
-0.0
 20
0.0
  9
$LIMMAX
 10
277.4354961778
 20
392.37305888
  9
$VIEWCTR
 10
138.7177480889
 20
196.18652944
  9
$VIEWSIZE
 40
392.37305888
  9
$CLAYER
  8
0
  9
$LTSCALE
 40
25.5769105048
  9
$CELTYPE
  6
BYLAYER
  9
$DIMSCALE
 40
1.0
  9
$DIMASZ
 40
3.3028035259
  9
$DIMEXO
 40
1.0
  9
$DIMDLI
 40
17.6713199851
  9
$DIMEXE
 40
1.0
  9
$DIMCEN
 40
4.1853126281
  9
$DIMLFAC
 40
1.0
  9
$DIMBLK
  1
_FILLED
  9
$DIMALT
 70
0
  9
$DIMALTF
 40
0.0393700787
  9
$DIMTXT
 40
4.6239249363
  9
$DIMTOL
 70
1
  9
$DIMLIM
 70
0
  9
$DIMTFAC
 40
1.0
  9
$DIMTP
 40
0.01
  9
$DIMTM
 40
0.01
  9
$DIMGAP
 40
0.625
  9
$DIMDSEP
 70
46
  9
$AUNITS
 70
0
  9
$PDMODE
 70
3
  9
$PDSIZE
 40
0.3125
  9
$HANDSEED
  5
30C
  9
$TILEMODE
 70
1
  9
$MEASUREMENT
 70
1
  9
$INSUNITS
 70
4
  0
ENDSEC
  0
SECTION
  2
CLASSES
  0
CLASS
  1
ACDBDICTIONARYWDFLT
  2
AcDbDictionaryWithDefault
  3
AutoCAD 2000
 90
0
 91
1
280
0
281
0
  0
CLASS
  1
ACDBPLACEHOLDER
  2
AcDbPlaceHolder
  3
AutoCAD 2000
 90
0
 91
1
280
0
281
0
  0
CLASS
  1
LAYOUT
  2
AcDbLayout
  3
AutoCAD 2000
 90
0
 91
0
280
0
281
0
  0
ENDSEC
  0
SECTION
  2
TABLES
  0
TABLE
  2
VPORT
  5
8
100
AcDbSymbolTable
 70
2
  0
VPORT
  5
1F4
100
AcDbSymbolTableRecord
100
AcDbViewportTableRecord
  2
*ACTIVE
 70
0
 10
0.0
 20
0.0
 11
1.0
 21
1.0
 12
138.7177480889
 22
196.18652944
 13
0.0
 23
0.0
 14
1.0
 24
1.0
 15
0.0
 25
0.0
 16
0.0
 26
0.0
 36
1.0
 17
0.0
 27
0.0
 37
0.0
 40
392.37305888
 41
0.7070707071
 42
50.0
 43
0.0
 44
0.0
 50
0.0
 51
0.0
 71
0
 72
100
 73
1
 74
1
 75
0
 76
0
 77
0
 78
0
  0
ENDTAB
  0
TABLE
  2
LTYPE
  5
5
100
AcDbSymbolTable
 70
6
  0
LTYPE
  5
14
100
AcDbSymbolTableRecord
100
AcDbLinetypeTableRecord
  2
BYBLOCK
 70
0
  3

 72
65
 73
0
 40
0.0
  0
LTYPE
  5
15
100
AcDbSymbolTableRecord
100
AcDbLinetypeTableRecord
  2
BYLAYER
 70
0
  3

 72
65
 73
0
 40
0.0
  0
LTYPE
  5
16
100
AcDbSymbolTableRecord
100
AcDbLinetypeTableRecord
  2
CONTINUOUS
 70
64
  3
Solid line
 72
65
 73
0
 40
0.0
  0
LTYPE
  5
1F5
100
AcDbSymbolTableRecord
100
AcDbLinetypeTableRecord
  2
CENTER
 70
64
  3
____ _ ____ _ ____ _ ____ _ ____ _ ____ _ ____
 72
65
 73
4
 40
0.6
 49
0.375
 74
0
 49
-0.075
 74
0
 49
0.075
 74
0
 49
-0.075
 74
0
  0
LTYPE
  5
1F6
100
AcDbSymbolTableRecord
100
AcDbLinetypeTableRecord
  2
HIDDEN
 70
64
  3
- - - - - - - - - - - - - - - - - - - -
 72
65
 73
2
 40
0.2
 49
0.1
 74
0
 49
-0.1
 74
0
  0
LTYPE
  5
1F7
100
AcDbSymbolTableRecord
100
AcDbLinetypeTableRecord
  2
PHANTOM
 70
64
  3
_____ _ _ _____ _ _ _____ _ _ _____
 72
65
 73
6
 40
0.8
 49
0.45
 74
0
 49
-0.05
 74
0
 49
0.1
 74
0
 49
-0.05
 74
0
 49
0.1
 74
0
 49
-0.05
 74
0
  0
LTYPE
  5
1F8
100
AcDbSymbolTableRecord
100
AcDbLinetypeTableRecord
  2
DOT
 70
64
  3
. . . . . . . . . . . . . . . . . . . .
 72
65
 73
2
 40
0.2
 49
0.1
 74
0
 49
-0.1
 74
0
  0
LTYPE
  5
1F9
100
AcDbSymbolTableRecord
100
AcDbLinetypeTableRecord
  2
DASHED
 70
64
  3
- - - - - - - - - - - - - - - - - - - -
 72
65
 73
2
 40
0.2
 49
0.1
 74
0
 49
-0.1
 74
0
  0
ENDTAB
  0
TABLE
  2
LAYER
  5
2
100
AcDbSymbolTable
 70
36
  0
LAYER
  5
10
100
AcDbSymbolTableRecord
100
AcDbLayerTableRecord
  2
0
 70
0
 62
7
  6
CONTINUOUS
370
-3
390
F
  0
LAYER
  5
1FA
100
AcDbSymbolTableRecord
100
AcDbLayerTableRecord
  2
DEFAULT_1
 70
0
 62
7
  6
CENTER
370
-3
390
F
  0
LAYER
  5
1FB
100
AcDbSymbolTableRecord
100
AcDbLayerTableRecord
  2
DEFAULT_2
 70
0
 62
8
  6
HIDDEN
370
-3
390
F
  0
LAYER
  5
1FC
100
AcDbSymbolTableRecord
100
AcDbLayerTableRecord
  2
DEFAULT_3
 70
0
 62
7
  6
PHANTOM
370
-3
390
F
  0
LAYER
  5
1FD
100
AcDbSymbolTableRecord
100
AcDbLayerTableRecord
  2
00_COMPONENTS
 70
0
 62
7
  6
CONTINUOUS
370
-3
390
F
  0
LAYER
  5
1FE
100
AcDbSymbolTableRecord
100
AcDbLayerTableRecord
  2
01_1_DEFAULT_DATUMS
 70
0
 62
7
  6
CONTINUOUS
370
-3
390
F
  0
LAYER
  5
1FF
100
AcDbSymbolTableRecord
100
AcDbLayerTableRecord
  2
01_PLANES
 70
0
 62
7
  6
CONTINUOUS
370
-3
390
F
  0
LAYER
  5
200
100
AcDbSymbolTableRecord
100
AcDbLayerTableRecord
  2
02_COORD_SYS
 70
0
 62
7
  6
CONTINUOUS
370
-3
390
F
  0
LAYER
  5
201
100
AcDbSymbolTableRecord
100
AcDbLayerTableRecord
  2
03_AXES
 70
0
 62
7
  6
CONTINUOUS
370
-3
390
F
  0
LAYER
  5
202
100
AcDbSymbolTableRecord
100
AcDbLayerTableRecord
  2
04_POINTS
 70
0
 62
7
  6
CONTINUOUS
370
-3
390
F
  0
LAYER
  5
203
100
AcDbSymbolTableRecord
100
AcDbLayerTableRecord
  2
05_CURVES
 70
0
 62
7
  6
CONTINUOUS
370
-3
390
F
  0
LAYER
  5
204
100
AcDbSymbolTableRecord
100
AcDbLayerTableRecord
  2
06_SURFS
 70
0
 62
7
  6
CONTINUOUS
370
-3
390
F
  0
LAYER
  5
205
100
AcDbSymbolTableRecord
100
AcDbLayerTableRecord
  2
07_COSMETICS
 70
0
 62
7
  6
CONTINUOUS
370
-3
390
F
  0
LAYER
  5
206
100
AcDbSymbolTableRecord
100
AcDbLayerTableRecord
  2
10_NOTES
 70
0
 62
7
  6
CONTINUOUS
370
-3
390
F
  0
LAYER
  5
207
100
AcDbSymbolTableRecord
100
AcDbLayerTableRecord
  2
11_NOTES_PUB
 70
0
 62
7
  6
CONTINUOUS
370
-3
390
F
  0
LAYER
  5
208
100
AcDbSymbolTableRecord
100
AcDbLayerTableRecord
  2
13_REF_GTOL
 70
0
 62
7
  6
CONTINUOUS
370
-3
390
F
  0
LAYER
  5
209
100
AcDbSymbolTableRecord
100
AcDbLayerTableRecord
  2
16_MISC
 70
0
 62
7
  6
CONTINUOUS
370
-3
390
F
  0
LAYER
  5
20A
100
AcDbSymbolTableRecord
100
AcDbLayerTableRecord
  2
17_NO_PRINT
 70
0
 62
7
  6
CONTINUOUS
370
-3
390
F
  0
LAYER
  5
20B
100
AcDbSymbolTableRecord
100
AcDbLayerTableRecord
  2
18_DATUM_CAMS_JOINTS
 70
0
 62
7
  6
CONTINUOUS
370
-3
390
F
  0
LAYER
  5
20C
100
AcDbSymbolTableRecord
100
AcDbLayerTableRecord
  2
19_DATUM_FUNCTIONAL
 70
0
 62
7
  6
CONTINUOUS
370
-3
390
F
  0
LAYER
  5
20D
100
AcDbSymbolTableRecord
100
AcDbLayerTableRecord
  2
20_DATUM_KINEMATIC_SCHEME
 70
0
 62
7
  6
CONTINUOUS
370
-3
390
F
  0
LAYER
  5
20E
100
AcDbSymbolTableRecord
100
AcDbLayerTableRecord
  2
INTFCLR_1
 70
0
 62
7
  6
CONTINUOUS
370
-3
390
F
  0
LAYER
  5
20F
100
AcDbSymbolTableRecord
100
AcDbLayerTableRecord
  2
INTFCLR_10
 70
0
 62
7
  6
CONTINUOUS
370
-3
390
F
  0
LAYER
  5
210
100
AcDbSymbolTableRecord
100
AcDbLayerTableRecord
  2
INTFCLR_6
 70
0
 62
7
  6
CONTINUOUS
370
-3
390
F
  0
LAYER
  5
211
100
AcDbSymbolTableRecord
100
AcDbLayerTableRecord
  2
INTF_BLANK
 70
0
 62
7
  6
CONTINUOUS
370
-3
390
F
  0
LAYER
  5
212
100
AcDbSymbolTableRecord
100
AcDbLayerTableRecord
  2
_BLACK_HOLE
 70
0
 62
7
  6
CONTINUOUS
370
-3
390
F
  0
LAYER
  5
213
100
AcDbSymbolTableRecord
100
AcDbLayerTableRecord
  2
_WHITE_HOLE
 70
0
 62
7
  6
CONTINUOUS
370
-3
390
F
  0
ENDTAB
  0
TABLE
  2
STYLE
  5
3
100
AcDbSymbolTable
 70
1
  0
STYLE
  5
11
100
AcDbSymbolTableRecord
100
AcDbTextStyleTableRecord
  2
STANDARD
 70
0
 40
0.0
 41
0.8
 50
0.0
 71
0
 42
0.2
  3
txt
  4

  0
STYLE
  5
214
100
AcDbSymbolTableRecord
100
AcDbTextStyleTableRecord
  2
TEXTSTYLE_1
 70
0
 40
0.0
 41
0.8
 50
0.0
 71
0
 42
0.2
  3
gdt
  4

  0
ENDTAB
  0
TABLE
  2
VIEW
  5
6
100
AcDbSymbolTable
 70
0
  0
ENDTAB
  0
TABLE
  2
UCS
  5
7
100
AcDbSymbolTable
 70
0
  0
ENDTAB
  0
TABLE
  2
APPID
  5
9
100
AcDbSymbolTable
 70
1
  0
APPID
  5
215
100
AcDbSymbolTableRecord
100
AcDbRegAppTableRecord
  2
ACAD
 70
0
  0
ENDTAB
  0
TABLE
  2
BLOCK_RECORD
  5
1
100
AcDbSymbolTable
 70
0
  0
BLOCK_RECORD
  5
216
100
AcDbSymbolTableRecord
100
AcDbBlockTableRecord
  2
*Model_Space
  0
BLOCK_RECORD
  5
217
100
AcDbSymbolTableRecord
100
AcDbBlockTableRecord
  2
*Paper_Space
  0
BLOCK_RECORD
  5
218
100
AcDbSymbolTableRecord
100
AcDbBlockTableRecord
  2
_FILLED
  0
ENDTAB
  0
TABLE
  2
DIMSTYLE
  5
A
100
AcDbSymbolTable
 70
1
100
AcDbDimStyleTable
 71
0
  0
DIMSTYLE
105
219
100
AcDbSymbolTableRecord
100
AcDbDimStyleTableRecord
  2
STANDARD
 70
0
  3

  4

 40
1.0
 41
3.3028035259
 42
1.0
 43
0.38
 44
1.0
 45
0.0
 46
0.0
 47
0.01
 48
0.01
140
4.6239249363
141
0.09
142
0.0
143
25.4
144
1.0
145
0.0
146
1.0
147
0.625
 71
1
 72
0
 73
0
 74
0
 75
0
 76
0
 77
1
 78
8
 79
2
170
0
171
1
172
0
173
0
174
0
175
0
176
0
177
0
178
0
270
2
179
2
271
2
272
2
273
2
274
2
275
0
280
0
281
0
282
0
283
1
284
8
285
0
286
0
287
3
288
0
340
11
278
46
341
218
342
218
343
218
344
218
  0
ENDTAB
  0
ENDSEC
  0
SECTION
  2
BLOCKS
  0
BLOCK
  5
20
100
AcDbEntity
  8
0
100
AcDbBlockBegin
  2
*Model_Space
 70
0
 10
0.0
 20
0.0
 30
0.0
  3
*Model_Space
  1

  0
ENDBLK
  5
21
100
AcDbEntity
  8
0
100
AcDbBlockEnd
  0
BLOCK
  5
1C
100
AcDbEntity
  8
0
100
AcDbBlockBegin
  2
*Paper_Space
 70
0
 10
0.0
 20
0.0
 30
0.0
  3
*Paper_Space
  1

  0
ENDBLK
  5
1D
100
AcDbEntity
  8
0
100
AcDbBlockEnd
  0
BLOCK
  5
21A
100
AcDbEntity
  8
0
100
AcDbBlockBegin
  2
_FILLED
 70
64
 10
0.0
 20
0.0
  3
_FILLED
  1

  0
SOLID
  5
21B
100
AcDbEntity
  8
0
  6
BYBLOCK
 62
0
100
AcDbTrace
 10
0.0
 20
0.0
 11
-1.0
 21
0.25
 12
-1.0
 22
-0.25
 13
-1.0
 23
-0.25
  0
ENDBLK
  5
21C
100
AcDbEntity
  8
0
  6
BYBLOCK
 62
0
100
AcDbBlockEnd
  0
ENDSEC
  0
SECTION
  2
ENTITIES
  0
LINE
  5
21D
100
AcDbEntity
  8
03_AXES
100
AcDbLine
 62
7
  6
CONTINUOUS
 10
32.4803033324
 20
212.0084432828
 11
32.1870805779
 21
225.7235943006
  0
LINE
  5
21E
100
AcDbEntity
  8
03_AXES
100
AcDbLine
 62
7
  6
CONTINUOUS
 10
37.4578404578
 20
218.5034629543
 11
37.6651951868
 21
204.9059379404
  0
LINE
  5
21F
100
AcDbEntity
  8
03_AXES
100
AcDbLine
 62
7
  6
CONTINUOUS
 10
32.1870805779
 20
225.7235943006
 11
32.1870805779
 21
225.9801211473
  0
LINE
  5
220
100
AcDbEntity
  8
03_AXES
100
AcDbLine
 62
7
  6
CONTINUOUS
 10
37.4899412098
 20
220.6455732453
 11
37.4578404578
 21
218.5034629543
  0
LINE
  5
221
100
AcDbEntity
  8
03_AXES
100
AcDbLine
 62
7
  6
CONTINUOUS
 10
32.234185695
 20
228.1834078452
 11
32.1870805779
 21
225.9801211473
  0
LINE
  5
222
100
AcDbEntity
  8
03_AXES
100
AcDbLine
 62
7
  6
CONTINUOUS
 10
38.4866007103
 20
224.7104753234
 11
38.435079143
 21
222.3006143364
  0
LINE
  5
223
100
AcDbEntity
  8
03_AXES
100
AcDbLine
 62
7
  6
CONTINUOUS
 10
39.1742286669
 20
234.598048127
 11
39.2288536924
 21
230.9529046555
  0
LINE
  5
224
100
AcDbEntity
  8
03_AXES
100
AcDbLine
 62
7
  6
CONTINUOUS
 10
42.2442075095
 20
223.4897733154
 11
42.1920912905
 21
220.0120140056
  0
LINE
  5
225
100
AcDbEntity
  8
03_AXES
100
AcDbLine
 62
7
  6
CONTINUOUS
 10
38.9566086826
 20
228.204866344
 11
38.8818402133
 21
224.7076587327
  0
LINE
  5
226
100
AcDbEntity
  8
03_AXES
100
AcDbLine
 62
7
  6
CONTINUOUS
 10
55.2834548011
 20
227.8462275371
 11
55.2834548011
 21
227.7357784781
  0
LINE
  5
227
100
AcDbEntity
  8
03_AXES
100
AcDbLine
 62
7
  6
CONTINUOUS
 10
55.2339972805
 20
225.4224608592
 11
55.2834548011
 21
227.7357784781
  0
LINE
  5
228
100
AcDbEntity
  8
03_AXES
100
AcDbLine
 62
7
  6
CONTINUOUS
 10
86.2994209743
 20
264.7476068853
 11
37.4938455312
 21
235.5681958351
  0
LINE
  5
229
100
AcDbEntity
  8
03_AXES
100
AcDbLine
 62
7
  6
CONTINUOUS
 10
55.2304922243
 20
230.3234900556
 11
55.2834548011
 21
227.8462275371
  0
LINE
  5
22A
100
AcDbEntity
  8
03_AXES
100
AcDbLine
 62
7
  6
CONTINUOUS
 10
39.1742286669
 20
234.598048127
 11
87.9489827593
 21
263.7952534898
  0
LINE
  5
22B
100
AcDbEntity
  8
03_AXES
100
AcDbLine
 62
7
  6
CONTINUOUS
 10
48.3904450772
 20
234.692239461
 11
87.981600978
 21
258.3920229022
  0
LINE
  5
22C
100
AcDbEntity
  8
03_AXES
100
AcDbLine
 62
7
  6
CONTINUOUS
 10
91.0522251976
 20
262.0036361645
 11
42.2466497545
 21
232.8242251143
  0
LINE
  5
22D
100
AcDbEntity
  8
03_AXES
100
AcDbLine
 62
7
  6
CONTINUOUS
 10
39.2288536922
 20
230.9529046554
 11
41.4903695991
 21
232.2585836792
  0
LINE
  5
22E
100
AcDbEntity
  8
03_AXES
100
AcDbLine
 62
7
  6
CONTINUOUS
 10
39.5083526779
 20
230.7915394915
 11
40.5075068532
 21
231.3683979802
  0
LINE
  5
22F
100
AcDbEntity
  8
03_AXES
100
AcDbLine
 62
7
  6
CONTINUOUS
 10
51.5942310228
 20
234.0134579041
 11
87.9282258596
 21
254.9907743862
  0
LINE
  5
230
100
AcDbEntity
  8
03_AXES
100
AcDbLine
 62
7
  6
CONTINUOUS
 10
69.0653360554
 20
243.1205589178
 11
52.5096012131
 21
233.5621580059
  0
LINE
  5
231
100
AcDbEntity
  8
03_AXES
100
AcDbLine
 62
7
  6
CONTINUOUS
 10
88.0259504356
 20
249.2017647818
 11
88.1387613812
 21
243.1312611641
  0
LINE
  5
232
100
AcDbEntity
  8
03_AXES
100
AcDbLine
 62
7
  6
CONTINUOUS
 10
88.0031496124
 20
260.1806839912
 11
87.9489827593
 21
263.7952534898
  0
LINE
  5
233
100
AcDbEntity
  8
03_AXES
100
AcDbLine
 62
7
  6
CONTINUOUS
 10
37.6651951868
 20
204.9059379404
 11
170.2482686518
 21
128.3607964679
  0
LINE
  5
234
100
AcDbEntity
  8
03_AXES
100
AcDbLine
 62
7
  6
CONTINUOUS
 10
103.2920816033
 20
259.0883992011
 11
103.3665157316
 21
255.6068300003
  0
LINE
  5
235
100
AcDbEntity
  8
03_AXES
100
AcDbLine
 62
7
  6
CONTINUOUS
 10
105.3398088303
 20
257.6949017259
 11
105.5471635593
 21
244.0973767121
  0
LINE
  5
236
100
AcDbEntity
  8
03_AXES
100
AcDbLine
 62
7
  6
CONTINUOUS
 10
103.3665157316
 20
255.6068300003
 11
103.3665157316
 21
255.4963809414
  0
LINE
  5
237
100
AcDbEntity
  8
03_AXES
100
AcDbLine
 62
7
  6
CONTINUOUS
 10
105.3933571177
 20
261.2682241675
 11
105.3398088303
 21
257.6949017259
  0
LINE
  5
238
100
AcDbEntity
  8
03_AXES
100
AcDbLine
 62
7
  6
CONTINUOUS
 10
103.0732929772
 20
241.7812299235
 11
103.3665157316
 21
255.4963809414
  0
LINE
  5
239
100
AcDbEntity
  8
03_AXES
100
AcDbLine
 62
7
  6
CONTINUOUS
 10
110.0061579676
 20
264.0277937148
 11
109.9518538319
 21
260.4040328719
  0
LINE
  5
23A
100
AcDbEntity
  8
03_AXES
100
AcDbLine
 62
7
  6
CONTINUOUS
 10
170.0409139229
 20
141.9583214817
 11
37.4578404578
 21
218.5034629543
  0
LINE
  5
23B
100
AcDbEntity
  8
03_AXES
100
AcDbLine
 62
7
  6
CONTINUOUS
 10
170.0741285091
 20
144.0997887148
 11
37.488830008
 21
220.6462147834
  0
LINE
  5
23C
100
AcDbEntity
  8
03_AXES
100
AcDbLine
 62
7
  6
CONTINUOUS
 10
39.1768251885
 20
221.6558802131
 11
171.7618340815
 21
145.109621346
  0
LINE
  5
23D
100
AcDbEntity
  8
03_AXES
100
AcDbLine
 62
7
  6
CONTINUOUS
 10
42.1920912905
 20
220.0120140056
 11
172.2583956109
 21
144.9198970044
  0
LINE
  5
23E
100
AcDbEntity
  8
03_AXES
100
AcDbLine
 62
7
  6
CONTINUOUS
 10
174.8278900654
 20
146.944280192
 11
42.2436016735
 21
223.490123087
  0
LINE
  5
23F
100
AcDbEntity
  8
03_AXES
100
AcDbLine
 62
7
  6
CONTINUOUS
 10
68.2168043852
 20
243.6104478232
 11
68.7003205697
 21
242.9098183868
  0
LINE
  5
240
100
AcDbEntity
  8
03_AXES
100
AcDbLine
 62
7
  6
CONTINUOUS
 10
43.787685076
 20
224.4131458667
 11
176.370758541
 21
147.8680043942
  0
LINE
  5
241
100
AcDbEntity
  8
03_AXES
100
AcDbLine
 62
7
  6
CONTINUOUS
 10
69.0653360554
 20
243.1205589178
 11
68.2168043852
 21
243.6104478232
  0
LINE
  5
242
100
AcDbEntity
  8
03_AXES
100
AcDbLine
 62
7
  6
CONTINUOUS
 10
77.7627061876
 20
249.1217439005
 11
220.4844193786
 21
166.7231884748
  0
LINE
  5
243
100
AcDbEntity
  8
03_AXES
100
AcDbLine
 62
7
  6
CONTINUOUS
 10
105.5471635593
 20
244.0973767121
 11
226.4870050955
 21
174.2743062543
  0
LINE
  5
244
100
AcDbEntity
  8
03_AXES
100
AcDbLine
 62
7
  6
CONTINUOUS
 10
177.1785501063
 20
147.7758139909
 11
177.1832708552
 21
147.5911122843
  0
LINE
  5
245
100
AcDbEntity
  8
03_AXES
100
AcDbLine
 62
7
  6
CONTINUOUS
 10
170.2482686518
 20
128.3607964679
 11
170.0409139229
 21
141.9583214817
  0
LINE
  5
246
100
AcDbEntity
  8
03_AXES
100
AcDbLine
 62
7
  6
CONTINUOUS
 10
170.1313455629
 20
219.4223309896
 11
170.1313455629
 21
208.807799567
  0
LINE
  5
247
100
AcDbEntity
  8
03_AXES
100
AcDbLine
 62
7
  6
CONTINUOUS
 10
170.0409139229
 20
141.9583214817
 11
170.0730146748
 21
144.1004317727
  0
LINE
  5
248
100
AcDbEntity
  8
03_AXES
100
AcDbLine
 62
7
  6
CONTINUOUS
 10
174.7824871441
 20
143.9555017063
 11
174.8272809745
 21
146.9446318428
  0
LINE
  5
249
100
AcDbEntity
  8
03_AXES
100
AcDbLine
 62
7
  6
CONTINUOUS
 10
105.3398088303
 20
257.6949017259
 11
233.9581101229
 21
183.4387707501
  0
LINE
  5
24A
100
AcDbEntity
  8
03_AXES
100
AcDbLine
 62
7
  6
CONTINUOUS
 10
178.3930666805
 20
147.0224853936
 11
178.3781415565
 21
147.7205905921
  0
LINE
  5
24B
100
AcDbEntity
  8
03_AXES
100
AcDbLine
 62
7
  6
CONTINUOUS
 10
177.1832708552
 20
147.5911122843
 11
177.1834008236
 21
147.5702720815
  0
LINE
  5
24C
100
AcDbEntity
  8
03_AXES
100
AcDbLine
 62
7
  6
CONTINUOUS
 10
177.1839163086
 20
147.4953269105
 11
177.1839163086
 21
147.5702687238
  0
LINE
  5
24D
100
AcDbEntity
  8
03_AXES
100
AcDbLine
 62
7
  6
CONTINUOUS
 10
178.3781415565
 20
147.8310396511
 11
178.3781415565
 21
147.7205905921
  0
LINE
  5
24E
100
AcDbEntity
  8
03_AXES
100
AcDbLine
 62
7
  6
CONTINUOUS
 10
178.4276657684
 20
150.1474766753
 11
178.3781415565
 21
147.8310396511
  0
LINE
  5
24F
100
AcDbEntity
  8
03_AXES
100
AcDbLine
 62
7
  6
CONTINUOUS
 10
237.9764305827
 20
184.7230826949
 11
105.3933571177
 21
261.2682241675
  0
LINE
  5
250
100
AcDbEntity
  8
03_AXES
100
AcDbLine
 62
7
  6
CONTINUOUS
 10
106.8963472957
 20
262.1680904848
 11
239.4806364775
 21
185.6222471337
  0
LINE
  5
251
100
AcDbEntity
  8
03_AXES
100
AcDbLine
 62
7
  6
CONTINUOUS
 10
242.590203285
 20
187.4820911557
 11
110.0051838504
 21
264.0283561089
  0
LINE
  5
252
100
AcDbEntity
  8
03_AXES
100
AcDbLine
 62
7
  6
CONTINUOUS
 10
190.7078427659
 20
147.1120544333
 11
190.7526994217
 21
144.1187570428
  0
LINE
  5
253
100
AcDbEntity
  8
03_AXES
100
AcDbLine
 62
7
  6
CONTINUOUS
 10
111.6471030381
 20
265.0107878246
 11
244.2324046489
 21
188.4643599606
  0
LINE
  5
254
100
AcDbEntity
  8
03_AXES
100
AcDbLine
 62
7
  6
CONTINUOUS
 10
195.4606469892
 20
144.3680837125
 11
195.4967580454
 21
141.95838267
  0
LINE
  5
255
100
AcDbEntity
  8
03_AXES
100
AcDbLine
 62
7
  6
CONTINUOUS
 10
195.4967580454
 20
141.95838267
 11
195.2894015898
 21
128.3608566594
  0
LINE
  5
256
100
AcDbEntity
  8
03_AXES
100
AcDbLine
 62
7
  6
CONTINUOUS
 10
190.7078427659
 20
147.1120544333
 11
239.4825968583
 21
176.3092597961
  0
LINE
  5
257
100
AcDbEntity
  8
03_AXES
100
AcDbLine
 62
7
  6
CONTINUOUS
 10
233.392799583
 20
174.4407274765
 11
193.7766255571
 21
150.7553879298
  0
LINE
  5
258
100
AcDbEntity
  8
03_AXES
100
AcDbLine
 62
7
  6
CONTINUOUS
 10
195.4606469892
 20
144.3680837125
 11
244.2354010816
 21
173.5652890753
  0
LINE
  5
259
100
AcDbEntity
  8
03_AXES
100
AcDbLine
 62
7
  6
CONTINUOUS
 10
242.5858392966
 20
174.5176424708
 11
193.7802638535
 21
145.3382314206
  0
LINE
  5
25A
100
AcDbEntity
  8
03_AXES
100
AcDbLine
 62
7
  6
CONTINUOUS
 10
195.4967580454
 20
141.95838267
 11
244.2869228131
 21
170.1272292871
  0
LINE
  5
25B
100
AcDbEntity
  8
03_AXES
100
AcDbLine
 62
7
  6
CONTINUOUS
 10
226.5706489003
 20
170.3619652201
 11
226.461202487
 21
175.4811930554
  0
LINE
  5
25C
100
AcDbEntity
  8
03_AXES
100
AcDbLine
 62
7
  6
CONTINUOUS
 10
226.461202487
 20
175.5916421144
 11
226.461202487
 21
175.4811930554
  0
LINE
  5
25D
100
AcDbEntity
  8
03_AXES
100
AcDbLine
 62
7
  6
CONTINUOUS
 10
226.5322078428
 20
178.9128344918
 11
226.461202487
 21
175.5916421144
  0
LINE
  5
25E
100
AcDbEntity
  8
03_AXES
100
AcDbLine
 62
7
  6
CONTINUOUS
 10
195.2894015897
 20
128.3608566593
 11
244.0795663576
 21
156.5297032765
  0
LINE
  5
25F
100
AcDbEntity
  8
03_AXES
100
AcDbLine
 62
7
  6
CONTINUOUS
 10
242.7612469685
 20
181.0821866795
 11
242.8628170749
 21
176.3313638772
  0
LINE
  5
260
100
AcDbEntity
  8
03_AXES
100
AcDbLine
 62
7
  6
CONTINUOUS
 10
243.2580565778
 20
176.334180468
 11
243.2836118955
 21
175.1388604032
  0
LINE
  5
261
100
AcDbEntity
  8
03_AXES
100
AcDbLine
 62
7
  6
CONTINUOUS
 10
239.5367637114
 20
172.6946902975
 11
239.4825968583
 21
176.3092597961
  0
LINE
  5
262
100
AcDbEntity
  8
03_AXES
100
AcDbLine
 62
7
  6
CONTINUOUS
 10
244.2869228131
 20
170.1272292871
 11
244.2354010816
 21
173.5652890753
  0
LINE
  5
263
100
AcDbEntity
  8
03_AXES
100
AcDbLine
 62
7
  6
CONTINUOUS
 10
237.9469961605
 20
182.758898836
 11
237.9764305827
 21
184.7230826949
  0
LINE
  5
264
100
AcDbEntity
  8
03_AXES
100
AcDbLine
 62
7
  6
CONTINUOUS
 10
242.5157123607
 20
182.5766624739
 11
242.5892314326
 21
187.4826522422
  0
LINE
  5
265
100
AcDbEntity
  8
03_AXES
100
AcDbLine
 62
7
  6
CONTINUOUS
 10
244.0795663576
 20
156.5297032765
 11
244.2869228131
 21
170.1272292871
  0
LINE
  5
266
100
AcDbEntity
  8
03_AXES
100
AcDbLine
 62
7
  6
CONTINUOUS
 10
249.4806680747
 20
181.2011376718
 11
249.5575767102
 21
177.6038262918
  0
LINE
  5
267
100
AcDbEntity
  8
03_AXES
100
AcDbLine
 62
7
  6
CONTINUOUS
 10
249.5575767102
 20
177.3472994452
 11
249.5575767102
 21
177.6038262918
  0
LINE
  5
268
100
AcDbEntity
  8
03_AXES
100
AcDbLine
 62
7
  6
CONTINUOUS
 10
249.2643539558
 20
163.6321484274
 11
249.5575767102
 21
177.3472994452
  0
ARC
  5
269
100
AcDbEntity
  8
03_AXES
100
AcDbCircle
 62
7
  6
CONTINUOUS
 10
45.405818121
 20
214.7322342532
 40
11.816404472
100
AcDbArc
 50
124.9208441747
 51
127.1775190626
  0
ARC
  5
26A
100
AcDbEntity
  8
03_AXES
100
AcDbCircle
 62
7
  6
CONTINUOUS
 10
236.338853795
 20
166.3559593625
 40
11.8163797084
100
AcDbArc
 50
52.8223691609
 51
55.0791149149
  0
ARC
  5
26B
100
AcDbEntity
  8
03_AXES
100
AcDbCircle
 62
7
  6
CONTINUOUS
 10
236.8051989394
 20
166.9708823844
 40
11.0446231949
100
AcDbArc
 50
50.5762959002
 51
52.8222511445
  0
ARC
  5
26C
100
AcDbEntity
  8
03_AXES
100
AcDbCircle
 62
7
  6
CONTINUOUS
 10
182.1540247298
 20
146.5793079255
 40
5.3438706394
100
AcDbArc
 50
135.5626278819
 51
136.5073365752
  0
ARC
  5
26D
100
AcDbEntity
  8
03_AXES
100
AcDbCircle
 62
7
  6
CONTINUOUS
 10
51.5974272583
 20
226.6814335773
 40
5.2189329421
100
AcDbArc
 50
42.4495309208
 51
43.8815022549
  0
ARC
  5
26E
100
AcDbEntity
  8
03_AXES
100
AcDbCircle
 62
7
  6
CONTINUOUS
 10
181.8953015204
 20
145.1872272091
 40
4.9903812643
100
AcDbArc
 50
136.1653090282
 51
140.4291923626
  0
ARC
  5
26F
100
AcDbEntity
  8
03_AXES
100
AcDbCircle
 62
7
  6
CONTINUOUS
 10
51.8946108546
 20
225.3143927333
 40
4.8201079733
100
AcDbArc
 50
36.8876867871
 51
41.9226963136
  0
ARC
  5
270
100
AcDbEntity
  8
03_AXES
100
AcDbCircle
 62
7
  6
CONTINUOUS
 10
234.6601070538
 20
173.3379263298
 40
4.1567742633
100
AcDbArc
 50
66.6433802935
 51
69.1606882576
  0
ARC
  5
271
100
AcDbEntity
  8
03_AXES
100
AcDbCircle
 62
7
  6
CONTINUOUS
 10
96.0669607838
 20
253.3539817094
 40
4.1558351894
100
AcDbArc
 50
66.6431934791
 51
69.1460802506
  0
ARC
  5
272
100
AcDbEntity
  8
03_AXES
100
AcDbCircle
 62
7
  6
CONTINUOUS
 10
52.7375407979
 20
225.8924761961
 40
3.7965626013
100
AcDbArc
 50
28.1628262954
 51
28.5819387196
  0
ARC
  5
273
100
AcDbEntity
  8
03_AXES
100
AcDbCircle
 62
7
  6
CONTINUOUS
 10
180.6477439022
 20
146.009032617
 40
3.4904022825
100
AcDbArc
 50
156.2727307686
 51
157.9249849576
  0
ARC
  5
274
100
AcDbEntity
  8
03_AXES
100
AcDbCircle
 62
7
  6
CONTINUOUS
 10
187.2907179955
 20
146.8619694528
 40
2.6833171701
100
AcDbArc
 50
51.7343864869
 51
54.743400695
  0
ARC
  5
275
100
AcDbEntity
  8
03_AXES
100
AcDbCircle
 62
7
  6
CONTINUOUS
 10
48.6973109519
 20
226.8772925045
 40
2.6831496013
100
AcDbArc
 50
51.7301335512
 51
54.7434623683
  0
ARC
  5
276
100
AcDbEntity
  8
03_AXES
100
AcDbCircle
 62
7
  6
CONTINUOUS
 10
47.1784873355
 20
220.896364487
 40
1.7310965401
100
AcDbArc
 50
88.8178889011
 51
97.3185782081
  0
ARC
  5
277
100
AcDbEntity
  8
03_AXES
100
AcDbCircle
 62
7
  6
CONTINUOUS
 10
176.8437228628
 20
147.5710323704
 40
0.3401793851
100
AcDbArc
 50
349.9303615429
 51
359.8719095622
  0
SPLINE
  5
278
100
AcDbEntity
  8
03_AXES
100
AcDbSpline
 62
7
  6
CONTINUOUS
 70
0
 71
3
 72
15
 73
11
 74
0
 42
0.0000001
 43
0.0000001
 44
0.0000000001
 40
0.0
 40
0.0
 40
0.0
 40
0.0
 40
0.1141549974
 40
0.2373268943
 40
0.3669765742
 40
0.5000005394
 40
0.633024429
 40
0.7626738905
 40
0.8858454396
 40
1.0
 40
1.0
 40
1.0
 40
1.0
 10
170.2482686518
 20
128.3607964679
 30
0.0
 10
171.1054060977
 20
127.8659391279
 30
0.0
 10
172.9796887034
 20
126.993171669
 30
0.0
 10
176.0318444152
 20
126.065517578
 30
0.0
 10
179.3362748557
 20
125.4945175809
 30
0.0
 10
182.7688566812
 20
125.3018749837
 30
0.0
 10
186.2014357021
 20
125.4945339571
 30
0.0
 10
189.5058578115
 20
126.0655497193
 30
0.0
 10
192.5580000973
 20
126.9932182744
 30
0.0
 10
194.4322709937
 20
127.8659950329
 30
0.0
 10
195.2894015897
 20
128.3608566593
 30
0.0
  0
SPLINE
  5
279
100
AcDbEntity
  8
03_AXES
100
AcDbSpline
 62
7
  6
CONTINUOUS
 70
0
 71
3
 72
11
 73
7
 74
0
 42
0.0000001
 43
0.0000001
 44
0.0000000001
 40
0.0
 40
0.0
 40
0.0
 40
0.0
 40
0.2893849324
 40
0.54874054
 40
0.7822497157
 40
1.0
 40
1.0
 40
1.0
 40
1.0
 10
244.0795663576
 20
156.5297032765
 30
0.0
 10
244.8452465277
 20
156.9717662901
 30
0.0
 10
246.2361242199
 20
157.9268700182
 30
0.0
 10
247.9058361346
 20
159.6651349862
 30
0.0
 10
248.9786980478
 20
161.5850804059
 30
0.0
 10
249.2500651177
 20
162.9670298934
 30
0.0
 10
249.2643201462
 20
163.6321486781
 30
0.0
  0
SPLINE
  5
27A
100
AcDbEntity
  8
03_AXES
100
AcDbSpline
 62
7
  6
CONTINUOUS
 70
0
 71
3
 72
15
 73
11
 74
0
 42
0.0000001
 43
0.0000001
 44
0.0000000001
 40
0.0
 40
0.0
 40
0.0
 40
0.0
 40
0.1148494254
 40
0.2384160951
 40
0.3681941363
 40
0.5011280402
 40
0.6339051257
 40
0.763225202
 40
0.8860710803
 40
1.0
 40
1.0
 40
1.0
 40
1.0
 10
86.2983023987
 20
264.746938122
 30
0.0
 10
87.1646142273
 20
265.2648803594
 30
0.0
 10
89.0591379317
 20
266.1832563508
 30
0.0
 10
92.1492658626
 20
267.1719923202
 30
0.0
 10
95.4947974682
 20
267.7957035086
 30
0.0
 10
98.9701617579
 20
268.0307212634
 30
0.0
 10
102.4456766886
 20
267.8685575301
 30
0.0
 10
105.7917325653
 20
267.3149797538
 30
0.0
 10
108.8826815822
 20
266.3909331906
 30
0.0
 10
110.7799929149
 20
265.5114027622
 30
0.0
 10
111.6471030381
 20
265.0107878246
 30
0.0
  0
SPLINE
  5
27B
100
AcDbEntity
  8
03_AXES
100
AcDbSpline
 62
7
  6
CONTINUOUS
 70
0
 71
3
 72
15
 73
11
 74
0
 42
0.0000001
 43
0.0000001
 44
0.0000000001
 40
0.0
 40
0.0
 40
0.0
 40
0.0
 40
0.1139289156
 40
0.236774783
 40
0.3660948498
 40
0.4988719328
 40
0.6318058392
 40
0.7615838898
 40
0.8851505704
 40
1.0
 40
1.0
 40
1.0
 40
1.0
 10
171.7618340815
 20
145.109621346
 30
0.0
 10
172.5150547136
 20
144.6747590492
 30
0.0
 10
174.1631656817
 20
143.9107488362
 30
0.0
 10
176.8481374503
 20
143.1080688089
 30
0.0
 10
179.7547095826
 20
142.627198996
 30
0.0
 10
182.7737373504
 20
142.4863333959
 30
0.0
 10
185.7926345307
 20
142.690481995
 30
0.0
 10
188.6987519443
 20
143.2322716596
 30
0.0
 10
191.383011543
 20
144.0911422169
 30
0.0
 10
193.0287019122
 20
144.8888947492
 30
0.0
 10
193.7812291549
 20
145.3388085457
 30
0.0
  0
SPLINE
  5
27C
100
AcDbEntity
  8
03_AXES
100
AcDbSpline
 62
7
  6
CONTINUOUS
 70
0
 71
3
 72
11
 73
7
 74
0
 42
0.0000001
 43
0.0000001
 44
0.0000000001
 40
0.0
 40
0.0
 40
0.0
 40
0.0
 40
0.2880869802
 40
0.5472901118
 40
0.7814500066
 40
1.0
 40
1.0
 40
1.0
 40
1.0
 10
242.5848655668
 20
174.5170603065
 30
0.0
 10
243.2608146054
 20
174.9211902582
 30
0.0
 10
244.4888236547
 20
175.7923522027
 30
0.0
 10
245.9593418811
 20
177.3663953642
 30
0.0
 10
246.9033378671
 20
179.0961166291
 30
0.0
 10
247.1427269583
 20
180.3363471954
 30
0.0
 10
247.1554918215
 20
180.9336626421
 30
0.0
  0
SPLINE
  5
27D
100
AcDbEntity
  8
03_AXES
100
AcDbSpline
 62
7
  6
CONTINUOUS
 70
0
 71
3
 72
9
 73
5
 74
0
 42
0.0000001
 43
0.0000001
 44
0.0000000001
 40
0.0
 40
0.0
 40
0.0
 40
0.0
 40
0.2720088785
 40
1.0
 40
1.0
 40
1.0
 40
1.0
 10
39.1768251885
 20
221.6558802131
 30
0.0
 10
38.8101893794
 20
221.8675527075
 30
0.0
 10
37.4992578571
 20
222.7029312213
 30
0.0
 10
36.3318490516
 20
223.7997958526
 30
0.0
 10
35.6985078845
 20
224.7392935718
 30
0.0
  0
SPLINE
  5
27E
100
AcDbEntity
  8
03_AXES
100
AcDbSpline
 62
7
  6
CONTINUOUS
 70
0
 71
3
 72
9
 73
5
 74
0
 42
0.0000001
 43
0.0000001
 44
0.0000000001
 40
0.0
 40
0.0
 40
0.0
 40
0.0
 40
0.514293661
 40
1.0
 40
1.0
 40
1.0
 40
1.0
 10
35.6985078845
 20
224.7392935718
 30
0.0
 10
35.3690799276
 20
225.2279667076
 30
0.0
 10
34.8376196287
 20
226.2608390628
 30
0.0
 10
34.6298243509
 20
227.4086648576
 30
0.0
 10
34.6178978338
 20
227.9651203086
 30
0.0
  0
SPLINE
  5
27F
100
AcDbEntity
  8
03_AXES
100
AcDbSpline
 62
7
  6
CONTINUOUS
 70
0
 71
3
 72
9
 73
5
 74
0
 42
0.0000001
 43
0.0000001
 44
0.0000000001
 40
0.0
 40
0.0
 40
0.0
 40
0.0
 40
0.2545990789
 40
1.0
 40
1.0
 40
1.0
 40
1.0
 10
243.0213714599
 20
177.6047598271
 30
0.0
 10
243.058105543
 20
177.5011324948
 30
0.0
 10
243.1871976238
 20
177.0889238482
 30
0.0
 10
243.2511038694
 20
176.6559989737
 30
0.0
 10
243.2579721498
 20
176.3341799294
 30
0.0
  0
SPLINE
  5
280
100
AcDbEntity
  8
03_AXES
100
AcDbSpline
 62
7
  6
CONTINUOUS
 70
0
 71
3
 72
9
 73
5
 74
0
 42
0.0000001
 43
0.0000001
 44
0.0000000001
 40
0.0
 40
0.0
 40
0.0
 40
0.0
 40
0.2411427159
 40
1.0
 40
1.0
 40
1.0
 40
1.0
 10
177.4523811799
 20
147.4135130073
 30
0.0
 10
177.4887938781
 20
147.4963693353
 30
0.0
 10
177.6529604514
 20
147.8341426748
 30
0.0
 10
177.8671683357
 20
148.1466517238
 30
0.0
 10
178.0485264461
 20
148.3662564148
 30
0.0
  0
SPLINE
  5
281
100
AcDbEntity
  8
03_AXES
100
AcDbSpline
 62
7
  6
CONTINUOUS
 70
0
 71
3
 72
13
 73
9
 74
0
 42
0.0000001
 43
0.0000001
 44
0.0000000001
 40
0.0
 40
0.0
 40
0.0
 40
0.0
 40
0.1149478723
 40
0.2386459359
 40
0.5011319671
 40
0.7629985074
 40
0.885974769
 40
1.0
 40
1.0
 40
1.0
 40
1.0
 10
91.0516159265
 20
262.0032718994
 30
0.0
 10
91.5930837476
 20
262.3269995059
 30
0.0
 10
92.7774341352
 20
262.9011095626
 30
0.0
 10
95.4035143376
 20
263.7407940526
 30
0.0
 10
98.9685251914
 20
264.1740872448
 30
0.0
 10
102.5384144726
 20
263.8164912344
 30
0.0
 10
105.1683279366
 20
263.0308581201
 30
0.0
 10
106.354386919
 20
262.4809843755
 30
0.0
 10
106.8963472957
 20
262.1680904848
 30
0.0
  0
SPLINE
  5
282
100
AcDbEntity
  8
03_AXES
100
AcDbSpline
 62
7
  6
CONTINUOUS
 70
0
 71
3
 72
11
 73
7
 74
0
 42
0.0000001
 43
0.0000001
 44
0.0000000001
 40
0.0
 40
0.0
 40
0.0
 40
0.0
 40
0.2879243125
 40
0.547352987
 40
0.7814624313
 40
1.0
 40
1.0
 40
1.0
 40
1.0
 10
188.6386160899
 20
148.7223239358
 30
0.0
 10
188.792440795
 20
148.8142911805
 30
0.0
 10
189.071978558
 20
149.012803451
 30
0.0
 10
189.4070074283
 20
149.371026296
 30
0.0
 10
189.6219688938
 20
149.7650296492
 30
0.0
 10
189.6763256541
 20
150.0473943966
 30
0.0
 10
189.6792720902
 20
150.1833927751
 30
0.0
  0
SPLINE
  5
283
100
AcDbEntity
  8
03_AXES
100
AcDbSpline
 62
7
  6
CONTINUOUS
 70
0
 71
3
 72
11
 73
7
 74
0
 42
0.0000001
 43
0.0000001
 44
0.0000000001
 40
0.0
 40
0.0
 40
0.0
 40
0.0
 40
0.2879243125
 40
0.547352987
 40
0.7814624313
 40
1.0
 40
1.0
 40
1.0
 40
1.0
 10
236.7368640991
 20
177.478845116
 30
0.0
 10
236.8916191457
 20
177.5713685843
 30
0.0
 10
237.1728475708
 20
177.7710814696
 30
0.0
 10
237.5099027168
 20
178.131470869
 30
0.0
 10
237.7261642828
 20
178.5278571793
 30
0.0
 10
237.7808497963
 20
178.8119296866
 30
0.0
 10
237.7838140526
 20
178.9487505918
 30
0.0
  0
SPLINE
  5
284
100
AcDbEntity
  8
03_AXES
100
AcDbSpline
 62
7
  6
CONTINUOUS
 70
0
 71
3
 72
11
 73
7
 74
0
 42
0.0000001
 43
0.0000001
 44
0.0000000001
 40
0.0
 40
0.0
 40
0.0
 40
0.0
 40
0.297247663
 40
0.5601224582
 40
0.7904413554
 40
1.0
 40
1.0
 40
1.0
 40
1.0
 10
99.8866887671
 20
262.7458468198
 30
0.0
 10
100.3746667506
 20
262.5588922886
 30
0.0
 10
101.2680647521
 20
262.1279083564
 30
0.0
 10
102.3697299427
 20
261.2583045367
 30
0.0
 10
103.0968956886
 20
260.232686251
 30
0.0
 10
103.2839267644
 20
259.4567163143
 30
0.0
 10
103.2919176327
 20
259.0883961232
 30
0.0
  0
SPLINE
  5
285
100
AcDbEntity
  8
03_AXES
100
AcDbSpline
 62
7
  6
CONTINUOUS
 70
0
 71
3
 72
13
 73
9
 74
0
 42
0.0000001
 43
0.0000001
 44
0.0000000001
 40
0.0
 40
0.0
 40
0.0
 40
0.0
 40
0.3056276326
 40
0.5785802532
 40
0.6985880845
 40
0.8071793017
 40
0.9063362885
 40
1.0
 40
1.0
 40
1.0
 40
1.0
 10
48.3909268942
 20
234.692527883
 30
0.0
 10
49.2854899295
 20
234.6428979322
 30
0.0
 10
50.9745184398
 20
234.3751677144
 30
0.0
 10
52.8937610177
 20
233.577847144
 30
0.0
 10
54.0733876391
 20
232.6871619385
 30
0.0
 10
54.7134424986
 20
231.9597017131
 30
0.0
 10
55.121796431
 20
231.1644558306
 30
0.0
 10
55.2242747397
 20
230.5979929699
 30
0.0
 10
55.2302446768
 20
230.3234853758
 30
0.0
  0
SPLINE
  5
286
100
AcDbEntity
  8
03_AXES
100
AcDbSpline
 62
7
  6
CONTINUOUS
 70
0
 71
3
 72
9
 73
5
 74
0
 42
0.0000001
 43
0.0000001
 44
0.0000000001
 40
0.0
 40
0.0
 40
0.0
 40
0.0
 40
0.4750352266
 40
1.0
 40
1.0
 40
1.0
 40
1.0
 10
176.370758541
 20
147.8680043942
 30
0.0
 10
177.1412873159
 20
147.4231494625
 30
0.0
 10
178.9099159919
 20
146.7374810484
 30
0.0
 10
180.7747726735
 20
146.454391503
 30
0.0
 10
181.7564840041
 20
146.3995613129
 30
0.0
  0
SPLINE
  5
287
100
AcDbEntity
  8
03_AXES
100
AcDbSpline
 62
7
  6
CONTINUOUS
 70
0
 71
3
 72
15
 73
11
 74
0
 42
0.0000001
 43
0.0000001
 44
0.0000000001
 40
0.0
 40
0.0
 40
0.0
 40
0.0
 40
0.1290552048
 40
0.2704892248
 40
0.4171698588
 40
0.5609886967
 40
0.6943624151
 40
0.8117990187
 40
0.9119402116
 40
1.0
 40
1.0
 40
1.0
 40
1.0
 10
98.1433579692
 20
257.4940330012
 30
0.0
 10
97.8810244715
 20
257.3371915565
 30
0.0
 10
97.2870594613
 20
257.080713048
 30
0.0
 10
96.3166478878
 20
256.871241096
 30
0.0
 10
95.2895166868
 20
256.8291864651
 30
0.0
 10
94.2888979379
 20
256.9585153697
 30
0.0
 10
93.3938320813
 20
257.2490198084
 30
0.0
 10
92.6734366086
 20
257.6814330663
 30
0.0
 10
92.1816323772
 20
258.2336831829
 30
0.0
 10
92.0498929203
 20
258.6807981603
 30
0.0
 10
92.0455255749
 20
258.8893059998
 30
0.0
  0
SPLINE
  5
288
100
AcDbEntity
  8
03_AXES
100
AcDbSpline
 62
7
  6
CONTINUOUS
 70
0
 71
3
 72
10
 73
6
 74
0
 42
0.0000001
 43
0.0000001
 44
0.0000000001
 40
0.0
 40
0.0
 40
0.0
 40
0.0
 40
0.218360192
 40
0.452238004
 40
1.0
 40
1.0
 40
1.0
 40
1.0
 10
170.1314367839
 20
208.8077992149
 30
0.0
 10
170.1313900417
 20
208.7506891587
 30
0.0
 10
170.1524332125
 20
208.6315566176
 30
0.0
 10
170.27912645
 20
208.3989522407
 30
0.0
 10
170.4466205302
 20
208.267063146
 30
0.0
 10
170.570689807
 20
208.1954333361
 30
0.0
  0
SPLINE
  5
289
100
AcDbEntity
  8
03_AXES
100
AcDbSpline
 62
7
  6
CONTINUOUS
 70
0
 71
3
 72
10
 73
6
 74
0
 42
0.0000001
 43
0.0000001
 44
0.0000000001
 40
0.0
 40
0.0
 40
0.0
 40
0.0
 40
0.2184036142
 40
0.4522473232
 40
1.0
 40
1.0
 40
1.0
 40
1.0
 10
170.1314294923
 20
219.4223309891
 30
0.0
 10
170.131429505
 20
219.4794518331
 30
0.0
 10
170.1524088295
 20
219.5985864344
 30
0.0
 10
170.2791577984
 20
219.8311760963
 30
0.0
 10
170.4466156028
 20
219.9630633729
 30
0.0
 10
170.5706809752
 20
220.0346921214
 30
0.0
  0
SPLINE
  5
28A
100
AcDbEntity
  8
03_AXES
100
AcDbSpline
 62
7
  6
CONTINUOUS
 70
0
 71
3
 72
11
 73
7
 74
0
 42
0.0000001
 43
0.0000001
 44
0.0000000001
 40
0.0
 40
0.0
 40
0.0
 40
0.0
 40
0.218551774
 40
0.4526661889
 40
0.7120845112
 40
1.0
 40
1.0
 40
1.0
 40
1.0
 10
51.0857231552
 20
230.1985807327
 30
0.0
 10
51.0827627778
 20
230.0625772454
 30
0.0
 10
51.0283873879
 20
229.7802129183
 30
0.0
 10
50.8134245405
 20
229.3862204049
 30
0.0
 10
50.4784397227
 20
229.0279882631
 30
0.0
 10
50.1989260706
 20
228.8294739273
 30
0.0
 10
50.0451099601
 20
228.7375118211
 30
0.0
  0
SPLINE
  5
28B
100
AcDbEntity
  8
03_AXES
100
AcDbSpline
 62
7
  6
CONTINUOUS
 70
0
 71
3
 72
9
 73
5
 74
0
 42
0.0000001
 43
0.0000001
 44
0.0000000001
 40
0.0
 40
0.0
 40
0.0
 40
0.0
 40
0.5226418444
 40
1.0
 40
1.0
 40
1.0
 40
1.0
 10
97.5272367439
 20
237.6729523669
 30
0.0
 10
98.140007978
 20
237.766659035
 30
0.0
 10
99.3009886359
 20
238.0354598781
 30
0.0
 10
100.3995188811
 20
238.5071225225
 30
0.0
 10
100.8898499593
 20
238.7902136127
 30
0.0
  0
SPLINE
  5
28C
100
AcDbEntity
  8
03_AXES
100
AcDbSpline
 62
7
  6
CONTINUOUS
 70
0
 71
3
 72
11
 73
7
 74
0
 42
0.0000001
 43
0.0000001
 44
0.0000000001
 40
0.0
 40
0.0
 40
0.0
 40
0.0
 40
0.2893536668
 40
0.5487089001
 40
0.7821842915
 40
1.0
 40
1.0
 40
1.0
 40
1.0
 10
100.8898499593
 20
238.7902136127
 30
0.0
 10
101.212261364
 20
238.9763568129
 30
0.0
 10
101.7979608521
 20
239.3785542274
 30
0.0
 10
102.5010522669
 20
240.1105021753
 30
0.0
 10
102.9530102702
 20
240.9190209462
 30
0.0
 10
103.067187715
 20
241.5010498498
 30
0.0
 10
103.0732484052
 20
241.7812302426
 30
0.0
  0
SPLINE
  5
28D
100
AcDbEntity
  8
03_AXES
100
AcDbSpline
 62
7
  6
CONTINUOUS
 70
0
 71
3
 72
15
 73
11
 74
0
 42
0.0000001
 43
0.0000001
 44
0.0000000001
 40
0.0
 40
0.0
 40
0.0
 40
0.0
 40
0.0880549247
 40
0.1881962065
 40
0.3056288604
 40
0.4389961873
 40
0.5828135
 40
0.7294987813
 40
0.8709415633
 40
1.0
 40
1.0
 40
1.0
 40
1.0
 10
182.5774002775
 20
150.1092084696
 30
0.0
 10
182.5817641949
 20
149.9019668043
 30
0.0
 10
182.7127487363
 20
149.4575692258
 30
0.0
 10
183.2015982856
 20
148.9086790159
 30
0.0
 10
183.9176264004
 20
148.4788649093
 30
0.0
 10
184.8072659123
 20
148.1900711796
 30
0.0
 10
185.8018510337
 20
148.061467516
 30
0.0
 10
186.8228346306
 20
148.1032189232
 30
0.0
 10
187.7874537689
 20
148.3114376659
 30
0.0
 10
188.3778540834
 20
148.5664220393
 30
0.0
 10
188.6386160899
 20
148.7223239358
 30
0.0
  0
SPLINE
  5
28E
100
AcDbEntity
  8
03_AXES
100
AcDbSpline
 62
7
  6
CONTINUOUS
 70
0
 71
3
 72
9
 73
5
 74
0
 42
0.0000001
 43
0.0000001
 44
0.0000000001
 40
0.0
 40
0.0
 40
0.0
 40
0.0
 40
0.2619799761
 40
1.0
 40
1.0
 40
1.0
 40
1.0
 10
103.1936497882
 20
245.0844081867
 30
0.0
 10
103.4077350422
 20
245.0214537194
 30
0.0
 10
104.2183207774
 20
244.7600666791
 30
0.0
 10
105.0027495134
 20
244.4116871974
 30
0.0
 10
105.5471635593
 20
244.0973767121
 30
0.0
  0
SPLINE
  5
28F
100
AcDbEntity
  8
03_AXES
100
AcDbSpline
 62
7
  6
CONTINUOUS
 70
0
 71
3
 72
15
 73
11
 74
0
 42
0.0000001
 43
0.0000001
 44
0.0000000001
 40
0.0
 40
0.0
 40
0.0
 40
0.0
 40
0.0880549247
 40
0.1881962065
 40
0.3056288604
 40
0.4389961873
 40
0.5828135
 40
0.7294987813
 40
0.8709415633
 40
1.0
 40
1.0
 40
1.0
 40
1.0
 10
230.6389896709
 20
178.8741176149
 30
0.0
 10
230.6433799816
 20
178.665622539
 30
0.0
 10
230.7751567258
 20
178.2185372159
 30
0.0
 10
231.266962868
 20
177.6663272833
 30
0.0
 10
231.987321566
 20
177.2339136339
 30
0.0
 10
232.8823416738
 20
176.9433732615
 30
0.0
 10
233.8829421088
 20
176.8139917948
 30
0.0
 10
234.9101006789
 20
176.8559957172
 30
0.0
 10
235.8805538947
 20
177.06547378
 30
0.0
 10
236.4745249875
 20
177.3220003149
 30
0.0
 10
236.7368640991
 20
177.478845116
 30
0.0
  0
SPLINE
  5
290
100
AcDbEntity
  8
03_AXES
100
AcDbSpline
 62
7
  6
CONTINUOUS
 70
0
 71
3
 72
11
 73
7
 74
0
 42
0.0000001
 43
0.0000001
 44
0.0000000001
 40
0.0
 40
0.0
 40
0.0
 40
0.0
 40
0.218551774
 40
0.4526661889
 40
0.7120845112
 40
1.0
 40
1.0
 40
1.0
 40
1.0
 10
99.1902648587
 20
258.9639385498
 30
0.0
 10
99.1872865767
 20
258.8271125048
 30
0.0
 10
99.1325823211
 20
258.5430404205
 30
0.0
 10
98.9163193649
 20
258.1466650155
 30
0.0
 10
98.5793085377
 20
257.786266263
 30
0.0
 10
98.2981043693
 20
257.5865513001
 30
0.0
 10
98.1433579692
 20
257.4940330012
 30
0.0
  0
SPLINE
  5
291
100
AcDbEntity
  8
03_AXES
100
AcDbSpline
 62
7
  6
CONTINUOUS
 70
0
 71
3
 72
11
 73
7
 74
0
 42
0.0000001
 43
0.0000001
 44
0.0000000001
 40
0.0
 40
0.0
 40
0.0
 40
0.0
 40
0.2195807185
 40
0.4536668809
 40
0.7123851567
 40
1.0
 40
1.0
 40
1.0
 40
1.0
 10
242.7611961266
 20
181.0821858566
 30
0.0
 10
242.7520757848
 20
181.5095046672
 30
0.0
 10
242.5813338226
 20
182.3947438468
 30
0.0
 10
241.9035876148
 20
183.6251574394
 30
0.0
 10
240.8468718285
 20
184.7348423665
 30
0.0
 10
239.9654794301
 20
185.3423292571
 30
0.0
 10
239.4806364775
 20
185.6222471337
 30
0.0
  0
SPLINE
  5
292
100
AcDbEntity
  8
03_AXES
100
AcDbSpline
 62
7
  6
CONTINUOUS
 70
0
 71
3
 72
11
 73
7
 74
0
 42
0.0000001
 43
0.0000001
 44
0.0000000001
 40
0.0
 40
0.0
 40
0.0
 40
0.0
 40
0.218553173
 40
0.4526897812
 40
0.7119397162
 40
1.0
 40
1.0
 40
1.0
 40
1.0
 10
38.9566847475
 20
228.2048666321
 30
0.0
 10
38.9658367454
 20
228.6349124657
 30
0.0
 10
39.1383436867
 20
229.5277444065
 30
0.0
 10
39.8177420977
 20
230.7732269809
 30
0.0
 10
40.8765975325
 20
231.9063491668
 30
0.0
 10
41.7606505214
 20
232.5336605371
 30
0.0
 10
42.247256639
 20
232.8245879526
 30
0.0
  0
SPLINE
  5
293
100
AcDbEntity
  8
03_AXES
100
AcDbSpline
 62
7
  6
CONTINUOUS
 70
0
 71
3
 72
9
 73
5
 74
0
 42
0.0000001
 43
0.0000001
 44
0.0000000001
 40
0.0
 40
0.0
 40
0.0
 40
0.0
 40
0.2472510991
 40
1.0
 40
1.0
 40
1.0
 40
1.0
 10
38.4866851362
 20
224.7104747849
 30
0.0
 10
38.4889634216
 20
224.8172258812
 30
0.0
 10
38.5157349764
 20
225.2485070759
 30
0.0
 10
38.6146682163
 20
225.6746375714
 30
0.0
 10
38.7232777699
 20
225.9810319325
 30
0.0
  0
SPLINE
  5
294
100
AcDbEntity
  8
03_AXES
100
AcDbSpline
 62
7
  6
CONTINUOUS
 70
0
 71
3
 72
11
 73
7
 74
0
 42
0.0000001
 43
0.0000001
 44
0.0000000001
 40
0.0
 40
0.0
 40
0.0
 40
0.0
 40
0.2195763407
 40
0.4536839837
 40
0.7123576277
 40
1.0
 40
1.0
 40
1.0
 40
1.0
 10
249.480664263
 20
181.2011375988
 30
0.0
 10
249.4660123567
 20
181.8847517573
 30
0.0
 10
249.1931118237
 20
183.3010710919
 30
0.0
 10
248.1085509598
 20
185.2692768113
 30
0.0
 10
246.4182295872
 20
187.0447328485
 30
0.0
 10
245.0081357154
 20
188.0165015524
 30
0.0
 10
244.2324046489
 20
188.4643599606
 30
0.0
  0
SPLINE
  5
295
100
AcDbEntity
  8
03_AXES
100
AcDbSpline
 62
7
  6
CONTINUOUS
 70
0
 71
3
 72
11
 73
7
 74
0
 42
0.0000001
 43
0.0000001
 44
0.0000000001
 40
0.0
 40
0.0
 40
0.0
 40
0.0
 40
0.2185500279
 40
0.4527099326
 40
0.7119130297
 40
1.0
 40
1.0
 40
1.0
 40
1.0
 10
32.2342119821
 20
228.1834079149
 30
0.0
 10
32.2489040897
 20
228.8709127376
 30
0.0
 10
32.5244384717
 20
230.2984071586
 30
0.0
 10
33.6109685534
 20
232.2893012207
 30
0.0
 10
35.3035207038
 20
234.1010116394
 30
0.0
 10
36.7169477169
 20
235.103711594
 30
0.0
 10
37.494958959
 20
235.5688615206
 30
0.0
  0
SPLINE
  5
296
100
AcDbEntity
  8
03_AXES
100
AcDbSpline
 62
7
  6
CONTINUOUS
 70
0
 71
3
 72
11
 73
7
 74
0
 42
0.0000001
 43
0.0000001
 44
0.0000000001
 40
0.0
 40
0.0
 40
0.0
 40
0.0
 40
0.2177498363
 40
0.4512588308
 40
0.7106146016
 40
1.0
 40
1.0
 40
1.0
 40
1.0
 10
32.480337128
 20
212.0084435334
 30
0.0
 10
32.4945922549
 20
211.3433174285
 30
0.0
 10
32.7659654038
 20
209.9613517414
 30
0.0
 10
33.8388504001
 20
208.04138749
 30
0.0
 10
35.5085963309
 20
206.3031093958
 30
0.0
 10
36.899500595
 20
205.3480019183
 30
0.0
 10
37.6651951868
 20
204.9059379404
 30
0.0
  0
SPLINE
  5
297
100
AcDbEntity
  8
03_AXES
100
AcDbSpline
 62
7
  6
CONTINUOUS
 70
0
 71
3
 72
15
 73
11
 74
0
 42
0.0000001
 43
0.0000001
 44
0.0000000001
 40
0.0
 40
0.0
 40
0.0
 40
0.0
 40
0.1290552048
 40
0.2704892248
 40
0.4171698588
 40
0.5609886967
 40
0.6943624151
 40
0.8117990187
 40
0.9119402116
 40
1.0
 40
1.0
 40
1.0
 40
1.0
 10
50.0451099601
 20
228.7375118211
 30
0.0
 10
49.7843535337
 20
228.5816132607
 30
0.0
 10
49.1939592653
 20
228.3266766251
 30
0.0
 10
48.2293815188
 20
228.1184639564
 30
0.0
 10
47.2084251265
 20
228.0766621455
 30
0.0
 10
46.2138218013
 20
228.2052135631
 30
0.0
 10
45.3241368157
 20
228.4939715751
 30
0.0
 10
44.6080721473
 20
228.9237852925
 30
0.0
 10
44.1192244973
 20
229.4727154449
 30
0.0
 10
43.988277019
 20
229.9171424994
 30
0.0
 10
43.9839359288
 20
230.1243968514
 30
0.0
  0
SPLINE
  5
298
100
AcDbEntity
  8
03_AXES
100
AcDbSpline
 62
7
  6
CONTINUOUS
 70
0
 71
3
 72
11
 73
7
 74
0
 42
0.0000001
 43
0.0000001
 44
0.0000000001
 40
0.0
 40
0.0
 40
0.0
 40
0.0
 40
0.2423127581
 40
0.5104098794
 40
0.7727326978
 40
1.0
 40
1.0
 40
1.0
 40
1.0
 10
170.570689807
 20
208.1954333361
 30
0.0
 10
170.7368301051
 20
208.0995143603
 30
0.0
 10
171.1262808788
 20
207.9656267922
 30
0.0
 10
171.7416117722
 20
207.9193789035
 30
0.0
 10
172.3389182791
 20
208.0155968923
 30
0.0
 10
172.698793452
 20
208.1839344377
 30
0.0
 10
172.8402564244
 20
208.2951229361
 30
0.0
  0
SPLINE
  5
299
100
AcDbEntity
  8
03_AXES
100
AcDbSpline
 62
7
  6
CONTINUOUS
 70
0
 71
3
 72
14
 73
10
 74
0
 42
0.0000001
 43
0.0000001
 44
0.0000000001
 40
0.0
 40
0.0
 40
0.0
 40
0.0
 40
0.1062571275
 40
0.22434267
 40
0.3519911026
 40
0.4858198197
 40
0.7548388302
 40
0.8822699863
 40
1.0
 40
1.0
 40
1.0
 40
1.0
 10
240.5882168237
 20
181.5136165994
 30
0.0
 10
240.2552552518
 20
181.8024252963
 30
0.0
 10
239.4748730562
 20
182.324710043
 30
0.0
 10
238.1263161516
 20
182.9000349759
 30
0.0
 10
236.5942085903
 20
183.2883896171
 30
0.0
 10
234.4029261478
 20
183.5325639241
 30
0.0
 10
232.1792179028
 20
183.3573276985
 30
0.0
 10
230.1267139964
 20
182.7580030994
 30
0.0
 10
229.2008784921
 20
182.3222442611
 30
0.0
 10
228.7817235901
 20
182.0716439338
 30
0.0
  0
SPLINE
  5
29A
100
AcDbEntity
  8
03_AXES
100
AcDbSpline
 62
7
  6
CONTINUOUS
 70
0
 71
3
 72
11
 73
7
 74
0
 42
0.0000001
 43
0.0000001
 44
0.0000000001
 40
0.0
 40
0.0
 40
0.0
 40
0.0
 40
0.2879889137
 40
0.5472940529
 40
0.7814236597
 40
1.0
 40
1.0
 40
1.0
 40
1.0
 10
228.7817235901
 20
182.0716439338
 30
0.0
 10
228.4491168772
 20
181.8727882108
 30
0.0
 10
227.8449264392
 20
181.4436104504
 30
0.0
 10
227.1210491697
 20
180.6689212826
 30
0.0
 10
226.656529402
 20
179.8173113366
 30
0.0
 10
226.5384647856
 20
179.2068851034
 30
0.0
 10
226.5322126066
 20
178.9128345399
 30
0.0
  0
SPLINE
  5
29B
100
AcDbEntity
  8
03_AXES
100
AcDbSpline
 62
7
  6
CONTINUOUS
 70
0
 71
3
 72
15
 73
11
 74
0
 42
0.0000001
 43
0.0000001
 44
0.0000000001
 40
0.0
 40
0.0
 40
0.0
 40
0.0
 40
0.0896414918
 40
0.1929146523
 40
0.3127288902
 40
0.4467599824
 40
0.5895501949
 40
0.7340739566
 40
0.8729981148
 40
1.0
 40
1.0
 40
1.0
 40
1.0
 10
193.7771105826
 20
150.7556779122
 30
0.0
 10
193.6936716296
 20
151.1920435899
 30
0.0
 10
193.2722110507
 20
152.0894691325
 30
0.0
 10
192.1217475585
 20
153.1637134897
 30
0.0
 10
190.5410248017
 20
153.9948801906
 30
0.0
 10
188.639114894
 20
154.5355010658
 30
0.0
 10
186.5525409362
 20
154.7516214814
 30
0.0
 10
184.4341090596
 20
154.6270209106
 30
0.0
 10
182.4420326098
 20
154.171842409
 30
0.0
 10
181.2237172229
 20
153.6381166885
 30
0.0
 10
180.6834760722
 20
153.3151224719
 30
0.0
  0
SPLINE
  5
29C
100
AcDbEntity
  8
03_AXES
100
AcDbSpline
 62
7
  6
CONTINUOUS
 70
0
 71
3
 72
11
 73
7
 74
0
 42
0.0000001
 43
0.0000001
 44
0.0000000001
 40
0.0
 40
0.0
 40
0.0
 40
0.0
 40
0.2879881395
 40
0.5472945367
 40
0.7814237901
 40
1.0
 40
1.0
 40
1.0
 40
1.0
 10
180.6834760722
 20
153.3151224719
 30
0.0
 10
180.3499397114
 20
153.1157109399
 30
0.0
 10
179.7440591305
 20
152.685331491
 30
0.0
 10
179.0181526323
 20
151.908478464
 30
0.0
 10
178.5523360514
 20
151.0544813437
 30
0.0
 10
178.4339457423
 20
150.4423495979
 30
0.0
 10
178.4276677883
 20
150.147476712
 30
0.0
  0
SPLINE
  5
29D
100
AcDbEntity
  8
03_AXES
100
AcDbSpline
 62
7
  6
CONTINUOUS
 70
0
 71
3
 72
11
 73
7
 74
0
 42
0.0000001
 43
0.0000001
 44
0.0000000001
 40
0.0
 40
0.0
 40
0.0
 40
0.0
 40
0.2839669768
 40
0.543114868
 40
0.7797629645
 40
1.0
 40
1.0
 40
1.0
 40
1.0
 10
43.787685076
 20
224.4131458667
 30
0.0
 10
43.4442299062
 20
224.6114353155
 30
0.0
 10
42.8125768048
 20
225.0380365744
 30
0.0
 10
42.0251097584
 20
225.799892324
 30
0.0
 10
41.4646344823
 20
226.6383678927
 30
0.0
 10
41.2517503531
 20
227.249656969
 30
0.0
 10
41.1936682741
 20
227.5517042088
 30
0.0
  0
SPLINE
  5
29E
100
AcDbEntity
  8
03_AXES
100
AcDbSpline
 62
7
  6
CONTINUOUS
 70
0
 71
3
 72
14
 73
10
 74
0
 42
0.0000001
 43
0.0000001
 44
0.0000000001
 40
0.0
 40
0.0
 40
0.0
 40
0.0
 40
0.3055142393
 40
0.4496000416
 40
0.5833010046
 40
0.7044815503
 40
0.8126708333
 40
0.9096656805
 40
1.0
 40
1.0
 40
1.0
 40
1.0
 10
47.2142003195
 20
222.6270926037
 30
0.0
 10
48.3934401548
 20
222.6027465229
 30
0.0
 10
50.1439303335
 20
222.7612221727
 30
0.0
 10
52.3137576725
 20
223.3820092003
 30
0.0
 10
53.7259179033
 20
224.0126288649
 30
0.0
 10
54.8988355669
 20
224.7945024935
 30
0.0
 10
55.7878278429
 20
225.7037985709
 30
0.0
 10
56.3518951772
 20
226.7139837921
 30
0.0
 10
56.4839194222
 20
227.4422517597
 30
0.0
 10
56.483978703
 20
227.7910031864
 30
0.0
  0
SPLINE
  5
29F
100
AcDbEntity
  8
03_AXES
100
AcDbSpline
 62
7
  6
CONTINUOUS
 70
0
 71
3
 72
9
 73
5
 74
0
 42
0.0000001
 43
0.0000001
 44
0.0000000001
 40
0.0
 40
0.0
 40
0.0
 40
0.0
 40
0.2552402356
 40
1.0
 40
1.0
 40
1.0
 40
1.0
 10
55.7497991218
 20
228.207654612
 30
0.0
 10
55.7800724953
 20
228.1672061577
 30
0.0
 10
55.8960019023
 20
228.006757249
 30
0.0
 10
56.0009037196
 20
227.8382631847
 30
0.0
 10
56.071430853
 20
227.7088089536
 30
0.0
  0
SPLINE
  5
2A0
100
AcDbEntity
  8
03_AXES
100
AcDbSpline
 62
7
  6
CONTINUOUS
 70
0
 71
3
 72
9
 73
5
 74
0
 42
0.0000001
 43
0.0000001
 44
0.0000000001
 40
0.0
 40
0.0
 40
0.0
 40
0.0
 40
0.2565183418
 40
1.0
 40
1.0
 40
1.0
 40
1.0
 10
56.0846278181
 20
227.6843735327
 30
0.0
 10
56.1208345267
 20
227.6167423237
 30
0.0
 10
56.2539568632
 20
227.3489188168
 30
0.0
 10
56.3533724764
 20
227.0639941405
 30
0.0
 10
56.4039157487
 20
226.8474730905
 30
0.0
  0
SPLINE
  5
2A1
100
AcDbEntity
  8
03_AXES
100
AcDbSpline
 62
7
  6
CONTINUOUS
 70
0
 71
3
 72
11
 73
7
 74
0
 42
0.0000001
 43
0.0000001
 44
0.0000000001
 40
0.0
 40
0.0
 40
0.0
 40
0.0
 40
0.2423658762
 40
0.4994073944
 40
0.7568040212
 40
1.0
 40
1.0
 40
1.0
 40
1.0
 10
93.6498726102
 20
257.2228220376
 30
0.0
 10
93.9486101715
 20
257.3400967699
 30
0.0
 10
94.591956422
 20
257.5134745694
 30
0.0
 10
95.5947697317
 20
257.6005811349
 30
0.0
 10
96.5993021883
 20
257.520769136
 30
0.0
 10
97.2454789748
 20
257.3522961086
 30
0.0
 10
97.5463822074
 20
257.2375726215
 30
0.0
  0
SPLINE
  5
2A2
100
AcDbEntity
  8
03_AXES
100
AcDbSpline
 62
7
  6
CONTINUOUS
 70
0
 71
3
 72
11
 73
7
 74
0
 42
0.0000001
 43
0.0000001
 44
0.0000000001
 40
0.0
 40
0.0
 40
0.0
 40
0.0
 40
0.2853404167
 40
0.5450284945
 40
0.7812183626
 40
1.0
 40
1.0
 40
1.0
 40
1.0
 10
39.5083526779
 20
230.7915394915
 30
0.0
 10
38.9372072963
 20
230.46179052
 30
0.0
 10
37.8871443142
 20
229.7552083467
 30
0.0
 10
36.5763437265
 20
228.4978852554
 30
0.0
 10
35.6405047415
 20
227.120008357
 30
0.0
 10
35.2822138125
 20
226.1150459581
 30
0.0
 10
35.1838468574
 20
225.6190407975
 30
0.0
  0
SPLINE
  5
2A3
100
AcDbEntity
  8
03_AXES
100
AcDbSpline
 62
7
  6
CONTINUOUS
 70
0
 71
3
 72
11
 73
7
 74
0
 42
0.0000001
 43
0.0000001
 44
0.0000000001
 40
0.0
 40
0.0
 40
0.0
 40
0.0
 40
0.2102202853
 40
0.439987696
 40
0.7023842022
 40
1.0
 40
1.0
 40
1.0
 40
1.0
 10
178.4276677883
 20
150.147476712
 30
0.0
 10
178.4197487635
 20
149.7755234132
 30
0.0
 10
178.5760973031
 20
148.9859541455
 30
0.0
 10
179.2792413211
 20
147.9323021364
 30
0.0
 10
180.3721104033
 20
147.0372135213
 30
0.0
 10
181.2665663042
 20
146.5929514586
 30
0.0
 10
181.7564840041
 20
146.3995613129
 30
0.0
  0
SPLINE
  5
2A4
100
AcDbEntity
  8
03_AXES
100
AcDbSpline
 62
7
  6
CONTINUOUS
 70
0
 71
3
 72
11
 73
7
 74
0
 42
0.0000001
 43
0.0000001
 44
0.0000000001
 40
0.0
 40
0.0
 40
0.0
 40
0.0
 40
0.2893839579
 40
0.5487395343
 40
0.7822493975
 40
1.0
 40
1.0
 40
1.0
 40
1.0
 10
37.4578404578
 20
218.5034629543
 30
0.0
 10
36.6794673859
 20
218.9528466904
 30
0.0
 10
35.2655270957
 20
219.9237667082
 30
0.0
 10
33.5681187737
 20
221.6908264478
 30
0.0
 10
32.4774481919
 20
223.6425884931
 30
0.0
 10
32.201575848
 20
225.047449231
 30
0.0
 10
32.1870842397
 20
225.7235943268
 30
0.0
  0
SPLINE
  5
2A5
100
AcDbEntity
  8
03_AXES
100
AcDbSpline
 62
7
  6
CONTINUOUS
 70
0
 71
3
 72
9
 73
5
 74
0
 42
0.0000001
 43
0.0000001
 44
0.0000000001
 40
0.0
 40
0.0
 40
0.0
 40
0.0
 40
0.2445158828
 40
1.0
 40
1.0
 40
1.0
 40
1.0
 10
170.0409139229
 20
141.9583214817
 30
0.0
 10
170.169160664
 20
141.8842798662
 30
0.0
 10
170.6976307618
 20
141.5883898796
 30
0.0
 10
171.2411590379
 20
141.3195884926
 30
0.0
 10
171.6579290209
 20
141.1307817356
 30
0.0
  0
SPLINE
  5
2A6
100
AcDbEntity
  8
03_AXES
100
AcDbSpline
 62
7
  6
CONTINUOUS
 70
0
 71
3
 72
11
 73
7
 74
0
 42
0.0000001
 43
0.0000001
 44
0.0000000001
 40
0.0
 40
0.0
 40
0.0
 40
0.0
 40
0.2408162103
 40
0.5000003779
 40
0.7591843451
 40
1.0
 40
1.0
 40
1.0
 40
1.0
 10
171.6579290209
 20
141.1307817356
 30
0.0
 10
173.3237760144
 20
140.3761132583
 30
0.0
 10
176.9964486089
 20
139.2688485788
 30
0.0
 10
182.7688445662
 20
138.7309022453
 30
0.0
 10
188.5412342059
 20
139.2688709725
 30
0.0
 10
192.2138965968
 20
140.3761507191
 30
0.0
 10
193.8797356746
 20
141.1308264485
 30
0.0
  0
SPLINE
  5
2A7
100
AcDbEntity
  8
03_AXES
100
AcDbSpline
 62
7
  6
CONTINUOUS
 70
0
 71
3
 72
9
 73
5
 74
0
 42
0.0000001
 43
0.0000001
 44
0.0000000001
 40
0.0
 40
0.0
 40
0.0
 40
0.0
 40
0.2554399918
 40
1.0
 40
1.0
 40
1.0
 40
1.0
 10
193.8797356746
 20
141.1308264485
 30
0.0
 10
194.0206513502
 20
141.1946655321
 30
0.0
 10
194.5694000783
 20
141.4509270013
 30
0.0
 10
195.1062432027
 20
141.7329201663
 30
0.0
 10
195.4967580454
 20
141.95838267
 30
0.0
  0
SPLINE
  5
2A8
100
AcDbEntity
  8
03_AXES
100
AcDbSpline
 62
7
  6
CONTINUOUS
 70
0
 71
3
 72
13
 73
9
 74
0
 42
0.0000001
 43
0.0000001
 44
0.0000000001
 40
0.0
 40
0.0
 40
0.0
 40
0.0
 40
0.0936650879
 40
0.1923572227
 40
0.300408572
 40
0.4200731516
 40
0.6932522542
 40
1.0
 40
1.0
 40
1.0
 40
1.0
 10
226.5322126066
 20
178.9128345399
 30
0.0
 10
226.5262913863
 20
178.6343495219
 30
0.0
 10
226.6070591238
 20
178.0567663298
 30
0.0
 10
226.9966046272
 20
177.2401580456
 30
0.0
 10
227.6295401626
 20
176.4925064513
 30
0.0
 10
228.8146245154
 20
175.576043921
 30
0.0
 10
230.7631602387
 20
174.7585934888
 30
0.0
 10
232.481336379
 20
174.4881650125
 30
0.0
 10
233.3923154673
 20
174.4404380379
 30
0.0
  0
SPLINE
  5
2A9
100
AcDbEntity
  8
03_AXES
100
AcDbSpline
 62
7
  6
CONTINUOUS
 70
0
 71
3
 72
15
 73
11
 74
0
 42
0.0000001
 43
0.0000001
 44
0.0000000001
 40
0.0
 40
0.0
 40
0.0
 40
0.0
 40
0.1148261544
 40
0.2383795588
 40
0.3681534449
 40
0.5010913981
 40
0.6338783247
 40
0.7632102791
 40
0.8860654753
 40
1.0
 40
1.0
 40
1.0
 40
1.0
 10
87.9480081213
 20
263.7946700588
 30
0.0
 10
88.7014554161
 20
264.2456934582
 30
0.0
 10
90.3494522482
 20
265.0454373016
 30
0.0
 10
93.0378453508
 20
265.9065981023
 30
0.0
 10
95.9488127043
 20
266.4501257384
 30
0.0
 10
98.9730365381
 20
266.6553212805
 30
0.0
 10
101.9975853416
 20
266.5147443047
 30
0.0
 10
104.9095586941
 20
266.0333741684
 30
0.0
 10
107.5994944336
 20
265.229394999
 30
0.0
 10
109.2506054782
 20
264.4640022795
 30
0.0
 10
110.0051838504
 20
264.0283561089
 30
0.0
  0
SPLINE
  5
2AA
100
AcDbEntity
  8
03_AXES
100
AcDbSpline
 62
7
  6
CONTINUOUS
 70
0
 71
3
 72
11
 73
7
 74
0
 42
0.0000001
 43
0.0000001
 44
0.0000000001
 40
0.0
 40
0.0
 40
0.0
 40
0.0
 40
0.217762689
 40
0.4512315763
 40
0.7106872669
 40
1.0
 40
1.0
 40
1.0
 40
1.0
 10
55.2834477255
 20
227.7357785234
 30
0.0
 10
55.2772637557
 20
227.4446503153
 30
0.0
 10
55.1582536171
 20
226.8398778241
 30
0.0
 10
54.6888890838
 20
225.9993587883
 30
0.0
 10
53.957876385
 20
225.2387316502
 30
0.0
 10
53.3491862082
 20
224.8205718576
 30
0.0
 10
53.0141454843
 20
224.6271371601
 30
0.0
  0
SPLINE
  5
2AB
100
AcDbEntity
  8
03_AXES
100
AcDbSpline
 62
7
  6
CONTINUOUS
 70
0
 71
3
 72
9
 73
5
 74
0
 42
0.0000001
 43
0.0000001
 44
0.0000000001
 40
0.0
 40
0.0
 40
0.0
 40
0.0
 40
0.2413515078
 40
1.0
 40
1.0
 40
1.0
 40
1.0
 10
44.6549831832
 20
228.9399138706
 30
0.0
 10
44.6853666715
 20
228.9652820448
 30
0.0
 10
44.8137644658
 20
229.0673717604
 30
0.0
 10
44.9514116738
 20
229.1576368732
 30
0.0
 10
45.0591610764
 20
229.2198456484
 30
0.0
  0
SPLINE
  5
2AC
100
AcDbEntity
  8
03_AXES
100
AcDbSpline
 62
7
  6
CONTINUOUS
 70
0
 71
3
 72
11
 73
7
 74
0
 42
0.0000001
 43
0.0000001
 44
0.0000000001
 40
0.0
 40
0.0
 40
0.0
 40
0.0
 40
0.218620527
 40
0.4521007857
 40
0.7112948326
 40
1.0
 40
1.0
 40
1.0
 40
1.0
 10
43.9839359288
 20
230.1243968514
 30
0.0
 10
43.9810099264
 20
230.2640914237
 30
0.0
 10
44.0259905391
 20
230.5560378374
 30
0.0
 10
44.2375926953
 20
230.9655249744
 30
0.0
 10
44.5778064723
 20
231.337260463
 30
0.0
 10
44.8646603688
 20
231.5422022104
 30
0.0
 10
45.022979915
 20
231.6369743603
 30
0.0
  0
SPLINE
  5
2AD
100
AcDbEntity
  8
03_AXES
100
AcDbSpline
 62
7
  6
CONTINUOUS
 70
0
 71
3
 72
11
 73
7
 74
0
 42
0.0000001
 43
0.0000001
 44
0.0000000001
 40
0.0
 40
0.0
 40
0.0
 40
0.0
 40
0.217762258
 40
0.4512318773
 40
0.7106849542
 40
1.0
 40
1.0
 40
1.0
 40
1.0
 10
103.3665095829
 20
255.4963809782
 30
0.0
 10
103.3603223331
 20
255.2052534101
 30
0.0
 10
103.2413109019
 20
254.6004818951
 30
0.0
 10
102.7719529111
 20
253.7599627667
 30
0.0
 10
102.0409416121
 20
252.9993328047
 30
0.0
 10
101.4322498241
 20
252.5811758712
 30
0.0
 10
101.0972064148
 20
252.3877396233
 30
0.0
  0
SPLINE
  5
2AE
100
AcDbEntity
  8
03_AXES
100
AcDbSpline
 62
7
  6
CONTINUOUS
 70
0
 71
3
 72
15
 73
11
 74
0
 42
0.0000001
 43
0.0000001
 44
0.0000000001
 40
0.0
 40
0.0
 40
0.0
 40
0.0
 40
0.0878328271
 40
0.1872107685
 40
0.3040093069
 40
0.4371660161
 40
0.5812085267
 40
0.7284132651
 40
0.8704578281
 40
1.0
 40
1.0
 40
1.0
 40
1.0
 10
189.6792720902
 20
150.1833927751
 30
0.0
 10
189.6837844352
 20
150.3916686691
 30
0.0
 10
189.5704212678
 20
150.8429671187
 30
0.0
 10
189.0934136611
 20
151.4060482847
 30
0.0
 10
188.3812815833
 20
151.8478241271
 30
0.0
 10
187.4888410244
 20
152.1467724152
 30
0.0
 10
186.4861786869
 20
152.2827826978
 30
0.0
 10
185.4540110204
 20
152.2449694483
 30
0.0
 10
184.4777309767
 20
152.0370014828
 30
0.0
 10
183.8801139371
 20
151.7795975774
 30
0.0
 10
183.6164860445
 20
151.6217864749
 30
0.0
  0
SPLINE
  5
2AF
100
AcDbEntity
  8
03_AXES
100
AcDbSpline
 62
7
  6
CONTINUOUS
 70
0
 71
3
 72
11
 73
7
 74
0
 42
0.0000001
 43
0.0000001
 44
0.0000000001
 40
0.0
 40
0.0
 40
0.0
 40
0.0
 40
0.230685021
 40
0.4932426043
 40
0.7595059003
 40
1.0
 40
1.0
 40
1.0
 40
1.0
 10
188.8396339773
 20
149.0530993707
 30
0.0
 10
188.500127855
 20
149.2933022775
 30
0.0
 10
187.665783164
 20
149.6526263278
 30
0.0
 10
186.2993118467
 20
149.8489783077
 30
0.0
 10
184.906159881
 20
149.7286204044
 30
0.0
 10
184.0281512286
 20
149.4214422704
 30
0.0
 10
183.6526672052
 20
149.2046577624
 30
0.0
  0
SPLINE
  5
2B0
100
AcDbEntity
  8
03_AXES
100
AcDbSpline
 62
7
  6
CONTINUOUS
 70
0
 71
3
 72
9
 73
5
 74
0
 42
0.0000001
 43
0.0000001
 44
0.0000000001
 40
0.0
 40
0.0
 40
0.0
 40
0.0
 40
0.2633767261
 40
1.0
 40
1.0
 40
1.0
 40
1.0
 10
244.2342888179
 20
173.5646232598
 30
0.0
 10
244.5112587862
 20
173.7304211032
 30
0.0
 10
245.5443289975
 20
174.3895084522
 30
0.0
 10
246.5023179815
 20
175.1728733454
 30
0.0
 10
247.1277049274
 20
175.8240169062
 30
0.0
  0
SPLINE
  5
2B1
100
AcDbEntity
  8
03_AXES
100
AcDbSpline
 62
7
  6
CONTINUOUS
 70
0
 71
3
 72
10
 73
6
 74
0
 42
0.0000001
 43
0.0000001
 44
0.0000000001
 40
0.0
 40
0.0
 40
0.0
 40
0.0
 40
0.5254819017
 40
0.7664078807
 40
1.0
 40
1.0
 40
1.0
 40
1.0
 10
247.1277049274
 20
175.8240169062
 30
0.0
 10
247.8562699019
 20
176.5825878915
 30
0.0
 10
248.7787033402
 20
177.8629011636
 30
0.0
 10
249.4013404042
 20
179.7783086483
 30
0.0
 10
249.4906828816
 20
180.7336987991
 30
0.0
 10
249.480664263
 20
181.2011375988
 30
0.0
  0
SPLINE
  5
2B2
100
AcDbEntity
  8
03_AXES
100
AcDbSpline
 62
7
  6
CONTINUOUS
 70
0
 71
3
 72
15
 73
11
 74
0
 42
0.0000001
 43
0.0000001
 44
0.0000000001
 40
0.0
 40
0.0
 40
0.0
 40
0.0
 40
0.0878328271
 40
0.1872107685
 40
0.3040093069
 40
0.4371660161
 40
0.5812085267
 40
0.7284132651
 40
0.8704578281
 40
1.0
 40
1.0
 40
1.0
 40
1.0
 10
237.7838140526
 20
178.9487505918
 30
0.0
 10
237.7883536886
 20
179.1582861516
 30
0.0
 10
237.6743048936
 20
179.6123140826
 30
0.0
 10
237.1944123148
 20
180.1788007991
 30
0.0
 10
236.4779732172
 20
180.6232485296
 30
0.0
 10
235.5801351214
 20
180.9240048759
 30
0.0
 10
234.5714086188
 20
181.0608377572
 30
0.0
 10
233.5329983371
 20
181.0227958108
 30
0.0
 10
232.5508136902
 20
180.813570042
 30
0.0
 10
231.9495822249
 20
180.5546093414
 30
0.0
 10
231.6843598943
 20
180.3958437874
 30
0.0
  0
SPLINE
  5
2B3
100
AcDbEntity
  8
03_AXES
100
AcDbSpline
 62
7
  6
CONTINUOUS
 70
0
 71
3
 72
9
 73
5
 74
0
 42
0.0000001
 43
0.0000001
 44
0.0000000001
 40
0.0
 40
0.0
 40
0.0
 40
0.0
 40
0.4753802094
 40
1.0
 40
1.0
 40
1.0
 40
1.0
 10
56.483978703
 20
227.7910031864
 30
0.0
 10
56.4840506893
 20
228.2145016806
 30
0.0
 10
56.2832818329
 20
229.1124192766
 30
0.0
 10
55.7637503374
 20
229.8590247739
 30
0.0
 10
55.4483325051
 20
230.2039028581
 30
0.0
  0
SPLINE
  5
2B4
100
AcDbEntity
  8
03_AXES
100
AcDbSpline
 62
7
  6
CONTINUOUS
 70
0
 71
3
 72
11
 73
7
 74
0
 42
0.0000001
 43
0.0000001
 44
0.0000000001
 40
0.0
 40
0.0
 40
0.0
 40
0.0
 40
0.2186271669
 40
0.4521058588
 40
0.7111965168
 40
1.0
 40
1.0
 40
1.0
 40
1.0
 10
103.2919176327
 20
259.0883961232
 30
0.0
 10
103.2984696827
 20
258.7863948578
 30
0.0
 10
103.2008403274
 20
258.1552560391
 30
0.0
 10
102.7438130501
 20
257.2700609469
 30
0.0
 10
102.0085524594
 20
256.4661700247
 30
0.0
 10
101.3883743825
 20
256.0231835662
 30
0.0
 10
101.0459967494
 20
255.8182318397
 30
0.0
  0
SPLINE
  5
2B5
100
AcDbEntity
  8
03_AXES
100
AcDbSpline
 62
7
  6
CONTINUOUS
 70
0
 71
3
 72
11
 73
7
 74
0
 42
0.0000001
 43
0.0000001
 44
0.0000000001
 40
0.0
 40
0.0
 40
0.0
 40
0.0
 40
0.2431566224
 40
0.5004946988
 40
0.7575298208
 40
1.0
 40
1.0
 40
1.0
 40
1.0
 10
236.1388723515
 20
177.2227719472
 30
0.0
 10
235.838625818
 20
177.3371584794
 30
0.0
 10
235.1939698996
 20
177.505255887
 30
0.0
 10
234.1917511642
 20
177.5852804189
 30
0.0
 10
233.1909638975
 20
177.4991073213
 30
0.0
 10
232.5486694034
 20
177.3268825864
 30
0.0
 10
232.2502349492
 20
177.2103188727
 30
0.0
  0
SPLINE
  5
2B6
100
AcDbEntity
  8
03_AXES
100
AcDbSpline
 62
7
  6
CONTINUOUS
 70
0
 71
3
 72
11
 73
7
 74
0
 42
0.0000001
 43
0.0000001
 44
0.0000000001
 40
0.0
 40
0.0
 40
0.0
 40
0.0
 40
0.288371098
 40
0.5468316929
 40
0.7802839525
 40
1.0
 40
1.0
 40
1.0
 40
1.0
 10
42.2436016735
 20
223.490123087
 30
0.0
 10
41.7428913022
 20
223.7792018149
 30
0.0
 10
40.8352809114
 20
224.4079582703
 30
0.0
 10
39.7582698794
 20
225.5629728828
 30
0.0
 10
39.0887226371
 20
226.8461040613
 30
0.0
 10
38.9473120113
 20
227.7644484678
 30
0.0
 10
38.9566847475
 20
228.2048666321
 30
0.0
  0
SPLINE
  5
2B7
100
AcDbEntity
  8
03_AXES
100
AcDbSpline
 62
7
  6
CONTINUOUS
 70
0
 71
3
 72
11
 73
7
 74
0
 42
0.0000001
 43
0.0000001
 44
0.0000000001
 40
0.0
 40
0.0
 40
0.0
 40
0.0
 40
0.2887242294
 40
0.5479248823
 40
0.7813918677
 40
1.0
 40
1.0
 40
1.0
 40
1.0
 10
183.6164860445
 20
151.6217864749
 30
0.0
 10
183.4581520924
 20
151.5270057015
 30
0.0
 10
183.171271918
 20
151.3220622321
 30
0.0
 10
182.8310098993
 20
150.9503375949
 30
0.0
 10
182.6194296836
 20
150.5408382563
 30
0.0
 10
182.5744588091
 20
150.2488982824
 30
0.0
 10
182.5774002775
 20
150.1092084696
 30
0.0
  0
SPLINE
  5
2B8
100
AcDbEntity
  8
03_AXES
100
AcDbSpline
 62
7
  6
CONTINUOUS
 70
0
 71
3
 72
11
 73
7
 74
0
 42
0.0000001
 43
0.0000001
 44
0.0000000001
 40
0.0
 40
0.0
 40
0.0
 40
0.0
 40
0.2893834839
 40
0.5487388871
 40
0.7822489394
 40
1.0
 40
1.0
 40
1.0
 40
1.0
 10
244.2869228131
 20
170.1272292872
 30
0.0
 10
245.065281204
 20
170.5766120312
 30
0.0
 10
246.4791944551
 20
171.5475281822
 30
0.0
 10
248.1765681743
 20
173.3145745618
 30
0.0
 10
249.2672153498
 20
175.2663174507
 30
0.0
 10
249.5430815752
 20
176.6711617841
 30
0.0
 10
249.5575730438
 20
177.3472994714
 30
0.0
  0
SPLINE
  5
2B9
100
AcDbEntity
  8
03_AXES
100
AcDbSpline
 62
7
  6
CONTINUOUS
 70
0
 71
3
 72
11
 73
7
 74
0
 42
0.0000001
 43
0.0000001
 44
0.0000000001
 40
0.0
 40
0.0
 40
0.0
 40
0.0
 40
0.2887242294
 40
0.5479248823
 40
0.7813918677
 40
1.0
 40
1.0
 40
1.0
 40
1.0
 10
231.6843598943
 20
180.3958437874
 30
0.0
 10
231.5250683284
 20
180.3004897739
 30
0.0
 10
231.2364530845
 20
180.0943067936
 30
0.0
 10
230.8941331397
 20
179.7203339423
 30
0.0
 10
230.6812732735
 20
179.3083579259
 30
0.0
 10
230.6360304123
 20
179.0146522805
 30
0.0
 10
230.6389896709
 20
178.8741176149
 30
0.0
  0
SPLINE
  5
2BA
100
AcDbEntity
  8
03_AXES
100
AcDbSpline
 62
7
  6
CONTINUOUS
 70
0
 71
3
 72
9
 73
5
 74
0
 42
0.0000001
 43
0.0000001
 44
0.0000000001
 40
0.0
 40
0.0
 40
0.0
 40
0.0
 40
0.5187092154
 40
1.0
 40
1.0
 40
1.0
 40
1.0
 10
39.4694258092
 20
221.9160018449
 30
0.0
 10
39.155257136
 20
222.3299240007
 30
0.0
 10
38.6490249099
 20
223.215509312
 30
0.0
 10
38.4763971754
 20
224.2284231877
 30
0.0
 10
38.4866851362
 20
224.7104747849
 30
0.0
  0
SPLINE
  5
2BB
100
AcDbEntity
  8
03_AXES
100
AcDbSpline
 62
7
  6
CONTINUOUS
 70
0
 71
3
 72
11
 73
7
 74
0
 42
0.0000001
 43
0.0000001
 44
0.0000000001
 40
0.0
 40
0.0
 40
0.0
 40
0.0
 40
0.218620527
 40
0.4521007857
 40
0.7112948326
 40
1.0
 40
1.0
 40
1.0
 40
1.0
 10
92.0455255749
 20
258.8893059998
 30
0.0
 10
92.0425818758
 20
259.0298454536
 30
0.0
 10
92.0878345341
 20
259.3235575776
 30
0.0
 10
92.3007164735
 20
259.7355213188
 30
0.0
 10
92.6429878849
 20
260.109505087
 30
0.0
 10
92.9315766919
 20
260.3156863351
 30
0.0
 10
93.0908537647
 20
260.4110316729
 30
0.0
  0
SPLINE
  5
2BC
100
AcDbEntity
  8
03_AXES
100
AcDbSpline
 62
7
  6
CONTINUOUS
 70
0
 71
3
 72
15
 73
11
 74
0
 42
0.0000001
 43
0.0000001
 44
0.0000000001
 40
0.0
 40
0.0
 40
0.0
 40
0.0
 40
0.1139344969
 40
0.2367896706
 40
0.3661216104
 40
0.4989085319
 40
0.6318464899
 40
0.7616203905
 40
0.8851738174
 40
1.0
 40
1.0
 40
1.0
 40
1.0
 10
170.0741285091
 20
144.0997887148
 30
0.0
 10
170.9426419675
 20
143.5983635795
 30
0.0
 10
172.8430563903
 20
142.7174013278
 30
0.0
 10
175.9391501677
 20
141.7920269641
 30
0.0
 10
179.2908075935
 20
141.2379725722
 30
0.0
 10
182.7720389046
 20
141.0761684421
 30
0.0
 10
186.252896532
 20
141.3123457177
 30
0.0
 10
189.6033973005
 20
141.9379404809
 30
0.0
 10
192.6977170178
 20
142.9291289191
 30
0.0
 10
194.5945493899
 20
143.8496263684
 30
0.0
 10
195.4617614118
 20
144.3687508205
 30
0.0
  0
SPLINE
  5
2BD
100
AcDbEntity
  8
03_AXES
100
AcDbSpline
 62
7
  6
CONTINUOUS
 70
0
 71
3
 72
11
 73
7
 74
0
 42
0.0000001
 43
0.0000001
 44
0.0000000001
 40
0.0
 40
0.0
 40
0.0
 40
0.0
 40
0.2178257435
 40
0.4506501703
 40
0.7098209121
 40
1.0
 40
1.0
 40
1.0
 40
1.0
 10
38.881921787
 20
224.7076582123
 30
0.0
 10
38.8726091615
 20
224.2713068243
 30
0.0
 10
39.016598773
 20
223.3585982208
 30
0.0
 10
39.6921641769
 20
222.083812323
 30
0.0
 10
40.7764513297
 20
220.932187445
 30
0.0
 10
41.6885614187
 20
220.302720536
 30
0.0
 10
42.1920912905
 20
220.0120140056
 30
0.0
  0
SPLINE
  5
2BE
100
AcDbEntity
  8
03_AXES
100
AcDbSpline
 62
7
  6
CONTINUOUS
 70
0
 71
3
 72
9
 73
5
 74
0
 42
0.0000001
 43
0.0000001
 44
0.0000000001
 40
0.0
 40
0.0
 40
0.0
 40
0.0
 40
0.4916084787
 40
1.0
 40
1.0
 40
1.0
 40
1.0
 10
243.2579721498
 20
176.3341799294
 30
0.0
 10
243.2646820594
 20
176.0197814824
 30
0.0
 10
243.1997641832
 20
175.3762564585
 30
0.0
 10
242.9852938257
 20
174.7672157785
 30
0.0
 10
242.8464112821
 20
174.4731572526
 30
0.0
  0
SPLINE
  5
2BF
100
AcDbEntity
  8
03_AXES
100
AcDbSpline
 62
7
  6
CONTINUOUS
 70
0
 71
3
 72
15
 73
11
 74
0
 42
0.0000001
 43
0.0000001
 44
0.0000000001
 40
0.0
 40
0.0
 40
0.0
 40
0.0
 40
0.1270772871
 40
0.2661218779
 40
0.4107588471
 40
0.5536135221
 40
0.6876291015
 40
0.8073407034
 40
0.9104655498
 40
1.0
 40
1.0
 40
1.0
 40
1.0
 10
101.0459967494
 20
255.8182318397
 30
0.0
 10
100.5061342776
 20
255.4950631074
 30
0.0
 10
99.2882093157
 20
254.961033507
 30
0.0
 10
97.2962922658
 20
254.5068431449
 30
0.0
 10
95.178304825
 20
254.3837996678
 30
0.0
 10
93.0931527785
 20
254.6022373835
 30
0.0
 10
91.1941461286
 20
255.1455233926
 30
0.0
 10
89.6183224774
 20
255.9796008356
 30
0.0
 10
88.4742701557
 20
257.05653417
 30
0.0
 10
88.0605943542
 20
257.955603126
 30
0.0
 10
87.9811148626
 20
258.3917319072
 30
0.0
  0
SPLINE
  5
2C0
100
AcDbEntity
  8
03_AXES
100
AcDbSpline
 62
7
  6
CONTINUOUS
 70
0
 71
3
 72
14
 73
10
 74
0
 42
0.0000001
 43
0.0000001
 44
0.0000000001
 40
0.0
 40
0.0
 40
0.0
 40
0.0
 40
0.1174816494
 40
0.2446136628
 40
0.5131436398
 40
0.6469178833
 40
0.7747161272
 40
0.8931799272
 40
1.0
 40
1.0
 40
1.0
 40
1.0
 10
52.9781206037
 20
227.0441758546
 30
0.0
 10
52.5612542948
 20
226.7946342328
 30
0.0
 10
51.6409753463
 20
226.3598924034
 30
0.0
 10
49.6000303404
 20
225.7595154837
 30
0.0
 10
47.3875446754
 20
225.578382856
 30
0.0
 10
45.2035217001
 20
225.8115197865
 30
0.0
 10
43.6719448782
 20
226.1897772903
 30
0.0
 10
42.3187664851
 20
226.7538297008
 30
0.0
 10
41.5315540064
 20
227.2671299163
 30
0.0
 10
41.1936682741
 20
227.5517042088
 30
0.0
  0
SPLINE
  5
2C1
100
AcDbEntity
  8
03_AXES
100
AcDbSpline
 62
7
  6
CONTINUOUS
 70
0
 71
3
 72
9
 73
5
 74
0
 42
0.0000001
 43
0.0000001
 44
0.0000000001
 40
0.0
 40
0.0
 40
0.0
 40
0.0
 40
0.4667242485
 40
1.0
 40
1.0
 40
1.0
 40
1.0
 10
246.3882687143
 20
177.8940102104
 30
0.0
 10
246.1485323582
 20
178.6151969187
 30
0.0
 10
245.3105004742
 20
180.0573334948
 30
0.0
 10
244.0864789704
 20
181.1613889925
 30
0.0
 10
243.3841248371
 20
181.6720207975
 30
0.0
  0
SPLINE
  5
2C2
100
AcDbEntity
  8
03_AXES
100
AcDbSpline
 62
7
  6
CONTINUOUS
 70
0
 71
3
 72
9
 73
5
 74
0
 42
0.0000001
 43
0.0000001
 44
0.0000000001
 40
0.0
 40
0.0
 40
0.0
 40
0.0
 40
0.2450983549
 40
1.0
 40
1.0
 40
1.0
 40
1.0
 10
243.3841248371
 20
181.6720207975
 30
0.0
 10
243.3033986264
 20
181.7307110916
 30
0.0
 10
242.9710374949
 20
181.9660261744
 30
0.0
 10
242.6271714832
 20
182.1850021571
 30
0.0
 10
242.3625689685
 20
182.3414687503
 30
0.0
  0
SPLINE
  5
2C3
100
AcDbEntity
  8
03_AXES
100
AcDbSpline
 62
7
  6
CONTINUOUS
 70
0
 71
3
 72
9
 73
5
 74
0
 42
0.0000001
 43
0.0000001
 44
0.0000000001
 40
0.0
 40
0.0
 40
0.0
 40
0.0
 40
0.2432594583
 40
1.0
 40
1.0
 40
1.0
 40
1.0
 10
37.2182040511
 20
223.2389092714
 30
0.0
 10
37.2977585636
 20
223.3183778613
 30
0.0
 10
37.6307793517
 20
223.6390440518
 30
0.0
 10
37.986660038
 20
223.9357137057
 30
0.0
 10
38.2653239855
 20
224.1471563531
 30
0.0
  0
SPLINE
  5
2C4
100
AcDbEntity
  8
03_AXES
100
AcDbSpline
 62
7
  6
CONTINUOUS
 70
0
 71
3
 72
11
 73
7
 74
0
 42
0.0000001
 43
0.0000001
 44
0.0000000001
 40
0.0
 40
0.0
 40
0.0
 40
0.0
 40
0.2197149953
 40
0.4531885385
 40
0.7116076698
 40
1.0
 40
1.0
 40
1.0
 40
1.0
 10
247.1554918215
 20
180.9336626421
 30
0.0
 10
247.168564196
 20
181.5453676892
 30
0.0
 10
246.9721922658
 20
182.8209760135
 30
0.0
 10
246.0420373499
 20
184.6029726623
 30
0.0
 10
244.5463286528
 20
186.2073457477
 30
0.0
 10
243.285705163
 20
187.0805520433
 30
0.0
 10
242.590203285
 20
187.4820911557
 30
0.0
  0
SPLINE
  5
2C5
100
AcDbEntity
  8
03_AXES
100
AcDbSpline
 62
7
  6
CONTINUOUS
 70
0
 71
3
 72
9
 73
5
 74
0
 42
0.0000001
 43
0.0000001
 44
0.0000000001
 40
0.0
 40
0.0
 40
0.0
 40
0.0
 40
0.25418817
 40
1.0
 40
1.0
 40
1.0
 40
1.0
 10
242.2253037152
 20
174.0886408608
 30
0.0
 10
242.2536973226
 20
174.1353395133
 30
0.0
 10
242.3624144651
 20
174.3208488805
 30
0.0
 10
242.4589033725
 20
174.5135751905
 30
0.0
 10
242.5228722491
 20
174.6606209117
 30
0.0
  0
SPLINE
  5
2C6
100
AcDbEntity
  8
03_AXES
100
AcDbSpline
 62
7
  6
CONTINUOUS
 70
0
 71
3
 72
9
 73
5
 74
0
 42
0.0000001
 43
0.0000001
 44
0.0000000001
 40
0.0
 40
0.0
 40
0.0
 40
0.0
 40
0.5072267362
 40
1.0
 40
1.0
 40
1.0
 40
1.0
 10
242.5228722491
 20
174.6606209117
 30
0.0
 10
242.6385498534
 20
174.9265298604
 30
0.0
 10
242.8160494112
 20
175.4749532476
 30
0.0
 10
242.8687465675
 20
176.0497097019
 30
0.0
 10
242.8627354991
 20
176.3313633568
 30
0.0
  0
SPLINE
  5
2C7
100
AcDbEntity
  8
03_AXES
100
AcDbSpline
 62
7
  6
CONTINUOUS
 70
0
 71
3
 72
11
 73
7
 74
0
 42
0.0000001
 43
0.0000001
 44
0.0000000001
 40
0.0
 40
0.0
 40
0.0
 40
0.0
 40
0.2186144908
 40
0.4521429327
 40
0.7111293676
 40
1.0
 40
1.0
 40
1.0
 40
1.0
 10
34.6178978338
 20
227.9651203086
 30
0.0
 10
34.6047671286
 20
228.5777595557
 30
0.0
 10
34.8026325463
 20
229.8583121054
 30
0.0
 10
35.7306744886
 20
231.6534898739
 30
0.0
 10
37.2220166288
 20
233.2845580014
 30
0.0
 10
38.4804566826
 20
234.1827471485
 30
0.0
 10
39.1752011994
 20
234.5986302977
 30
0.0
  0
SPLINE
  5
2C8
100
AcDbEntity
  8
03_AXES
100
AcDbSpline
 62
7
  6
CONTINUOUS
 70
0
 71
3
 72
11
 73
7
 74
0
 42
0.0000001
 43
0.0000001
 44
0.0000000001
 40
0.0
 40
0.0
 40
0.0
 40
0.0
 40
0.2203962968
 40
0.4582078166
 40
0.7176672018
 40
1.0
 40
1.0
 40
1.0
 40
1.0
 10
34.935039594
 20
226.2102857232
 30
0.0
 10
35.0777884461
 20
226.6687269904
 30
0.0
 10
35.4985139794
 20
227.5859987875
 30
0.0
 10
36.4485353684
 20
228.8400044866
 30
0.0
 10
37.7091712319
 20
229.9898708121
 30
0.0
 10
38.6961732313
 20
230.6453632837
 30
0.0
 10
39.2288536922
 20
230.9529046554
 30
0.0
  0
SPLINE
  5
2C9
100
AcDbEntity
  8
03_AXES
100
AcDbSpline
 62
7
  6
CONTINUOUS
 70
0
 71
3
 72
11
 73
7
 74
0
 42
0.0000001
 43
0.0000001
 44
0.0000000001
 40
0.0
 40
0.0
 40
0.0
 40
0.0
 40
0.2200515269
 40
0.4564049367
 40
0.7155531874
 40
1.0
 40
1.0
 40
1.0
 40
1.0
 10
240.5882168237
 20
181.5136165994
 30
0.0
 10
240.5353172253
 20
181.8218571383
 30
0.0
 10
240.3292276929
 20
182.4472769655
 30
0.0
 10
239.7675601116
 20
183.3060474248
 30
0.0
 10
238.9695126905
 20
184.0855905802
 30
0.0
 10
238.3265391424
 20
184.5209519965
 30
0.0
 10
237.9764305827
 20
184.7230826949
 30
0.0
  0
SPLINE
  5
2CA
100
AcDbEntity
  8
03_AXES
100
AcDbSpline
 62
7
  6
CONTINUOUS
 70
0
 71
3
 72
11
 73
7
 74
0
 42
0.0000001
 43
0.0000001
 44
0.0000000001
 40
0.0
 40
0.0
 40
0.0
 40
0.0
 40
0.2186306258
 40
0.4521142678
 40
0.7111944142
 40
1.0
 40
1.0
 40
1.0
 40
1.0
 10
55.2302446768
 20
230.3234853758
 30
0.0
 10
55.2368309493
 20
230.0206376573
 30
0.0
 10
55.1389440101
 20
229.3877204015
 30
0.0
 10
54.6806352787
 20
228.5000657257
 30
0.0
 10
53.9433600657
 20
227.6939098885
 30
0.0
 10
53.3214553153
 20
227.2497005009
 30
0.0
 10
52.9781206037
 20
227.0441758546
 30
0.0
  0
SPLINE
  5
2CB
100
AcDbEntity
  8
03_AXES
100
AcDbSpline
 62
7
  6
CONTINUOUS
 70
0
 71
3
 72
9
 73
5
 74
0
 42
0.0000001
 43
0.0000001
 44
0.0000000001
 40
0.0
 40
0.0
 40
0.0
 40
0.0
 40
0.258881715
 40
1.0
 40
1.0
 40
1.0
 40
1.0
 10
183.6526672052
 20
149.2046577624
 30
0.0
 10
183.6154060147
 20
149.1831451325
 30
0.0
 10
183.4731519263
 20
149.0972091546
 30
0.0
 10
183.3377504453
 20
148.9996706026
 30
0.0
 10
183.2434130367
 20
148.9204761123
 30
0.0
  0
SPLINE
  5
2CC
100
AcDbEntity
  8
03_AXES
100
AcDbSpline
 62
7
  6
CONTINUOUS
 70
0
 71
3
 72
11
 73
7
 74
0
 42
0.0000001
 43
0.0000001
 44
0.0000000001
 40
0.0
 40
0.0
 40
0.0
 40
0.0
 40
0.2404940997
 40
0.5067573956
 40
0.769314979
 40
1.0
 40
1.0
 40
1.0
 40
1.0
 10
45.0591610764
 20
229.2198456484
 30
0.0
 10
45.4346450998
 20
229.4366301564
 30
0.0
 10
46.312653752
 20
229.7438082903
 30
0.0
 10
47.7058057176
 20
229.8641661936
 30
0.0
 10
49.0722770347
 20
229.6678142139
 30
0.0
 10
49.9066217258
 20
229.3084901637
 30
0.0
 10
50.246127848
 20
229.0682872569
 30
0.0
  0
SPLINE
  5
2CD
100
AcDbEntity
  8
03_AXES
100
AcDbSpline
 62
7
  6
CONTINUOUS
 70
0
 71
3
 72
15
 73
11
 74
0
 42
0.0000001
 43
0.0000001
 44
0.0000000001
 40
0.0
 40
0.0
 40
0.0
 40
0.0
 40
0.1295386486
 40
0.2715736812
 40
0.4187772494
 40
0.5628241008
 40
0.6959849697
 40
0.8127861667
 40
0.9121632948
 40
1.0
 40
1.0
 40
1.0
 40
1.0
 10
45.022979915
 20
231.6369743603
 30
0.0
 10
45.2866016826
 20
231.7947817963
 30
0.0
 10
45.8842107542
 20
232.0521358097
 30
0.0
 10
46.8604542889
 20
232.2601018933
 30
0.0
 10
47.8926084171
 20
232.2979650214
 30
0.0
 10
48.8952997972
 20
232.1620050056
 30
0.0
 10
49.7877817097
 20
231.8630834787
 30
0.0
 10
50.4999414826
 20
231.4213104581
 30
0.0
 10
50.976933507
 20
230.8581872836
 30
0.0
 10
51.0902568886
 20
230.4068661887
 30
0.0
 10
51.0857231552
 20
230.1985807327
 30
0.0
  0
SPLINE
  5
2CE
100
AcDbEntity
  8
03_AXES
100
AcDbSpline
 62
7
  6
CONTINUOUS
 70
0
 71
3
 72
13
 73
9
 74
0
 42
0.0000001
 43
0.0000001
 44
0.0000000001
 40
0.0
 40
0.0
 40
0.0
 40
0.0
 40
0.1140294023
 40
0.2370140298
 40
0.4989045775
 40
0.7613928833
 40
0.8850766963
 40
1.0
 40
1.0
 40
1.0
 40
1.0
 10
174.8278900654
 20
146.944280192
 30
0.0
 10
175.3711158709
 20
146.6306557221
 30
0.0
 10
176.5599628822
 20
146.0794814888
 30
0.0
 10
179.1961731773
 20
145.2921532128
 30
0.0
 10
182.7745451779
 20
144.9342710236
 30
0.0
 10
186.3477388324
 20
145.3694439832
 30
0.0
 10
188.9793902784
 20
146.21186709
 30
0.0
 10
190.1660332982
 20
146.7877202036
 30
0.0
 10
190.7084520518
 20
147.1124191598
 30
0.0
  0
SPLINE
  5
2CF
100
AcDbEntity
  8
03_AXES
100
AcDbSpline
 62
7
  6
CONTINUOUS
 70
0
 71
3
 72
9
 73
5
 74
0
 42
0.0000001
 43
0.0000001
 44
0.0000000001
 40
0.0
 40
0.0
 40
0.0
 40
0.0
 40
0.261033578
 40
1.0
 40
1.0
 40
1.0
 40
1.0
 10
103.3249531817
 20
258.5698662345
 30
0.0
 10
103.5072508955
 20
258.5117704474
 30
0.0
 10
104.2000686608
 20
258.272638614
 30
0.0
 10
104.8707288392
 20
257.9657190584
 30
0.0
 10
105.3398088303
 20
257.6949017259
 30
0.0
  0
SPLINE
  5
2D0
100
AcDbEntity
  8
03_AXES
100
AcDbSpline
 62
7
  6
CONTINUOUS
 70
0
 71
3
 72
9
 73
5
 74
0
 42
0.0000001
 43
0.0000001
 44
0.0000000001
 40
0.0
 40
0.0
 40
0.0
 40
0.0
 40
0.5250847019
 40
1.0
 40
1.0
 40
1.0
 40
1.0
 10
99.8866887671
 20
262.7458468198
 30
0.0
 10
100.890145472
 20
262.6969433699
 30
0.0
 10
102.797110999
 20
262.4183652785
 30
0.0
 10
104.6064315506
 20
261.7225455773
 30
0.0
 10
105.3933571177
 20
261.2682241675
 30
0.0
  0
SPLINE
  5
2D1
100
AcDbEntity
  8
03_AXES
100
AcDbSpline
 62
7
  6
CONTINUOUS
 70
0
 71
3
 72
11
 73
7
 74
0
 42
0.0000001
 43
0.0000001
 44
0.0000000001
 40
0.0
 40
0.0
 40
0.0
 40
0.0
 40
0.2372524156
 40
0.4999996414
 40
0.7627470637
 40
1.0
 40
1.0
 40
1.0
 40
1.0
 10
172.6920101506
 20
218.8099698579
 30
0.0
 10
172.5414190333
 20
218.7230265548
 30
0.0
 10
172.1912425414
 20
218.596135166
 30
0.0
 10
171.6313513386
 20
218.5354688003
 30
0.0
 10
171.0714594853
 20
218.596132731
 30
0.0
 10
170.7212818818
 20
218.7230223508
 30
0.0
 10
170.570689807
 20
218.8099647588
 30
0.0
  0
SPLINE
  5
2D2
100
AcDbEntity
  8
03_AXES
100
AcDbSpline
 62
7
  6
CONTINUOUS
 70
0
 71
3
 72
10
 73
6
 74
0
 42
0.0000001
 43
0.0000001
 44
0.0000000001
 40
0.0
 40
0.0
 40
0.0
 40
0.0
 40
0.5477534882
 40
0.7815969799
 40
1.0
 40
1.0
 40
1.0
 40
1.0
 10
170.570689807
 20
218.8099647588
 30
0.0
 10
170.4466221402
 20
218.8815936392
 30
0.0
 10
170.2791610239
 20
219.0134815461
 30
0.0
 10
170.1524093155
 20
219.2460736388
 30
0.0
 10
170.1314294796
 20
219.3652095665
 30
0.0
 10
170.1314294923
 20
219.4223309891
 30
0.0
  0
SPLINE
  5
2D3
100
AcDbEntity
  8
03_AXES
100
AcDbSpline
 62
7
  6
CONTINUOUS
 70
0
 71
3
 72
9
 73
5
 74
0
 42
0.0000001
 43
0.0000001
 44
0.0000000001
 40
0.0
 40
0.0
 40
0.0
 40
0.0
 40
0.2478694768
 40
1.0
 40
1.0
 40
1.0
 40
1.0
 10
178.3781646216
 20
147.7205907453
 30
0.0
 10
178.379488672
 20
147.6591367061
 30
0.0
 10
178.3936325474
 20
147.4114493367
 30
0.0
 10
178.4434853198
 20
147.1660127061
 30
0.0
 10
178.4986763501
 20
146.9878470124
 30
0.0
  0
SPLINE
  5
2D4
100
AcDbEntity
  8
03_AXES
100
AcDbSpline
 62
7
  6
CONTINUOUS
 70
0
 71
3
 72
11
 73
7
 74
0
 42
0.0000001
 43
0.0000001
 44
0.0000000001
 40
0.0
 40
0.0
 40
0.0
 40
0.0
 40
0.2883923445
 40
0.5468115095
 40
0.7802850419
 40
1.0
 40
1.0
 40
1.0
 40
1.0
 10
37.488830008
 20
220.6462147834
 30
0.0
 10
36.6883121908
 20
221.108383505
 30
0.0
 10
35.2373429984
 20
222.1134373766
 30
0.0
 10
33.515791613
 20
223.960058606
 30
0.0
 10
32.4451889577
 20
226.011123779
 30
0.0
 10
32.2191659143
 20
227.4793398174
 30
0.0
 10
32.2342119821
 20
228.1834079149
 30
0.0
  0
SPLINE
  5
2D5
100
AcDbEntity
  8
03_AXES
100
AcDbSpline
 62
7
  6
CONTINUOUS
 70
0
 71
3
 72
11
 73
7
 74
0
 42
0.0000001
 43
0.0000001
 44
0.0000000001
 40
0.0
 40
0.0
 40
0.0
 40
0.0
 40
0.2117082299
 40
0.442876771
 40
0.7046779187
 40
1.0
 40
1.0
 40
1.0
 40
1.0
 10
226.4612284539
 20
175.4811932326
 30
0.0
 10
226.468443597
 20
175.1466745014
 30
0.0
 10
226.6260015803
 20
174.4446759304
 30
0.0
 10
227.2419438644
 20
173.4959208237
 30
0.0
 10
228.1855111944
 20
172.664721604
 30
0.0
 10
228.9588075157
 20
172.2312850896
 30
0.0
 10
229.3828552699
 20
172.036261146
 30
0.0
  0
SPLINE
  5
2D6
100
AcDbEntity
  8
03_AXES
100
AcDbSpline
 62
7
  6
CONTINUOUS
 70
0
 71
3
 72
10
 73
6
 74
0
 42
0.0000001
 43
0.0000001
 44
0.0000000001
 40
0.0
 40
0.0
 40
0.0
 40
0.0
 40
0.5244660141
 40
0.7658460837
 40
1.0
 40
1.0
 40
1.0
 40
1.0
 10
178.2772469383
 20
150.2572893509
 30
0.0
 10
177.94368559
 20
149.9056745431
 30
0.0
 10
177.5204976038
 20
149.3147878452
 30
0.0
 10
177.2264519902
 20
148.4330994747
 30
0.0
 10
177.1776743029
 20
147.9921965394
 30
0.0
 10
177.1775927584
 20
147.7758141112
 30
0.0
  0
SPLINE
  5
2D7
100
AcDbEntity
  8
03_AXES
100
AcDbSpline
 62
7
  6
CONTINUOUS
 70
0
 71
3
 72
11
 73
7
 74
0
 42
0.0000001
 43
0.0000001
 44
0.0000000001
 40
0.0
 40
0.0
 40
0.0
 40
0.0
 40
0.2284111577
 40
0.4791010496
 40
0.7407071825
 40
1.0
 40
1.0
 40
1.0
 40
1.0
 10
53.0141454843
 20
224.6271371601
 30
0.0
 10
52.4747780261
 20
224.3157350717
 30
0.0
 10
51.2601885161
 20
223.8037800711
 30
0.0
 10
49.2776409847
 20
223.3741013053
 30
0.0
 10
47.1680047982
 20
223.2654850222
 30
0.0
 10
45.7482276538
 20
223.4165855416
 30
0.0
 10
45.0542852629
 20
223.5518984196
 30
0.0
  0
SPLINE
  5
2D8
100
AcDbEntity
  8
03_AXES
100
AcDbSpline
 62
7
  6
CONTINUOUS
 70
0
 71
3
 72
16
 73
12
 74
0
 42
0.0000001
 43
0.0000001
 44
0.0000000001
 40
0.0
 40
0.0
 40
0.0
 40
0.0
 40
0.1260989413
 40
0.2645196033
 40
0.4089356675
 40
0.5519835165
 40
0.6865400334
 40
0.8069451366
 40
0.8609712513
 40
0.9108482198
 40
1.0
 40
1.0
 40
1.0
 40
1.0
 10
101.0972064148
 20
252.3877396233
 30
0.0
 10
100.5557110935
 20
252.0751090199
 30
0.0
 10
99.3358880021
 20
251.5616388364
 30
0.0
 10
97.3450998934
 20
251.1322128678
 30
0.0
 10
95.2268723648
 20
251.0264054313
 30
0.0
 10
93.1372228492
 20
251.2531129452
 30
0.0
 10
91.2293367273
 20
251.7952290834
 30
0.0
 10
89.8540511213
 20
252.5045822682
 30
0.0
 10
88.9864912993
 20
253.2077322781
 30
0.0
 10
88.3433392532
 20
253.9188306692
 30
0.0
 10
88.0227334677
 20
254.558934062
 30
0.0
 10
87.9282258596
 20
254.9907743862
 30
0.0
  0
SPLINE
  5
2D9
100
AcDbEntity
  8
03_AXES
100
AcDbSpline
 62
7
  6
CONTINUOUS
 70
0
 71
3
 72
8
 73
4
 74
0
 42
0.0000001
 43
0.0000001
 44
0.0000000001
 40
0.0
 40
0.0
 40
0.0
 40
0.0
 40
1.0
 40
1.0
 40
1.0
 40
1.0
 10
87.9282258596
 20
254.9907743862
 30
0.0
 10
87.9456093898
 20
256.1245302234
 30
0.0
 10
87.9633912942
 20
257.2582800332
 30
0.0
 10
87.981600978
 20
258.3920229022
 30
0.0
  0
SPLINE
  5
2DA
100
AcDbEntity
  8
03_AXES
100
AcDbSpline
 62
7
  6
CONTINUOUS
 70
0
 71
3
 72
8
 73
4
 74
0
 42
0.0000001
 43
0.0000001
 44
0.0000000001
 40
0.0
 40
0.0
 40
0.0
 40
0.0
 40
1.0
 40
1.0
 40
1.0
 40
1.0
 10
87.928207062
 20
254.9907635334
 30
0.0
 10
87.9594076657
 20
253.0610744676
 30
0.0
 10
87.9918428341
 20
251.1314046548
 30
0.0
 10
88.0259504356
 20
249.2017647818
 30
0.0
  0
SPLINE
  5
2DB
100
AcDbEntity
  8
03_AXES
100
AcDbSpline
 62
7
  6
CONTINUOUS
 70
0
 71
3
 72
11
 73
7
 74
0
 42
0.0000001
 43
0.0000001
 44
0.0000000001
 40
0.0
 40
0.0
 40
0.0
 40
0.0
 40
0.288844526
 40
0.5478709105
 40
0.7813809953
 40
1.0
 40
1.0
 40
1.0
 40
1.0
 10
239.4819891856
 20
176.3088960352
 30
0.0
 10
239.9818565065
 20
176.6081231476
 30
0.0
 10
240.8873291179
 20
177.2545262874
 30
0.0
 10
241.9605804785
 20
178.4280657022
 30
0.0
 10
242.6282000726
 20
179.7199618946
 30
0.0
 10
242.7706051076
 20
180.6413433281
 30
0.0
 10
242.7611961266
 20
181.0821858566
 30
0.0
  0
SPLINE
  5
2DC
100
AcDbEntity
  8
03_AXES
100
AcDbSpline
 62
7
  6
CONTINUOUS
 70
0
 71
3
 72
10
 73
6
 74
0
 42
0.0000001
 43
0.0000001
 44
0.0000000001
 40
0.0
 40
0.0
 40
0.0
 40
0.0
 40
0.2790469206
 40
0.5383875039
 40
1.0
 40
1.0
 40
1.0
 40
1.0
 10
242.5157123607
 20
182.5766624739
 30
0.0
 10
242.9858704085
 20
182.3052227392
 30
0.0
 10
243.8656328065
 20
181.7294567906
 30
0.0
 10
245.3417957768
 20
180.4603337088
 30
0.0
 10
246.1992760936
 20
179.3009335632
 30
0.0
 10
246.5650463408
 20
178.4807230605
 30
0.0
  0
SPLINE
  5
2DD
100
AcDbEntity
  8
03_AXES
100
AcDbSpline
 62
7
  6
CONTINUOUS
 70
0
 71
3
 72
15
 73
11
 74
0
 42
0.0000001
 43
0.0000001
 44
0.0000000001
 40
0.0
 40
0.0
 40
0.0
 40
0.0
 40
0.1295386486
 40
0.2715736812
 40
0.4187772494
 40
0.5628241008
 40
0.6959849697
 40
0.8127861667
 40
0.9121632948
 40
1.0
 40
1.0
 40
1.0
 40
1.0
 10
93.0908537647
 20
260.4110316729
 30
0.0
 10
93.3560699334
 20
260.5697935382
 30
0.0
 10
93.9572933824
 20
260.828704045
 30
0.0
 10
94.9394412996
 20
261.0379279206
 30
0.0
 10
95.9778379611
 20
261.0760200472
 30
0.0
 10
96.986593682
 20
260.9392377366
 30
0.0
 10
97.8844733814
 20
260.6385083135
 30
0.0
 10
98.6009403416
 20
260.1940634218
 30
0.0
 10
99.0808172438
 20
259.6275344428
 30
0.0
 10
99.1948260124
 20
259.1734837294
 30
0.0
 10
99.1902648587
 20
258.9639385498
 30
0.0
  0
SPLINE
  5
2DE
100
AcDbEntity
  8
03_AXES
100
AcDbSpline
 62
7
420
24575
  6
CONTINUOUS
 70
0
 71
3
 72
28
 73
24
 74
0
 42
0.0000001
 43
0.0000001
 44
0.0000000001
 40
0.0
 40
0.0
 40
0.0
 40
0.0
 40
0.125
 40
0.15625
 40
0.1875
 40
0.25
 40
0.3125
 40
0.34375
 40
0.375
 40
0.4375
 40
0.46875
 40
0.5
 40
0.53125
 40
0.5625
 40
0.625
 40
0.65625
 40
0.6875
 40
0.75
 40
0.8125
 40
0.84375
 40
0.875
 40
0.9375
 40
1.0
 40
1.0
 40
1.0
 40
1.0
 10
229.3762388002
 20
172.0392623112
 30
0.0
 10
229.1959725049
 20
172.1336103253
 30
0.0
 10
228.9739908105
 20
172.2534293982
 30
0.0
 10
228.6975592528
 20
172.3915601195
 30
0.0
 10
228.5347190664
 20
172.4957052218
 30
0.0
 10
228.3396128017
 20
172.6305290148
 30
0.0
 10
228.1386791307
 20
172.7624610347
 30
0.0
 10
227.9851627943
 20
172.871232974
 30
0.0
 10
227.8561872366
 20
172.990649493
 30
0.0
 10
227.7191401723
 20
173.1066815749
 30
0.0
 10
227.5879020438
 20
173.2248835334
 30
0.0
 10
227.4801181465
 20
173.3104098096
 30
0.0
 10
227.4068509851
 20
173.4073519184
 30
0.0
 10
227.2966256927
 20
173.5325037462
 30
0.0
 10
227.1925813918
 20
173.6594498122
 30
0.0
 10
227.0793959242
 20
173.7840914016
 30
0.0
 10
226.9945338015
 20
173.9155585798
 30
0.0
 10
226.8990162831
 20
174.0824403496
 30
0.0
 10
226.7963736313
 20
174.2475519843
 30
0.0
 10
226.7229117219
 20
174.3818513786
 30
0.0
 10
226.6781146671
 20
174.5235167614
 30
0.0
 10
226.6122176586
 20
174.6980543162
 30
0.0
 10
226.5625174049
 20
174.8384597273
 30
0.0
 10
226.5372901089
 20
174.9085655119
 30
0.0
  0
SPLINE
  5
2DF
100
AcDbEntity
  8
03_AXES
100
AcDbSpline
 62
7
420
24575
  6
CONTINUOUS
 70
0
 71
3
 72
9
 73
5
 74
0
 42
0.0000001
 43
0.0000001
 44
0.0000000001
 40
0.0
 40
0.0
 40
0.0
 40
0.0
 40
0.5
 40
1.0
 40
1.0
 40
1.0
 40
1.0
 10
226.5372901184
 20
174.9085654732
 30
0.0
 10
226.516198389
 20
175.0014808397
 30
0.0
 10
226.4773703519
 20
175.1876689932
 30
0.0
 10
226.4656520029
 20
175.3750797213
 30
0.0
 10
226.461202487
 20
175.4811930554
 30
0.0
  0
LINE
  5
2E0
100
AcDbEntity
  8
03_AXES
100
AcDbLine
 62
7
420
24575
  6
CONTINUOUS
 10
226.461202487
 20
175.4811930554
 11
226.4608562665
 21
175.500905756
  0
LINE
  5
2E1
100
AcDbEntity
  8
03_AXES
100
AcDbLine
 62
7
420
24575
  6
CONTINUOUS
 10
226.4608562665
 20
175.5009057555
 11
226.4606327386
 21
175.5261099002
  0
SPLINE
  5
2E2
100
AcDbEntity
  8
03_AXES
100
AcDbSpline
 62
7
420
24575
  6
CONTINUOUS
 70
0
 71
3
 72
8
 73
4
 74
0
 42
0.0000001
 43
0.0000001
 44
0.0000000001
 40
0.0
 40
0.0
 40
0.0
 40
0.0
 40
1.0
 40
1.0
 40
1.0
 40
1.0
 10
226.4606327386
 20
175.5261099007
 30
0.0
 10
226.4606125979
 20
175.546934693
 30
0.0
 10
226.4607601241
 20
175.5667396931
 30
0.0
 10
226.4612024871
 20
175.5916421163
 30
0.0
  0
SPLINE
  5
2E3
100
AcDbEntity
  8
03_AXES
100
AcDbSpline
 62
7
420
24575
  6
CONTINUOUS
 70
0
 71
3
 72
8
 73
4
 74
0
 42
0.0000001
 43
0.0000001
 44
0.0000000001
 40
0.0
 40
0.0
 40
0.0
 40
0.0
 40
1.0
 40
1.0
 40
1.0
 40
1.0
 10
178.4967432811
 20
146.9941038728
 30
0.0
 10
178.478210181
 20
147.0556550583
 30
0.0
 10
178.4627922192
 20
147.1119858477
 30
0.0
 10
178.4454846597
 20
147.1846797643
 30
0.0
  0
SPLINE
  5
2E4
100
AcDbEntity
  8
03_AXES
100
AcDbSpline
 62
7
420
24575
  6
CONTINUOUS
 70
0
 71
3
 72
12
 73
8
 74
0
 42
0.0000001
 43
0.0000001
 44
0.0000000001
 40
0.0
 40
0.0
 40
0.0
 40
0.0
 40
0.25
 40
0.5
 40
0.625
 40
0.75
 40
1.0
 40
1.0
 40
1.0
 40
1.0
 10
178.4454846604
 20
147.1846797609
 30
0.0
 10
178.4371349865
 20
147.2234270576
 30
0.0
 10
178.4202680029
 20
147.3020418203
 30
0.0
 10
178.3994126626
 20
147.4339678395
 30
0.0
 10
178.3918530581
 20
147.5047135984
 30
0.0
 10
178.3834773858
 20
147.5953679571
 30
0.0
 10
178.3801876918
 20
147.6704446617
 30
0.0
 10
178.3781415562
 20
147.7205906036
 30
0.0
  0
LINE
  5
2E5
100
AcDbEntity
  8
03_AXES
100
AcDbLine
 62
7
420
24575
  6
CONTINUOUS
 10
178.3781415565
 20
147.7205905921
 11
178.377557017
 21
147.770353381
  0
LINE
  5
2E6
100
AcDbEntity
  8
03_AXES
100
AcDbLine
 62
7
420
24575
  6
CONTINUOUS
 10
178.377557017
 20
147.7703533796
 11
178.377662936
 21
147.7998371685
  0
LINE
  5
2E7
100
AcDbEntity
  8
03_AXES
100
AcDbLine
 62
7
420
24575
  6
CONTINUOUS
 10
178.377662936
 20
147.7998371676
 11
178.3781415565
 21
147.8310396508
  0
LINE
  5
2E8
100
AcDbEntity
  8
03_AXES
100
AcDbLine
 62
7
420
24575
  6
CONTINUOUS
 10
236.138039501
 20
177.2200795475
 11
236.1778918784
 21
177.2077016194
  0
SPLINE
  5
2E9
100
AcDbEntity
  8
03_AXES
100
AcDbSpline
 62
7
420
24575
  6
CONTINUOUS
 70
0
 71
3
 72
71
 73
67
 74
0
 42
0.0000001
 43
0.0000001
 44
0.0000000001
 40
0.0
 40
0.0
 40
0.0
 40
0.0
 40
0.03125
 40
0.0625
 40
0.078125
 40
0.09375
 40
0.109375
 40
0.1171875
 40
0.12109375
 40
0.125
 40
0.12890625
 40
0.1328125
 40
0.140625
 40
0.15625
 40
0.1875
 40
0.21875
 40
0.234375
 40
0.2421875
 40
0.25
 40
0.2578125
 40
0.265625
 40
0.28125
 40
0.3125
 40
0.34375
 40
0.359375
 40
0.3671875
 40
0.375
 40
0.3828125
 40
0.390625
 40
0.40625
 40
0.4375
 40
0.46875
 40
0.484375
 40
0.4921875
 40
0.5
 40
0.5078125
 40
0.515625
 40
0.53125
 40
0.5625
 40
0.59375
 40
0.609375
 40
0.6171875
 40
0.625
 40
0.6328125
 40
0.640625
 40
0.65625
 40
0.6875
 40
0.71875
 40
0.734375
 40
0.7421875
 40
0.75
 40
0.7578125
 40
0.765625
 40
0.78125
 40
0.8125
 40
0.84375
 40
0.859375
 40
0.8671875
 40
0.875
 40
0.8828125
 40
0.890625
 40
0.90625
 40
0.921875
 40
0.9375
 40
0.96875
 40
1.0
 40
1.0
 40
1.0
 40
1.0
 10
195.4967580454
 20
141.95838267
 30
0.0
 10
195.2705420705
 20
141.8511024351
 30
0.0
 10
194.8181032418
 20
141.6365478976
 30
0.0
 10
194.2525891002
 20
141.3683250639
 30
0.0
 10
193.8001055592
 20
141.1538090869
 30
0.0
 10
193.4609389499
 20
140.9927530311
 30
0.0
 10
193.1776767156
 20
140.8590772743
 30
0.0
 10
192.980616507
 20
140.7644492056
 30
0.0
 10
192.8661005109
 20
140.7120233747
 30
0.0
 10
192.7855944716
 20
140.6680633875
 30
0.0
 10
192.6845196823
 20
140.6418421807
 30
0.0
 10
192.556927021
 20
140.6006939769
 30
0.0
 10
192.3303063824
 20
140.5315581328
 30
0.0
 10
191.8794048276
 20
140.3912839164
 30
0.0
 10
191.2342534504
 20
140.1916366343
 30
0.0
 10
190.5886706551
 20
139.9928258694
 30
0.0
 10
190.1383730855
 20
139.8513805289
 30
0.0
 10
189.8784289505
 20
139.7742084736
 30
0.0
 10
189.690904453
 20
139.7060186729
 30
0.0
 10
189.4749611593
 20
139.6772449825
 30
0.0
 10
189.1969516868
 20
139.6251271674
 30
0.0
 10
188.7057942458
 20
139.5403699974
 30
0.0
 10
188.0067386466
 20
139.4155844836
 30
0.0
 10
187.3061312373
 20
139.2933305174
 30
0.0
 10
186.8171463304
 20
139.2050291806
 30
0.0
 10
186.5357228758
 20
139.1584807704
 30
0.0
 10
186.3302542999
 20
139.1126191334
 30
0.0
 10
186.1033914176
 20
139.1086040657
 30
0.0
 10
185.8083695669
 20
139.0886498151
 30
0.0
 10
185.2886104803
 20
139.0605755679
 30
0.0
 10
184.5478651533
 20
139.016545247
 30
0.0
 10
183.8066603498
 20
138.9751725279
 30
0.0
 10
183.2875445303
 20
138.9433776382
 30
0.0
 10
182.9915118313
 20
138.9292701115
 30
0.0
 10
182.7677504155
 20
138.9073162318
 30
0.0
 10
182.5506341099
 20
138.9288248
 30
0.0
 10
182.2588264195
 20
138.9423385746
 30
0.0
 10
181.749257547
 20
138.9730944345
 30
0.0
 10
181.0206171619
 20
139.0129825267
 30
0.0
 10
180.2926312636
 20
139.0555293459
 30
0.0
 10
179.7821461097
 20
139.082562988
 30
0.0
 10
179.49177829
 20
139.1019259619
 30
0.0
 10
179.2702441992
 20
139.1054881233
 30
0.0
 10
179.0630740213
 20
139.1509329718
 30
0.0
 10
178.781834085
 20
139.1969130601
 30
0.0
 10
178.2920273408
 20
139.2842257627
 30
0.0
 10
177.5908467697
 20
139.4050638362
 30
0.0
 10
176.8909915744
 20
139.5284363963
 30
0.0
 10
176.3993293041
 20
139.6122008178
 30
0.0
 10
176.1210051945
 20
139.6637567764
 30
0.0
 10
175.9048887304
 20
139.6920938408
 30
0.0
 10
175.7169529141
 20
139.7599052361
 30
0.0
 10
175.4565385639
 20
139.8365475644
 30
0.0
 10
175.0054304329
 20
139.977126567
 30
0.0
 10
174.3582908471
 20
140.174274004
 30
0.0
 10
173.7131546047
 20
140.3738451784
 30
0.0
 10
173.2592417929
 20
140.5110309486
 30
0.0
 10
173.0032347983
 20
140.5930054993
 30
0.0
 10
172.8017764136
 20
140.644456667
 30
0.0
 10
172.6364447065
 20
140.7342354749
 30
0.0
 10
172.4033829105
 20
140.8405522072
 30
0.0
 10
172.1163853708
 20
140.9780416085
 30
0.0
 10
171.7701350175
 20
141.1410626748
 30
0.0
 10
171.3091154717
 20
141.3591111418
 30
0.0
 10
170.7326173646
 20
141.6314344238
 30
0.0
 10
170.2714870465
 20
141.8493653699
 30
0.0
 10
170.0409133665
 20
141.9583218029
 30
0.0
  0
LINE
  5
2EA
100
AcDbEntity
  8
03_AXES
100
AcDbLine
 62
7
420
24575
  6
CONTINUOUS
 10
249.5564333694
 20
177.6492572057
 11
249.5575767102
 21
177.6038262935
  0
SPLINE
  5
2EB
100
AcDbEntity
  8
03_AXES
100
AcDbSpline
 62
7
420
24575
  6
CONTINUOUS
 70
0
 71
3
 72
12
 73
8
 74
0
 42
0.0000001
 43
0.0000001
 44
0.0000000001
 40
0.0
 40
0.0
 40
0.0
 40
0.0
 40
0.5
 40
0.625
 40
0.75
 40
0.875
 40
1.0
 40
1.0
 40
1.0
 40
1.0
 10
249.5575767102
 20
177.6038262918
 30
0.0
 10
249.5582425463
 20
177.5675528785
 30
0.0
 10
249.5589590828
 20
177.5225986537
 30
0.0
 10
249.5589325414
 20
177.467485482
 30
0.0
 10
249.5588570565
 20
177.441795266
 30
0.0
 10
249.5585497331
 20
177.4088738063
 30
0.0
 10
249.5578607056
 20
177.3660876861
 30
0.0
 10
249.5575767101
 20
177.3472994361
 30
0.0
  0
LINE
  5
2EC
100
AcDbEntity
  8
03_AXES
100
AcDbLine
 62
7
420
24575
  6
CONTINUOUS
 10
249.5575767102
 20
177.3472994452
 11
249.5564358739
 21
177.3019550511
  0
SPLINE
  5
2ED
100
AcDbEntity
  8
03_AXES
100
AcDbSpline
 62
7
420
24575
  6
CONTINUOUS
 70
0
 71
3
 72
16
 73
12
 74
0
 42
0.0000001
 43
0.0000001
 44
0.0000000001
 40
0.0
 40
0.0
 40
0.0
 40
0.0
 40
0.125
 40
0.25
 40
0.375
 40
0.5
 40
0.625
 40
0.75
 40
0.8125
 40
0.875
 40
1.0
 40
1.0
 40
1.0
 40
1.0
 10
249.5564358739
 20
177.3019550526
 30
0.0
 10
249.5561460509
 20
177.2928877339
 30
0.0
 10
249.5558090411
 20
177.2797773111
 30
0.0
 10
249.5538477085
 20
177.2299663881
 30
0.0
 10
249.5515303959
 20
177.1768804921
 30
0.0
 10
249.5511061429
 20
177.167053273
 30
0.0
 10
249.5469436168
 20
177.0962767959
 30
0.0
 10
249.5450780183
 20
177.0684809922
 30
0.0
 10
249.5443327557
 20
177.0562676947
 30
0.0
 10
249.5411332197
 20
177.0152745015
 30
0.0
 10
249.5381822673
 20
176.9781699114
 30
0.0
 10
249.536337477
 20
176.9548467837
 30
0.0
  0
SPLINE
  5
2EE
100
AcDbEntity
  8
03_AXES
100
AcDbSpline
 62
7
420
24575
  6
CONTINUOUS
 70
0
 71
3
 72
40
 73
36
 74
0
 42
0.0000001
 43
0.0000001
 44
0.0000000001
 40
0.0
 40
0.0
 40
0.0
 40
0.0
 40
0.0625
 40
0.125
 40
0.140625
 40
0.15625
 40
0.171875
 40
0.1875
 40
0.21875
 40
0.25
 40
0.28125
 40
0.3125
 40
0.328125
 40
0.34375
 40
0.375
 40
0.4375
 40
0.46875
 40
0.484375
 40
0.5
 40
0.515625
 40
0.53125
 40
0.5625
 40
0.625
 40
0.65625
 40
0.671875
 40
0.6875
 40
0.71875
 40
0.75
 40
0.78125
 40
0.8125
 40
0.828125
 40
0.84375
 40
0.875
 40
0.9375
 40
1.0
 40
1.0
 40
1.0
 40
1.0
 10
249.5363374782
 20
176.9548467974
 30
0.0
 10
249.5058478426
 20
176.7972201652
 30
0.0
 10
249.4447186009
 20
176.4819819652
 30
0.0
 10
249.3766230716
 20
176.1272712006
 30
0.0
 10
249.3302418702
 20
175.8908962173
 30
0.0
 10
249.3087946773
 20
175.7725336026
 30
0.0
 10
249.2805706895
 20
175.6548517083
 30
0.0
 10
249.2106657603
 20
175.5011858737
 30
0.0
 10
249.1344312723
 20
175.3079779813
 30
0.0
 10
249.037855272
 20
175.0766663496
 30
0.0
 10
248.943823053
 20
174.8450043198
 30
0.0
 10
248.8612291119
 20
174.6526724225
 30
0.0
 10
248.8040430888
 20
174.4972545977
 30
0.0
 10
248.7146875535
 20
174.3474701653
 30
0.0
 10
248.543505132
 20
174.0879289791
 30
0.0
 10
248.3533415759
 20
173.7904313363
 30
0.0
 10
248.1873907694
 20
173.5298470821
 30
0.0
 10
248.0890667514
 20
173.3818507662
 30
0.0
 10
248.025682322
 20
173.268204846
 30
0.0
 10
247.922611049
 20
173.1646991728
 30
0.0
 10
247.7989975465
 20
173.0231644859
 30
0.0
 10
247.5765218248
 20
172.7770227072
 30
0.0
 10
247.3230050488
 20
172.4957122815
 30
0.0
 10
247.105384334
 20
172.2480362672
 30
0.0
 10
246.9734479625
 20
172.1091316986
 30
0.0
 10
246.8126560989
 20
171.9801850941
 30
0.0
 10
246.6216355353
 20
171.8155626353
 30
0.0
 10
246.387841621
 20
171.6195869137
 30
0.0
 10
246.1563738334
 20
171.4228290017
 30
0.0
 10
245.9595379532
 20
171.2601620187
 30
0.0
 10
245.8103767228
 20
171.1273044629
 30
0.0
 10
245.6311424433
 20
171.0043044296
 30
0.0
 10
245.3035154637
 20
170.7936324016
 30
0.0
 10
244.8428279691
 20
170.4902628721
 30
0.0
 10
244.4720376541
 20
170.2483015691
 30
0.0
 10
244.2869225366
 20
170.1272291275
 30
0.0
  0
LINE
  5
2EF
100
AcDbEntity
  8
03_AXES
100
AcDbLine
 62
7
420
24575
  6
CONTINUOUS
 10
93.6502735768
 20
257.2215524155
 11
93.6310164514
 21
257.2154574936
  0
SPLINE
  5
2F0
100
AcDbEntity
  8
03_AXES
100
AcDbSpline
 62
7
420
24575
  6
CONTINUOUS
 70
0
 71
3
 72
8
 73
4
 74
0
 42
0.0000001
 43
0.0000001
 44
0.0000000001
 40
0.0
 40
0.0
 40
0.0
 40
0.0
 40
1.0
 40
1.0
 40
1.0
 40
1.0
 10
45.0591610764
 20
229.2198456484
 30
0.0
 10
44.9228864313
 20
229.1389395595
 30
0.0
 10
44.7950847655
 20
229.052150737
 30
0.0
 10
44.6678684089
 20
228.9507322469
 30
0.0
  0
SPLINE
  5
2F1
100
AcDbEntity
  8
03_AXES
100
AcDbSpline
 62
7
420
24575
  6
CONTINUOUS
 70
0
 71
3
 72
12
 73
8
 74
0
 42
0.0000001
 43
0.0000001
 44
0.0000000001
 40
0.0
 40
0.0
 40
0.0
 40
0.0
 40
0.25
 40
0.5
 40
0.625
 40
0.75
 40
1.0
 40
1.0
 40
1.0
 40
1.0
 10
50.3571098148
 20
228.9854601111
 30
0.0
 10
50.3201483382
 20
229.0135371844
 30
0.0
 10
50.244078523
 20
229.0704620873
 30
0.0
 10
50.1513520488
 20
229.1339552412
 30
0.0
 10
50.0549112538
 20
229.1926430297
 30
0.0
 10
49.9689374921
 20
229.2430490744
 30
0.0
 10
49.8973749322
 20
229.2809820161
 30
0.0
 10
49.8486257134
 20
229.3067557994
 30
0.0
  0
SPLINE
  5
2F2
100
AcDbEntity
  8
03_AXES
100
AcDbSpline
 62
7
420
24575
  6
CONTINUOUS
 70
0
 71
3
 72
31
 73
27
 74
0
 42
0.0000001
 43
0.0000001
 44
0.0000000001
 40
0.0
 40
0.0
 40
0.0
 40
0.0
 40
0.0625
 40
0.09375
 40
0.125
 40
0.140625
 40
0.15625
 40
0.1875
 40
0.25
 40
0.28125
 40
0.3125
 40
0.375
 40
0.4375
 40
0.5
 40
0.5625
 40
0.625
 40
0.6875
 40
0.71875
 40
0.75
 40
0.8125
 40
0.84375
 40
0.859375
 40
0.875
 40
0.90625
 40
0.9375
 40
1.0
 40
1.0
 40
1.0
 40
1.0
 10
49.8486257125
 20
229.3067557998
 30
0.0
 10
49.7600925546
 20
229.3429461472
 30
0.0
 10
49.6270362496
 20
229.3970070038
 30
0.0
 10
49.4506541155
 20
229.469986804
 30
0.0
 10
49.3382772139
 20
229.5137269748
 30
0.0
 10
49.2532504873
 20
229.5529877372
 30
0.0
 10
49.150435036
 20
229.57667176
 30
0.0
 10
48.9739056874
 20
229.6213852989
 30
0.0
 10
48.7689202422
 20
229.6677094414
 30
0.0
 10
48.5697645761
 20
229.7246315766
 30
0.0
 10
48.3516066179
 20
229.7455311342
 30
0.0
 10
48.0813989178
 20
229.7747412497
 30
0.0
 10
47.7560036314
 20
229.8151712234
 30
0.0
 10
47.4310492811
 20
229.7942668414
 30
0.0
 10
47.1045193174
 20
229.8040063729
 30
0.0
 10
46.7838508708
 20
229.7525046064
 30
0.0
 10
46.5171191213
 20
229.7140922538
 30
0.0
 10
46.3014940022
 20
229.685759606
 30
0.0
 10
46.1085306411
 20
229.6221139629
 30
0.0
 10
45.9087044562
 20
229.568874192
 30
0.0
 10
45.7369996784
 20
229.5181481312
 30
0.0
 10
45.6369258447
 20
229.4910581797
 30
0.0
 10
45.5544792222
 20
229.448032464
 30
0.0
 10
45.4453827769
 20
229.3997090849
 30
0.0
 10
45.2742183126
 20
229.3193271081
 30
0.0
 10
45.1450822485
 20
229.2597301539
 30
0.0
 10
45.0591610315
 20
229.2198456225
 30
0.0
  0
SPLINE
  5
2F3
100
AcDbEntity
  8
03_AXES
100
AcDbSpline
 62
7
420
24575
  6
CONTINUOUS
 70
0
 71
3
 72
8
 73
4
 74
0
 42
0.0000001
 43
0.0000001
 44
0.0000000001
 40
0.0
 40
0.0
 40
0.0
 40
0.0
 40
1.0
 40
1.0
 40
1.0
 40
1.0
 10
103.3032832598
 20
258.5767168944
 30
0.0
 10
103.3399760812
 20
258.5650518506
 30
0.0
 10
103.3762072601
 20
258.5533923235
 30
0.0
 10
103.4141085516
 20
258.541040758
 30
0.0
  0
SPLINE
  5
2F4
100
AcDbEntity
  8
03_AXES
100
AcDbSpline
 62
7
420
24575
  6
CONTINUOUS
 70
0
 71
3
 72
11
 73
7
 74
0
 42
0.0000001
 43
0.0000001
 44
0.0000000001
 40
0.0
 40
0.0
 40
0.0
 40
0.0
 40
0.125
 40
0.25
 40
0.5
 40
1.0
 40
1.0
 40
1.0
 40
1.0
 10
103.4141085522
 20
258.5410407578
 30
0.0
 10
103.4951023114
 20
258.5132241569
 30
0.0
 10
103.6545672137
 20
258.4599466952
 30
0.0
 10
103.9936779474
 20
258.3345458519
 30
0.0
 10
104.5860116875
 20
258.0992990926
 30
0.0
 10
105.0384437666
 20
257.8610162367
 30
0.0
 10
105.3398088274
 20
257.6949017276
 30
0.0
  0
SPLINE
  5
2F5
100
AcDbEntity
  8
03_AXES
100
AcDbSpline
 62
7
420
24575
  6
CONTINUOUS
 70
0
 71
3
 72
91
 73
87
 74
0
 42
0.0000001
 43
0.0000001
 44
0.0000000001
 40
0.0
 40
0.0
 40
0.0
 40
0.0
 40
0.03125
 40
0.046875
 40
0.0625
 40
0.0703125
 40
0.078125
 40
0.09375
 40
0.109375
 40
0.125
 40
0.1328125
 40
0.140625
 40
0.15625
 40
0.171875
 40
0.1875
 40
0.203125
 40
0.2109375
 40
0.21484375
 40
0.21875
 40
0.2265625
 40
0.234375
 40
0.25
 40
0.265625
 40
0.2734375
 40
0.28125
 40
0.28515625
 40
0.2890625
 40
0.296875
 40
0.3125
 40
0.328125
 40
0.34375
 40
0.359375
 40
0.3671875
 40
0.375
 40
0.390625
 40
0.40625
 40
0.421875
 40
0.4296875
 40
0.4375
 40
0.453125
 40
0.46875
 40
0.484375
 40
0.4921875
 40
0.5
 40
0.5078125
 40
0.515625
 40
0.53125
 40
0.546875
 40
0.5625
 40
0.5703125
 40
0.578125
 40
0.59375
 40
0.609375
 40
0.625
 40
0.6328125
 40
0.640625
 40
0.65625
 40
0.671875
 40
0.6875
 40
0.703125
 40
0.7109375
 40
0.71484375
 40
0.71875
 40
0.7265625
 40
0.734375
 40
0.75
 40
0.765625
 40
0.7734375
 40
0.78125
 40
0.78515625
 40
0.7890625
 40
0.796875
 40
0.8125
 40
0.828125
 40
0.84375
 40
0.859375
 40
0.8671875
 40
0.875
 40
0.890625
 40
0.90625
 40
0.921875
 40
0.9296875
 40
0.9375
 40
0.953125
 40
0.96875
 40
1.0
 40
1.0
 40
1.0
 40
1.0
 10
87.9282258596
 20
254.9907743862
 30
0.0
 10
87.9796132851
 20
254.8622729222
 30
0.0
 10
88.0575990404
 20
254.6696519328
 30
0.0
 10
88.1579615788
 20
254.4122991204
 30
0.0
 10
88.2282266417
 20
254.2525470013
 30
0.0
 10
88.2672509659
 20
254.1222523799
 30
0.0
 10
88.3689954134
 20
254.0010547521
 30
0.0
 10
88.4880110504
 20
253.8483562092
 30
0.0
 10
88.6347081028
 20
253.6657610111
 30
0.0
 10
88.7549145831
 20
253.5130568455
 30
0.0
 10
88.8540391753
 20
253.3918715876
 30
0.0
 10
88.9429589865
 20
253.2672072316
 30
0.0
 10
89.126945348
 20
253.1362474294
 30
0.0
 10
89.3306021538
 20
252.9732356836
 30
0.0
 10
89.5390913271
 20
252.8119209179
 30
0.0
 10
89.7109967698
 20
252.6767186653
 30
0.0
 10
89.8330710425
 20
252.5829585502
 30
0.0
 10
89.9003947798
 20
252.5281022487
 30
0.0
 10
89.9919051374
 20
252.4859964999
 30
0.0
 10
90.0980087236
 20
252.4289962666
 30
0.0
 10
90.2724211298
 20
252.3402502913
 30
0.0
 10
90.4887240685
 20
252.2283820266
 30
0.0
 10
90.7060689485
 20
252.1171889464
 30
0.0
 10
90.8788142486
 20
252.0273626759
 30
0.0
 10
90.9890856002
 20
251.9730631805
 30
0.0
 10
91.0720520388
 20
251.9254209191
 30
0.0
 10
91.1741766167
 20
251.8931157789
 30
0.0
 10
91.349532678
 20
251.8338825949
 30
0.0
 10
91.6019221458
 20
251.7508344882
 30
0.0
 10
91.9034460821
 20
251.6498068416
 30
0.0
 10
92.2073344244
 20
251.5517457054
 30
0.0
 10
92.4538128773
 20
251.4612813228
 30
0.0
 10
92.6785317828
 20
251.4246153083
 30
0.0
 10
92.8984351703
 20
251.3816967521
 30
0.0
 10
93.1750106107
 20
251.3303107558
 30
0.0
 10
93.5059826277
 20
251.2671678175
 30
0.0
 10
93.7825927384
 20
251.2164649128
 30
0.0
 10
94.002419851
 20
251.172043555
 30
0.0
 10
94.2361030041
 20
251.164630488
 30
0.0
 10
94.5234502667
 20
251.1425583971
 30
0.0
 10
94.8703149791
 20
251.1220270864
 30
0.0
 10
95.1588844865
 20
251.1021413424
 30
0.0
 10
95.389878701
 20
251.0899183122
 30
0.0
 10
95.5629991878
 20
251.0713601356
 30
0.0
 10
95.7365510666
 20
251.0885227922
 30
0.0
 10
95.9678180377
 20
251.0988850028
 30
0.0
 10
96.2568397765
 20
251.1164456692
 30
0.0
 10
96.6041666446
 20
251.134182531
 30
0.0
 10
96.8920190627
 20
251.1539391715
 30
0.0
 10
97.1258585391
 20
251.1594702391
 30
0.0
 10
97.3467371591
 20
251.2021175482
 30
0.0
 10
97.624544972
 20
251.2505886596
 30
0.0
 10
97.9570098557
 20
251.311060948
 30
0.0
 10
98.2347995144
 20
251.3602153726
 30
0.0
 10
98.4557180739
 20
251.4013593926
 30
0.0
 10
98.681300832
 20
251.4362128106
 30
0.0
 10
98.9299392488
 20
251.5246834974
 30
0.0
 10
99.2361705908
 20
251.6202911659
 30
0.0
 10
99.5400899133
 20
251.7188721489
 30
0.0
 10
99.7945083789
 20
251.7999095494
 30
0.0
 10
99.97119285
 20
251.8576730838
 30
0.0
 10
100.0742241899
 20
251.8892365222
 30
0.0
 10
100.15661485
 20
251.9351534126
 30
0.0
 10
100.2666737347
 20
251.9876328453
 30
0.0
 10
100.4387977288
 20
252.0743597882
 30
0.0
 10
100.6554471441
 20
252.1817363085
 30
0.0
 10
100.8710816455
 20
252.2897916489
 30
0.0
 10
101.0448295019
 20
252.3754324796
 30
0.0
 10
101.1508287308
 20
252.4306271927
 30
0.0
 10
101.2415416853
 20
252.4709777583
 30
0.0
 10
101.3106748993
 20
252.5252137882
 30
0.0
 10
101.4354601111
 20
252.6176898814
 30
0.0
 10
101.6114793019
 20
252.7511642457
 30
0.0
 10
101.8247897537
 20
252.910348508
 30
0.0
 10
102.0333431501
 20
253.0712876143
 30
0.0
 10
102.2212549793
 20
253.2003748688
 30
0.0
 10
102.31392612
 20
253.3241257707
 30
0.0
 10
102.4166946615
 20
253.4442929601
 30
0.0
 10
102.5414977351
 20
253.5957784183
 30
0.0
 10
102.693671818
 20
253.7768094737
 30
0.0
 10
102.8173257095
 20
253.9284717059
 30
0.0
 10
102.9226224517
 20
254.0482499924
 30
0.0
 10
102.9667285448
 20
254.1828481216
 30
0.0
 10
103.0428219004
 20
254.3460192744
 30
0.0
 10
103.1528038367
 20
254.6099430887
 30
0.0
 10
103.2379379612
 20
254.8072447062
 30
0.0
 10
103.2941056727
 20
254.9389216163
 30
0.0
  0
SPLINE
  5
2F6
100
AcDbEntity
  8
03_AXES
100
AcDbSpline
 62
7
420
24575
  6
CONTINUOUS
 70
0
 71
3
 72
9
 73
5
 74
0
 42
0.0000001
 43
0.0000001
 44
0.0000000001
 40
0.0
 40
0.0
 40
0.0
 40
0.0
 40
0.5
 40
1.0
 40
1.0
 40
1.0
 40
1.0
 10
103.2941057692
 20
254.9389220194
 30
0.0
 10
103.3114572636
 20
255.0163688409
 30
0.0
 10
103.3503070711
 20
255.2025554807
 30
0.0
 10
103.3620473334
 20
255.3899657517
 30
0.0
 10
103.3665157314
 20
255.4963809295
 30
0.0
  0
LINE
  5
2F7
100
AcDbEntity
  8
03_AXES
100
AcDbLine
 62
7
420
24575
  6
CONTINUOUS
 10
103.3665157316
 20
255.4963809414
 11
103.3669943522
 21
255.5275834245
  0
LINE
  5
2F8
100
AcDbEntity
  8
03_AXES
100
AcDbLine
 62
7
420
24575
  6
CONTINUOUS
 10
103.3669943522
 20
255.5275834248
 11
103.3671002711
 21
255.5570672137
  0
LINE
  5
2F9
100
AcDbEntity
  8
03_AXES
100
AcDbLine
 62
7
420
24575
  6
CONTINUOUS
 10
103.3671002711
 20
255.5570672128
 11
103.3665157316
 21
255.6068300016
  0
SPLINE
  5
2FA
100
AcDbEntity
  8
03_AXES
100
AcDbSpline
 62
7
420
24575
  6
CONTINUOUS
 70
0
 71
3
 72
60
 73
56
 74
0
 42
0.0000001
 43
0.0000001
 44
0.0000000001
 40
0.0
 40
0.0
 40
0.0
 40
0.0
 40
0.0625
 40
0.09375
 40
0.109375
 40
0.125
 40
0.140625
 40
0.15625
 40
0.1875
 40
0.21875
 40
0.234375
 40
0.25
 40
0.265625
 40
0.28125
 40
0.3125
 40
0.34375
 40
0.359375
 40
0.375
 40
0.390625
 40
0.40625
 40
0.4375
 40
0.46875
 40
0.484375
 40
0.4921875
 40
0.5
 40
0.5078125
 40
0.515625
 40
0.53125
 40
0.5625
 40
0.59375
 40
0.609375
 40
0.6171875
 40
0.625
 40
0.6328125
 40
0.640625
 40
0.65625
 40
0.6875
 40
0.71875
 40
0.734375
 40
0.7421875
 40
0.75
 40
0.7578125
 40
0.765625
 40
0.78125
 40
0.8125
 40
0.84375
 40
0.859375
 40
0.8671875
 40
0.875
 40
0.8828125
 40
0.890625
 40
0.90625
 40
0.9375
 40
0.96875
 40
1.0
 40
1.0
 40
1.0
 40
1.0
 10
45.379319657
 20
223.4930161273
 30
0.0
 10
45.6496291416
 20
223.4653786743
 30
0.0
 10
46.0552982934
 20
223.4247449948
 30
0.0
 10
46.5278617335
 20
223.3744602857
 30
0.0
 10
46.7989226092
 20
223.3498386656
 30
0.0
 10
46.9993493183
 20
223.3198574525
 30
0.0
 10
47.2107395061
 20
223.3338799818
 30
0.0
 10
47.4887804961
 20
223.3371358983
 30
0.0
 10
47.8375174902
 20
223.3470023577
 30
0.0
 10
48.1862771999
 20
223.3529835485
 30
0.0
 10
48.4642818448
 20
223.3624558949
 30
0.0
 10
48.6757810679
 20
223.3578291346
 30
0.0
 10
48.8757988949
 20
223.3977827577
 30
0.0
 10
49.1465502052
 20
223.4354186098
 30
0.0
 10
49.4832362752
 20
223.4882798071
 30
0.0
 10
49.8218585242
 20
223.5374200322
 30
0.0
 10
50.0895119482
 20
223.5810094399
 30
0.0
 10
50.2988234344
 20
223.6031023961
 30
0.0
 10
50.4754714354
 20
223.6654531367
 30
0.0
 10
50.7223931788
 20
223.7345442783
 30
0.0
 10
51.0272710052
 20
223.8255875889
 30
0.0
 10
51.3330073986
 20
223.9154673389
 30
0.0
 10
51.5478619302
 20
223.9775510725
 30
0.0
 10
51.6689399961
 20
224.0148030023
 30
0.0
 10
51.7645966717
 20
224.0376531582
 30
0.0
 10
51.8417088187
 20
224.0799707246
 30
0.0
 10
51.9509962666
 20
224.129602131
 30
0.0
 10
52.1392070045
 20
224.2196373176
 30
0.0
 10
52.4098891155
 20
224.3464699961
 30
0.0
 10
52.6791275626
 20
224.4744011692
 30
0.0
 10
52.86935943
 20
224.5628984633
 30
0.0
 10
52.9754708172
 20
224.6149465578
 30
0.0
 10
53.062327696
 20
224.6498492858
 30
0.0
 10
53.1213874897
 20
224.7005462793
 30
0.0
 10
53.2098330537
 20
224.7626318644
 30
0.0
 10
53.3600612786
 20
224.8738609734
 30
0.0
 10
53.5773140932
 20
225.0313151381
 30
0.0
 10
53.7926721955
 20
225.1896345332
 30
0.0
 10
53.9455530175
 20
225.2996523196
 30
0.0
 10
54.0298302145
 20
225.3636414116
 30
0.0
 10
54.1016793162
 20
225.4084981001
 30
0.0
 10
54.1405052383
 20
225.4653344177
 30
0.0
 10
54.2037956034
 20
225.536936828
 30
0.0
 10
54.3091489468
 20
225.664195483
 30
0.0
 10
54.4627712842
 20
225.8449137946
 30
0.0
 10
54.6142182258
 20
226.0262284371
 30
0.0
 10
54.7226171232
 20
226.1526522288
 30
0.0
 10
54.7811216177
 20
226.2255665671
 30
0.0
 10
54.8346314613
 20
226.2783776513
 30
0.0
 10
54.85133428
 20
226.3383513275
 30
0.0
 10
54.8864434317
 20
226.4158178321
 30
0.0
 10
54.9419024029
 20
226.5525483121
 30
0.0
 10
55.0242589443
 20
226.7472685848
 30
0.0
 10
55.1217387277
 20
226.9811952438
 30
0.0
 10
55.1869820245
 20
227.1370963819
 30
0.0
 10
55.219571576
 20
227.2150531969
 30
0.0
  0
SPLINE
  5
2FB
100
AcDbEntity
  8
03_AXES
100
AcDbSpline
 62
7
420
24575
  6
CONTINUOUS
 70
0
 71
3
 72
15
 73
11
 74
0
 42
0.0000001
 43
0.0000001
 44
0.0000000001
 40
0.0
 40
0.0
 40
0.0
 40
0.0
 40
0.125
 40
0.25
 40
0.375
 40
0.5
 40
0.625
 40
0.75
 40
0.875
 40
1.0
 40
1.0
 40
1.0
 40
1.0
 10
55.2195716159
 20
227.2150533741
 30
0.0
 10
55.2236315592
 20
227.2344351597
 30
0.0
 10
55.2316789829
 20
227.2710284999
 30
0.0
 10
55.2441848965
 20
227.338939897
 30
0.0
 10
55.2556215065
 20
227.4083877057
 30
0.0
 10
55.2631503601
 20
227.4591226458
 30
0.0
 10
55.2714267374
 20
227.5369697123
 30
0.0
 10
55.2766002222
 20
227.595710993
 30
0.0
 10
55.2805687667
 20
227.6572408494
 30
0.0
 10
55.2824271829
 20
227.7106300423
 30
0.0
 10
55.2834548011
 20
227.7357784777
 30
0.0
  0
SPLINE
  5
2FC
100
AcDbEntity
  8
03_AXES
100
AcDbSpline
 62
7
420
24575
  6
CONTINUOUS
 70
0
 71
3
 72
8
 73
4
 74
0
 42
0.0000001
 43
0.0000001
 44
0.0000000001
 40
0.0
 40
0.0
 40
0.0
 40
0.0
 40
1.0
 40
1.0
 40
1.0
 40
1.0
 10
55.2834548011
 20
227.7357784781
 30
0.0
 10
55.2838370403
 20
227.7566021043
 30
0.0
 10
55.2840338891
 20
227.7764069615
 30
0.0
 10
55.2840245496
 20
227.8013106936
 30
0.0
  0
LINE
  5
2FD
100
AcDbEntity
  8
03_AXES
100
AcDbLine
 62
7
420
24575
  6
CONTINUOUS
 10
55.2840245496
 20
227.8013106918
 11
55.2838010216
 21
227.8265148364
  0
LINE
  5
2FE
100
AcDbEntity
  8
03_AXES
100
AcDbLine
 62
7
420
24575
  6
CONTINUOUS
 10
55.2838010216
 20
227.8265148369
 11
55.2834548011
 21
227.8462275376
  0
LINE
  5
2FF
100
AcDbEntity
  8
03_AXES
100
AcDbLine
 62
7
420
24575
  6
CONTINUOUS
 10
32.1882214142
 20
226.0254655398
 11
32.1870805779
 21
225.9801211457
  0
SPLINE
  5
300
100
AcDbEntity
  8
03_AXES
100
AcDbSpline
 62
7
420
24575
  6
CONTINUOUS
 70
0
 71
3
 72
12
 73
8
 74
0
 42
0.0000001
 43
0.0000001
 44
0.0000000001
 40
0.0
 40
0.0
 40
0.0
 40
0.0
 40
0.5
 40
0.625
 40
0.75
 40
0.875
 40
1.0
 40
1.0
 40
1.0
 40
1.0
 10
32.1870805779
 20
225.9801211473
 30
0.0
 10
32.1864147418
 20
225.9438477339
 30
0.0
 10
32.1856982054
 20
225.8988935091
 30
0.0
 10
32.1857247468
 20
225.8437803374
 30
0.0
 10
32.1858002316
 20
225.8180901214
 30
0.0
 10
32.186107555
 20
225.7851686618
 30
0.0
 10
32.1867965825
 20
225.7423825416
 30
0.0
 10
32.1870805781
 20
225.7235942915
 30
0.0
  0
LINE
  5
301
100
AcDbEntity
  8
03_AXES
100
AcDbLine
 62
7
420
24575
  6
CONTINUOUS
 10
32.1870805779
 20
225.7235943006
 11
32.1882239187
 21
225.6781633885
  0
SPLINE
  5
302
100
AcDbEntity
  8
03_AXES
100
AcDbSpline
 62
7
420
24575
  6
CONTINUOUS
 70
0
 71
3
 72
16
 73
12
 74
0
 42
0.0000001
 43
0.0000001
 44
0.0000000001
 40
0.0
 40
0.0
 40
0.0
 40
0.0
 40
0.125
 40
0.25
 40
0.375
 40
0.5
 40
0.625
 40
0.75
 40
0.8125
 40
0.875
 40
1.0
 40
1.0
 40
1.0
 40
1.0
 10
32.1882239187
 20
225.6781633868
 30
0.0
 10
32.1885138726
 20
225.6690960694
 30
0.0
 10
32.1888510714
 20
225.6559856483
 30
0.0
 10
32.1908131224
 20
225.6061747347
 30
0.0
 10
32.1931312007
 20
225.5530888498
 30
0.0
 10
32.1935555954
 20
225.5432616328
 30
0.0
 10
32.1977191422
 20
225.4724851757
 30
0.0
 10
32.1995851417
 20
225.444689381
 30
0.0
 10
32.2003305804
 20
225.432476087
 30
0.0
 10
32.2035307076
 20
225.3914829092
 30
0.0
 10
32.2064821951
 20
225.3543783334
 30
0.0
 10
32.2083273219
 20
225.3310552145
 30
0.0
  0
SPLINE
  5
303
100
AcDbEntity
  8
03_AXES
100
AcDbSpline
 62
7
420
24575
  6
CONTINUOUS
 70
0
 71
3
 72
40
 73
36
 74
0
 42
0.0000001
 43
0.0000001
 44
0.0000000001
 40
0.0
 40
0.0
 40
0.0
 40
0.0
 40
0.0625
 40
0.125
 40
0.140625
 40
0.15625
 40
0.171875
 40
0.1875
 40
0.21875
 40
0.25
 40
0.28125
 40
0.3125
 40
0.328125
 40
0.34375
 40
0.375
 40
0.4375
 40
0.46875
 40
0.484375
 40
0.5
 40
0.515625
 40
0.53125
 40
0.5625
 40
0.625
 40
0.65625
 40
0.671875
 40
0.6875
 40
0.71875
 40
0.75
 40
0.78125
 40
0.8125
 40
0.828125
 40
0.84375
 40
0.875
 40
0.9375
 40
1.0
 40
1.0
 40
1.0
 40
1.0
 10
32.2083273207
 20
225.3310552282
 30
0.0
 10
32.2388192296
 20
225.1734287426
 30
0.0
 10
32.2999530179
 20
224.8581908365
 30
0.0
 10
32.3680536631
 20
224.5034803992
 30
0.0
 10
32.4144382737
 20
224.267105639
 30
0.0
 10
32.4358871736
 20
224.1487431273
 30
0.0
 10
32.4641128587
 20
224.0310613687
 30
0.0
 10
32.5340200042
 20
223.8773958702
 30
0.0
 10
32.6102572787
 20
223.6841883443
 30
0.0
 10
32.7068366151
 20
223.4528771769
 30
0.0
 10
32.8008721754
 20
223.2212155992
 30
0.0
 10
32.8834688903
 20
223.0288840989
 30
0.0
 10
32.940657155
 20
222.873466549
 30
0.0
 10
33.0300148505
 20
222.7236825462
 30
0.0
 10
33.2012010153
 20
222.4641421829
 30
0.0
 10
33.3913688621
 20
222.1666454543
 30
0.0
 10
33.557323427
 20
221.9060619979
 30
0.0
 10
33.6556495795
 20
221.7580661547
 30
0.0
 10
33.7190356479
 20
221.6444205392
 30
0.0
 10
33.8221084137
 20
221.5409153615
 30
0.0
 10
33.9457239575
 20
221.3993812689
 30
0.0
 10
34.1682032292
 20
221.1532405598
 30
0.0
 10
34.4217240625
 20
220.8719313528
 30
0.0
 10
34.6393483494
 20
220.6242563847
 30
0.0
 10
34.7712867243
 20
220.4853524504
 30
0.0
 10
34.9320804476
 20
220.3564066189
 30
0.0
 10
35.1231033855
 20
220.1917850785
 30
0.0
 10
35.3569001262
 20
219.9958104808
 30
0.0
 10
35.5883707517
 20
219.7990536816
 30
0.0
 10
35.7852089779
 20
219.6363876448
 30
0.0
 10
35.9343721245
 20
219.5035308061
 30
0.0
 10
36.1136081779
 20
219.3805316345
 30
0.0
 10
36.4412381959
 20
219.1698611815
 30
0.0
 10
36.9019300659
 20
218.8664938667
 30
0.0
 10
37.2727238706
 20
218.6245343462
 30
0.0
 10
37.4578407344
 20
218.5034627946
 30
0.0
  0
SPLINE
  5
304
100
AcDbEntity
  8
03_AXES
100
AcDbSpline
 62
7
420
24575
  6
CONTINUOUS
 70
0
 71
3
 72
9
 73
5
 74
0
 42
0.0000001
 43
0.0000001
 44
0.0000000001
 40
0.0
 40
0.0
 40
0.0
 40
0.0
 40
0.25
 40
1.0
 40
1.0
 40
1.0
 40
1.0
 10
183.2563253665
 20
148.931373778
 30
0.0
 10
183.2848278786
 20
148.9542910723
 30
0.0
 10
183.3967488797
 20
149.0444201839
 30
0.0
 10
183.5429378175
 20
149.1393753373
 30
0.0
 10
183.6526672127
 20
149.2046577667
 30
0.0
  0
SPLINE
  5
305
100
AcDbEntity
  8
03_AXES
100
AcDbSpline
 62
7
420
24575
  6
CONTINUOUS
 70
0
 71
3
 72
31
 73
27
 74
0
 42
0.0000001
 43
0.0000001
 44
0.0000000001
 40
0.0
 40
0.0
 40
0.0
 40
0.0
 40
0.0625
 40
0.09375
 40
0.125
 40
0.140625
 40
0.15625
 40
0.1875
 40
0.25
 40
0.28125
 40
0.3125
 40
0.375
 40
0.4375
 40
0.5
 40
0.5625
 40
0.625
 40
0.6875
 40
0.71875
 40
0.75
 40
0.8125
 40
0.84375
 40
0.859375
 40
0.875
 40
0.90625
 40
0.9375
 40
1.0
 40
1.0
 40
1.0
 40
1.0
 10
183.6526672052
 20
149.2046577624
 30
0.0
 10
183.7370891088
 20
149.2439865714
 30
0.0
 10
183.8640024632
 20
149.3027648659
 30
0.0
 10
184.0320982731
 20
149.3819956007
 30
0.0
 10
184.1394956461
 20
149.4297238196
 30
0.0
 10
184.2200840632
 20
149.4719898526
 30
0.0
 10
184.3201204118
 20
149.4993548465
 30
0.0
 10
184.4914377325
 20
149.5503804493
 30
0.0
 10
184.6909797941
 20
149.6040451924
 30
0.0
 10
184.8835508152
 20
149.6680756431
 30
0.0
 10
185.0990048811
 20
149.6968435721
 30
0.0
 10
185.3655019948
 20
149.7357927921
 30
0.0
 10
185.6858573557
 20
149.7879406279
 30
0.0
 10
186.0124441311
 20
149.7788591829
 30
0.0
 10
186.3372702003
 20
149.8004182925
 30
0.0
 10
186.6629076799
 20
149.7606444643
 30
0.0
 10
186.9332911564
 20
149.7319786636
 30
0.0
 10
187.1515724837
 20
149.7115197298
 30
0.0
 10
187.3510778589
 20
149.6549958675
 30
0.0
 10
187.5563006414
 20
149.6091061597
 30
0.0
 10
187.7331841005
 20
149.5647056193
 30
0.0
 10
187.8360070459
 20
149.541297455
 30
0.0
 10
187.9229709425
 20
149.5013458813
 30
0.0
 10
188.0371083
 20
149.4570733272
 30
0.0
 10
188.2166782548
 20
149.3830558158
 30
0.0
 10
188.3520419297
 20
149.3282585029
 30
0.0
 10
188.4421318888
 20
149.2915678896
 30
0.0
  0
SPLINE
  5
306
100
AcDbEntity
  8
03_AXES
100
AcDbSpline
 62
7
420
24575
  6
CONTINUOUS
 70
0
 71
3
 72
12
 73
8
 74
0
 42
0.0000001
 43
0.0000001
 44
0.0000000001
 40
0.0
 40
0.0
 40
0.0
 40
0.0
 40
0.25
 40
0.5
 40
0.625
 40
0.75
 40
1.0
 40
1.0
 40
1.0
 40
1.0
 10
188.4421318413
 20
149.2915679139
 30
0.0
 10
188.4872393923
 20
149.2677880566
 30
0.0
 10
188.5785902409
 20
149.2189250139
 30
0.0
 10
188.6797753867
 20
149.1598909332
 30
0.0
 10
188.77232981
 20
149.0991590943
 30
0.0
 10
188.851563374
 20
149.0451727045
 30
0.0
 10
188.9104719547
 20
149.0006783796
 30
0.0
 10
188.9504746168
 20
148.9703835546
 30
0.0
  0
LINE
  5
307
100
AcDbEntity
  8
03_AXES
100
AcDbLine
 62
7
420
24575
  6
CONTINUOUS
 10
97.5843858153
 20
257.2228894796
 11
97.5455822693
 21
257.2349988052
  0
LINE
  5
308
100
AcDbEntity
  8
03_AXES
100
AcDbLine
 62
7
420
24575
  6
CONTINUOUS
 10
232.2318341633
 20
177.203170845
 11
232.2506184337
 21
177.2091016481
  0
ELLIPSE
  5
309
100
AcDbEntity
  8
03_AXES
100
AcDbEllipse
 62
7
  6
CONTINUOUS
 10
171.6313455629
 20
219.4223309896
 30
0.0
 11
-1.0701969212
 21
69.5564157187
 31
0.0
 40
0.0151105672
 41
-1.7316929821
 42
-1.579832737
  0
ENDSEC
  0
SECTION
  2
OBJECTS
  0
DICTIONARY
  5
C
100
AcDbDictionary
280
0
281
1
  3
ACAD_GROUP
350
D
  3
ACAD_MLINESTYLE
350
17
  3
ACAD_LAYOUT
350
1A
  3
ACAD_PLOTSETTINGS
350
19
  3
ACAD_PLOTSTYLENAME
350
E
  0
DICTIONARY
  5
D
102
{ACAD_REACTORS
330
C
102
}
100
AcDbDictionary
280
0
281
1
  0
ACDBDICTIONARYWDFLT
  5
E
102
{ACAD_REACTORS
330
C
102
}
100
AcDbDictionary
281
1
  3
Normal
350
F
100
AcDbDictionaryWithDefault
340
F
  0
DICTIONARY
  5
17
102
{ACAD_REACTORS
330
C
102
}
100
AcDbDictionary
280
0
281
1
  3
Standard
350
18
  0
DICTIONARY
  5
19
102
{ACAD_REACTORS
330
C
102
}
100
AcDbDictionary
281
1
  0
DICTIONARY
  5
1A
102
{ACAD_REACTORS
330
C
102
}
100
AcDbDictionary
281
1
  3
Model
350
30A
  3
Layout1
350
30B
  0
ACDBPLACEHOLDER
  5
F
102
{ACAD_REACTORS
330
E
102
}
  0
MLINESTYLE
  5
18
102
{ACAD_REACTORS
330
17
102
}
100
AcDbMlineStyle
  2
STANDARD
 70
0
  3

 62
256
 51
90.0
 52
90.0
 71
2
 49
0.5
 62
256
  6
BYLAYER
 49
-0.5
 62
256
  6
BYLAYER
  0
LAYOUT
  5
30A
102
{ACAD_REACTORS
330
1A
102
}
100
AcDbPlotSettings
  1

  2
none_device
  4

  6

 40
0.0
 41
0.0
 42
0.0
 43
0.0
 44
210.0
 45
297.0
 46
0.0
 47
0.0
 48
0.0
 49
0.0
140
0.0
141
0.0
142
1.0
143
1.0
 70
1024
 72
1
 73
0
 74
0
  7

 75
0
147
1.0
148
0.0
149
0.0
100
AcDbLayout
  1
Model
 70
0
 71
0
 10
0.0
 20
0.0
 11
210.0
 21
297.0
 12
0.0
 22
0.0
 32
0.0
 14
0.0
 24
0.0
 34
0.0
 15
0.0
 25
0.0
 35
0.0
146
0.0
 13
0.0
 23
0.0
 33
0.0
 16
1.0
 26
0.0
 36
0.0
 17
0.0
 27
1.0
 37
0.0
 76
0
330
216
345
0
346
0
  0
LAYOUT
  5
30B
102
{ACAD_REACTORS
330
1A
102
}
100
AcDbPlotSettings
  1

  2
none_device
  4

  6

 40
0.0
 41
0.0
 42
0.0
 43
0.0
 44
210.0
 45
297.0
 46
0.0
 47
0.0
 48
0.0
 49
0.0
140
0.0
141
0.0
142
1.0
143
1.0
 70
0
 72
1
 73
0
 74
0
  7

 75
0
147
1.0
148
0.0
149
0.0
100
AcDbLayout
  1
Layout1
 70
0
 71
1
 10
0.0
 20
0.0
 11
210.0
 21
297.0
 12
0.0
 22
0.0
 32
0.0
 14
0.0
 24
0.0
 34
0.0
 15
0.0
 25
0.0
 35
0.0
146
0.0
 13
0.0
 23
0.0
 33
0.0
 16
1.0
 26
0.0
 36
0.0
 17
0.0
 27
1.0
 37
0.0
 76
0
330
217
345
0
346
0
  0
ENDSEC
  0
EOF
