999
DXF file: C:\Users\sesa63760\OneDrive - Schneider Electric\Documents\7-Dev\_Creo\CAD\MCADUE0000571_3D-CAD\drw0001_1.dxf
999
Pro/ENGINEER 2019471 by Parametric Technology Corporation
  0
SECTION
  2
HEADER
  9
$ACADVER
  1
AC1024
  9
$DWGCODEPAGE
  3
ANSI_1252
  9
$EXTMAX
 10
41.0902452358
 20
58.1133468334
 30
0.0
  9
$EXTMIN
 10
-0.0
 20
0.0
 30
0.0
  9
$LIMMIN
 10
-0.0
 20
0.0
  9
$LIMMAX
 10
41.0902452358
 20
58.1133468334
  9
$VIEWCTR
 10
20.5451226179
 20
29.0566734167
  9
$VIEWSIZE
 40
58.1133468334
  9
$CLAYER
  8
0
  9
$LTSCALE
 40
3.7881292751
  9
$CELTYPE
  6
BYLAYER
  9
$DIMSCALE
 40
1.0
  9
$DIMASZ
 40
0.4891695861
  9
$DIMEXO
 40
1.0
  9
$DIMDLI
 40
2.6172529537
  9
$DIMEXE
 40
1.0
  9
$DIMCEN
 40
0.6198756996
  9
$DIMLFAC
 40
1.0
  9
$DIMBLK
  1
_FILLED
  9
$DIMALT
 70
0
  9
$DIMALTF
 40
0.0393700787
  9
$DIMTXT
 40
0.6848374206
  9
$DIMTOL
 70
1
  9
$DIMLIM
 70
0
  9
$DIMTFAC
 40
1.0
  9
$DIMTP
 40
0.01
  9
$DIMTM
 40
0.01
  9
$DIMGAP
 40
0.625
  9
$DIMDSEP
 70
46
  9
$AUNITS
 70
0
  9
$PDMODE
 70
3
  9
$PDSIZE
 40
0.3125
  9
$HANDSEED
  5
26F
  9
$TILEMODE
 70
1
  9
$MEASUREMENT
 70
1
  9
$INSUNITS
 70
4
  0
ENDSEC
  0
SECTION
  2
CLASSES
  0
CLASS
  1
ACDBDICTIONARYWDFLT
  2
AcDbDictionaryWithDefault
  3
AutoCAD 2000
 90
0
 91
1
280
0
281
0
  0
CLASS
  1
ACDBPLACEHOLDER
  2
AcDbPlaceHolder
  3
AutoCAD 2000
 90
0
 91
1
280
0
281
0
  0
CLASS
  1
LAYOUT
  2
AcDbLayout
  3
AutoCAD 2000
 90
0
 91
0
280
0
281
0
  0
ENDSEC
  0
SECTION
  2
TABLES
  0
TABLE
  2
VPORT
  5
8
100
AcDbSymbolTable
 70
2
  0
VPORT
  5
1F4
100
AcDbSymbolTableRecord
100
AcDbViewportTableRecord
  2
*ACTIVE
 70
0
 10
0.0
 20
0.0
 11
1.0
 21
1.0
 12
20.5451226179
 22
29.0566734167
 13
0.0
 23
0.0
 14
1.0
 24
1.0
 15
0.0
 25
0.0
 16
0.0
 26
0.0
 36
1.0
 17
0.0
 27
0.0
 37
0.0
 40
58.1133468334
 41
0.7070707071
 42
50.0
 43
0.0
 44
0.0
 50
0.0
 51
0.0
 71
0
 72
100
 73
1
 74
1
 75
0
 76
0
 77
0
 78
0
  0
ENDTAB
  0
TABLE
  2
LTYPE
  5
5
100
AcDbSymbolTable
 70
6
  0
LTYPE
  5
14
100
AcDbSymbolTableRecord
100
AcDbLinetypeTableRecord
  2
BYBLOCK
 70
0
  3

 72
65
 73
0
 40
0.0
  0
LTYPE
  5
15
100
AcDbSymbolTableRecord
100
AcDbLinetypeTableRecord
  2
BYLAYER
 70
0
  3

 72
65
 73
0
 40
0.0
  0
LTYPE
  5
16
100
AcDbSymbolTableRecord
100
AcDbLinetypeTableRecord
  2
CONTINUOUS
 70
64
  3
Solid line
 72
65
 73
0
 40
0.0
  0
LTYPE
  5
1F5
100
AcDbSymbolTableRecord
100
AcDbLinetypeTableRecord
  2
CENTER
 70
64
  3
____ _ ____ _ ____ _ ____ _ ____ _ ____ _ ____
 72
65
 73
4
 40
0.6
 49
0.375
 74
0
 49
-0.075
 74
0
 49
0.075
 74
0
 49
-0.075
 74
0
  0
LTYPE
  5
1F6
100
AcDbSymbolTableRecord
100
AcDbLinetypeTableRecord
  2
HIDDEN
 70
64
  3
- - - - - - - - - - - - - - - - - - - -
 72
65
 73
2
 40
0.2
 49
0.1
 74
0
 49
-0.1
 74
0
  0
LTYPE
  5
1F7
100
AcDbSymbolTableRecord
100
AcDbLinetypeTableRecord
  2
PHANTOM
 70
64
  3
_____ _ _ _____ _ _ _____ _ _ _____
 72
65
 73
6
 40
0.8
 49
0.45
 74
0
 49
-0.05
 74
0
 49
0.1
 74
0
 49
-0.05
 74
0
 49
0.1
 74
0
 49
-0.05
 74
0
  0
LTYPE
  5
1F8
100
AcDbSymbolTableRecord
100
AcDbLinetypeTableRecord
  2
DOT
 70
64
  3
. . . . . . . . . . . . . . . . . . . .
 72
65
 73
2
 40
0.2
 49
0.1
 74
0
 49
-0.1
 74
0
  0
LTYPE
  5
1F9
100
AcDbSymbolTableRecord
100
AcDbLinetypeTableRecord
  2
DASHED
 70
64
  3
- - - - - - - - - - - - - - - - - - - -
 72
65
 73
2
 40
0.2
 49
0.1
 74
0
 49
-0.1
 74
0
  0
ENDTAB
  0
TABLE
  2
LAYER
  5
2
100
AcDbSymbolTable
 70
36
  0
LAYER
  5
10
100
AcDbSymbolTableRecord
100
AcDbLayerTableRecord
  2
0
 70
0
 62
7
  6
CONTINUOUS
370
-3
390
F
  0
LAYER
  5
1FA
100
AcDbSymbolTableRecord
100
AcDbLayerTableRecord
  2
DEFAULT_1
 70
0
 62
7
  6
CENTER
370
-3
390
F
  0
LAYER
  5
1FB
100
AcDbSymbolTableRecord
100
AcDbLayerTableRecord
  2
DEFAULT_2
 70
0
 62
8
  6
HIDDEN
370
-3
390
F
  0
LAYER
  5
1FC
100
AcDbSymbolTableRecord
100
AcDbLayerTableRecord
  2
DEFAULT_3
 70
0
 62
7
  6
PHANTOM
370
-3
390
F
  0
LAYER
  5
1FD
100
AcDbSymbolTableRecord
100
AcDbLayerTableRecord
  2
00_COMPONENTS
 70
0
 62
7
  6
CONTINUOUS
370
-3
390
F
  0
LAYER
  5
1FE
100
AcDbSymbolTableRecord
100
AcDbLayerTableRecord
  2
01_1_DEFAULT_DATUMS
 70
0
 62
7
  6
CONTINUOUS
370
-3
390
F
  0
LAYER
  5
1FF
100
AcDbSymbolTableRecord
100
AcDbLayerTableRecord
  2
01_PLANES
 70
0
 62
7
  6
CONTINUOUS
370
-3
390
F
  0
LAYER
  5
200
100
AcDbSymbolTableRecord
100
AcDbLayerTableRecord
  2
02_COORD_SYS
 70
0
 62
7
  6
CONTINUOUS
370
-3
390
F
  0
LAYER
  5
201
100
AcDbSymbolTableRecord
100
AcDbLayerTableRecord
  2
03_AXES
 70
0
 62
7
  6
CONTINUOUS
370
-3
390
F
  0
LAYER
  5
202
100
AcDbSymbolTableRecord
100
AcDbLayerTableRecord
  2
04_POINTS
 70
0
 62
7
  6
CONTINUOUS
370
-3
390
F
  0
LAYER
  5
203
100
AcDbSymbolTableRecord
100
AcDbLayerTableRecord
  2
05_CURVES
 70
0
 62
7
  6
CONTINUOUS
370
-3
390
F
  0
LAYER
  5
204
100
AcDbSymbolTableRecord
100
AcDbLayerTableRecord
  2
06_SURFS
 70
0
 62
7
  6
CONTINUOUS
370
-3
390
F
  0
LAYER
  5
205
100
AcDbSymbolTableRecord
100
AcDbLayerTableRecord
  2
07_COSMETICS
 70
0
 62
7
  6
CONTINUOUS
370
-3
390
F
  0
LAYER
  5
206
100
AcDbSymbolTableRecord
100
AcDbLayerTableRecord
  2
10_NOTES
 70
0
 62
7
  6
CONTINUOUS
370
-3
390
F
  0
LAYER
  5
207
100
AcDbSymbolTableRecord
100
AcDbLayerTableRecord
  2
11_NOTES_PUB
 70
0
 62
7
  6
CONTINUOUS
370
-3
390
F
  0
LAYER
  5
208
100
AcDbSymbolTableRecord
100
AcDbLayerTableRecord
  2
13_REF_GTOL
 70
0
 62
7
  6
CONTINUOUS
370
-3
390
F
  0
LAYER
  5
209
100
AcDbSymbolTableRecord
100
AcDbLayerTableRecord
  2
16_MISC
 70
0
 62
7
  6
CONTINUOUS
370
-3
390
F
  0
LAYER
  5
20A
100
AcDbSymbolTableRecord
100
AcDbLayerTableRecord
  2
17_NO_PRINT
 70
0
 62
7
  6
CONTINUOUS
370
-3
390
F
  0
LAYER
  5
20B
100
AcDbSymbolTableRecord
100
AcDbLayerTableRecord
  2
18_DATUM_CAMS_JOINTS
 70
0
 62
7
  6
CONTINUOUS
370
-3
390
F
  0
LAYER
  5
20C
100
AcDbSymbolTableRecord
100
AcDbLayerTableRecord
  2
19_DATUM_FUNCTIONAL
 70
0
 62
7
  6
CONTINUOUS
370
-3
390
F
  0
LAYER
  5
20D
100
AcDbSymbolTableRecord
100
AcDbLayerTableRecord
  2
20_DATUM_KINEMATIC_SCHEME
 70
0
 62
7
  6
CONTINUOUS
370
-3
390
F
  0
ENDTAB
  0
TABLE
  2
STYLE
  5
3
100
AcDbSymbolTable
 70
1
  0
STYLE
  5
11
100
AcDbSymbolTableRecord
100
AcDbTextStyleTableRecord
  2
STANDARD
 70
0
 40
0.0
 41
0.8
 50
0.0
 71
0
 42
0.2
  3
txt
  4

  0
STYLE
  5
20E
100
AcDbSymbolTableRecord
100
AcDbTextStyleTableRecord
  2
TEXTSTYLE_1
 70
0
 40
0.0
 41
0.8
 50
0.0
 71
0
 42
0.2
  3
gdt
  4

  0
ENDTAB
  0
TABLE
  2
VIEW
  5
6
100
AcDbSymbolTable
 70
0
  0
ENDTAB
  0
TABLE
  2
UCS
  5
7
100
AcDbSymbolTable
 70
0
  0
ENDTAB
  0
TABLE
  2
APPID
  5
9
100
AcDbSymbolTable
 70
1
  0
APPID
  5
20F
100
AcDbSymbolTableRecord
100
AcDbRegAppTableRecord
  2
ACAD
 70
0
  0
ENDTAB
  0
TABLE
  2
BLOCK_RECORD
  5
1
100
AcDbSymbolTable
 70
0
  0
BLOCK_RECORD
  5
210
100
AcDbSymbolTableRecord
100
AcDbBlockTableRecord
  2
*Model_Space
  0
BLOCK_RECORD
  5
211
100
AcDbSymbolTableRecord
100
AcDbBlockTableRecord
  2
*Paper_Space
  0
BLOCK_RECORD
  5
212
100
AcDbSymbolTableRecord
100
AcDbBlockTableRecord
  2
_FILLED
  0
ENDTAB
  0
TABLE
  2
DIMSTYLE
  5
A
100
AcDbSymbolTable
 70
1
100
AcDbDimStyleTable
 71
0
  0
DIMSTYLE
105
213
100
AcDbSymbolTableRecord
100
AcDbDimStyleTableRecord
  2
STANDARD
 70
0
  3

  4

 40
1.0
 41
0.4891695861
 42
1.0
 43
0.38
 44
1.0
 45
0.0
 46
0.0
 47
0.01
 48
0.01
140
0.6848374206
141
0.09
142
0.0
143
25.4
144
1.0
145
0.0
146
1.0
147
0.625
 71
1
 72
0
 73
0
 74
0
 75
0
 76
0
 77
1
 78
8
 79
2
170
0
171
1
172
0
173
0
174
0
175
0
176
0
177
0
178
0
270
2
179
2
271
2
272
2
273
2
274
2
275
0
280
0
281
0
282
0
283
1
284
8
285
0
286
0
287
3
288
0
340
11
278
46
341
212
342
212
343
212
344
212
  0
ENDTAB
  0
ENDSEC
  0
SECTION
  2
BLOCKS
  0
BLOCK
  5
20
100
AcDbEntity
  8
0
100
AcDbBlockBegin
  2
*Model_Space
 70
0
 10
0.0
 20
0.0
 30
0.0
  3
*Model_Space
  1

  0
ENDBLK
  5
21
100
AcDbEntity
  8
0
100
AcDbBlockEnd
  0
BLOCK
  5
1C
100
AcDbEntity
  8
0
100
AcDbBlockBegin
  2
*Paper_Space
 70
0
 10
0.0
 20
0.0
 30
0.0
  3
*Paper_Space
  1

  0
ENDBLK
  5
1D
100
AcDbEntity
  8
0
100
AcDbBlockEnd
  0
BLOCK
  5
214
100
AcDbEntity
  8
0
100
AcDbBlockBegin
  2
_FILLED
 70
64
 10
0.0
 20
0.0
  3
_FILLED
  1

  0
SOLID
  5
215
100
AcDbEntity
  8
0
  6
BYBLOCK
 62
0
100
AcDbTrace
 10
0.0
 20
0.0
 11
-1.0
 21
0.25
 12
-1.0
 22
-0.25
 13
-1.0
 23
-0.25
  0
ENDBLK
  5
216
100
AcDbEntity
  8
0
  6
BYBLOCK
 62
0
100
AcDbBlockEnd
  0
ENDSEC
  0
SECTION
  2
ENTITIES
  0
LINE
  5
217
100
AcDbEntity
  8
0
100
AcDbLine
 62
7
  6
CONTINUOUS
 10
20.9720001833
 20
53.5916058235
 11
19.5577925089
 21
52.7751175158
  0
LINE
  5
218
100
AcDbEntity
  8
0
100
AcDbLine
 62
7
  6
CONTINUOUS
 10
21.5577835551
 20
52.5770203997
 11
22.9719912296
 21
53.3935087074
  0
LINE
  5
219
100
AcDbEntity
  8
0
100
AcDbLine
 62
7
  6
CONTINUOUS
 10
23.3963371405
 20
4.4852583126
 11
19.8607885148
 21
6.5264620852
  0
LINE
  5
21A
100
AcDbEntity
  8
0
100
AcDbLine
 62
7
  6
CONTINUOUS
 10
19.8607885148
 20
8.1594669195
 11
23.3963371405
 21
6.1182631469
  0
LINE
  5
21B
100
AcDbEntity
  8
0
100
AcDbLine
 62
7
  6
CONTINUOUS
 10
25.0226895084
 20
5.4242601366
 11
23.6084700581
 21
6.2407416457
  0
LINE
  5
21C
100
AcDbEntity
  8
0
100
AcDbLine
 62
7
  6
CONTINUOUS
 10
10.1733852803
 20
18.0798280672
 11
10.6130742687
 21
17.8259792542
  0
LINE
  5
21D
100
AcDbEntity
  8
0
100
AcDbLine
 62
7
  6
CONTINUOUS
 10
23.6084700581
 20
10.3232537313
 11
25.0226895084
 21
9.5067722223
  0
LINE
  5
21E
100
AcDbEntity
  8
0
100
AcDbLine
 62
7
  6
CONTINUOUS
 10
20.3557235181
 20
13.6707412409
 11
24.881225759
 21
11.058000412
  0
LINE
  5
21F
100
AcDbEntity
  8
0
100
AcDbLine
 62
7
  6
CONTINUOUS
 10
31.4573079313
 20
48.4946196532
 11
30.0431002569
 21
47.6781313455
  0
LINE
  5
220
100
AcDbEntity
  8
0
100
AcDbLine
 62
7
  6
CONTINUOUS
 10
10.1733852803
 20
17.5050289753
 11
10.1733852803
 21
18.0798280672
  0
LINE
  5
221
100
AcDbEntity
  8
0
100
AcDbLine
 62
7
  6
CONTINUOUS
 10
10.2724386968
 20
8.6933442145
 11
10.2724386968
 21
15.6600351677
  0
LINE
  5
222
100
AcDbEntity
  8
0
100
AcDbLine
 62
7
  6
CONTINUOUS
 10
10.8027665747
 20
8.5692517263
 11
10.8027665747
 21
16.3964938867
  0
LINE
  5
223
100
AcDbEntity
  8
0
100
AcDbLine
 62
7
  6
CONTINUOUS
 10
10.979548422
 20
8.2851034599
 11
10.979548422
 21
15.2517944132
  0
LINE
  5
224
100
AcDbEntity
  8
0
100
AcDbLine
 62
7
  6
CONTINUOUS
 10
15.5473773871
 20
35.9027467154
 11
18.7293446546
 21
41.4141062849
  0
LINE
  5
225
100
AcDbEntity
  8
0
100
AcDbLine
 62
7
  6
CONTINUOUS
 10
32.8715391575
 20
42.7791586589
 11
34.2857468319
 21
43.5956469666
  0
LINE
  5
226
100
AcDbEntity
  8
0
100
AcDbLine
 62
7
  6
CONTINUOUS
 10
15.5473773871
 20
24.2035513344
 11
16.6080419748
 21
22.3664365769
  0
LINE
  5
227
100
AcDbEntity
  8
0
100
AcDbLine
 62
7
  6
CONTINUOUS
 10
15.5473773871
 20
35.9027467154
 11
15.5473773871
 21
24.2035513344
  0
LINE
  5
228
100
AcDbEntity
  8
0
100
AcDbLine
 62
7
  6
CONTINUOUS
 10
16.6080419748
 20
22.3664365769
 11
16.6080419748
 21
20.1618800507
  0
LINE
  5
229
100
AcDbEntity
  8
0
100
AcDbLine
 62
7
  6
CONTINUOUS
 10
18.7293446546
 20
50.9439737493
 11
18.7293446546
 21
41.4141062849
  0
LINE
  5
22A
100
AcDbEntity
  8
0
100
AcDbLine
 62
7
  6
CONTINUOUS
 10
19.8607885148
 20
6.5264620852
 11
19.8607885148
 21
8.1594669195
  0
LINE
  5
22B
100
AcDbEntity
  8
0
100
AcDbLine
 62
7
  6
CONTINUOUS
 10
23.3963371405
 20
6.1182631469
 11
23.3963371405
 21
4.4852583126
  0
LINE
  5
22C
100
AcDbEntity
  8
0
100
AcDbLine
 62
7
  6
CONTINUOUS
 10
23.6084700581
 20
6.2407416457
 11
23.6084700581
 21
10.3232537313
  0
LINE
  5
22D
100
AcDbEntity
  8
0
100
AcDbLine
 62
7
  6
CONTINUOUS
 10
8.4083188308
 20
16.2166215228
 11
10.7232631313
 21
17.9064114396
  0
LINE
  5
22E
100
AcDbEntity
  8
0
100
AcDbLine
 62
7
  6
CONTINUOUS
 10
15.5473773871
 20
35.9027467154
 11
29.68957189
 21
27.737931625
  0
LINE
  5
22F
100
AcDbEntity
  8
0
100
AcDbLine
 62
7
  6
CONTINUOUS
 10
25.0226895084
 20
9.5067722223
 11
25.0226895084
 21
5.4242601366
  0
LINE
  5
230
100
AcDbEntity
  8
0
100
AcDbLine
 62
7
  6
CONTINUOUS
 10
10.8027665747
 20
16.3964938867
 11
10.5951765354
 21
16.2555563785
  0
LINE
  5
231
100
AcDbEntity
  8
0
100
AcDbLine
 62
7
  6
CONTINUOUS
 10
11.3022862605
 20
15.847315624
 11
11.5098762999
 21
15.9882531322
  0
LINE
  5
232
100
AcDbEntity
  8
0
100
AcDbLine
 62
7
  6
CONTINUOUS
 10
10.1733852803
 20
18.0798280672
 11
15.1938225245
 21
20.9783615597
  0
LINE
  5
233
100
AcDbEntity
  8
0
100
AcDbLine
 62
7
  6
CONTINUOUS
 10
12.8381998214
 20
17.9853736606
 11
16.6080419748
 21
20.1618800507
  0
LINE
  5
234
100
AcDbEntity
  8
0
100
AcDbLine
 62
7
  6
CONTINUOUS
 10
28.6289073023
 20
15.4263437501
 11
28.6289073023
 21
13.2217872238
  0
LINE
  5
235
100
AcDbEntity
  8
0
100
AcDbLine
 62
7
  6
CONTINUOUS
 10
29.68957189
 20
27.737931625
 11
29.68957189
 21
16.038736244
  0
LINE
  5
236
100
AcDbEntity
  8
0
100
AcDbLine
 62
7
  6
CONTINUOUS
 10
30.0431149767
 20
16.2428320578
 11
30.0431149767
 21
14.0382755316
  0
LINE
  5
237
100
AcDbEntity
  8
0
100
AcDbLine
 62
7
  6
CONTINUOUS
 10
30.0431267526
 20
12.4053057148
 11
30.0431267526
 21
8.3227936291
  0
LINE
  5
238
100
AcDbEntity
  8
0
100
AcDbLine
 62
7
  6
CONTINUOUS
 10
32.8715391575
 20
33.2492911945
 11
29.68957189
 21
27.737931625
  0
LINE
  5
239
100
AcDbEntity
  8
0
100
AcDbLine
 62
7
  6
CONTINUOUS
 10
31.1037795645
 20
27.878007183
 11
34.2857468319
 21
33.3893667525
  0
LINE
  5
23A
100
AcDbEntity
  8
0
100
AcDbLine
 62
7
  6
CONTINUOUS
 10
18.7293446546
 20
41.4141062849
 11
32.8715391575
 21
33.2492911945
  0
LINE
  5
23B
100
AcDbEntity
  8
0
100
AcDbLine
 62
7
  6
CONTINUOUS
 10
30.6289073023
 20
9.1392751382
 11
30.6289073023
 21
13.2217872238
  0
LINE
  5
23C
100
AcDbEntity
  8
0
100
AcDbLine
 62
7
  6
CONTINUOUS
 10
31.1037795645
 20
16.8552245517
 11
31.1037795645
 21
27.878007183
  0
LINE
  5
23D
100
AcDbEntity
  8
0
100
AcDbLine
 62
7
  6
CONTINUOUS
 10
32.8715391575
 20
42.7791586589
 11
32.8715391575
 21
33.2492911945
  0
LINE
  5
23E
100
AcDbEntity
  8
0
100
AcDbLine
 62
7
  6
CONTINUOUS
 10
17.0033070193
 20
11.7352342263
 11
20.3557235181
 21
13.6707412409
  0
LINE
  5
23F
100
AcDbEntity
  8
0
100
AcDbLine
 62
7
  6
CONTINUOUS
 10
34.2857468319
 20
33.3893667525
 11
34.2857468319
 21
43.5956469666
  0
LINE
  5
240
100
AcDbEntity
  8
0
100
AcDbLine
 62
7
  6
CONTINUOUS
 10
16.5818300922
 20
9.8588910273
 11
20.3557235181
 21
12.0377364067
  0
LINE
  5
241
100
AcDbEntity
  8
0
100
AcDbLine
 62
7
  6
CONTINUOUS
 10
10.5951765354
 20
8.4704863351
 11
10.8027665747
 21
8.5692517263
  0
LINE
  5
242
100
AcDbEntity
  8
0
100
AcDbLine
 62
7
  6
CONTINUOUS
 10
28.6289073023
 20
15.4263437501
 11
31.1037795645
 21
16.8552245517
  0
LINE
  5
243
100
AcDbEntity
  8
0
100
AcDbLine
 62
7
  6
CONTINUOUS
 10
13.192592325
 20
7.9299672891
 11
15.8134714664
 21
9.0898593548
  0
LINE
  5
244
100
AcDbEntity
  8
0
100
AcDbLine
 62
7
  6
CONTINUOUS
 10
19.8607885148
 20
8.1594669195
 11
30.0431149767
 21
14.0382755316
  0
LINE
  5
245
100
AcDbEntity
  8
0
100
AcDbLine
 62
7
  6
CONTINUOUS
 10
25.0226895084
 20
9.5067722223
 11
30.0431267526
 21
12.4053057148
  0
LINE
  5
246
100
AcDbEntity
  8
0
100
AcDbLine
 62
7
  6
CONTINUOUS
 10
21.5577835551
 20
52.5770203997
 11
30.0431002569
 21
47.6781313455
  0
LINE
  5
247
100
AcDbEntity
  8
0
100
AcDbLine
 62
7
  6
CONTINUOUS
 10
23.3963371405
 20
6.1182631469
 11
23.6084718909
 21
6.2407384711
  0
LINE
  5
248
100
AcDbEntity
  8
0
100
AcDbLine
 62
7
  6
CONTINUOUS
 10
23.3963371405
 20
4.4852583126
 11
30.0431267526
 21
8.3227936291
  0
LINE
  5
249
100
AcDbEntity
  8
0
100
AcDbLine
 62
7
  6
CONTINUOUS
 10
22.9719912296
 20
53.3935087074
 11
31.4573079313
 21
48.4946196532
  0
ARC
  5
24A
100
AcDbEntity
  8
0
100
AcDbCircle
 62
7
  6
CONTINUOUS
 10
13.7290140392
 20
12.7617828943
 40
5.1127528611
100
AcDbArc
 50
235.0862391569
 51
237.4672412621
  0
SPLINE
  5
24B
100
AcDbEntity
  8
0
100
AcDbSpline
 62
7
  6
CONTINUOUS
 70
0
 71
3
 72
15
 73
11
 74
0
 42
0.0000001
 43
0.0000001
 44
0.0000000001
 40
0.0
 40
0.0
 40
0.0
 40
0.0
 40
0.1178276503
 40
0.236396894
 40
0.3565823938
 40
0.4789438164
 40
0.6039426534
 40
0.7321993094
 40
0.8641578923
 40
1.0
 40
1.0
 40
1.0
 40
1.0
 10
13.192592325
 20
7.9299672891
 30
0.0
 10
13.1149993627
 20
7.8956278723
 30
0.0
 10
12.9546255748
 20
7.8368681627
 30
0.0
 10
12.7036378497
 20
7.7796861007
 30
0.0
 10
12.4443417683
 20
7.7530330795
 30
0.0
 10
12.1791443932
 20
7.7559886556
 30
0.0
 10
11.9100468252
 20
7.7877641922
 30
0.0
 10
11.6386601188
 20
7.8471886954
 30
0.0
 10
11.3663231652
 20
7.9330567161
 30
0.0
 10
11.1875772598
 20
8.0060843577
 30
0.0
 10
11.0984679038
 20
8.0464480755
 30
0.0
  0
SPLINE
  5
24C
100
AcDbEntity
  8
0
100
AcDbSpline
 62
7
  6
CONTINUOUS
 70
0
 71
3
 72
18
 73
14
 74
0
 42
0.0000001
 43
0.0000001
 44
0.0000000001
 40
0.0
 40
0.0
 40
0.0
 40
0.0
 40
0.149745936
 40
0.291146874
 40
0.4241859499
 40
0.4877669782
 40
0.549506732
 40
0.6679536587
 40
0.7811054519
 40
0.836354046
 40
0.8910539999
 40
0.9455012395
 40
1.0
 40
1.0
 40
1.0
 40
1.0
 10
17.032384353
 20
11.5071883151
 30
0.0
 10
17.032384353
 20
11.364205294
 30
0.0
 10
17.0199963896
 20
11.0859724038
 30
0.0
 10
16.9608102968
 20
10.6845568255
 30
0.0
 10
16.8771352539
 20
10.3718981754
 30
0.0
 10
16.7900084466
 20
10.1409148429
 30
0.0
 10
16.6929594822
 20
9.9291849296
 30
0.0
 10
16.5487752525
 20
9.6877089323
 30
0.0
 10
16.3710441142
 20
9.4774183342
 30
0.0
 10
16.212931216
 20
9.3342920476
 30
0.0
 10
16.0873785128
 20
9.239701983
 30
0.0
 10
15.9543267897
 20
9.1573726272
 30
0.0
 10
15.8610531503
 20
9.1109260999
 30
0.0
 10
15.8134668192
 20
9.0898681362
 30
0.0
  0
SPLINE
  5
24D
100
AcDbEntity
  8
0
100
AcDbSpline
 62
7
  6
CONTINUOUS
 70
0
 71
3
 72
16
 73
12
 74
0
 42
0.0000001
 43
0.0000001
 44
0.0000000001
 40
0.0
 40
0.0
 40
0.0
 40
0.0
 40
0.113253296
 40
0.2349274175
 40
0.3627734533
 40
0.4945083149
 40
0.6269668806
 40
0.6926056469
 40
0.7573428545
 40
0.8825740096
 40
1.0
 40
1.0
 40
1.0
 40
1.0
 10
10.979548422
 20
15.2517944132
 30
0.0
 10
10.979548422
 20
15.2782321462
 30
0.0
 10
10.984468325
 20
15.3330945832
 30
0.0
 10
11.0025369225
 20
15.4160013592
 30
0.0
 10
11.031464659
 20
15.5003811872
 30
0.0
 10
11.0707159415
 20
15.5832604658
 30
0.0
 10
11.1112597703
 20
15.6489067399
 30
0.0
 10
11.1474688917
 20
15.6984666498
 30
0.0
 10
11.185143851
 20
15.7447674638
 30
0.0
 10
11.2350970865
 20
15.7965334589
 30
0.0
 10
11.2796073873
 20
15.8319183636
 30
0.0
 10
11.3022862605
 20
15.847315624
 30
0.0
  0
SPLINE
  5
24E
100
AcDbEntity
  8
0
100
AcDbSpline
 62
7
  6
CONTINUOUS
 70
0
 71
3
 72
30
 73
26
 74
0
 42
0.0000001
 43
0.0000001
 44
0.0000000001
 40
0.0
 40
0.0
 40
0.0
 40
0.0
 40
0.0214878729
 40
0.0430199729
 40
0.0648369785
 40
0.0871647736
 40
0.1102018942
 40
0.1341154216
 40
0.1849973504
 40
0.2121728548
 40
0.2405331356
 40
0.3007396948
 40
0.3653580843
 40
0.4337809173
 40
0.5051769262
 40
0.5785592698
 40
0.6528449552
 40
0.7269081294
 40
0.7996333849
 40
0.8351728379
 40
0.8699907107
 40
0.9039744418
 40
0.9370310712
 40
0.969072017
 40
1.0
 40
1.0
 40
1.0
 40
1.0
 10
10.7232685914
 20
17.9064027999
 30
0.0
 10
10.7831946428
 20
17.9501485369
 30
0.0
 10
10.9090201737
 20
18.0300377565
 30
0.0
 10
11.1126875242
 20
18.124437093
 30
0.0
 10
11.3295974157
 20
18.1926879358
 30
0.0
 10
11.5583735743
 20
18.2343235762
 30
0.0
 10
11.7976457204
 20
18.249270956
 30
0.0
 10
12.1356201036
 20
18.2331900895
 30
0.0
 10
12.4829317286
 20
18.1619617352
 30
0.0
 10
12.8311098651
 20
18.0438433622
 30
0.0
 10
13.1987437188
 20
17.8861354682
 30
0.0
 10
13.6606505302
 20
17.6249303651
 30
0.0
 10
14.1981438452
 20
17.2272105974
 30
0.0
 10
14.7180728756
 20
16.7479211203
 30
0.0
 10
15.2088647212
 20
16.1978014326
 30
0.0
 10
15.6596077671
 20
15.5891335158
 30
0.0
 10
16.0602007348
 20
14.9355538794
 30
0.0
 10
16.40162951
 20
14.2517814367
 30
0.0
 10
16.6323004158
 20
13.6649809761
 30
0.0
 10
16.7801693221
 20
13.1934181946
 30
0.0
 10
16.8711834519
 20
12.8446705375
 30
0.0
 10
16.9425935991
 20
12.5001345271
 30
0.0
 10
16.9940271222
 20
12.161730223
 30
0.0
 10
17.0251285438
 20
11.8314511601
 30
0.0
 10
17.032384353
 20
11.6139781162
 30
0.0
 10
17.032384353
 20
11.5071883151
 30
0.0
  0
SPLINE
  5
24F
100
AcDbEntity
  8
0
100
AcDbSpline
 62
7
  6
CONTINUOUS
 70
0
 71
3
 72
13
 73
9
 74
0
 42
0.0000001
 43
0.0000001
 44
0.0000000001
 40
0.0
 40
0.0
 40
0.0
 40
0.0
 40
0.2909470936
 40
0.5492461601
 40
0.6678974802
 40
0.7812353727
 40
0.8911824331
 40
1.0
 40
1.0
 40
1.0
 40
1.0
 10
10.979548422
 20
8.2851034599
 30
0.0
 10
10.979548422
 20
8.2578029364
 30
0.0
 10
10.9838984021
 20
8.2060862454
 30
0.0
 10
11.0032038048
 20
8.1456508022
 30
0.0
 10
11.0266395085
 20
8.1058594204
 30
0.0
 10
11.0472707887
 20
8.0810844714
 30
0.0
 10
11.0711981543
 20
8.0608686708
 30
0.0
 10
11.0891690175
 20
8.0506647231
 30
0.0
 10
11.0984709806
 20
8.0464537742
 30
0.0
  0
SPLINE
  5
250
100
AcDbEntity
  8
0
100
AcDbSpline
 62
7
  6
CONTINUOUS
 70
0
 71
3
 72
15
 73
11
 74
0
 42
0.0000001
 43
0.0000001
 44
0.0000000001
 40
0.0
 40
0.0
 40
0.0
 40
0.0
 40
0.1386973624
 40
0.2726417967
 40
0.4019145943
 40
0.5270390984
 40
0.6486627794
 40
0.7675332805
 40
0.8843078017
 40
1.0
 40
1.0
 40
1.0
 40
1.0
 10
7.442240998
 20
13.9302402794
 30
0.0
 10
7.442240998
 20
14.0492952607
 30
0.0
 10
7.4514359446
 20
14.2834616674
 30
0.0
 10
7.4950276066
 20
14.6261609861
 30
0.0
 10
7.5689000046
 20
14.951806612
 30
0.0
 10
7.6735930627
 20
15.2578348006
 30
0.0
 10
7.8096518762
 20
15.5415273358
 30
0.0
 10
7.9772773543
 20
15.799449848
 30
0.0
 10
8.1757256533
 20
16.0278470185
 30
0.0
 10
8.3281072272
 20
16.15807119
 30
0.0
 10
8.4083188308
 20
16.2166215228
 30
0.0
  0
SPLINE
  5
251
100
AcDbEntity
  8
0
100
AcDbSpline
 62
7
  6
CONTINUOUS
 70
0
 71
3
 72
19
 73
15
 74
0
 42
0.0000001
 43
0.0000001
 44
0.0000000001
 40
0.0
 40
0.0
 40
0.0
 40
0.0
 40
0.0587571664
 40
0.1192704113
 40
0.1812922598
 40
0.2446173189
 40
0.3740899256
 40
0.5053533378
 40
0.6358483242
 40
0.7630936464
 40
0.8248266918
 40
0.8849958034
 40
0.9434511954
 40
1.0
 40
1.0
 40
1.0
 40
1.0
 10
10.3641663635
 20
8.4702191399
 30
0.0
 10
10.2615821313
 20
8.5423096387
 30
0.0
 10
10.0585659553
 20
8.6961948002
 30
0.0
 10
9.7661009267
 20
8.9497935473
 30
0.0
 10
9.4829440825
 20
9.227857621
 30
0.0
 10
9.1178509415
 20
9.6311647083
 30
0.0
 10
8.6979005721
 20
10.1824566596
 30
0.0
 10
8.2645112908
 20
10.8977621782
 30
0.0
 10
7.9107012432
 20
11.6503666598
 30
0.0
 10
7.6889809363
 20
12.2967375898
 30
0.0
 10
7.5619953563
 20
12.8132961528
 30
0.0
 10
7.4936500911
 20
13.1923296466
 30
0.0
 10
7.4520160681
 20
13.564083568
 30
0.0
 10
7.442240998
 20
13.8095710172
 30
0.0
 10
7.442240998
 20
13.9302402794
 30
0.0
  0
SPLINE
  5
252
100
AcDbEntity
  8
0
100
AcDbSpline
 62
7
  6
CONTINUOUS
 70
0
 71
3
 72
15
 73
11
 74
0
 42
0.0000001
 43
0.0000001
 44
0.0000000001
 40
0.0
 40
0.0
 40
0.0
 40
0.0
 40
0.1113710794
 40
0.2237389372
 40
0.3388090193
 40
0.4579678523
 40
0.5826468865
 40
0.7142473072
 40
0.8534228329
 40
1.0
 40
1.0
 40
1.0
 40
1.0
 10
10.3642266587
 20
8.470316595
 30
0.0
 10
10.3716006769
 20
8.4651883879
 30
0.0
 10
10.387316532
 20
8.4561231856
 30
0.0
 10
10.4129786967
 20
8.4464373213
 30
0.0
 10
10.4404027595
 20
8.4405477194
 30
0.0
 10
10.4693599729
 20
8.4384375706
 30
0.0
 10
10.4996692395
 20
8.4403053841
 30
0.0
 10
10.5310679089
 20
8.446332978
 30
0.0
 10
10.5632506484
 20
8.4563937581
 30
0.0
 10
10.5845018706
 20
8.4654076673
 30
0.0
 10
10.5951765354
 20
8.4704863351
 30
0.0
  0
SPLINE
  5
253
100
AcDbEntity
  8
0
100
AcDbSpline
 62
7
  6
CONTINUOUS
 70
0
 71
3
 72
23
 73
19
 74
0
 42
0.0000001
 43
0.0000001
 44
0.0000000001
 40
0.0
 40
0.0
 40
0.0
 40
0.0
 40
0.0708784009
 40
0.1382093187
 40
0.202094705
 40
0.2628763743
 40
0.3210496251
 40
0.3772505761
 40
0.4322585713
 40
0.4869449066
 40
0.5422055659
 40
0.5988918773
 40
0.657748362
 40
0.7193739182
 40
0.7841988995
 40
0.8525141296
 40
0.9244717987
 40
1.0
 40
1.0
 40
1.0
 40
1.0
 10
10.2724386968
 20
15.6600351677
 30
0.0
 10
10.1833931084
 20
15.6993937512
 30
0.0
 10
10.0062962216
 20
15.7686603551
 30
0.0
 10
9.7386590165
 20
15.8441061998
 30
0.0
 10
9.4779539481
 20
15.8876081916
 30
0.0
 10
9.2263790425
 20
15.898704422
 30
0.0
 10
8.9859748994
 20
15.8771609238
 30
0.0
 10
8.7588315324
 20
15.8229368914
 30
0.0
 10
8.5470307379
 20
15.7363936417
 30
0.0
 10
8.3526122411
 20
15.6182031888
 30
0.0
 10
8.1773617935
 20
15.4695605291
 30
0.0
 10
8.0228730418
 20
15.2918732168
 30
0.0
 10
7.8903457319
 20
15.0868793461
 30
0.0
 10
7.7807842136
 20
14.8564141428
 30
0.0
 10
7.6949130963
 20
14.6024617416
 30
0.0
 10
7.6333221306
 20
14.3270707728
 30
0.0
 10
7.5964815229
 20
14.0325590759
 30
0.0
 10
7.5886890793
 20
13.8298611318
 30
0.0
 10
7.5886890793
 20
13.7261182024
 30
0.0
  0
SPLINE
  5
254
100
AcDbEntity
  8
0
100
AcDbSpline
 62
7
  6
CONTINUOUS
 70
0
 71
3
 72
15
 73
11
 74
0
 42
0.0000001
 43
0.0000001
 44
0.0000000001
 40
0.0
 40
0.0
 40
0.0
 40
0.0
 40
0.1460720422
 40
0.284698341
 40
0.4160709625
 40
0.5408948179
 40
0.660206362
 40
0.7753524733
 40
0.8879961366
 40
1.0
 40
1.0
 40
1.0
 40
1.0
 10
10.5951765354
 20
16.2555563785
 30
0.0
 10
10.4935574896
 20
16.3019181598
 30
0.0
 10
10.2913949574
 20
16.3836846398
 30
0.0
 10
9.9855698117
 20
16.473395458
 30
0.0
 10
9.6875766628
 20
16.52596894
 30
0.0
 10
9.4000254947
 20
16.5408184085
 30
0.0
 10
9.1253522897
 20
16.5176558898
 30
0.0
 10
8.8660335934
 20
16.4563787382
 30
0.0
 10
8.6246246559
 20
16.3574715993
 30
0.0
 10
8.4775007286
 20
16.2671069392
 30
0.0
 10
8.4083238833
 20
16.2166134524
 30
0.0
  0
SPLINE
  5
255
100
AcDbEntity
  8
0
100
AcDbSpline
 62
7
  6
CONTINUOUS
 70
0
 71
3
 72
9
 73
5
 74
0
 42
0.0000001
 43
0.0000001
 44
0.0000000001
 40
0.0
 40
0.0
 40
0.0
 40
0.0
 40
0.5129777895
 40
1.0
 40
1.0
 40
1.0
 40
1.0
 10
11.5098762999
 20
15.9882531322
 30
0.0
 10
11.3952646026
 20
16.0682281078
 30
0.0
 10
11.1655349042
 20
16.2153455912
 30
0.0
 10
10.9234519993
 20
16.3413546806
 30
0.0
 10
10.8027665747
 20
16.3964938867
 30
0.0
  0
SPLINE
  5
256
100
AcDbEntity
  8
0
100
AcDbSpline
 62
7
  6
CONTINUOUS
 70
0
 71
3
 72
12
 73
8
 74
0
 42
0.0000001
 43
0.0000001
 44
0.0000000001
 40
0.0
 40
0.0
 40
0.0
 40
0.0
 40
0.2870498101
 40
0.4203725418
 40
0.5470582887
 40
0.7820400193
 40
1.0
 40
1.0
 40
1.0
 40
1.0
 10
10.2724386968
 20
8.6933442145
 30
0.0
 10
10.2724386968
 20
8.6694339092
 30
0.0
 10
10.2753408185
 20
8.6342875017
 30
0.0
 10
10.2855368471
 20
8.5898122441
 30
0.0
 10
10.2987553731
 20
8.550699786
 30
0.0
 10
10.3219484446
 20
8.5077306259
 30
0.0
 10
10.3493213742
 20
8.4806823663
 30
0.0
 10
10.3642266587
 20
8.470316595
 30
0.0
  0
SPLINE
  5
257
100
AcDbEntity
  8
0
100
AcDbSpline
 62
7
  6
CONTINUOUS
 70
0
 71
3
 72
18
 73
14
 74
0
 42
0.0000001
 43
0.0000001
 44
0.0000000001
 40
0.0
 40
0.0
 40
0.0
 40
0.0
 40
0.0544975548
 40
0.1089440604
 40
0.163643064
 40
0.2188912798
 40
0.3320441337
 40
0.4504931425
 40
0.5122318476
 40
0.5758114121
 40
0.7088509695
 40
0.8502587673
 40
1.0
 40
1.0
 40
1.0
 40
1.0
 10
13.192590976
 20
7.9299698317
 30
0.0
 10
13.2373166685
 20
7.9497607997
 30
0.0
 10
13.3249792734
 20
7.9934226931
 30
0.0
 10
13.4500295509
 20
8.0708050483
 30
0.0
 10
13.5680431453
 20
8.1596981668
 30
0.0
 10
13.7166459312
 20
8.2942299684
 30
0.0
 10
13.8837051608
 20
8.4918758857
 30
0.0
 10
14.0192135476
 20
8.718847115
 30
0.0
 10
14.1104379433
 20
8.9178470209
 30
0.0
 10
14.1923259692
 20
9.1349467869
 30
0.0
 10
14.2709755237
 20
9.4288183729
 30
0.0
 10
14.3265972635
 20
9.806111375
 30
0.0
 10
14.3382453576
 20
10.0676232887
 30
0.0
 10
14.3382453576
 20
10.2020084534
 30
0.0
  0
SPLINE
  5
258
100
AcDbEntity
  8
0
100
AcDbSpline
 62
7
  6
CONTINUOUS
 70
0
 71
3
 72
15
 73
11
 74
0
 42
0.0000001
 43
0.0000001
 44
0.0000000001
 40
0.0
 40
0.0
 40
0.0
 40
0.0
 40
0.1131171599
 40
0.2348299114
 40
0.3628276955
 40
0.4945821315
 40
0.6271063778
 40
0.7573519595
 40
0.8825354074
 40
1.0
 40
1.0
 40
1.0
 40
1.0
 10
10.2724386968
 20
15.6600351677
 30
0.0
 10
10.2724386968
 20
15.6864454421
 30
0.0
 10
10.2769607229
 20
15.7413192843
 30
0.0
 10
10.295080511
 20
15.824275847
 30
0.0
 10
10.3243011136
 20
15.9086166443
 30
0.0
 10
10.363621079
 20
15.9915278992
 30
0.0
 10
10.4117990432
 20
16.0702395844
 30
0.0
 10
10.4672144405
 20
16.1421266267
 30
0.0
 10
10.5280251656
 20
16.2046975341
 30
0.0
 10
10.5724864947
 20
16.2401515362
 30
0.0
 10
10.5951765354
 20
16.2555563785
 30
0.0
  0
SPLINE
  5
259
100
AcDbEntity
  8
0
100
AcDbSpline
 62
7
  6
CONTINUOUS
 70
0
 71
3
 72
20
 73
16
 74
0
 42
0.0000001
 43
0.0000001
 44
0.0000000001
 40
0.0
 40
0.0
 40
0.0
 40
0.0
 40
0.0553316221
 40
0.1130276036
 40
0.1728365467
 40
0.2345217193
 40
0.2978057263
 40
0.3623659314
 40
0.4938861827
 40
0.6262485993
 40
0.7565104923
 40
0.8199877774
 40
0.8819190976
 40
0.9420255283
 40
1.0
 40
1.0
 40
1.0
 40
1.0
 10
14.3382453576
 20
10.2020084534
 30
0.0
 10
14.3382453576
 20
10.3241984857
 30
0.0
 10
14.3281179213
 20
10.5738801728
 30
0.0
 10
14.2851047822
 20
10.9534168426
 30
0.0
 10
14.2141896978
 20
11.3430087027
 30
0.0
 10
14.1160346652
 20
11.7393321803
 30
0.0
 10
13.9914587067
 20
12.1391597311
 30
0.0
 10
13.7902691
 20
12.6756871917
 30
0.0
 10
13.4799564988
 20
13.3329583998
 30
0.0
 10
13.0271344835
 20
14.0780446642
 30
0.0
 10
12.589143017
 20
14.6516758264
 30
0.0
 10
12.2095070752
 20
15.0699467598
 30
0.0
 10
11.9166016779
 20
15.3567531807
 30
0.0
 10
11.6156102246
 20
15.6168134974
 30
0.0
 10
11.4072461968
 20
15.7740070707
 30
0.0
 10
11.3022862605
 20
15.847315624
 30
0.0
  0
SPLINE
  5
25A
100
AcDbEntity
  8
0
100
AcDbSpline
 62
7
  6
CONTINUOUS
 70
0
 71
3
 72
19
 73
15
 74
0
 42
0.0000001
 43
0.0000001
 44
0.0000000001
 40
0.0
 40
0.0
 40
0.0
 40
0.0
 40
0.0552841703
 40
0.112912826
 40
0.1726392638
 40
0.2342316584
 40
0.361832628
 40
0.4931967242
 40
0.6254924831
 40
0.7558262462
 40
0.81940308
 40
0.8814810157
 40
0.941782387
 40
1.0
 40
1.0
 40
1.0
 40
1.0
 10
13.6632980395
 20
10.2190204252
 30
0.0
 10
13.6632980395
 20
10.3275863418
 30
0.0
 10
13.6543772389
 20
10.5493930395
 30
0.0
 10
13.6164699779
 20
10.8865441034
 30
0.0
 10
13.5539656492
 20
11.2326136831
 30
0.0
 10
13.4372242742
 20
11.7075585759
 30
0.0
 10
13.2327556896
 20
12.3044891155
 30
0.0
 10
12.906298318
 20
13.0015681837
 30
0.0
 10
12.5063502521
 20
13.665493918
 30
0.0
 10
12.1192682761
 20
14.1776350394
 30
0.0
 10
11.7834742954
 20
14.5520494527
 30
0.0
 10
11.5241175685
 20
14.8094499871
 30
0.0
 10
11.2573816794
 20
15.0435130512
 30
0.0
 10
11.0726508777
 20
15.1854431281
 30
0.0
 10
10.979548422
 20
15.2517944132
 30
0.0
  0
SPLINE
  5
25B
100
AcDbEntity
  8
0
100
AcDbSpline
 62
7
  6
CONTINUOUS
 70
0
 71
3
 72
23
 73
19
 74
0
 42
0.0000001
 43
0.0000001
 44
0.0000000001
 40
0.0
 40
0.0
 40
0.0
 40
0.0
 40
0.0708784009
 40
0.1382093187
 40
0.202094705
 40
0.2628763743
 40
0.3210496251
 40
0.3772505761
 40
0.4322585713
 40
0.4869449066
 40
0.5422055659
 40
0.5988918773
 40
0.657748362
 40
0.7193739182
 40
0.7841988995
 40
0.8525141296
 40
0.9244717987
 40
1.0
 40
1.0
 40
1.0
 40
1.0
 10
10.979548422
 20
8.2851034599
 30
0.0
 10
11.0685940104
 20
8.2457448764
 30
0.0
 10
11.2456908972
 20
8.1764782726
 30
0.0
 10
11.5133281023
 20
8.1010324279
 30
0.0
 10
11.7740331707
 20
8.0575304361
 30
0.0
 10
12.0256080763
 20
8.0464342056
 30
0.0
 10
12.2660122195
 20
8.0679777039
 30
0.0
 10
12.4931555864
 20
8.1222017362
 30
0.0
 10
12.704956381
 20
8.208744986
 30
0.0
 10
12.8993748778
 20
8.3269354389
 30
0.0
 10
13.0746253253
 20
8.4755780986
 30
0.0
 10
13.229114077
 20
8.6532654109
 30
0.0
 10
13.3616413869
 20
8.8582592815
 30
0.0
 10
13.4712029052
 20
9.0887244849
 30
0.0
 10
13.5570740226
 20
9.3426768861
 30
0.0
 10
13.6186649882
 20
9.6180678548
 30
0.0
 10
13.6555055959
 20
9.9125795518
 30
0.0
 10
13.6632980395
 20
10.1152774958
 30
0.0
 10
13.6632980395
 20
10.2190204252
 30
0.0
  0
SPLINE
  5
25C
100
AcDbEntity
  8
0
100
AcDbSpline
 62
7
  6
CONTINUOUS
 70
0
 71
3
 72
19
 73
15
 74
0
 42
0.0000001
 43
0.0000001
 44
0.0000000001
 40
0.0
 40
0.0
 40
0.0
 40
0.0
 40
0.0552841703
 40
0.112912826
 40
0.1726392638
 40
0.2342316584
 40
0.361832628
 40
0.4931967242
 40
0.6254924831
 40
0.7558262462
 40
0.81940308
 40
0.8814810157
 40
0.941782387
 40
1.0
 40
1.0
 40
1.0
 40
1.0
 10
7.5886890793
 20
13.7261182024
 30
0.0
 10
7.5886890793
 20
13.6175522859
 30
0.0
 10
7.5976098799
 20
13.3957455882
 30
0.0
 10
7.6355171409
 20
13.0585945242
 30
0.0
 10
7.6980214696
 20
12.7125249446
 30
0.0
 10
7.8147628446
 20
12.2375800518
 30
0.0
 10
8.0192314292
 20
11.6406495122
 30
0.0
 10
8.3456888008
 20
10.9435704439
 30
0.0
 10
8.7456368667
 20
10.2796447097
 30
0.0
 10
9.1327188427
 20
9.7675035883
 30
0.0
 10
9.4685128234
 20
9.393089175
 30
0.0
 10
9.7278695503
 20
9.1356886406
 30
0.0
 10
9.9946054394
 20
8.9016255765
 30
0.0
 10
10.1793362412
 20
8.7596954995
 30
0.0
 10
10.2724386968
 20
8.6933442145
 30
0.0
  0
SPLINE
  5
25D
100
AcDbEntity
  8
0
100
AcDbSpline
 62
7
  6
CONTINUOUS
 70
0
 71
3
 72
21
 73
17
 74
0
 42
0.0000001
 43
0.0000001
 44
0.0000000001
 40
0.0
 40
0.0
 40
0.0
 40
0.0
 40
0.0990803416
 40
0.1540149133
 40
0.2123881878
 40
0.2739189321
 40
0.3382002087
 40
0.4047212658
 40
0.47289639
 40
0.5420894033
 40
0.6116297716
 40
0.7489713577
 40
0.8155482715
 40
0.8799016991
 40
0.9415469364
 40
1.0
 40
1.0
 40
1.0
 40
1.0
 10
24.9044801583
 20
46.7709040892
 30
0.0
 10
24.8278643853
 20
46.5848851209
 30
0.0
 10
24.7569105794
 20
46.2750479614
 30
0.0
 10
24.7337577631
 20
45.8442044114
 30
0.0
 10
24.7518111747
 20
45.4889343552
 30
0.0
 10
24.8056166851
 20
45.1183910368
 30
0.0
 10
24.8943664935
 20
44.7376285639
 30
0.0
 10
25.016788529
 20
44.3521991162
 30
0.0
 10
25.1710576887
 20
43.9676433679
 30
0.0
 10
25.3550117617
 20
43.5895194346
 30
0.0
 10
25.6349591301
 20
43.1035085982
 30
0.0
 10
25.9616981693
 20
42.6517536522
 30
0.0
 10
26.3282036538
 20
42.2482186004
 30
0.0
 10
26.6132983887
 20
41.979932524
 30
0.0
 10
26.9071451659
 20
41.747001614
 30
0.0
 10
27.1118631587
 20
41.6136288091
 30
0.0
 10
27.2146495804
 20
41.5542863833
 30
0.0
  0
SPLINE
  5
25E
100
AcDbEntity
  8
0
100
AcDbSpline
 62
7
  6
CONTINUOUS
 70
0
 71
3
 72
15
 73
11
 74
0
 42
0.0000001
 43
0.0000001
 44
0.0000000001
 40
0.0
 40
0.0
 40
0.0
 40
0.0
 40
0.1080100468
 40
0.2180573139
 40
0.332001869
 40
0.4513532355
 40
0.5772578485
 40
0.7105001385
 40
0.8514758267
 40
1.0
 40
1.0
 40
1.0
 40
1.0
 10
24.0504518857
 20
46.6266462571
 30
0.0
 10
24.1078331273
 20
46.6597753822
 30
0.0
 10
24.2296720538
 20
46.7168075018
 30
0.0
 10
24.4267978738
 20
46.7713552773
 30
0.0
 10
24.6369509467
 20
46.7947491036
 30
0.0
 10
24.8578687654
 20
46.7871117652
 30
0.0
 10
25.0874446017
 20
46.7485859156
 30
0.0
 10
25.3235792437
 20
46.6797645066
 30
0.0
 10
25.5639425315
 20
46.5813326451
 30
0.0
 10
25.7215367196
 20
46.4988698955
 30
0.0
 10
25.800441906
 20
46.4533149955
 30
0.0
  0
SPLINE
  5
25F
100
AcDbEntity
  8
0
100
AcDbSpline
 62
7
  6
CONTINUOUS
 70
0
 71
3
 72
15
 73
11
 74
0
 42
0.0000001
 43
0.0000001
 44
0.0000000001
 40
0.0
 40
0.0
 40
0.0
 40
0.0
 40
0.108010209
 40
0.2180635783
 40
0.3319989753
 40
0.4513349854
 40
0.5772419717
 40
0.71052329
 40
0.8515185034
 40
1.0
 40
1.0
 40
1.0
 40
1.0
 10
30.6288926007
 20
13.2217872238
 30
0.0
 10
30.6288926003
 20
13.2596490416
 30
0.0
 10
30.622337099
 20
13.3362454734
 30
0.0
 10
30.5929524521
 20
13.4493668373
 30
0.0
 10
30.5445307056
 20
13.5600592661
 30
0.0
 10
30.4776191048
 20
13.6671885014
 30
0.0
 10
30.3929642049
 20
13.7698049981
 30
0.0
 10
30.2914080995
 20
13.8669976611
 30
0.0
 10
30.1740152979
 20
13.9578217581
 30
0.0
 10
30.0881906351
 20
14.0122516768
 30
0.0
 10
30.0431149767
 20
14.0382755316
 30
0.0
  0
SPLINE
  5
260
100
AcDbEntity
  8
0
100
AcDbSpline
 62
7
  6
CONTINUOUS
 70
0
 71
3
 72
15
 73
11
 74
0
 42
0.0000001
 43
0.0000001
 44
0.0000000001
 40
0.0
 40
0.0
 40
0.0
 40
0.0
 40
0.1080104539
 40
0.2180640309
 40
0.3319995658
 40
0.4513356273
 40
0.5772425727
 40
0.7105237624
 40
0.8515187675
 40
1.0
 40
1.0
 40
1.0
 40
1.0
 10
30.6288926007
 20
9.1392751382
 30
0.0
 10
30.6288926012
 20
9.1014137234
 30
0.0
 10
30.6223372422
 20
9.0248181244
 30
0.0
 10
30.5929532231
 20
8.9116979521
 30
0.0
 10
30.5445325093
 20
8.8010066304
 30
0.0
 10
30.477622304
 20
8.6938783908
 30
0.0
 10
30.3929691436
 20
8.5912627442
 30
0.0
 10
30.2914150797
 20
8.4940707679
 30
0.0
 10
30.1740245875
 20
8.4032471647
 30
0.0
 10
30.0882015612
 20
8.3488174267
 30
0.0
 10
30.0431267526
 20
8.3227936291
 30
0.0
  0
SPLINE
  5
261
100
AcDbEntity
  8
0
100
AcDbSpline
 62
7
  6
CONTINUOUS
 70
0
 71
3
 72
15
 73
11
 74
0
 42
0.0000001
 43
0.0000001
 44
0.0000000001
 40
0.0
 40
0.0
 40
0.0
 40
0.0
 40
0.1080120351
 40
0.2180609276
 40
0.3320049916
 40
0.4513555801
 40
0.5772588794
 40
0.7104993721
 40
0.8514742921
 40
1.0
 40
1.0
 40
1.0
 40
1.0
 10
19.5577959233
 20
52.7751116018
 30
0.0
 10
19.4922143235
 20
52.7372482815
 30
0.0
 10
19.3661413975
 20
52.6492424693
 30
0.0
 10
19.199502078
 20
52.4853050075
 30
0.0
 10
19.0562576831
 20
52.2906689861
 30
0.0
 10
18.9375802425
 20
52.0676463226
 30
0.0
 10
18.8445244202
 20
51.8184061757
 30
0.0
 10
18.7777067337
 20
51.5453620048
 30
0.0
 10
18.7377793496
 20
51.2512100936
 30
0.0
 10
18.7293446546
 20
51.0481047846
 30
0.0
 10
18.7293446546
 20
50.9439737493
 30
0.0
  0
SPLINE
  5
262
100
AcDbEntity
  8
0
100
AcDbSpline
 62
7
  6
CONTINUOUS
 70
0
 71
3
 72
15
 73
11
 74
0
 42
0.0000001
 43
0.0000001
 44
0.0000000001
 40
0.0
 40
0.0
 40
0.0
 40
0.0
 40
0.1080125436
 40
0.2180618663
 40
0.332006219
 40
0.451356913
 40
0.5772601256
 40
0.7105003496
 40
0.8514748396
 40
1.0
 40
1.0
 40
1.0
 40
1.0
 10
20.9720035977
 20
53.5915999096
 30
0.0
 10
21.0375837457
 20
53.6294623996
 30
0.0
 10
21.1768325187
 20
53.6946399235
 30
0.0
 10
21.4021209227
 20
53.7569837016
 30
0.0
 10
21.6422968769
 20
53.7837191301
 30
0.0
 10
21.8947723682
 20
53.7749871394
 30
0.0
 10
22.1571416813
 20
53.7309588942
 30
0.0
 10
22.4270066025
 20
53.6523071478
 30
0.0
 10
22.7017061717
 20
53.5398151719
 30
0.0
 10
22.8818133463
 20
53.4455717548
 30
0.0
 10
22.9719912296
 20
53.3935087074
 30
0.0
  0
SPLINE
  5
263
100
AcDbEntity
  8
0
100
AcDbSpline
 62
7
  6
CONTINUOUS
 70
0
 71
3
 72
11
 73
7
 74
0
 42
0.0000001
 43
0.0000001
 44
0.0000000001
 40
0.0
 40
0.0
 40
0.0
 40
0.0
 40
0.2660473308
 40
0.5253289487
 40
0.771706798
 40
1.0
 40
1.0
 40
1.0
 40
1.0
 10
16.6080419747
 20
21.3165555938
 30
0.0
 10
16.4777722242
 20
21.3165555932
 30
0.0
 10
16.2203053117
 20
21.3020988957
 30
0.0
 10
15.8470922732
 20
21.2376285122
 30
0.0
 10
15.5023428624
 20
21.1328265943
 30
0.0
 10
15.2906300089
 20
21.0342530532
 30
0.0
 10
15.1938225245
 20
20.9783615597
 30
0.0
  0
SPLINE
  5
264
100
AcDbEntity
  8
0
100
AcDbSpline
 62
7
  6
CONTINUOUS
 70
0
 71
3
 72
21
 73
17
 74
0
 42
0.0000001
 43
0.0000001
 44
0.0000000001
 40
0.0
 40
0.0
 40
0.0
 40
0.0
 40
0.0558178358
 40
0.1141916888
 40
0.1748101716
 40
0.2373791285
 40
0.3015797451
 40
0.3670317345
 40
0.4999989384
 40
0.6329662896
 40
0.6984184606
 40
0.7626193278
 40
0.8251885969
 40
0.8858074445
 40
0.9441817102
 40
1.0
 40
1.0
 40
1.0
 40
1.0
 10
31.4573079313
 20
48.4946196532
 30
0.0
 10
31.5520263794
 20
48.4399351688
 30
0.0
 10
31.7409917853
 20
48.3195740488
 30
0.0
 10
32.0151506065
 20
48.113756539
 30
0.0
 10
32.2839264155
 20
47.8802498374
 30
0.0
 10
32.5447365607
 20
47.6214507448
 30
0.0
 10
32.7951024702
 20
47.3397405697
 30
0.0
 10
33.1135158254
 20
46.9351770513
 30
0.0
 10
33.4699763552
 20
46.3906572368
 30
0.0
 10
33.7633169773
 20
45.809694528
 30
0.0
 10
33.9544754705
 20
45.3316586487
 30
0.0
 10
34.073263126
 20
44.9739796003
 30
0.0
 10
34.1669872813
 20
44.6187106634
 30
0.0
 10
34.2348249202
 20
44.2691890096
 30
0.0
 10
34.2759916598
 20
43.9288496842
 30
0.0
 10
34.2857468319
 20
43.7050186807
 30
0.0
 10
34.2857468319
 20
43.5956469666
 30
0.0
  0
SPLINE
  5
265
100
AcDbEntity
  8
0
100
AcDbSpline
 62
7
  6
CONTINUOUS
 70
0
 71
3
 72
10
 73
6
 74
0
 42
0.0000001
 43
0.0000001
 44
0.0000000001
 40
0.0
 40
0.0
 40
0.0
 40
0.0
 40
0.2694817392
 40
0.5261934342
 40
1.0
 40
1.0
 40
1.0
 40
1.0
 10
27.2146495804
 20
41.5542863833
 30
0.0
 10
27.2886698803
 20
41.5115517101
 30
0.0
 10
27.4365912551
 20
41.4336806822
 30
0.0
 10
27.7291284246
 20
41.3107646005
 30
0.0
 10
27.9555273616
 20
41.2513797023
 30
0.0
 10
28.1045031531
 20
41.2316547175
 30
0.0
  0
SPLINE
  5
266
100
AcDbEntity
  8
0
100
AcDbSpline
 62
7
  6
CONTINUOUS
 70
0
 71
3
 72
25
 73
21
 74
0
 42
0.0000001
 43
0.0000001
 44
0.0000000001
 40
0.0
 40
0.0
 40
0.0
 40
0.0
 40
0.0623733299
 40
0.1287283007
 40
0.1983143201
 40
0.2702922819
 40
0.3436684227
 40
0.4173988957
 40
0.490423766
 40
0.5617113048
 40
0.6303087814
 40
0.6953959479
 40
0.7563436153
 40
0.8127814804
 40
0.8646818987
 40
0.9124566505
 40
0.9351019888
 40
0.9571072589
 40
0.9786679393
 40
1.0
 40
1.0
 40
1.0
 40
1.0
 10
25.800441906
 20
46.4533149955
 30
0.0
 10
25.9261715879
 20
46.380726572
 30
0.0
 10
26.1759799755
 20
46.2137594477
 30
0.0
 10
26.5297674532
 20
45.9160781007
 30
0.0
 10
26.8679300367
 20
45.5688413004
 30
0.0
 10
27.1832684213
 20
45.179605314
 30
0.0
 10
27.4690861296
 20
44.7565443956
 30
0.0
 10
27.71929607
 20
44.3087170653
 30
0.0
 10
27.9285769613
 20
43.8456724696
 30
0.0
 10
28.0924551576
 20
43.3772712035
 30
0.0
 10
28.2074230918
 20
42.9134613997
 30
0.0
 10
28.2710317606
 20
42.464032834
 30
0.0
 10
28.2818739536
 20
42.0383828544
 30
0.0
 10
28.2394617957
 20
41.6452603534
 30
0.0
 10
28.144267639
 20
41.2928513243
 30
0.0
 10
28.0193754348
 20
41.034562241
 30
0.0
 10
27.8946535079
 20
40.8587656306
 30
0.0
 10
27.7911875937
 20
40.7440334911
 30
0.0
 10
27.6767779101
 20
40.6448347211
 30
0.0
 10
27.5934319881
 20
40.5892929485
 30
0.0
 10
27.5504319264
 20
40.564466814
 30
0.0
  0
SPLINE
  5
267
100
AcDbEntity
  8
0
100
AcDbSpline
 62
7
  6
CONTINUOUS
 70
0
 71
3
 72
11
 73
7
 74
0
 42
0.0000001
 43
0.0000001
 44
0.0000000001
 40
0.0
 40
0.0
 40
0.0
 40
0.0
 40
0.2282931894
 40
0.4746710088
 40
0.7339526347
 40
1.0
 40
1.0
 40
1.0
 40
1.0
 10
20.3557235181
 20
12.0377364067
 30
0.0
 10
20.4525320445
 20
12.0936285018
 30
0.0
 10
20.6437581269
 20
12.2276914015
 30
0.0
 10
20.9068964839
 20
12.47385525
 30
0.0
 10
21.1493372139
 20
12.7648364202
 30
0.0
 10
21.2905903224
 20
12.9805845026
 30
0.0
 10
21.3557248071
 20
13.0934032883
 30
0.0
  0
SPLINE
  5
268
100
AcDbEntity
  8
0
100
AcDbSpline
 62
7
  6
CONTINUOUS
 70
0
 71
3
 72
15
 73
11
 74
0
 42
0.0000001
 43
0.0000001
 44
0.0000000001
 40
0.0
 40
0.0
 40
0.0
 40
0.0
 40
0.1485251574
 40
0.289499659
 40
0.4227398928
 40
0.5486431049
 40
0.667993794
 40
0.7819381439
 40
0.8919874623
 40
1.0
 40
1.0
 40
1.0
 40
1.0
 10
21.5577835551
 20
52.5770203997
 30
0.0
 10
21.4676056738
 20
52.629083446
 30
0.0
 10
21.2874984912
 20
52.7233268604
 30
0.0
 10
21.0127989116
 20
52.8358188438
 30
0.0
 10
20.7429339761
 20
52.9144705928
 30
0.0
 10
20.4805646595
 20
52.9584988362
 30
0.0
 10
20.2280891736
 20
52.9672308153
 30
0.0
 10
19.9879132291
 20
52.9404953862
 30
0.0
 10
19.7626248322
 20
52.8781516133
 30
0.0
 10
19.623376071
 20
52.8129740838
 30
0.0
 10
19.5577959233
 20
52.7751116018
 30
0.0
  0
SPLINE
  5
269
100
AcDbEntity
  8
0
100
AcDbSpline
 62
7
  6
CONTINUOUS
 70
0
 71
3
 72
21
 73
17
 74
0
 42
0.0000001
 43
0.0000001
 44
0.0000000001
 40
0.0
 40
0.0
 40
0.0
 40
0.0
 40
0.0558182933
 40
0.1141925678
 40
0.1748114245
 40
0.2373806986
 40
0.301581569
 40
0.3670337434
 40
0.5000010976
 40
0.6329682984
 40
0.6984202844
 40
0.7626208979
 40
0.8251898497
 40
0.8858083235
 40
0.9441821677
 40
1.0
 40
1.0
 40
1.0
 40
1.0
 10
32.8715391575
 20
42.7791586589
 30
0.0
 10
32.8715391575
 20
42.8885303797
 30
0.0
 10
32.8617839778
 20
43.112361407
 30
0.0
 10
32.8206172336
 20
43.4527007739
 30
0.0
 10
32.7527795805
 20
43.8022224708
 30
0.0
 10
32.6590554092
 20
44.1574914386
 30
0.0
 10
32.5402677325
 20
44.5151705041
 30
0.0
 10
32.3491092218
 20
44.9932063967
 30
0.0
 10
32.0557685802
 20
45.5741691034
 30
0.0
 10
31.6993080386
 20
46.1186889019
 30
0.0
 10
31.3808946863
 20
46.5232523986
 30
0.0
 10
31.1305287809
 20
46.8049625468
 30
0.0
 10
30.8697186545
 20
47.0637616101
 30
0.0
 10
30.6009428757
 20
47.2972682777
 30
0.0
 10
30.3267840882
 20
47.5030857629
 30
0.0
 10
30.1378186991
 20
47.6234468645
 30
0.0
 10
30.0431002569
 20
47.6781313455
 30
0.0
  0
SPLINE
  5
26A
100
AcDbEntity
  8
0
100
AcDbSpline
 62
7
  6
CONTINUOUS
 70
0
 71
3
 72
25
 73
21
 74
0
 42
0.0000001
 43
0.0000001
 44
0.0000000001
 40
0.0
 40
0.0
 40
0.0
 40
0.0
 40
0.0623733299
 40
0.1287283007
 40
0.1983143201
 40
0.2702922819
 40
0.3436684227
 40
0.4173988957
 40
0.490423766
 40
0.5617113048
 40
0.6303087814
 40
0.6953959479
 40
0.7563436153
 40
0.8127814804
 40
0.8646818987
 40
0.9124566505
 40
0.9351019888
 40
0.9571072589
 40
0.9786679393
 40
1.0
 40
1.0
 40
1.0
 40
1.0
 10
25.800441906
 20
40.7377980756
 30
0.0
 10
25.6747122242
 20
40.8103864991
 30
0.0
 10
25.4249038366
 20
40.9773536234
 30
0.0
 10
25.0711163589
 20
41.2750349704
 30
0.0
 10
24.7329537753
 20
41.6222717707
 30
0.0
 10
24.4176153907
 20
42.0115077571
 30
0.0
 10
24.1317976825
 20
42.4345686755
 30
0.0
 10
23.881587742
 20
42.8823960058
 30
0.0
 10
23.6723068508
 20
43.3454406015
 30
0.0
 10
23.5084286545
 20
43.8138418676
 30
0.0
 10
23.3934607202
 20
44.2776516714
 30
0.0
 10
23.3298520515
 20
44.7270802371
 30
0.0
 10
23.3190098584
 20
45.1527302167
 30
0.0
 10
23.3614220163
 20
45.5458527177
 30
0.0
 10
23.4566161731
 20
45.8982617467
 30
0.0
 10
23.5815083772
 20
46.1565508301
 30
0.0
 10
23.7062303042
 20
46.3323474405
 30
0.0
 10
23.8096962184
 20
46.44707958
 30
0.0
 10
23.9241059019
 20
46.54627835
 30
0.0
 10
24.007451824
 20
46.6018201226
 30
0.0
 10
24.0504518857
 20
46.6266462571
 30
0.0
  0
SPLINE
  5
26B
100
AcDbEntity
  8
0
100
AcDbSpline
 62
7
  6
CONTINUOUS
 70
0
 71
3
 72
15
 73
11
 74
0
 42
0.0000001
 43
0.0000001
 44
0.0000000001
 40
0.0
 40
0.0
 40
0.0
 40
0.0
 40
0.1484812325
 40
0.2894762376
 40
0.4227574273
 40
0.5486643727
 40
0.6680004342
 40
0.7819359691
 40
0.8919895461
 40
1.0
 40
1.0
 40
1.0
 40
1.0
 10
30.0431267526
 20
12.4053057148
 30
0.0
 10
30.0882015612
 20
12.4313295123
 30
0.0
 10
30.1740245875
 20
12.4857592504
 30
0.0
 10
30.2914150797
 20
12.5765828536
 30
0.0
 10
30.3929691436
 20
12.6737748299
 30
0.0
 10
30.477622304
 20
12.7763904765
 30
0.0
 10
30.5445325093
 20
12.8835187161
 30
0.0
 10
30.5929532231
 20
12.9942100378
 30
0.0
 10
30.6223372422
 20
13.1073302101
 30
0.0
 10
30.6288926012
 20
13.183925809
 30
0.0
 10
30.6288926007
 20
13.2217872238
 30
0.0
  0
SPLINE
  5
26C
100
AcDbEntity
  8
0
100
AcDbSpline
 62
7
  6
CONTINUOUS
 70
0
 71
3
 72
15
 73
11
 74
0
 42
0.0000001
 43
0.0000001
 44
0.0000000001
 40
0.0
 40
0.0
 40
0.0
 40
0.0
 40
0.1080100468
 40
0.2180573139
 40
0.332001869
 40
0.4513532355
 40
0.5772578485
 40
0.7105001385
 40
0.8514758267
 40
1.0
 40
1.0
 40
1.0
 40
1.0
 10
27.5504319264
 20
40.564466814
 30
0.0
 10
27.4930506847
 20
40.5313376888
 30
0.0
 10
27.3712117582
 20
40.4743055693
 30
0.0
 10
27.1740859383
 20
40.4197577938
 30
0.0
 10
26.9639328653
 20
40.3963639675
 30
0.0
 10
26.7430150467
 20
40.4040013059
 30
0.0
 10
26.5134392103
 20
40.4425271555
 30
0.0
 10
26.2773045684
 20
40.5113485645
 30
0.0
 10
26.0369412805
 20
40.609780426
 30
0.0
 10
25.8793470924
 20
40.6922431756
 30
0.0
 10
25.800441906
 20
40.7377980756
 30
0.0
  0
ENDSEC
  0
SECTION
  2
OBJECTS
  0
DICTIONARY
  5
C
100
AcDbDictionary
280
0
281
1
  3
ACAD_GROUP
350
D
  3
ACAD_MLINESTYLE
350
17
  3
ACAD_LAYOUT
350
1A
  3
ACAD_PLOTSETTINGS
350
19
  3
ACAD_PLOTSTYLENAME
350
E
  0
DICTIONARY
  5
D
102
{ACAD_REACTORS
330
C
102
}
100
AcDbDictionary
280
0
281
1
  0
ACDBDICTIONARYWDFLT
  5
E
102
{ACAD_REACTORS
330
C
102
}
100
AcDbDictionary
281
1
  3
Normal
350
F
100
AcDbDictionaryWithDefault
340
F
  0
DICTIONARY
  5
17
102
{ACAD_REACTORS
330
C
102
}
100
AcDbDictionary
280
0
281
1
  3
Standard
350
18
  0
DICTIONARY
  5
19
102
{ACAD_REACTORS
330
C
102
}
100
AcDbDictionary
281
1
  0
DICTIONARY
  5
1A
102
{ACAD_REACTORS
330
C
102
}
100
AcDbDictionary
281
1
  3
Model
350
26D
  3
Layout1
350
26E
  0
ACDBPLACEHOLDER
  5
F
102
{ACAD_REACTORS
330
E
102
}
  0
MLINESTYLE
  5
18
102
{ACAD_REACTORS
330
17
102
}
100
AcDbMlineStyle
  2
STANDARD
 70
0
  3

 62
256
 51
90.0
 52
90.0
 71
2
 49
0.5
 62
256
  6
BYLAYER
 49
-0.5
 62
256
  6
BYLAYER
  0
LAYOUT
  5
26D
102
{ACAD_REACTORS
330
1A
102
}
100
AcDbPlotSettings
  1

  2
none_device
  4

  6

 40
0.0
 41
0.0
 42
0.0
 43
0.0
 44
210.0
 45
297.0
 46
0.0
 47
0.0
 48
0.0
 49
0.0
140
0.0
141
0.0
142
1.0
143
1.0
 70
1024
 72
1
 73
0
 74
0
  7

 75
0
147
1.0
148
0.0
149
0.0
100
AcDbLayout
  1
Model
 70
0
 71
0
 10
0.0
 20
0.0
 11
210.0
 21
297.0
 12
0.0
 22
0.0
 32
0.0
 14
0.0
 24
0.0
 34
0.0
 15
0.0
 25
0.0
 35
0.0
146
0.0
 13
0.0
 23
0.0
 33
0.0
 16
1.0
 26
0.0
 36
0.0
 17
0.0
 27
1.0
 37
0.0
 76
0
330
210
345
0
346
0
  0
LAYOUT
  5
26E
102
{ACAD_REACTORS
330
1A
102
}
100
AcDbPlotSettings
  1

  2
none_device
  4

  6

 40
0.0
 41
0.0
 42
0.0
 43
0.0
 44
210.0
 45
297.0
 46
0.0
 47
0.0
 48
0.0
 49
0.0
140
0.0
141
0.0
142
1.0
143
1.0
 70
0
 72
1
 73
0
 74
0
  7

 75
0
147
1.0
148
0.0
149
0.0
100
AcDbLayout
  1
Layout1
 70
0
 71
1
 10
0.0
 20
0.0
 11
210.0
 21
297.0
 12
0.0
 22
0.0
 32
0.0
 14
0.0
 24
0.0
 34
0.0
 15
0.0
 25
0.0
 35
0.0
146
0.0
 13
0.0
 23
0.0
 33
0.0
 16
1.0
 26
0.0
 36
0.0
 17
0.0
 27
1.0
 37
0.0
 76
0
330
211
345
0
346
0
  0
ENDSEC
  0
EOF
