999
DXF file: C:\Users\sesa63760\Dev\_Creo\CAD\MCADUE0002248_3D-CAD\drw0001_3.dxf
999
Pro/ENGINEER 2019471 by Parametric Technology Corporation
  0
SECTION
  2
HEADER
  9
$ACADVER
  1
AC1024
  9
$DWGCODEPAGE
  3
ANSI_1252
  9
$EXTMAX
 10
1264.0629489645
 20
1787.7461706783
 30
0.0
  9
$EXTMIN
 10
0.0
 20
0.0
 30
0.0
  9
$LIMMIN
 10
0.0
 20
0.0
  9
$LIMMAX
 10
1264.0629489645
 20
1787.7461706783
  9
$VIEWCTR
 10
632.0314744822
 20
893.8730853392
  9
$VIEWSIZE
 40
1787.7461706783
  9
$CLAYER
  8
0
  9
$LTSCALE
 40
116.5345651998
  9
$CELTYPE
  6
BYLAYER
  9
$DIMSCALE
 40
1.0
  9
$DIMASZ
 40
15.0483684401
  9
$DIMEXO
 40
1.0
  9
$DIMDLI
 40
80.5147905017
  9
$DIMEXE
 40
1.0
  9
$DIMCEN
 40
19.0692924872
  9
$DIMLFAC
 40
1.0
  9
$DIMBLK
  1
_FILLED
  9
$DIMALT
 70
0
  9
$DIMALTF
 40
0.0393700787
  9
$DIMTXT
 40
21.0677158161
  9
$DIMTOL
 70
1
  9
$DIMLIM
 70
0
  9
$DIMTFAC
 40
1.0
  9
$DIMTP
 40
0.01
  9
$DIMTM
 40
0.01
  9
$DIMGAP
 40
0.625
  9
$DIMDSEP
 70
46
  9
$AUNITS
 70
0
  9
$PDMODE
 70
3
  9
$PDSIZE
 40
0.3125
  9
$HANDSEED
  5
38F
  9
$TILEMODE
 70
1
  9
$MEASUREMENT
 70
1
  9
$INSUNITS
 70
4
  0
ENDSEC
  0
SECTION
  2
CLASSES
  0
CLASS
  1
ACDBDICTIONARYWDFLT
  2
AcDbDictionaryWithDefault
  3
AutoCAD 2000
 90
0
 91
1
280
0
281
0
  0
CLASS
  1
ACDBPLACEHOLDER
  2
AcDbPlaceHolder
  3
AutoCAD 2000
 90
0
 91
1
280
0
281
0
  0
CLASS
  1
LAYOUT
  2
AcDbLayout
  3
AutoCAD 2000
 90
0
 91
0
280
0
281
0
  0
ENDSEC
  0
SECTION
  2
TABLES
  0
TABLE
  2
VPORT
  5
8
100
AcDbSymbolTable
 70
2
  0
VPORT
  5
1F4
100
AcDbSymbolTableRecord
100
AcDbViewportTableRecord
  2
*ACTIVE
 70
0
 10
0.0
 20
0.0
 11
1.0
 21
1.0
 12
632.0314744822
 22
893.8730853392
 13
0.0
 23
0.0
 14
1.0
 24
1.0
 15
0.0
 25
0.0
 16
0.0
 26
0.0
 36
1.0
 17
0.0
 27
0.0
 37
0.0
 40
1787.7461706783
 41
0.7070707071
 42
50.0
 43
0.0
 44
0.0
 50
0.0
 51
0.0
 71
0
 72
100
 73
1
 74
1
 75
0
 76
0
 77
0
 78
0
  0
ENDTAB
  0
TABLE
  2
LTYPE
  5
5
100
AcDbSymbolTable
 70
6
  0
LTYPE
  5
14
100
AcDbSymbolTableRecord
100
AcDbLinetypeTableRecord
  2
BYBLOCK
 70
0
  3

 72
65
 73
0
 40
0.0
  0
LTYPE
  5
15
100
AcDbSymbolTableRecord
100
AcDbLinetypeTableRecord
  2
BYLAYER
 70
0
  3

 72
65
 73
0
 40
0.0
  0
LTYPE
  5
16
100
AcDbSymbolTableRecord
100
AcDbLinetypeTableRecord
  2
CONTINUOUS
 70
64
  3
Solid line
 72
65
 73
0
 40
0.0
  0
LTYPE
  5
1F5
100
AcDbSymbolTableRecord
100
AcDbLinetypeTableRecord
  2
CENTER
 70
64
  3
____ _ ____ _ ____ _ ____ _ ____ _ ____ _ ____
 72
65
 73
4
 40
0.6
 49
0.375
 74
0
 49
-0.075
 74
0
 49
0.075
 74
0
 49
-0.075
 74
0
  0
LTYPE
  5
1F6
100
AcDbSymbolTableRecord
100
AcDbLinetypeTableRecord
  2
HIDDEN
 70
64
  3
- - - - - - - - - - - - - - - - - - - -
 72
65
 73
2
 40
0.2
 49
0.1
 74
0
 49
-0.1
 74
0
  0
LTYPE
  5
1F7
100
AcDbSymbolTableRecord
100
AcDbLinetypeTableRecord
  2
PHANTOM
 70
64
  3
_____ _ _ _____ _ _ _____ _ _ _____
 72
65
 73
6
 40
0.8
 49
0.45
 74
0
 49
-0.05
 74
0
 49
0.1
 74
0
 49
-0.05
 74
0
 49
0.1
 74
0
 49
-0.05
 74
0
  0
LTYPE
  5
1F8
100
AcDbSymbolTableRecord
100
AcDbLinetypeTableRecord
  2
DOT
 70
64
  3
. . . . . . . . . . . . . . . . . . . .
 72
65
 73
2
 40
0.2
 49
0.1
 74
0
 49
-0.1
 74
0
  0
LTYPE
  5
1F9
100
AcDbSymbolTableRecord
100
AcDbLinetypeTableRecord
  2
DASHED
 70
64
  3
- - - - - - - - - - - - - - - - - - - -
 72
65
 73
2
 40
0.2
 49
0.1
 74
0
 49
-0.1
 74
0
  0
ENDTAB
  0
TABLE
  2
LAYER
  5
2
100
AcDbSymbolTable
 70
36
  0
LAYER
  5
10
100
AcDbSymbolTableRecord
100
AcDbLayerTableRecord
  2
0
 70
0
 62
7
  6
CONTINUOUS
370
-3
390
F
  0
LAYER
  5
1FA
100
AcDbSymbolTableRecord
100
AcDbLayerTableRecord
  2
DEFAULT_1
 70
0
 62
7
  6
CENTER
370
-3
390
F
  0
LAYER
  5
1FB
100
AcDbSymbolTableRecord
100
AcDbLayerTableRecord
  2
DEFAULT_2
 70
0
 62
8
  6
HIDDEN
370
-3
390
F
  0
LAYER
  5
1FC
100
AcDbSymbolTableRecord
100
AcDbLayerTableRecord
  2
DEFAULT_3
 70
0
 62
7
  6
PHANTOM
370
-3
390
F
  0
LAYER
  5
1FD
100
AcDbSymbolTableRecord
100
AcDbLayerTableRecord
  2
00_COMPONENTS
 70
0
 62
7
  6
CONTINUOUS
370
-3
390
F
  0
LAYER
  5
1FE
100
AcDbSymbolTableRecord
100
AcDbLayerTableRecord
  2
01_1_DEFAULT_DATUMS
 70
0
 62
7
  6
CONTINUOUS
370
-3
390
F
  0
LAYER
  5
1FF
100
AcDbSymbolTableRecord
100
AcDbLayerTableRecord
  2
01_PLANES
 70
0
 62
7
  6
CONTINUOUS
370
-3
390
F
  0
LAYER
  5
200
100
AcDbSymbolTableRecord
100
AcDbLayerTableRecord
  2
02_COORD_SYS
 70
0
 62
7
  6
CONTINUOUS
370
-3
390
F
  0
LAYER
  5
201
100
AcDbSymbolTableRecord
100
AcDbLayerTableRecord
  2
03_AXES
 70
0
 62
7
  6
CONTINUOUS
370
-3
390
F
  0
LAYER
  5
202
100
AcDbSymbolTableRecord
100
AcDbLayerTableRecord
  2
04_POINTS
 70
0
 62
7
  6
CONTINUOUS
370
-3
390
F
  0
LAYER
  5
203
100
AcDbSymbolTableRecord
100
AcDbLayerTableRecord
  2
05_CURVES
 70
0
 62
7
  6
CONTINUOUS
370
-3
390
F
  0
LAYER
  5
204
100
AcDbSymbolTableRecord
100
AcDbLayerTableRecord
  2
06_SURFS
 70
0
 62
7
  6
CONTINUOUS
370
-3
390
F
  0
LAYER
  5
205
100
AcDbSymbolTableRecord
100
AcDbLayerTableRecord
  2
07_COSMETICS
 70
0
 62
7
  6
CONTINUOUS
370
-3
390
F
  0
LAYER
  5
206
100
AcDbSymbolTableRecord
100
AcDbLayerTableRecord
  2
10_NOTES
 70
0
 62
7
  6
CONTINUOUS
370
-3
390
F
  0
LAYER
  5
207
100
AcDbSymbolTableRecord
100
AcDbLayerTableRecord
  2
11_NOTES_PUB
 70
0
 62
7
  6
CONTINUOUS
370
-3
390
F
  0
LAYER
  5
208
100
AcDbSymbolTableRecord
100
AcDbLayerTableRecord
  2
13_REF_GTOL
 70
0
 62
7
  6
CONTINUOUS
370
-3
390
F
  0
LAYER
  5
209
100
AcDbSymbolTableRecord
100
AcDbLayerTableRecord
  2
16_MISC
 70
0
 62
7
  6
CONTINUOUS
370
-3
390
F
  0
LAYER
  5
20A
100
AcDbSymbolTableRecord
100
AcDbLayerTableRecord
  2
17_NO_PRINT
 70
0
 62
7
  6
CONTINUOUS
370
-3
390
F
  0
LAYER
  5
20B
100
AcDbSymbolTableRecord
100
AcDbLayerTableRecord
  2
18_DATUM_CAMS_JOINTS
 70
0
 62
7
  6
CONTINUOUS
370
-3
390
F
  0
LAYER
  5
20C
100
AcDbSymbolTableRecord
100
AcDbLayerTableRecord
  2
19_DATUM_FUNCTIONAL
 70
0
 62
7
  6
CONTINUOUS
370
-3
390
F
  0
LAYER
  5
20D
100
AcDbSymbolTableRecord
100
AcDbLayerTableRecord
  2
20_DATUM_KINEMATIC_SCHEME
 70
0
 62
7
  6
CONTINUOUS
370
-3
390
F
  0
ENDTAB
  0
TABLE
  2
STYLE
  5
3
100
AcDbSymbolTable
 70
1
  0
STYLE
  5
11
100
AcDbSymbolTableRecord
100
AcDbTextStyleTableRecord
  2
STANDARD
 70
0
 40
0.0
 41
0.8
 50
0.0
 71
0
 42
0.2
  3
txt
  4

  0
STYLE
  5
20E
100
AcDbSymbolTableRecord
100
AcDbTextStyleTableRecord
  2
TEXTSTYLE_1
 70
0
 40
0.0
 41
0.8
 50
0.0
 71
0
 42
0.2
  3
gdt
  4

  0
ENDTAB
  0
TABLE
  2
VIEW
  5
6
100
AcDbSymbolTable
 70
0
  0
ENDTAB
  0
TABLE
  2
UCS
  5
7
100
AcDbSymbolTable
 70
0
  0
ENDTAB
  0
TABLE
  2
APPID
  5
9
100
AcDbSymbolTable
 70
1
  0
APPID
  5
20F
100
AcDbSymbolTableRecord
100
AcDbRegAppTableRecord
  2
ACAD
 70
0
  0
ENDTAB
  0
TABLE
  2
BLOCK_RECORD
  5
1
100
AcDbSymbolTable
 70
0
  0
BLOCK_RECORD
  5
210
100
AcDbSymbolTableRecord
100
AcDbBlockTableRecord
  2
*Model_Space
  0
BLOCK_RECORD
  5
211
100
AcDbSymbolTableRecord
100
AcDbBlockTableRecord
  2
*Paper_Space
  0
BLOCK_RECORD
  5
212
100
AcDbSymbolTableRecord
100
AcDbBlockTableRecord
  2
_FILLED
  0
ENDTAB
  0
TABLE
  2
DIMSTYLE
  5
A
100
AcDbSymbolTable
 70
1
100
AcDbDimStyleTable
 71
0
  0
DIMSTYLE
105
213
100
AcDbSymbolTableRecord
100
AcDbDimStyleTableRecord
  2
STANDARD
 70
0
  3

  4

 40
1.0
 41
15.0483684401
 42
1.0
 43
0.38
 44
1.0
 45
0.0
 46
0.0
 47
0.01
 48
0.01
140
21.0677158161
141
0.09
142
0.0
143
25.4
144
1.0
145
0.0
146
1.0
147
0.625
 71
1
 72
0
 73
0
 74
0
 75
0
 76
0
 77
1
 78
8
 79
2
170
0
171
1
172
0
173
0
174
0
175
0
176
0
177
0
178
0
270
2
179
2
271
2
272
2
273
2
274
2
275
0
280
0
281
0
282
0
283
1
284
8
285
0
286
0
287
3
288
0
340
11
278
46
341
212
342
212
343
212
344
212
  0
ENDTAB
  0
ENDSEC
  0
SECTION
  2
BLOCKS
  0
BLOCK
  5
20
100
AcDbEntity
  8
0
100
AcDbBlockBegin
  2
*Model_Space
 70
0
 10
0.0
 20
0.0
 30
0.0
  3
*Model_Space
  1

  0
ENDBLK
  5
21
100
AcDbEntity
  8
0
100
AcDbBlockEnd
  0
BLOCK
  5
1C
100
AcDbEntity
  8
0
100
AcDbBlockBegin
  2
*Paper_Space
 70
0
 10
0.0
 20
0.0
 30
0.0
  3
*Paper_Space
  1

  0
ENDBLK
  5
1D
100
AcDbEntity
  8
0
100
AcDbBlockEnd
  0
BLOCK
  5
214
100
AcDbEntity
  8
0
100
AcDbBlockBegin
  2
_FILLED
 70
64
 10
0.0
 20
0.0
  3
_FILLED
  1

  0
SOLID
  5
215
100
AcDbEntity
  8
0
  6
BYBLOCK
 62
0
100
AcDbTrace
 10
0.0
 20
0.0
 11
-1.0
 21
0.25
 12
-1.0
 22
-0.25
 13
-1.0
 23
-0.25
  0
ENDBLK
  5
216
100
AcDbEntity
  8
0
  6
BYBLOCK
 62
0
100
AcDbBlockEnd
  0
ENDSEC
  0
SECTION
  2
ENTITIES
  0
LINE
  5
217
100
AcDbEntity
  8
0
100
AcDbLine
 62
7
  6
CONTINUOUS
 10
149.5369449418
 20
745.6442974483
 11
149.5369449418
 21
1016.5442974483
  0
LINE
  5
218
100
AcDbEntity
  8
0
100
AcDbLine
 62
7
  6
CONTINUOUS
 10
150.7369449418
 20
745.6442974483
 11
150.7369449418
 21
1016.5442974483
  0
LINE
  5
219
100
AcDbEntity
  8
0
100
AcDbLine
 62
7
  6
CONTINUOUS
 10
152.2363415978
 20
1041.9545940597
 11
152.2363415978
 21
1025.9545940597
  0
LINE
  5
21A
100
AcDbEntity
  8
0
100
AcDbLine
 62
7
  6
CONTINUOUS
 10
154.2363415978
 20
1025.9545940597
 11
154.2363415978
 21
1041.9545940597
  0
LINE
  5
21B
100
AcDbEntity
  8
0
100
AcDbLine
 62
7
  6
CONTINUOUS
 10
171.7869449418
 20
880.9942974483
 11
171.7869449418
 21
794.4942974483
  0
LINE
  5
21C
100
AcDbEntity
  8
0
100
AcDbLine
 62
7
  6
CONTINUOUS
 10
172.2869449418
 20
794.4942974483
 11
172.2869449418
 21
880.9942974483
  0
LINE
  5
21D
100
AcDbEntity
  8
0
100
AcDbLine
 62
7
  6
CONTINUOUS
 10
173.1087456794
 20
795.4942974489
 11
173.1087456794
 21
879.9942974477
  0
LINE
  5
21E
100
AcDbEntity
  8
0
100
AcDbLine
 62
7
  6
CONTINUOUS
 10
175.0783611854
 20
879.9942974462
 11
175.0783611854
 21
795.4942974512
  0
LINE
  5
21F
100
AcDbEntity
  8
0
100
AcDbLine
 62
7
  6
CONTINUOUS
 10
175.1702177621
 20
795.4942974511
 11
175.1702177622
 21
879.9942974457
  0
LINE
  5
220
100
AcDbEntity
  8
0
100
AcDbLine
 62
7
  6
CONTINUOUS
 10
176.1550255151
 20
879.9942974483
 11
176.1550255151
 21
795.4942974483
  0
LINE
  5
221
100
AcDbEntity
  8
0
100
AcDbLine
 62
7
  6
CONTINUOUS
 10
177.0369449418
 20
797.7442974483
 11
177.0369449418
 21
877.7442974483
  0
LINE
  5
222
100
AcDbEntity
  8
0
100
AcDbLine
 62
7
  6
CONTINUOUS
 10
198.7869449418
 20
907.9942974483
 11
198.7869449418
 21
907.4942974483
  0
LINE
  5
223
100
AcDbEntity
  8
0
100
AcDbLine
 62
7
  6
CONTINUOUS
 10
198.7869449418
 20
767.9942974483
 11
198.7869449418
 21
767.4942974483
  0
LINE
  5
224
100
AcDbEntity
  8
0
100
AcDbLine
 62
7
  6
CONTINUOUS
 10
199.7869449418
 20
906.6724967107
 11
199.7869449418
 21
903.626216875
  0
LINE
  5
225
100
AcDbEntity
  8
0
100
AcDbLine
 62
7
  6
CONTINUOUS
 10
199.7869449388
 20
771.8623780216
 11
199.7869449461
 21
768.8160981859
  0
LINE
  5
226
100
AcDbEntity
  8
0
100
AcDbLine
 62
7
  6
CONTINUOUS
 10
169.9098876733
 20
1021.4442845105
 11
170.2519579206
 21
1021.8259154391
  0
LINE
  5
227
100
AcDbEntity
  8
0
100
AcDbLine
 62
7
  6
CONTINUOUS
 10
168.2714714738
 20
1025.9545940597
 11
169.0740053004
 21
1021.825915439
  0
LINE
  5
228
100
AcDbEntity
  8
0
100
AcDbLine
 62
7
  6
CONTINUOUS
 10
170.2519579206
 20
1021.825915439
 11
169.449424094
 21
1025.9545940597
  0
LINE
  5
229
100
AcDbEntity
  8
0
100
AcDbLine
 62
7
  6
CONTINUOUS
 10
1146.6369449418
 20
742.7442974483
 11
152.4369449418
 21
742.7442974483
  0
LINE
  5
22A
100
AcDbEntity
  8
0
100
AcDbLine
 62
7
  6
CONTINUOUS
 10
149.5369449418
 20
745.6442974483
 11
1149.5369449418
 21
745.6442974483
  0
LINE
  5
22B
100
AcDbEntity
  8
0
100
AcDbLine
 62
7
  6
CONTINUOUS
 10
198.7869449418
 20
767.4942974483
 11
600.2869449418
 21
767.4942974483
  0
LINE
  5
22C
100
AcDbEntity
  8
0
100
AcDbLine
 62
7
  6
CONTINUOUS
 10
698.7869449418
 20
767.4942974483
 11
1100.2869449418
 21
767.4942974483
  0
LINE
  5
22D
100
AcDbEntity
  8
0
100
AcDbLine
 62
7
  6
CONTINUOUS
 10
1100.2869449418
 20
767.9942974483
 11
698.7869449418
 21
767.9942974483
  0
LINE
  5
22E
100
AcDbEntity
  8
0
100
AcDbLine
 62
7
  6
CONTINUOUS
 10
600.2869449418
 20
767.9942974483
 11
198.7869449418
 21
767.9942974483
  0
LINE
  5
22F
100
AcDbEntity
  8
0
100
AcDbLine
 62
7
  6
CONTINUOUS
 10
1099.2869449415
 20
768.8160981859
 11
699.786944942
 21
768.8160981859
  0
LINE
  5
230
100
AcDbEntity
  8
0
100
AcDbLine
 62
7
  6
CONTINUOUS
 10
599.2869449415
 20
768.8160981859
 11
199.7869449421
 21
768.8160981859
  0
LINE
  5
231
100
AcDbEntity
  8
0
100
AcDbLine
 62
7
  6
CONTINUOUS
 10
199.7869449439
 20
770.7857136919
 11
599.2869449388
 21
770.7857136919
  0
LINE
  5
232
100
AcDbEntity
  8
0
100
AcDbLine
 62
7
  6
CONTINUOUS
 10
699.7869449438
 20
770.7857136919
 11
1099.2869449388
 21
770.7857136919
  0
LINE
  5
233
100
AcDbEntity
  8
0
100
AcDbLine
 62
7
  6
CONTINUOUS
 10
1099.286944939
 20
770.8775702686
 11
699.7869449443
 21
770.8775702687
  0
LINE
  5
234
100
AcDbEntity
  8
0
100
AcDbLine
 62
7
  6
CONTINUOUS
 10
599.2869449389
 20
770.8775702686
 11
199.7869449443
 21
770.8775702687
  0
LINE
  5
235
100
AcDbEntity
  8
0
100
AcDbLine
 62
7
  6
CONTINUOUS
 10
199.7869449418
 20
771.8623780216
 11
599.2869449418
 21
771.8623780216
  0
LINE
  5
236
100
AcDbEntity
  8
0
100
AcDbLine
 62
7
  6
CONTINUOUS
 10
699.7869449418
 20
771.8623780216
 11
1099.2869449418
 21
771.8623780216
  0
LINE
  5
237
100
AcDbEntity
  8
0
100
AcDbLine
 62
7
  6
CONTINUOUS
 10
1097.0369449418
 20
772.7442974483
 11
702.0369449418
 21
772.7442974483
  0
LINE
  5
238
100
AcDbEntity
  8
0
100
AcDbLine
 62
7
  6
CONTINUOUS
 10
597.0369449418
 20
772.7442974483
 11
202.0369449418
 21
772.7442974483
  0
LINE
  5
239
100
AcDbEntity
  8
0
100
AcDbLine
 62
7
  6
CONTINUOUS
 10
171.7869449418
 20
794.4942974483
 11
172.2869449418
 21
794.4942974483
  0
LINE
  5
23A
100
AcDbEntity
  8
0
100
AcDbLine
 62
7
  6
CONTINUOUS
 10
626.7869449418
 20
794.4942974483
 11
627.2869449418
 21
794.4942974483
  0
LINE
  5
23B
100
AcDbEntity
  8
0
100
AcDbLine
 62
7
  6
CONTINUOUS
 10
671.7869449418
 20
794.4942974483
 11
672.2869449418
 21
794.4942974483
  0
LINE
  5
23C
100
AcDbEntity
  8
0
100
AcDbLine
 62
7
  6
CONTINUOUS
 10
1126.7869449418
 20
794.4942974483
 11
1127.2869449418
 21
794.4942974483
  0
LINE
  5
23D
100
AcDbEntity
  8
0
100
AcDbLine
 62
7
  6
CONTINUOUS
 10
173.1087456794
 20
795.4942974483
 11
176.1550255151
 21
795.4942974483
  0
LINE
  5
23E
100
AcDbEntity
  8
0
100
AcDbLine
 62
7
  6
CONTINUOUS
 10
622.9188643685
 20
795.4942974453
 11
625.9651442041
 21
795.4942974525
  0
LINE
  5
23F
100
AcDbEntity
  8
0
100
AcDbLine
 62
7
  6
CONTINUOUS
 10
673.1087456794
 20
795.4942974483
 11
676.1550255151
 21
795.4942974483
  0
LINE
  5
240
100
AcDbEntity
  8
0
100
AcDbLine
 62
7
  6
CONTINUOUS
 10
1122.9188643685
 20
795.4942974453
 11
1125.9651442042
 21
795.4942974525
  0
LINE
  5
241
100
AcDbEntity
  8
0
100
AcDbLine
 62
7
  6
CONTINUOUS
 10
599.2869449418
 20
768.8160981859
 11
599.2869449418
 21
771.8623780216
  0
LINE
  5
242
100
AcDbEntity
  8
0
100
AcDbLine
 62
7
  6
CONTINUOUS
 10
599.2869449447
 20
903.626216875
 11
599.2869449375
 21
906.6724967107
  0
LINE
  5
243
100
AcDbEntity
  8
0
100
AcDbLine
 62
7
  6
CONTINUOUS
 10
600.2869449418
 20
767.4942974483
 11
600.2869449418
 21
767.9942974483
  0
LINE
  5
244
100
AcDbEntity
  8
0
100
AcDbLine
 62
7
  6
CONTINUOUS
 10
600.2869449418
 20
907.4942974483
 11
600.2869449418
 21
907.9942974483
  0
LINE
  5
245
100
AcDbEntity
  8
0
100
AcDbLine
 62
7
  6
CONTINUOUS
 10
622.0369449418
 20
877.7442974483
 11
622.0369449418
 21
797.7442974483
  0
LINE
  5
246
100
AcDbEntity
  8
0
100
AcDbLine
 62
7
  6
CONTINUOUS
 10
622.9188643685
 20
795.4942974483
 11
622.9188643685
 21
879.9942974483
  0
LINE
  5
247
100
AcDbEntity
  8
0
100
AcDbLine
 62
7
  6
CONTINUOUS
 10
623.9036721214
 20
879.9942974454
 11
623.9036721213
 21
795.4942974508
  0
LINE
  5
248
100
AcDbEntity
  8
0
100
AcDbLine
 62
7
  6
CONTINUOUS
 10
623.9955286981
 20
795.4942974503
 11
623.9955286981
 21
879.9942974453
  0
LINE
  5
249
100
AcDbEntity
  8
0
100
AcDbLine
 62
7
  6
CONTINUOUS
 10
625.9651442041
 20
879.994297448
 11
625.9651442041
 21
795.4942974525
  0
LINE
  5
24A
100
AcDbEntity
  8
0
100
AcDbLine
 62
7
  6
CONTINUOUS
 10
626.7869449418
 20
880.9942974483
 11
626.7869449418
 21
794.4942974483
  0
LINE
  5
24B
100
AcDbEntity
  8
0
100
AcDbLine
 62
7
  6
CONTINUOUS
 10
627.2869449418
 20
794.4942974483
 11
627.2869449418
 21
880.9942974483
  0
LINE
  5
24C
100
AcDbEntity
  8
0
100
AcDbLine
 62
7
  6
CONTINUOUS
 10
646.2363415978
 20
1041.9545940597
 11
646.2363415978
 21
1025.9545940597
  0
LINE
  5
24D
100
AcDbEntity
  8
0
100
AcDbLine
 62
7
  6
CONTINUOUS
 10
648.2363415978
 20
1025.9545940597
 11
648.2363415978
 21
1041.9545940597
  0
LINE
  5
24E
100
AcDbEntity
  8
0
100
AcDbLine
 62
7
  6
CONTINUOUS
 10
651.3375482858
 20
1042.6545940597
 11
651.3375482858
 21
1026.2545940597
  0
LINE
  5
24F
100
AcDbEntity
  8
0
100
AcDbLine
 62
7
  6
CONTINUOUS
 10
653.1375482858
 20
1026.2545940597
 11
653.1375482858
 21
1042.6545940597
  0
LINE
  5
250
100
AcDbEntity
  8
0
100
AcDbLine
 62
7
  6
CONTINUOUS
 10
681.0213873596
 20
1053.4174843409
 11
679.2423639079
 21
1048.2545942441
  0
LINE
  5
251
100
AcDbEntity
  8
0
100
AcDbLine
 62
7
  6
CONTINUOUS
 10
680.9594932076
 20
1048.2837448887
 11
682.7744235066
 21
1053.5508400767
  0
LINE
  5
252
100
AcDbEntity
  8
0
100
AcDbLine
 62
7
  6
CONTINUOUS
 10
625.9651442041
 20
879.9942974483
 11
622.9188643685
 21
879.9942974483
  0
LINE
  5
253
100
AcDbEntity
  8
0
100
AcDbLine
 62
7
  6
CONTINUOUS
 10
176.1550255151
 20
879.9942974513
 11
173.1087456794
 21
879.994297444
  0
LINE
  5
254
100
AcDbEntity
  8
0
100
AcDbLine
 62
7
  6
CONTINUOUS
 10
1125.9651442042
 20
879.9942974483
 11
1122.9188643685
 21
879.9942974483
  0
LINE
  5
255
100
AcDbEntity
  8
0
100
AcDbLine
 62
7
  6
CONTINUOUS
 10
676.1550255151
 20
879.9942974513
 11
673.1087456794
 21
879.994297444
  0
LINE
  5
256
100
AcDbEntity
  8
0
100
AcDbLine
 62
7
  6
CONTINUOUS
 10
1127.2869449418
 20
880.9942974483
 11
1126.7869449418
 21
880.9942974483
  0
LINE
  5
257
100
AcDbEntity
  8
0
100
AcDbLine
 62
7
  6
CONTINUOUS
 10
672.2869449418
 20
880.9942974483
 11
671.7869449418
 21
880.9942974483
  0
LINE
  5
258
100
AcDbEntity
  8
0
100
AcDbLine
 62
7
  6
CONTINUOUS
 10
627.2869449418
 20
880.9942974483
 11
626.7869449418
 21
880.9942974483
  0
LINE
  5
259
100
AcDbEntity
  8
0
100
AcDbLine
 62
7
  6
CONTINUOUS
 10
172.2869449418
 20
880.9942974483
 11
171.7869449418
 21
880.9942974483
  0
LINE
  5
25A
100
AcDbEntity
  8
0
100
AcDbLine
 62
7
  6
CONTINUOUS
 10
202.0369449418
 20
902.7442974483
 11
597.0369449418
 21
902.7442974483
  0
LINE
  5
25B
100
AcDbEntity
  8
0
100
AcDbLine
 62
7
  6
CONTINUOUS
 10
702.0369449418
 20
902.7442974483
 11
1097.0369449418
 21
902.7442974483
  0
LINE
  5
25C
100
AcDbEntity
  8
0
100
AcDbLine
 62
7
  6
CONTINUOUS
 10
671.7869449418
 20
880.9942974483
 11
671.7869449418
 21
794.4942974483
  0
LINE
  5
25D
100
AcDbEntity
  8
0
100
AcDbLine
 62
7
  6
CONTINUOUS
 10
672.2869449418
 20
794.4942974483
 11
672.2869449418
 21
880.9942974483
  0
LINE
  5
25E
100
AcDbEntity
  8
0
100
AcDbLine
 62
7
  6
CONTINUOUS
 10
673.1087456794
 20
795.4942974485
 11
673.1087456794
 21
879.994297448
  0
LINE
  5
25F
100
AcDbEntity
  8
0
100
AcDbLine
 62
7
  6
CONTINUOUS
 10
675.0783611854
 20
879.9942974462
 11
675.0783611854
 21
795.4942974512
  0
LINE
  5
260
100
AcDbEntity
  8
0
100
AcDbLine
 62
7
  6
CONTINUOUS
 10
675.1702177621
 20
795.4942974511
 11
675.1702177622
 21
879.9942974457
  0
LINE
  5
261
100
AcDbEntity
  8
0
100
AcDbLine
 62
7
  6
CONTINUOUS
 10
676.1550255151
 20
879.9942974483
 11
676.1550255151
 21
795.4942974483
  0
LINE
  5
262
100
AcDbEntity
  8
0
100
AcDbLine
 62
7
  6
CONTINUOUS
 10
677.0369449418
 20
797.7442974483
 11
677.0369449418
 21
877.7442974483
  0
LINE
  5
263
100
AcDbEntity
  8
0
100
AcDbLine
 62
7
  6
CONTINUOUS
 10
682.7744235114
 20
1053.550839992
 11
682.7744235114
 21
1053.7545940597
  0
LINE
  5
264
100
AcDbEntity
  8
0
100
AcDbLine
 62
7
  6
CONTINUOUS
 10
679.1375482894
 20
1046.2545941281
 11
679.2423638397
 21
1048.2545939708
  0
LINE
  5
265
100
AcDbEntity
  8
0
100
AcDbLine
 62
7
  6
CONTINUOUS
 10
681.1348183967
 20
1046.2545944154
 11
681.2396229138
 21
1048.2545940597
  0
LINE
  5
266
100
AcDbEntity
  8
0
100
AcDbLine
 62
7
  6
CONTINUOUS
 10
1099.2869449418
 20
903.626216875
 11
699.7869449418
 21
903.626216875
  0
LINE
  5
267
100
AcDbEntity
  8
0
100
AcDbLine
 62
7
  6
CONTINUOUS
 10
599.2869449418
 20
903.626216875
 11
199.7869449418
 21
903.626216875
  0
LINE
  5
268
100
AcDbEntity
  8
0
100
AcDbLine
 62
7
  6
CONTINUOUS
 10
199.7869449446
 20
904.6110246279
 11
599.2869449392
 21
904.6110246278
  0
LINE
  5
269
100
AcDbEntity
  8
0
100
AcDbLine
 62
7
  6
CONTINUOUS
 10
699.7869449446
 20
904.6110246279
 11
1099.2869449392
 21
904.6110246278
  0
LINE
  5
26A
100
AcDbEntity
  8
0
100
AcDbLine
 62
7
  6
CONTINUOUS
 10
1099.2869449397
 20
904.7028812046
 11
699.7869449447
 21
904.7028812047
  0
LINE
  5
26B
100
AcDbEntity
  8
0
100
AcDbLine
 62
7
  6
CONTINUOUS
 10
599.2869449397
 20
904.7028812046
 11
199.7869449448
 21
904.7028812047
  0
LINE
  5
26C
100
AcDbEntity
  8
0
100
AcDbLine
 62
7
  6
CONTINUOUS
 10
199.7869449424
 20
906.6724967107
 11
599.2869449413
 21
906.6724967106
  0
LINE
  5
26D
100
AcDbEntity
  8
0
100
AcDbLine
 62
7
  6
CONTINUOUS
 10
699.7869449424
 20
906.6724967107
 11
1099.2869449412
 21
906.6724967106
  0
LINE
  5
26E
100
AcDbEntity
  8
0
100
AcDbLine
 62
7
  6
CONTINUOUS
 10
198.7869449418
 20
907.4942974483
 11
600.2869449418
 21
907.4942974483
  0
LINE
  5
26F
100
AcDbEntity
  8
0
100
AcDbLine
 62
7
  6
CONTINUOUS
 10
698.7869449418
 20
907.4942974483
 11
1100.2869449418
 21
907.4942974483
  0
LINE
  5
270
100
AcDbEntity
  8
0
100
AcDbLine
 62
7
  6
CONTINUOUS
 10
1100.2869449418
 20
907.9942974483
 11
698.7869449418
 21
907.9942974483
  0
LINE
  5
271
100
AcDbEntity
  8
0
100
AcDbLine
 62
7
  6
CONTINUOUS
 10
600.2869449418
 20
907.9942974483
 11
198.7869449418
 21
907.9942974483
  0
LINE
  5
272
100
AcDbEntity
  8
0
100
AcDbLine
 62
7
  6
CONTINUOUS
 10
711.5402892162
 20
1046.2545940597
 11
711.4354736577
 21
1048.2545940596
  0
LINE
  5
273
100
AcDbEntity
  8
0
100
AcDbLine
 62
7
  6
CONTINUOUS
 10
713.5375449996
 20
1046.2546567627
 11
713.4327327423
 21
1048.2545937719
  0
LINE
  5
274
100
AcDbEntity
  8
0
100
AcDbLine
 62
7
  6
CONTINUOUS
 10
698.7869449418
 20
907.9942974483
 11
698.7869449418
 21
907.4942974483
  0
LINE
  5
275
100
AcDbEntity
  8
0
100
AcDbLine
 62
7
  6
CONTINUOUS
 10
698.7869449418
 20
767.9942974483
 11
698.7869449418
 21
767.4942974483
  0
LINE
  5
276
100
AcDbEntity
  8
0
100
AcDbLine
 62
7
  6
CONTINUOUS
 10
699.7869449418
 20
906.6724967107
 11
699.7869449418
 21
903.626216875
  0
LINE
  5
277
100
AcDbEntity
  8
0
100
AcDbLine
 62
7
  6
CONTINUOUS
 10
699.7869449388
 20
771.8623780216
 11
699.786944946
 21
768.8160981859
  0
LINE
  5
278
100
AcDbEntity
  8
0
100
AcDbLine
 62
7
  6
CONTINUOUS
 10
709.9007060293
 20
1053.550839992
 11
709.9007060293
 21
1053.7545940597
  0
LINE
  5
279
100
AcDbEntity
  8
0
100
AcDbLine
 62
7
  6
CONTINUOUS
 10
713.2711783927
 20
1046.2545940596
 11
713.2454773453
 21
1046.5645940596
  0
LINE
  5
27A
100
AcDbEntity
  8
0
100
AcDbLine
 62
7
  6
CONTINUOUS
 10
709.90070241
 20
1053.550840512
 11
711.7156033639
 21
1048.283744889
  0
LINE
  5
27B
100
AcDbEntity
  8
0
100
AcDbLine
 62
7
  6
CONTINUOUS
 10
713.4327327119
 20
1048.2545941039
 11
711.6537092061
 21
1053.417484358
  0
LINE
  5
27C
100
AcDbEntity
  8
0
100
AcDbLine
 62
7
  6
CONTINUOUS
 10
1149.5369449418
 20
1016.5442974483
 11
149.5369449418
 21
1016.5442974483
  0
LINE
  5
27D
100
AcDbEntity
  8
0
100
AcDbLine
 62
7
  6
CONTINUOUS
 10
152.4369449418
 20
1019.4442974483
 11
1146.6369449418
 21
1019.4442974483
  0
LINE
  5
27E
100
AcDbEntity
  8
0
100
AcDbLine
 62
7
  6
CONTINUOUS
 10
170.2519579206
 20
1021.825915439
 11
1128.821931963
 21
1021.825915439
  0
LINE
  5
27F
100
AcDbEntity
  8
0
100
AcDbLine
 62
7
  6
CONTINUOUS
 10
152.2363415978
 20
1025.9545940597
 11
648.2363415978
 21
1025.9545940597
  0
LINE
  5
280
100
AcDbEntity
  8
0
100
AcDbLine
 62
7
  6
CONTINUOUS
 10
651.3375482858
 20
1026.2545940597
 11
1146.8375482858
 21
1026.2545940597
  0
LINE
  5
281
100
AcDbEntity
  8
0
100
AcDbLine
 62
7
  6
CONTINUOUS
 10
648.2363415978
 20
1037.3442722646
 11
651.3375482858
 21
1037.3442721022
  0
LINE
  5
282
100
AcDbEntity
  8
0
100
AcDbLine
 62
7
  6
CONTINUOUS
 10
651.3375482858
 20
1039.4282131902
 11
648.2363415978
 21
1039.4282131902
  0
LINE
  5
283
100
AcDbEntity
  8
0
100
AcDbLine
 62
7
  6
CONTINUOUS
 10
648.2363415978
 20
1041.9545940597
 11
152.2363415978
 21
1041.9545940597
  0
LINE
  5
284
100
AcDbEntity
  8
0
100
AcDbLine
 62
7
  6
CONTINUOUS
 10
1146.8375482858
 20
1042.6545940597
 11
651.3375482858
 21
1042.6545940597
  0
LINE
  5
285
100
AcDbEntity
  8
0
100
AcDbLine
 62
7
  6
CONTINUOUS
 10
156.2363415978
 20
1045.9545940597
 11
644.2363415978
 21
1045.9545940597
  0
LINE
  5
286
100
AcDbEntity
  8
0
100
AcDbLine
 62
7
  6
CONTINUOUS
 10
654.9375482858
 20
1046.2545940597
 11
1143.2375482858
 21
1046.2545940597
  0
LINE
  5
287
100
AcDbEntity
  8
0
100
AcDbLine
 62
7
  6
CONTINUOUS
 10
681.2396229138
 20
1048.2545940597
 11
711.4354736577
 21
1048.2545940596
  0
LINE
  5
288
100
AcDbEntity
  8
0
100
AcDbLine
 62
7
  6
CONTINUOUS
 10
709.90070241
 20
1053.550840512
 11
682.7744235066
 21
1053.5508400767
  0
LINE
  5
289
100
AcDbEntity
  8
0
100
AcDbLine
 62
7
  6
CONTINUOUS
 10
681.4941100635
 20
1053.7545940597
 11
711.1809865077
 21
1053.7545940597
  0
LINE
  5
28A
100
AcDbEntity
  8
0
100
AcDbLine
 62
7
  6
CONTINUOUS
 10
713.5171549504
 20
1046.6436067264
 11
713.245848391
 21
1046.6448608824
  0
LINE
  5
28B
100
AcDbEntity
  8
0
100
AcDbLine
 62
7
  6
CONTINUOUS
 10
169.0740053004
 20
1021.825915439
 11
170.2519579206
 21
1022.0548862335
  0
LINE
  5
28C
100
AcDbEntity
  8
0
100
AcDbLine
 62
7
  6
CONTINUOUS
 10
1128.8219319629
 20
1022.0548862335
 11
1129.9998845831
 21
1021.8259154391
  0
LINE
  5
28D
100
AcDbEntity
  8
0
100
AcDbLine
 62
7
  6
CONTINUOUS
 10
1099.2869449418
 20
768.8160981859
 11
1099.2869449418
 21
771.8623780216
  0
LINE
  5
28E
100
AcDbEntity
  8
0
100
AcDbLine
 62
7
  6
CONTINUOUS
 10
1099.2869449448
 20
903.626216875
 11
1099.2869449375
 21
906.6724967107
  0
LINE
  5
28F
100
AcDbEntity
  8
0
100
AcDbLine
 62
7
  6
CONTINUOUS
 10
1100.2869449418
 20
767.4942974483
 11
1100.2869449418
 21
767.9942974483
  0
LINE
  5
290
100
AcDbEntity
  8
0
100
AcDbLine
 62
7
  6
CONTINUOUS
 10
1100.2869449418
 20
907.4942974483
 11
1100.2869449418
 21
907.9942974483
  0
LINE
  5
291
100
AcDbEntity
  8
0
100
AcDbLine
 62
7
  6
CONTINUOUS
 10
1129.6827593576
 20
1026.2545940597
 11
1128.821931963
 21
1021.825915439
  0
LINE
  5
292
100
AcDbEntity
  8
0
100
AcDbLine
 62
7
  6
CONTINUOUS
 10
1129.9998845831
 20
1021.825915439
 11
1130.8607325025
 21
1026.2545940597
  0
LINE
  5
293
100
AcDbEntity
  8
0
100
AcDbLine
 62
7
  6
CONTINUOUS
 10
1128.821931963
 20
1021.8259154391
 11
1129.1640021744
 21
1021.4442844789
  0
LINE
  5
294
100
AcDbEntity
  8
0
100
AcDbLine
 62
7
  6
CONTINUOUS
 10
1122.0369449418
 20
877.7442974483
 11
1122.0369449418
 21
797.7442974483
  0
LINE
  5
295
100
AcDbEntity
  8
0
100
AcDbLine
 62
7
  6
CONTINUOUS
 10
1122.9188643685
 20
795.4942974483
 11
1122.9188643685
 21
879.9942974483
  0
LINE
  5
296
100
AcDbEntity
  8
0
100
AcDbLine
 62
7
  6
CONTINUOUS
 10
1123.9036721214
 20
879.9942974454
 11
1123.9036721213
 21
795.4942974508
  0
LINE
  5
297
100
AcDbEntity
  8
0
100
AcDbLine
 62
7
  6
CONTINUOUS
 10
1123.9955286981
 20
795.4942974503
 11
1123.9955286982
 21
879.9942974453
  0
LINE
  5
298
100
AcDbEntity
  8
0
100
AcDbLine
 62
7
  6
CONTINUOUS
 10
1125.9651442042
 20
879.9942974476
 11
1125.9651442042
 21
795.4942974529
  0
LINE
  5
299
100
AcDbEntity
  8
0
100
AcDbLine
 62
7
  6
CONTINUOUS
 10
1126.7869449418
 20
880.9942974483
 11
1126.7869449418
 21
794.4942974483
  0
LINE
  5
29A
100
AcDbEntity
  8
0
100
AcDbLine
 62
7
  6
CONTINUOUS
 10
1127.2869449418
 20
794.4942974483
 11
1127.2869449418
 21
880.9942974483
  0
LINE
  5
29B
100
AcDbEntity
  8
0
100
AcDbLine
 62
7
  6
CONTINUOUS
 10
1145.0375482858
 20
1042.6545940597
 11
1145.0375482858
 21
1026.2545940597
  0
LINE
  5
29C
100
AcDbEntity
  8
0
100
AcDbLine
 62
7
  6
CONTINUOUS
 10
1146.8375482858
 20
1042.6545940597
 11
1146.8375482858
 21
1026.2545940597
  0
LINE
  5
29D
100
AcDbEntity
  8
0
100
AcDbLine
 62
7
  6
CONTINUOUS
 10
1148.3369449418
 20
745.6442974483
 11
1148.3369449418
 21
1016.5442974483
  0
LINE
  5
29E
100
AcDbEntity
  8
0
100
AcDbLine
 62
7
  6
CONTINUOUS
 10
1149.5369449418
 20
745.6442974483
 11
1149.5369449418
 21
1016.5442974483
  0
ARC
  5
29F
100
AcDbEntity
  8
0
100
AcDbCircle
 62
7
  6
CONTINUOUS
 10
198.7869449418
 20
794.4942974483
 40
27.0
100
AcDbArc
 50
180.0
 51
270.0
  0
ARC
  5
2A0
100
AcDbEntity
  8
0
100
AcDbCircle
 62
7
  6
CONTINUOUS
 10
199.7869449418
 20
795.4942974483
 40
26.6781992623
100
AcDbArc
 50
179.9999999986
 51
270.0000000006
  0
ARC
  5
2A1
100
AcDbEntity
  8
0
100
AcDbCircle
 62
7
  6
CONTINUOUS
 10
198.7869449418
 20
794.4942974483
 40
26.5
100
AcDbArc
 50
180.0
 51
270.0
  0
ARC
  5
2A2
100
AcDbEntity
  8
0
100
AcDbCircle
 62
7
  6
CONTINUOUS
 10
202.0369449418
 20
797.7442974483
 40
25.0
100
AcDbArc
 50
180.0
 51
270.0
  0
ARC
  5
2A3
100
AcDbEntity
  8
0
100
AcDbCircle
 62
7
  6
CONTINUOUS
 10
199.7869449418
 20
795.4942974483
 40
24.7085837563
100
AcDbArc
 50
179.9999999933
 51
270.0
  0
ARC
  5
2A4
100
AcDbEntity
  8
0
100
AcDbCircle
 62
7
  6
CONTINUOUS
 10
199.7869449418
 20
795.4942974483
 40
24.6167271797
100
AcDbArc
 50
179.9999999933
 51
270.0
  0
ARC
  5
2A5
100
AcDbEntity
  8
0
100
AcDbCircle
 62
7
  6
CONTINUOUS
 10
199.7869449418
 20
795.4942974483
 40
23.6319194267
100
AcDbArc
 50
180.0
 51
270.0
  0
CIRCLE
  5
2A6
100
AcDbEntity
  8
0
100
AcDbCircle
 62
7
  6
CONTINUOUS
 10
279.5369449418
 20
779.2442974483
 40
3.0
  0
ARC
  5
2A7
100
AcDbEntity
  8
0
100
AcDbCircle
 62
7
  6
CONTINUOUS
 10
152.4369449418
 20
745.6442974483
 40
2.9
100
AcDbArc
 50
180.0000000001
 51
270.0
  0
CIRCLE
  5
2A8
100
AcDbEntity
  8
0
100
AcDbCircle
 62
7
  6
CONTINUOUS
 10
279.5369449418
 20
779.2442974483
 40
1.95
  0
CIRCLE
  5
2A9
100
AcDbEntity
  8
0
100
AcDbCircle
 62
7
  6
CONTINUOUS
 10
224.5369449418
 20
812.7442974483
 40
0.8660254038
  0
CIRCLE
  5
2AA
100
AcDbEntity
  8
0
100
AcDbCircle
 62
7
  6
CONTINUOUS
 10
249.5369449418
 20
812.7442974483
 40
0.8660254038
  0
CIRCLE
  5
2AB
100
AcDbEntity
  8
0
100
AcDbCircle
 62
7
  6
CONTINUOUS
 10
274.5369449418
 20
812.7442974483
 40
0.8660254038
  0
CIRCLE
  5
2AC
100
AcDbEntity
  8
0
100
AcDbCircle
 62
7
  6
CONTINUOUS
 10
299.5369449418
 20
812.7442974483
 40
0.8660254038
  0
CIRCLE
  5
2AD
100
AcDbEntity
  8
0
100
AcDbCircle
 62
7
  6
CONTINUOUS
 10
324.5369449418
 20
812.7442974483
 40
0.8660254038
  0
CIRCLE
  5
2AE
100
AcDbEntity
  8
0
100
AcDbCircle
 62
7
  6
CONTINUOUS
 10
349.5369449418
 20
812.7442974483
 40
0.8660254038
  0
CIRCLE
  5
2AF
100
AcDbEntity
  8
0
100
AcDbCircle
 62
7
  6
CONTINUOUS
 10
374.5369449418
 20
812.7442974483
 40
0.8660254038
  0
CIRCLE
  5
2B0
100
AcDbEntity
  8
0
100
AcDbCircle
 62
7
  6
CONTINUOUS
 10
183.5369449418
 20
837.7442974483
 40
3.0
  0
CIRCLE
  5
2B1
100
AcDbEntity
  8
0
100
AcDbCircle
 62
7
  6
CONTINUOUS
 10
183.5369449418
 20
837.7442974483
 40
1.95
  0
CIRCLE
  5
2B2
100
AcDbEntity
  8
0
100
AcDbCircle
 62
7
  6
CONTINUOUS
 10
224.5369449418
 20
862.7442974483
 40
0.8660254038
  0
CIRCLE
  5
2B3
100
AcDbEntity
  8
0
100
AcDbCircle
 62
7
  6
CONTINUOUS
 10
249.5369449418
 20
862.7442974483
 40
0.8660254038
  0
CIRCLE
  5
2B4
100
AcDbEntity
  8
0
100
AcDbCircle
 62
7
  6
CONTINUOUS
 10
274.5369449418
 20
862.7442974483
 40
0.8660254038
  0
CIRCLE
  5
2B5
100
AcDbEntity
  8
0
100
AcDbCircle
 62
7
  6
CONTINUOUS
 10
224.5369449418
 20
837.7442974483
 40
0.8660254038
  0
CIRCLE
  5
2B6
100
AcDbEntity
  8
0
100
AcDbCircle
 62
7
  6
CONTINUOUS
 10
249.5369449418
 20
837.7442974483
 40
0.8660254038
  0
CIRCLE
  5
2B7
100
AcDbEntity
  8
0
100
AcDbCircle
 62
7
  6
CONTINUOUS
 10
274.5369449418
 20
837.7442974483
 40
0.8660254038
  0
ARC
  5
2B8
100
AcDbEntity
  8
0
100
AcDbCircle
 62
7
  6
CONTINUOUS
 10
198.7869449418
 20
880.9942974483
 40
27.0
100
AcDbArc
 50
90.0
 51
180.0
  0
ARC
  5
2B9
100
AcDbEntity
  8
0
100
AcDbCircle
 62
7
  6
CONTINUOUS
 10
199.7869449418
 20
879.9942974483
 40
26.6781992624
100
AcDbArc
 50
89.9999999985
 51
180.0000000012
  0
ARC
  5
2BA
100
AcDbEntity
  8
0
100
AcDbCircle
 62
7
  6
CONTINUOUS
 10
198.7869449418
 20
880.9942974483
 40
26.5
100
AcDbArc
 50
90.0
 51
180.0
  0
ARC
  5
2BB
100
AcDbEntity
  8
0
100
AcDbCircle
 62
7
  6
CONTINUOUS
 10
202.0369449418
 20
877.7442974483
 40
25.0
100
AcDbArc
 50
90.0
 51
180.0
  0
ARC
  5
2BC
100
AcDbEntity
  8
0
100
AcDbCircle
 62
7
  6
CONTINUOUS
 10
199.7869449418
 20
879.9942974483
 40
24.7085837563
100
AcDbArc
 50
89.9999999932
 51
180.0
  0
ARC
  5
2BD
100
AcDbEntity
  8
0
100
AcDbCircle
 62
7
  6
CONTINUOUS
 10
199.7869449418
 20
879.9942974483
 40
24.6167271797
100
AcDbArc
 50
89.9999999932
 51
180.0
  0
ARC
  5
2BE
100
AcDbEntity
  8
0
100
AcDbCircle
 62
7
  6
CONTINUOUS
 10
199.7869449418
 20
879.9942974483
 40
23.6319194267
100
AcDbArc
 50
90.0
 51
180.0
  0
CIRCLE
  5
2BF
100
AcDbEntity
  8
0
100
AcDbCircle
 62
7
  6
CONTINUOUS
 10
299.5369449418
 20
862.7442974483
 40
0.8660254038
  0
CIRCLE
  5
2C0
100
AcDbEntity
  8
0
100
AcDbCircle
 62
7
  6
CONTINUOUS
 10
324.5369449418
 20
862.7442974483
 40
0.8660254038
  0
CIRCLE
  5
2C1
100
AcDbEntity
  8
0
100
AcDbCircle
 62
7
  6
CONTINUOUS
 10
349.5369449418
 20
862.7442974483
 40
0.8660254038
  0
CIRCLE
  5
2C2
100
AcDbEntity
  8
0
100
AcDbCircle
 62
7
  6
CONTINUOUS
 10
374.5369449418
 20
862.7442974483
 40
0.8660254038
  0
CIRCLE
  5
2C3
100
AcDbEntity
  8
0
100
AcDbCircle
 62
7
  6
CONTINUOUS
 10
299.5369449418
 20
837.7442974483
 40
0.8660254038
  0
CIRCLE
  5
2C4
100
AcDbEntity
  8
0
100
AcDbCircle
 62
7
  6
CONTINUOUS
 10
324.5369449418
 20
837.7442974483
 40
0.8660254038
  0
CIRCLE
  5
2C5
100
AcDbEntity
  8
0
100
AcDbCircle
 62
7
  6
CONTINUOUS
 10
349.5369449418
 20
837.7442974483
 40
0.8660254038
  0
CIRCLE
  5
2C6
100
AcDbEntity
  8
0
100
AcDbCircle
 62
7
  6
CONTINUOUS
 10
374.5369449418
 20
837.7442974483
 40
0.8660254038
  0
CIRCLE
  5
2C7
100
AcDbEntity
  8
0
100
AcDbCircle
 62
7
  6
CONTINUOUS
 10
279.5369449418
 20
896.2442974483
 40
3.0
  0
CIRCLE
  5
2C8
100
AcDbEntity
  8
0
100
AcDbCircle
 62
7
  6
CONTINUOUS
 10
279.5369449418
 20
896.2442974483
 40
1.95
  0
CIRCLE
  5
2C9
100
AcDbEntity
  8
0
100
AcDbCircle
 62
7
  6
CONTINUOUS
 10
399.5369449418
 20
779.2442974483
 40
3.0
  0
CIRCLE
  5
2CA
100
AcDbEntity
  8
0
100
AcDbCircle
 62
7
  6
CONTINUOUS
 10
399.5369449418
 20
779.2442974483
 40
1.95
  0
CIRCLE
  5
2CB
100
AcDbEntity
  8
0
100
AcDbCircle
 62
7
  6
CONTINUOUS
 10
399.5369449418
 20
812.7442974483
 40
0.8660254038
  0
CIRCLE
  5
2CC
100
AcDbEntity
  8
0
100
AcDbCircle
 62
7
  6
CONTINUOUS
 10
424.5369449418
 20
812.7442974483
 40
0.8660254038
  0
CIRCLE
  5
2CD
100
AcDbEntity
  8
0
100
AcDbCircle
 62
7
  6
CONTINUOUS
 10
449.5369449418
 20
812.7442974483
 40
0.8660254038
  0
CIRCLE
  5
2CE
100
AcDbEntity
  8
0
100
AcDbCircle
 62
7
  6
CONTINUOUS
 10
474.5369449418
 20
812.7442974483
 40
0.8660254038
  0
CIRCLE
  5
2CF
100
AcDbEntity
  8
0
100
AcDbCircle
 62
7
  6
CONTINUOUS
 10
499.5369449418
 20
812.7442974483
 40
0.8660254038
  0
ARC
  5
2D0
100
AcDbEntity
  8
0
100
AcDbCircle
 62
7
  6
CONTINUOUS
 10
600.2869449418
 20
794.4942974483
 40
27.0
100
AcDbArc
 50
270.0
 51
360.0
  0
ARC
  5
2D1
100
AcDbEntity
  8
0
100
AcDbCircle
 62
7
  6
CONTINUOUS
 10
599.2869449418
 20
795.4942974483
 40
26.6781992624
100
AcDbArc
 50
269.9999999994
 51
360.0
  0
ARC
  5
2D2
100
AcDbEntity
  8
0
100
AcDbCircle
 62
7
  6
CONTINUOUS
 10
600.2869449418
 20
794.4942974483
 40
26.5
100
AcDbArc
 50
270.0
 51
360.0
  0
ARC
  5
2D3
100
AcDbEntity
  8
0
100
AcDbCircle
 62
7
  6
CONTINUOUS
 10
599.2869449418
 20
795.4942974483
 40
24.7085837563
100
AcDbArc
 50
269.9999999933
 51
360.0
  0
ARC
  5
2D4
100
AcDbEntity
  8
0
100
AcDbCircle
 62
7
  6
CONTINUOUS
 10
599.2869449418
 20
795.4942974483
 40
24.6167271797
100
AcDbArc
 50
269.9999999933
 51
360.0
  0
ARC
  5
2D5
100
AcDbEntity
  8
0
100
AcDbCircle
 62
7
  6
CONTINUOUS
 10
599.2869449418
 20
795.4942974483
 40
23.6319194267
100
AcDbArc
 50
270.0
 51
360.0
  0
CIRCLE
  5
2D6
100
AcDbEntity
  8
0
100
AcDbCircle
 62
7
  6
CONTINUOUS
 10
519.5369449418
 20
779.2442974483
 40
3.0
  0
CIRCLE
  5
2D7
100
AcDbEntity
  8
0
100
AcDbCircle
 62
7
  6
CONTINUOUS
 10
519.5369449418
 20
779.2442974483
 40
1.95
  0
ARC
  5
2D8
100
AcDbEntity
  8
0
100
AcDbCircle
 62
7
  6
CONTINUOUS
 10
597.0369449418
 20
797.7442974483
 40
25.0
100
AcDbArc
 50
270.0
 51
360.0
  0
CIRCLE
  5
2D9
100
AcDbEntity
  8
0
100
AcDbCircle
 62
7
  6
CONTINUOUS
 10
524.5369449418
 20
812.7442974483
 40
0.8660254038
  0
CIRCLE
  5
2DA
100
AcDbEntity
  8
0
100
AcDbCircle
 62
7
  6
CONTINUOUS
 10
549.5369449418
 20
812.7442974483
 40
0.8660254038
  0
CIRCLE
  5
2DB
100
AcDbEntity
  8
0
100
AcDbCircle
 62
7
  6
CONTINUOUS
 10
574.5369449418
 20
812.7442974483
 40
0.8660254038
  0
CIRCLE
  5
2DC
100
AcDbEntity
  8
0
100
AcDbCircle
 62
7
  6
CONTINUOUS
 10
399.5369449418
 20
862.7442974483
 40
0.8660254038
  0
CIRCLE
  5
2DD
100
AcDbEntity
  8
0
100
AcDbCircle
 62
7
  6
CONTINUOUS
 10
424.5369449418
 20
862.7442974483
 40
0.8660254038
  0
CIRCLE
  5
2DE
100
AcDbEntity
  8
0
100
AcDbCircle
 62
7
  6
CONTINUOUS
 10
449.5369449418
 20
862.7442974483
 40
0.8660254038
  0
CIRCLE
  5
2DF
100
AcDbEntity
  8
0
100
AcDbCircle
 62
7
  6
CONTINUOUS
 10
474.5369449418
 20
862.7442974483
 40
0.8660254038
  0
CIRCLE
  5
2E0
100
AcDbEntity
  8
0
100
AcDbCircle
 62
7
  6
CONTINUOUS
 10
499.5369449418
 20
862.7442974483
 40
0.8660254038
  0
CIRCLE
  5
2E1
100
AcDbEntity
  8
0
100
AcDbCircle
 62
7
  6
CONTINUOUS
 10
399.5369449418
 20
837.7442974483
 40
0.8660254038
  0
CIRCLE
  5
2E2
100
AcDbEntity
  8
0
100
AcDbCircle
 62
7
  6
CONTINUOUS
 10
424.5369449418
 20
837.7442974483
 40
0.8660254038
  0
CIRCLE
  5
2E3
100
AcDbEntity
  8
0
100
AcDbCircle
 62
7
  6
CONTINUOUS
 10
449.5369449418
 20
837.7442974483
 40
0.8660254038
  0
CIRCLE
  5
2E4
100
AcDbEntity
  8
0
100
AcDbCircle
 62
7
  6
CONTINUOUS
 10
474.5369449418
 20
837.7442974483
 40
0.8660254038
  0
CIRCLE
  5
2E5
100
AcDbEntity
  8
0
100
AcDbCircle
 62
7
  6
CONTINUOUS
 10
499.5369449418
 20
837.7442974483
 40
0.8660254038
  0
CIRCLE
  5
2E6
100
AcDbEntity
  8
0
100
AcDbCircle
 62
7
  6
CONTINUOUS
 10
399.5369449418
 20
896.2442974483
 40
3.0
  0
CIRCLE
  5
2E7
100
AcDbEntity
  8
0
100
AcDbCircle
 62
7
  6
CONTINUOUS
 10
399.5369449418
 20
896.2442974483
 40
1.95
  0
CIRCLE
  5
2E8
100
AcDbEntity
  8
0
100
AcDbCircle
 62
7
  6
CONTINUOUS
 10
615.5369449418
 20
837.7442974483
 40
3.0
  0
CIRCLE
  5
2E9
100
AcDbEntity
  8
0
100
AcDbCircle
 62
7
  6
CONTINUOUS
 10
615.5369449418
 20
837.7442974483
 40
1.95
  0
CIRCLE
  5
2EA
100
AcDbEntity
  8
0
100
AcDbCircle
 62
7
  6
CONTINUOUS
 10
524.5369449418
 20
862.7442974483
 40
0.8660254038
  0
CIRCLE
  5
2EB
100
AcDbEntity
  8
0
100
AcDbCircle
 62
7
  6
CONTINUOUS
 10
549.5369449418
 20
862.7442974483
 40
0.8660254038
  0
CIRCLE
  5
2EC
100
AcDbEntity
  8
0
100
AcDbCircle
 62
7
  6
CONTINUOUS
 10
574.5369449418
 20
862.7442974483
 40
0.8660254038
  0
CIRCLE
  5
2ED
100
AcDbEntity
  8
0
100
AcDbCircle
 62
7
  6
CONTINUOUS
 10
524.5369449418
 20
837.7442974483
 40
0.8660254038
  0
CIRCLE
  5
2EE
100
AcDbEntity
  8
0
100
AcDbCircle
 62
7
  6
CONTINUOUS
 10
549.5369449418
 20
837.7442974483
 40
0.8660254038
  0
CIRCLE
  5
2EF
100
AcDbEntity
  8
0
100
AcDbCircle
 62
7
  6
CONTINUOUS
 10
574.5369449418
 20
837.7442974483
 40
0.8660254038
  0
ARC
  5
2F0
100
AcDbEntity
  8
0
100
AcDbCircle
 62
7
  6
CONTINUOUS
 10
600.2869449418
 20
880.9942974483
 40
27.0
100
AcDbArc
 50
0.0
 51
90.0
  0
ARC
  5
2F1
100
AcDbEntity
  8
0
100
AcDbCircle
 62
7
  6
CONTINUOUS
 10
599.2869449418
 20
879.9942974483
 40
26.6781992623
100
AcDbArc
 50
0.0
 51
90.0000000011
  0
ARC
  5
2F2
100
AcDbEntity
  8
0
100
AcDbCircle
 62
7
  6
CONTINUOUS
 10
600.2869449418
 20
880.9942974483
 40
26.5
100
AcDbArc
 50
0.0
 51
90.0
  0
ARC
  5
2F3
100
AcDbEntity
  8
0
100
AcDbCircle
 62
7
  6
CONTINUOUS
 10
597.0369449418
 20
877.7442974483
 40
25.0
100
AcDbArc
 50
0.0
 51
90.0
  0
ARC
  5
2F4
100
AcDbEntity
  8
0
100
AcDbCircle
 62
7
  6
CONTINUOUS
 10
599.2869449418
 20
879.9942974483
 40
24.7085837564
100
AcDbArc
 50
0.0
 51
90.0
  0
ARC
  5
2F5
100
AcDbEntity
  8
0
100
AcDbCircle
 62
7
  6
CONTINUOUS
 10
599.2869449418
 20
879.9942974483
 40
24.6167271797
100
AcDbArc
 50
0.0
 51
90.0
  0
ARC
  5
2F6
100
AcDbEntity
  8
0
100
AcDbCircle
 62
7
  6
CONTINUOUS
 10
599.2869449418
 20
879.9942974483
 40
23.6319194267
100
AcDbArc
 50
0.0
 51
90.0
  0
CIRCLE
  5
2F7
100
AcDbEntity
  8
0
100
AcDbCircle
 62
7
  6
CONTINUOUS
 10
519.5369449418
 20
896.2442974483
 40
3.0
  0
CIRCLE
  5
2F8
100
AcDbEntity
  8
0
100
AcDbCircle
 62
7
  6
CONTINUOUS
 10
519.5369449418
 20
896.2442974483
 40
1.95
  0
ARC
  5
2F9
100
AcDbEntity
  8
0
100
AcDbCircle
 62
7
  6
CONTINUOUS
 10
94.8074823895
 20
1088.2915664893
 40
100.5431632731
100
AcDbArc
 50
318.1659739531
 51
318.3283040043
  0
CIRCLE
  5
2FA
100
AcDbEntity
  8
0
100
AcDbCircle
 62
7
  6
CONTINUOUS
 10
164.5369449418
 20
1004.4442974483
 40
5.15
  0
ARC
  5
2FB
100
AcDbEntity
  8
0
100
AcDbCircle
 62
7
  6
CONTINUOUS
 10
156.2363415978
 20
1041.9545940597
 40
4.0
100
AcDbArc
 50
90.0
 51
180.0
  0
ARC
  5
2FC
100
AcDbEntity
  8
0
100
AcDbCircle
 62
7
  6
CONTINUOUS
 10
152.4369449418
 20
1016.5442974483
 40
2.9
100
AcDbArc
 50
99.3102865
 51
180.0
  0
ARC
  5
2FD
100
AcDbEntity
  8
0
100
AcDbCircle
 62
7
  6
CONTINUOUS
 10
167.1107509336
 20
1021.4442974483
 40
2.0
100
AcDbArc
 50
270.0
 51
11.0000000013
  0
ARC
  5
2FE
100
AcDbEntity
  8
0
100
AcDbCircle
 62
7
  6
CONTINUOUS
 10
698.7869449418
 20
794.4942974483
 40
27.0
100
AcDbArc
 50
180.0
 51
270.0
  0
ARC
  5
2FF
100
AcDbEntity
  8
0
100
AcDbCircle
 62
7
  6
CONTINUOUS
 10
699.7869449418
 20
795.4942974483
 40
26.6781992624
100
AcDbArc
 50
179.9999999994
 51
270.0000000005
  0
ARC
  5
300
100
AcDbEntity
  8
0
100
AcDbCircle
 62
7
  6
CONTINUOUS
 10
698.7869449418
 20
794.4942974483
 40
26.5
100
AcDbArc
 50
180.0
 51
270.0
  0
ARC
  5
301
100
AcDbEntity
  8
0
100
AcDbCircle
 62
7
  6
CONTINUOUS
 10
699.7869449418
 20
795.4942974483
 40
24.7085837563
100
AcDbArc
 50
179.9999999933
 51
270.0
  0
ARC
  5
302
100
AcDbEntity
  8
0
100
AcDbCircle
 62
7
  6
CONTINUOUS
 10
699.7869449418
 20
795.4942974483
 40
24.6167271797
100
AcDbArc
 50
179.9999999933
 51
270.0
  0
ARC
  5
303
100
AcDbEntity
  8
0
100
AcDbCircle
 62
7
  6
CONTINUOUS
 10
699.7869449418
 20
795.4942974483
 40
23.6319194267
100
AcDbArc
 50
180.0
 51
270.0
  0
CIRCLE
  5
304
100
AcDbEntity
  8
0
100
AcDbCircle
 62
7
  6
CONTINUOUS
 10
779.5369449418
 20
779.2442974483
 40
3.0
  0
CIRCLE
  5
305
100
AcDbEntity
  8
0
100
AcDbCircle
 62
7
  6
CONTINUOUS
 10
779.5369449418
 20
779.2442974483
 40
1.95
  0
ARC
  5
306
100
AcDbEntity
  8
0
100
AcDbCircle
 62
7
  6
CONTINUOUS
 10
702.0369449418
 20
797.7442974483
 40
25.0
100
AcDbArc
 50
180.0
 51
270.0
  0
CIRCLE
  5
307
100
AcDbEntity
  8
0
100
AcDbCircle
 62
7
  6
CONTINUOUS
 10
724.5369449418
 20
812.7442974483
 40
0.8660254038
  0
CIRCLE
  5
308
100
AcDbEntity
  8
0
100
AcDbCircle
 62
7
  6
CONTINUOUS
 10
749.5369449418
 20
812.7442974483
 40
0.8660254038
  0
CIRCLE
  5
309
100
AcDbEntity
  8
0
100
AcDbCircle
 62
7
  6
CONTINUOUS
 10
774.5369449418
 20
812.7442974483
 40
0.8660254038
  0
CIRCLE
  5
30A
100
AcDbEntity
  8
0
100
AcDbCircle
 62
7
  6
CONTINUOUS
 10
899.5369449418
 20
779.2442974483
 40
3.0
  0
CIRCLE
  5
30B
100
AcDbEntity
  8
0
100
AcDbCircle
 62
7
  6
CONTINUOUS
 10
899.5369449418
 20
779.2442974483
 40
1.95
  0
CIRCLE
  5
30C
100
AcDbEntity
  8
0
100
AcDbCircle
 62
7
  6
CONTINUOUS
 10
799.5369449418
 20
812.7442974483
 40
0.8660254038
  0
CIRCLE
  5
30D
100
AcDbEntity
  8
0
100
AcDbCircle
 62
7
  6
CONTINUOUS
 10
824.5369449418
 20
812.7442974483
 40
0.8660254038
  0
CIRCLE
  5
30E
100
AcDbEntity
  8
0
100
AcDbCircle
 62
7
  6
CONTINUOUS
 10
849.5369449418
 20
812.7442974483
 40
0.8660254038
  0
CIRCLE
  5
30F
100
AcDbEntity
  8
0
100
AcDbCircle
 62
7
  6
CONTINUOUS
 10
874.5369449418
 20
812.7442974483
 40
0.8660254038
  0
CIRCLE
  5
310
100
AcDbEntity
  8
0
100
AcDbCircle
 62
7
  6
CONTINUOUS
 10
899.5369449418
 20
812.7442974483
 40
0.8660254038
  0
CIRCLE
  5
311
100
AcDbEntity
  8
0
100
AcDbCircle
 62
7
  6
CONTINUOUS
 10
683.5369449418
 20
837.7442974483
 40
3.0
  0
CIRCLE
  5
312
100
AcDbEntity
  8
0
100
AcDbCircle
 62
7
  6
CONTINUOUS
 10
683.5369449418
 20
837.7442974483
 40
1.95
  0
CIRCLE
  5
313
100
AcDbEntity
  8
0
100
AcDbCircle
 62
7
  6
CONTINUOUS
 10
724.5369449418
 20
862.7442974483
 40
0.8660254038
  0
CIRCLE
  5
314
100
AcDbEntity
  8
0
100
AcDbCircle
 62
7
  6
CONTINUOUS
 10
749.5369449418
 20
862.7442974483
 40
0.8660254038
  0
CIRCLE
  5
315
100
AcDbEntity
  8
0
100
AcDbCircle
 62
7
  6
CONTINUOUS
 10
774.5369449418
 20
862.7442974483
 40
0.8660254038
  0
CIRCLE
  5
316
100
AcDbEntity
  8
0
100
AcDbCircle
 62
7
  6
CONTINUOUS
 10
724.5369449418
 20
837.7442974483
 40
0.8660254038
  0
CIRCLE
  5
317
100
AcDbEntity
  8
0
100
AcDbCircle
 62
7
  6
CONTINUOUS
 10
749.5369449418
 20
837.7442974483
 40
0.8660254038
  0
CIRCLE
  5
318
100
AcDbEntity
  8
0
100
AcDbCircle
 62
7
  6
CONTINUOUS
 10
774.5369449418
 20
837.7442974483
 40
0.8660254038
  0
ARC
  5
319
100
AcDbEntity
  8
0
100
AcDbCircle
 62
7
  6
CONTINUOUS
 10
698.7869449418
 20
880.9942974483
 40
27.0
100
AcDbArc
 50
90.0
 51
180.0
  0
ARC
  5
31A
100
AcDbEntity
  8
0
100
AcDbCircle
 62
7
  6
CONTINUOUS
 10
699.7869449418
 20
879.9942974483
 40
26.6781992623
100
AcDbArc
 50
89.9999999986
 51
180.0000000006
  0
ARC
  5
31B
100
AcDbEntity
  8
0
100
AcDbCircle
 62
7
  6
CONTINUOUS
 10
698.7869449418
 20
880.9942974483
 40
26.5
100
AcDbArc
 50
90.0
 51
180.0
  0
ARC
  5
31C
100
AcDbEntity
  8
0
100
AcDbCircle
 62
7
  6
CONTINUOUS
 10
702.0369449418
 20
877.7442974483
 40
25.0
100
AcDbArc
 50
90.0
 51
180.0
  0
ARC
  5
31D
100
AcDbEntity
  8
0
100
AcDbCircle
 62
7
  6
CONTINUOUS
 10
699.7869449418
 20
879.9942974483
 40
24.7085837563
100
AcDbArc
 50
89.9999999933
 51
180.0
  0
ARC
  5
31E
100
AcDbEntity
  8
0
100
AcDbCircle
 62
7
  6
CONTINUOUS
 10
699.7869449418
 20
879.9942974483
 40
24.6167271797
100
AcDbArc
 50
89.9999999933
 51
180.0
  0
ARC
  5
31F
100
AcDbEntity
  8
0
100
AcDbCircle
 62
7
  6
CONTINUOUS
 10
699.7869449418
 20
879.9942974483
 40
23.6319194267
100
AcDbArc
 50
90.0
 51
180.0
  0
CIRCLE
  5
320
100
AcDbEntity
  8
0
100
AcDbCircle
 62
7
  6
CONTINUOUS
 10
779.5369449418
 20
896.2442974483
 40
3.0
  0
CIRCLE
  5
321
100
AcDbEntity
  8
0
100
AcDbCircle
 62
7
  6
CONTINUOUS
 10
779.5369449418
 20
896.2442974483
 40
1.95
  0
CIRCLE
  5
322
100
AcDbEntity
  8
0
100
AcDbCircle
 62
7
  6
CONTINUOUS
 10
799.5369449418
 20
862.7442974483
 40
0.8660254038
  0
CIRCLE
  5
323
100
AcDbEntity
  8
0
100
AcDbCircle
 62
7
  6
CONTINUOUS
 10
824.5369449418
 20
862.7442974483
 40
0.8660254038
  0
CIRCLE
  5
324
100
AcDbEntity
  8
0
100
AcDbCircle
 62
7
  6
CONTINUOUS
 10
849.5369449418
 20
862.7442974483
 40
0.8660254038
  0
CIRCLE
  5
325
100
AcDbEntity
  8
0
100
AcDbCircle
 62
7
  6
CONTINUOUS
 10
874.5369449418
 20
862.7442974483
 40
0.8660254038
  0
CIRCLE
  5
326
100
AcDbEntity
  8
0
100
AcDbCircle
 62
7
  6
CONTINUOUS
 10
899.5369449418
 20
862.7442974483
 40
0.8660254038
  0
CIRCLE
  5
327
100
AcDbEntity
  8
0
100
AcDbCircle
 62
7
  6
CONTINUOUS
 10
799.5369449418
 20
837.7442974483
 40
0.8660254038
  0
CIRCLE
  5
328
100
AcDbEntity
  8
0
100
AcDbCircle
 62
7
  6
CONTINUOUS
 10
824.5369449418
 20
837.7442974483
 40
0.8660254038
  0
CIRCLE
  5
329
100
AcDbEntity
  8
0
100
AcDbCircle
 62
7
  6
CONTINUOUS
 10
849.5369449418
 20
837.7442974483
 40
0.8660254038
  0
CIRCLE
  5
32A
100
AcDbEntity
  8
0
100
AcDbCircle
 62
7
  6
CONTINUOUS
 10
874.5369449418
 20
837.7442974483
 40
0.8660254038
  0
CIRCLE
  5
32B
100
AcDbEntity
  8
0
100
AcDbCircle
 62
7
  6
CONTINUOUS
 10
899.5369449418
 20
837.7442974483
 40
0.8660254038
  0
CIRCLE
  5
32C
100
AcDbEntity
  8
0
100
AcDbCircle
 62
7
  6
CONTINUOUS
 10
899.5369449418
 20
896.2442974483
 40
3.0
  0
CIRCLE
  5
32D
100
AcDbEntity
  8
0
100
AcDbCircle
 62
7
  6
CONTINUOUS
 10
899.5369449418
 20
896.2442974483
 40
1.95
  0
ARC
  5
32E
100
AcDbEntity
  8
0
100
AcDbCircle
 62
7
  6
CONTINUOUS
 10
1100.2869449418
 20
794.4942974483
 40
27.0
100
AcDbArc
 50
270.0
 51
360.0
  0
ARC
  5
32F
100
AcDbEntity
  8
0
100
AcDbCircle
 62
7
  6
CONTINUOUS
 10
1099.2869449418
 20
795.4942974483
 40
26.6781992624
100
AcDbArc
 50
269.9999999994
 51
360.0
  0
ARC
  5
330
100
AcDbEntity
  8
0
100
AcDbCircle
 62
7
  6
CONTINUOUS
 10
1100.2869449418
 20
794.4942974483
 40
26.5
100
AcDbArc
 50
270.0
 51
360.0
  0
ARC
  5
331
100
AcDbEntity
  8
0
100
AcDbCircle
 62
7
  6
CONTINUOUS
 10
1097.0369449418
 20
797.7442974483
 40
25.0
100
AcDbArc
 50
270.0
 51
360.0
  0
ARC
  5
332
100
AcDbEntity
  8
0
100
AcDbCircle
 62
7
  6
CONTINUOUS
 10
1099.2869449418
 20
795.4942974483
 40
24.7085837564
100
AcDbArc
 50
269.9999999934
 51
360.0
  0
ARC
  5
333
100
AcDbEntity
  8
0
100
AcDbCircle
 62
7
  6
CONTINUOUS
 10
1099.2869449418
 20
795.4942974483
 40
24.6167271797
100
AcDbArc
 50
269.9999999934
 51
360.0
  0
ARC
  5
334
100
AcDbEntity
  8
0
100
AcDbCircle
 62
7
  6
CONTINUOUS
 10
1099.2869449418
 20
795.4942974483
 40
23.6319194267
100
AcDbArc
 50
270.0
 51
360.0
  0
CIRCLE
  5
335
100
AcDbEntity
  8
0
100
AcDbCircle
 62
7
  6
CONTINUOUS
 10
1019.5369449418
 20
779.2442974483
 40
3.0
  0
ARC
  5
336
100
AcDbEntity
  8
0
100
AcDbCircle
 62
7
  6
CONTINUOUS
 10
1146.6369449418
 20
745.6442974483
 40
2.9
100
AcDbArc
 50
279.3102865
 51
359.9999999999
  0
CIRCLE
  5
337
100
AcDbEntity
  8
0
100
AcDbCircle
 62
7
  6
CONTINUOUS
 10
1019.5369449418
 20
779.2442974483
 40
1.95
  0
CIRCLE
  5
338
100
AcDbEntity
  8
0
100
AcDbCircle
 62
7
  6
CONTINUOUS
 10
924.5369449418
 20
812.7442974483
 40
0.8660254038
  0
CIRCLE
  5
339
100
AcDbEntity
  8
0
100
AcDbCircle
 62
7
  6
CONTINUOUS
 10
949.5369449418
 20
812.7442974483
 40
0.8660254038
  0
CIRCLE
  5
33A
100
AcDbEntity
  8
0
100
AcDbCircle
 62
7
  6
CONTINUOUS
 10
974.5369449418
 20
812.7442974483
 40
0.8660254038
  0
CIRCLE
  5
33B
100
AcDbEntity
  8
0
100
AcDbCircle
 62
7
  6
CONTINUOUS
 10
999.5369449418
 20
812.7442974483
 40
0.8660254038
  0
CIRCLE
  5
33C
100
AcDbEntity
  8
0
100
AcDbCircle
 62
7
  6
CONTINUOUS
 10
1024.5369449418
 20
812.7442974483
 40
0.8660254038
  0
CIRCLE
  5
33D
100
AcDbEntity
  8
0
100
AcDbCircle
 62
7
  6
CONTINUOUS
 10
1049.5369449418
 20
812.7442974483
 40
0.8660254038
  0
CIRCLE
  5
33E
100
AcDbEntity
  8
0
100
AcDbCircle
 62
7
  6
CONTINUOUS
 10
1074.5369449418
 20
812.7442974483
 40
0.8660254038
  0
CIRCLE
  5
33F
100
AcDbEntity
  8
0
100
AcDbCircle
 62
7
  6
CONTINUOUS
 10
924.5369449418
 20
862.7442974483
 40
0.8660254038
  0
CIRCLE
  5
340
100
AcDbEntity
  8
0
100
AcDbCircle
 62
7
  6
CONTINUOUS
 10
949.5369449418
 20
862.7442974483
 40
0.8660254038
  0
CIRCLE
  5
341
100
AcDbEntity
  8
0
100
AcDbCircle
 62
7
  6
CONTINUOUS
 10
974.5369449418
 20
862.7442974483
 40
0.8660254038
  0
CIRCLE
  5
342
100
AcDbEntity
  8
0
100
AcDbCircle
 62
7
  6
CONTINUOUS
 10
999.5369449418
 20
862.7442974483
 40
0.8660254038
  0
CIRCLE
  5
343
100
AcDbEntity
  8
0
100
AcDbCircle
 62
7
  6
CONTINUOUS
 10
924.5369449418
 20
837.7442974483
 40
0.8660254038
  0
CIRCLE
  5
344
100
AcDbEntity
  8
0
100
AcDbCircle
 62
7
  6
CONTINUOUS
 10
949.5369449418
 20
837.7442974483
 40
0.8660254038
  0
CIRCLE
  5
345
100
AcDbEntity
  8
0
100
AcDbCircle
 62
7
  6
CONTINUOUS
 10
974.5369449418
 20
837.7442974483
 40
0.8660254038
  0
CIRCLE
  5
346
100
AcDbEntity
  8
0
100
AcDbCircle
 62
7
  6
CONTINUOUS
 10
999.5369449418
 20
837.7442974483
 40
0.8660254038
  0
CIRCLE
  5
347
100
AcDbEntity
  8
0
100
AcDbCircle
 62
7
  6
CONTINUOUS
 10
1019.5369449418
 20
896.2442974483
 40
3.0
  0
CIRCLE
  5
348
100
AcDbEntity
  8
0
100
AcDbCircle
 62
7
  6
CONTINUOUS
 10
1019.5369449418
 20
896.2442974483
 40
1.95
  0
CIRCLE
  5
349
100
AcDbEntity
  8
0
100
AcDbCircle
 62
7
  6
CONTINUOUS
 10
1115.5369449418
 20
837.7442974483
 40
3.0
  0
CIRCLE
  5
34A
100
AcDbEntity
  8
0
100
AcDbCircle
 62
7
  6
CONTINUOUS
 10
1115.5369449418
 20
837.7442974483
 40
1.95
  0
CIRCLE
  5
34B
100
AcDbEntity
  8
0
100
AcDbCircle
 62
7
  6
CONTINUOUS
 10
1024.5369449418
 20
862.7442974483
 40
0.8660254038
  0
CIRCLE
  5
34C
100
AcDbEntity
  8
0
100
AcDbCircle
 62
7
  6
CONTINUOUS
 10
1049.5369449418
 20
862.7442974483
 40
0.8660254038
  0
CIRCLE
  5
34D
100
AcDbEntity
  8
0
100
AcDbCircle
 62
7
  6
CONTINUOUS
 10
1074.5369449418
 20
862.7442974483
 40
0.8660254038
  0
CIRCLE
  5
34E
100
AcDbEntity
  8
0
100
AcDbCircle
 62
7
  6
CONTINUOUS
 10
1024.5369449418
 20
837.7442974483
 40
0.8660254038
  0
CIRCLE
  5
34F
100
AcDbEntity
  8
0
100
AcDbCircle
 62
7
  6
CONTINUOUS
 10
1049.5369449418
 20
837.7442974483
 40
0.8660254038
  0
CIRCLE
  5
350
100
AcDbEntity
  8
0
100
AcDbCircle
 62
7
  6
CONTINUOUS
 10
1074.5369449418
 20
837.7442974483
 40
0.8660254038
  0
ARC
  5
351
100
AcDbEntity
  8
0
100
AcDbCircle
 62
7
  6
CONTINUOUS
 10
1100.2869449418
 20
880.9942974483
 40
27.0
100
AcDbArc
 50
0.0
 51
90.0
  0
ARC
  5
352
100
AcDbEntity
  8
0
100
AcDbCircle
 62
7
  6
CONTINUOUS
 10
1099.2869449418
 20
879.9942974483
 40
26.6781992624
100
AcDbArc
 50
0.0
 51
90.0000000012
  0
ARC
  5
353
100
AcDbEntity
  8
0
100
AcDbCircle
 62
7
  6
CONTINUOUS
 10
1100.2869449418
 20
880.9942974483
 40
26.5
100
AcDbArc
 50
0.0
 51
90.0
  0
ARC
  5
354
100
AcDbEntity
  8
0
100
AcDbCircle
 62
7
  6
CONTINUOUS
 10
1097.0369449418
 20
877.7442974483
 40
25.0
100
AcDbArc
 50
0.0
 51
90.0
  0
ARC
  5
355
100
AcDbEntity
  8
0
100
AcDbCircle
 62
7
  6
CONTINUOUS
 10
1099.2869449418
 20
879.9942974483
 40
24.7085837564
100
AcDbArc
 50
0.0
 51
90.0
  0
ARC
  5
356
100
AcDbEntity
  8
0
100
AcDbCircle
 62
7
  6
CONTINUOUS
 10
1099.2869449418
 20
879.9942974483
 40
24.6167271797
100
AcDbArc
 50
0.0
 51
90.0
  0
ARC
  5
357
100
AcDbEntity
  8
0
100
AcDbCircle
 62
7
  6
CONTINUOUS
 10
1099.2869449418
 20
879.9942974483
 40
23.6319194267
100
AcDbArc
 50
0.0
 51
90.0
  0
ARC
  5
358
100
AcDbEntity
  8
0
100
AcDbCircle
 62
7
  6
CONTINUOUS
 10
636.2957234506
 20
1040.7671413659
 40
9.8010900094
100
AcDbArc
 50
22.0930816531
 51
24.3489323982
  0
ARC
  5
359
100
AcDbEntity
  8
0
100
AcDbCircle
 62
7
  6
CONTINUOUS
 10
1140.3375482858
 20
1030.9545940597
 40
5.0
100
AcDbArc
 50
254.7731490323
 51
300.0386673084
  0
ARC
  5
35A
100
AcDbEntity
  8
0
100
AcDbCircle
 62
7
  6
CONTINUOUS
 10
644.2363415978
 20
1041.9545940597
 40
4.0
100
AcDbArc
 50
0.0
 51
90.0
  0
ARC
  5
35B
100
AcDbEntity
  8
0
100
AcDbCircle
 62
7
  6
CONTINUOUS
 10
1143.2375482858
 20
1042.6545940597
 40
3.6
100
AcDbArc
 50
0.0
 51
90.0
  0
ARC
  5
35C
100
AcDbEntity
  8
0
100
AcDbCircle
 62
7
  6
CONTINUOUS
 10
654.9375482858
 20
1042.6545940597
 40
3.6
100
AcDbArc
 50
90.0
 51
180.0
  0
ARC
  5
35D
100
AcDbEntity
  8
0
100
AcDbCircle
 62
7
  6
CONTINUOUS
 10
1146.6369449418
 20
1016.5442974483
 40
2.9
100
AcDbArc
 50
0.0
 51
90.0
  0
ARC
  5
35E
100
AcDbEntity
  8
0
100
AcDbCircle
 62
7
  6
CONTINUOUS
 10
1131.96313895
 20
1021.4442974483
 40
2.0
100
AcDbArc
 50
168.9999999987
 51
270.0
  0
ARC
  5
35F
100
AcDbEntity
  8
0
100
AcDbCircle
 62
7
  6
CONTINUOUS
 10
681.494110065
 20
1053.2545940597
 40
0.5
100
AcDbArc
 50
90.0000000744
 51
160.9871248276
  0
ARC
  5
360
100
AcDbEntity
  8
0
100
AcDbCircle
 62
7
  6
CONTINUOUS
 10
711.1809865065
 20
1053.2545940597
 40
0.5
100
AcDbArc
 50
19.0128751724
 51
89.9999999405
  0
SPLINE
  5
361
100
AcDbEntity
  8
0
100
AcDbSpline
 62
7
  6
CONTINUOUS
 70
0
 71
3
 72
9
 73
5
 74
0
 42
0.0000001
 43
0.0000001
 44
0.0000000001
 40
0.0
 40
0.0
 40
0.0
 40
0.0
 40
0.2798780028
 40
1.0
 40
1.0
 40
1.0
 40
1.0
 10
713.2454773454
 20
1046.5645940597
 30
0.0
 10
713.2366533175
 20
1046.6706037538
 30
0.0
 10
713.2303444509
 20
1047.0520569203
 30
0.0
 10
713.3125457623
 20
1047.4277966667
 30
0.0
 10
713.3832813939
 20
1047.6922030233
 30
0.0
  0
SPLINE
  5
362
100
AcDbEntity
  8
0
100
AcDbSpline
 62
7
  6
CONTINUOUS
 70
0
 71
3
 72
9
 73
5
 74
0
 42
0.0000001
 43
0.0000001
 44
0.0000000001
 40
0.0
 40
0.0
 40
0.0
 40
0.0
 40
0.3278477624
 40
1.0
 40
1.0
 40
1.0
 40
1.0
 10
713.3832813939
 20
1047.6922030233
 30
0.0
 10
713.3921670581
 20
1047.7254172048
 30
0.0
 10
713.4175242303
 20
1047.8265039243
 30
0.0
 10
713.4500900499
 20
1047.9298652475
 30
0.0
 10
713.4460691893
 20
1048.0002407681
 30
0.0
  0
SPLINE
  5
363
100
AcDbEntity
  8
0
100
AcDbSpline
 62
7
  6
CONTINUOUS
 70
0
 71
3
 72
14
 73
10
 74
0
 42
0.0000001
 43
0.0000001
 44
0.0000000001
 40
0.0
 40
0.0
 40
0.0
 40
0.0
 40
0.0213305227
 40
0.0813373652
 40
0.1733937537
 40
0.2947690113
 40
0.4427180401
 40
0.6131841407
 40
1.0
 40
1.0
 40
1.0
 40
1.0
 10
679.2423662476
 20
1048.2545938447
 30
0.0
 10
679.2396634565
 20
1048.2424897982
 30
0.0
 10
679.3122154111
 20
1048.3089485134
 30
0.0
 10
679.3771336714
 20
1048.3092741224
 30
0.0
 10
679.5474399433
 20
1048.3655252894
 30
0.0
 10
679.750103454
 20
1048.3834855341
 30
0.0
 10
680.0081769263
 20
1048.3950874543
 30
0.0
 10
680.4171806011
 20
1048.3771286535
 30
0.0
 10
680.7394053732
 20
1048.3300445473
 30
0.0
 10
680.9594931992
 20
1048.2837448902
 30
0.0
  0
SPLINE
  5
364
100
AcDbEntity
  8
0
100
AcDbSpline
 62
7
  6
CONTINUOUS
 70
0
 71
3
 72
9
 73
5
 74
0
 42
0.0000001
 43
0.0000001
 44
0.0000000001
 40
0.0
 40
0.0
 40
0.0
 40
0.0
 40
0.2827206693
 40
1.0
 40
1.0
 40
1.0
 40
1.0
 10
711.7156033647
 20
1048.2837448891
 30
0.0
 10
711.8295333492
 20
1048.307712226
 30
0.0
 10
712.2349112497
 20
1048.3786989659
 30
0.0
 10
712.650677439
 20
1048.4055333223
 30
0.0
 10
712.9449719142
 20
1048.3803044553
 30
0.0
  0
SPLINE
  5
365
100
AcDbEntity
  8
0
100
AcDbSpline
 62
7
  6
CONTINUOUS
 70
0
 71
3
 72
11
 73
7
 74
0
 42
0.0000001
 43
0.0000001
 44
0.0000000001
 40
0.0
 40
0.0
 40
0.0
 40
0.0
 40
0.4108508899
 40
0.7227529516
 40
0.9265649402
 40
1.0
 40
1.0
 40
1.0
 40
1.0
 10
712.9449719142
 20
1048.3803044553
 30
0.0
 10
713.0142448618
 20
1048.3743659205
 30
0.0
 10
713.1319264234
 20
1048.3652957451
 30
0.0
 10
713.297422533
 20
1048.3088245181
 30
0.0
 10
713.3666588887
 20
1048.3090068383
 30
0.0
 10
713.433037063
 20
1048.2421703092
 30
0.0
 10
713.4327327002
 20
1048.2545937697
 30
0.0
  0
SPLINE
  5
366
100
AcDbEntity
  8
0
100
AcDbSpline
 62
7
  6
CONTINUOUS
 70
0
 71
3
 72
9
 73
5
 74
0
 42
0.0000001
 43
0.0000001
 44
0.0000000001
 40
0.0
 40
0.0
 40
0.0
 40
0.0
 40
0.2804622998
 40
1.0
 40
1.0
 40
1.0
 40
1.0
 10
709.9006686993
 20
1053.5508805969
 30
0.0
 10
710.0166457497
 20
1053.5570161039
 30
0.0
 10
710.4303004837
 20
1053.5735558184
 30
0.0
 10
710.8455314042
 20
1053.5740669821
 30
0.0
 10
711.1425615055
 20
1053.5505447357
 30
0.0
  0
SPLINE
  5
367
100
AcDbEntity
  8
0
100
AcDbSpline
 62
7
  6
CONTINUOUS
 70
0
 71
3
 72
9
 73
5
 74
0
 42
0.0000001
 43
0.0000001
 44
0.0000000001
 40
0.0
 40
0.0
 40
0.0
 40
0.0
 40
0.700959458
 40
1.0
 40
1.0
 40
1.0
 40
1.0
 10
711.1425615055
 20
1053.5505447357
 30
0.0
 10
711.2672915851
 20
1053.5406671791
 30
0.0
 10
711.4230134951
 20
1053.5183932461
 30
0.0
 10
711.6362978122
 20
1053.4680037101
 30
0.0
 10
711.6536892463
 20
1053.4175379166
 30
0.0
  0
SPLINE
  5
368
100
AcDbEntity
  8
0
100
AcDbSpline
 62
7
  6
CONTINUOUS
 70
0
 71
3
 72
9
 73
5
 74
0
 42
0.0000001
 43
0.0000001
 44
0.0000000001
 40
0.0
 40
0.0
 40
0.0
 40
0.0
 40
0.2802196456
 40
1.0
 40
1.0
 40
1.0
 40
1.0
 10
682.7744235426
 20
1053.5508400718
 30
0.0
 10
682.6583582397
 20
1053.5574266228
 30
0.0
 10
682.2440779182
 20
1053.5769975911
 30
0.0
 10
681.8279108077
 20
1053.575789529
 30
0.0
 10
681.5303477425
 20
1053.5508257612
 30
0.0
  0
SPLINE
  5
369
100
AcDbEntity
  8
0
100
AcDbSpline
 62
7
  6
CONTINUOUS
 70
0
 71
3
 72
9
 73
5
 74
0
 42
0.0000001
 43
0.0000001
 44
0.0000000001
 40
0.0
 40
0.0
 40
0.0
 40
0.0
 40
0.7000108674
 40
1.0
 40
1.0
 40
1.0
 40
1.0
 10
681.5303477425
 20
1053.5508257612
 30
0.0
 10
681.4063382456
 20
1053.5404221035
 30
0.0
 10
681.2514263506
 20
1053.5176912625
 30
0.0
 10
681.0387614433
 20
1053.4679057927
 30
0.0
 10
681.0213873595
 20
1053.417484341
 30
0.0
  0
SPLINE
  5
36A
100
AcDbEntity
  8
0
100
AcDbSpline
 62
7
  6
CONTINUOUS
 70
0
 71
3
 72
8
 73
4
 74
0
 42
0.0000001
 43
0.0000001
 44
0.0000000001
 40
0.0
 40
0.0
 40
0.0
 40
0.0
 40
1.0
 40
1.0
 40
1.0
 40
1.0
 10
154.2363415978
 20
1041.9545940597
 30
0.0
 10
154.3662712207
 20
1042.3627800085
 30
0.0
 10
154.4960614505
 20
1042.7710423175
 30
0.0
 10
154.6318684162
 20
1043.1773106326
 30
0.0
  0
SPLINE
  5
36B
100
AcDbEntity
  8
0
100
AcDbSpline
 62
7
  6
CONTINUOUS
 70
0
 71
3
 72
9
 73
5
 74
0
 42
0.0000001
 43
0.0000001
 44
0.0000000001
 40
0.0
 40
0.0
 40
0.0
 40
0.0
 40
0.2734106883
 40
1.0
 40
1.0
 40
1.0
 40
1.0
 10
154.6318684162
 20
1043.1773106326
 30
0.0
 10
154.6822435364
 20
1043.328008464
 30
0.0
 10
154.8699705104
 20
1043.8778646205
 30
0.0
 10
155.0730366613
 20
1044.4235966287
 30
0.0
 10
155.2476625555
 20
1044.8080592375
 30
0.0
  0
SPLINE
  5
36C
100
AcDbEntity
  8
0
100
AcDbSpline
 62
7
  6
CONTINUOUS
 70
0
 71
3
 72
9
 73
5
 74
0
 42
0.0000001
 43
0.0000001
 44
0.0000000001
 40
0.0
 40
0.0
 40
0.0
 40
0.0
 40
0.629942645
 40
1.0
 40
1.0
 40
1.0
 40
1.0
 10
155.2476625555
 20
1044.8080592375
 30
0.0
 10
155.3830710317
 20
1045.1061793774
 30
0.0
 10
155.5904381317
 20
1045.5652486914
 30
0.0
 10
156.0439935191
 20
1045.9545940597
 30
0.0
 10
156.2363415978
 20
1045.9545940597
 30
0.0
  0
SPLINE
  5
36D
100
AcDbEntity
  8
0
100
AcDbSpline
 62
7
  6
CONTINUOUS
 70
0
 71
3
 72
9
 73
5
 74
0
 42
0.0000001
 43
0.0000001
 44
0.0000000001
 40
0.0
 40
0.0
 40
0.0
 40
0.0
 40
0.3700572786
 40
1.0
 40
1.0
 40
1.0
 40
1.0
 10
644.2363415978
 20
1045.9545940597
 30
0.0
 10
644.4286898004
 20
1045.9545940597
 30
0.0
 10
644.8822454925
 20
1045.5652481979
 30
0.0
 10
645.0896126366
 20
1045.1061784646
 30
0.0
 10
645.2250211866
 20
1044.8080580087
 30
0.0
  0
SPLINE
  5
36E
100
AcDbEntity
  8
0
100
AcDbSpline
 62
7
  6
CONTINUOUS
 70
0
 71
3
 72
9
 73
5
 74
0
 42
0.0000001
 43
0.0000001
 44
0.0000000001
 40
0.0
 40
0.0
 40
0.0
 40
0.0
 40
0.2327045623
 40
1.0
 40
1.0
 40
1.0
 40
1.0
 10
645.3771591387
 20
1044.453452695
 30
0.0
 10
645.4169093274
 20
1044.355910791
 30
0.0
 10
645.5822506656
 20
1043.9345084409
 30
0.0
 10
645.7307068976
 20
1043.5066997878
 30
0.0
 10
645.8408148253
 20
1043.1773104764
 30
0.0
  0
SPLINE
  5
36F
100
AcDbEntity
  8
0
100
AcDbSpline
 62
7
  6
CONTINUOUS
 70
0
 71
3
 72
8
 73
4
 74
0
 42
0.0000001
 43
0.0000001
 44
0.0000000001
 40
0.0
 40
0.0
 40
0.0
 40
0.0
 40
1.0
 40
1.0
 40
1.0
 40
1.0
 10
645.8408148253
 20
1043.1773104764
 30
0.0
 10
645.976621772
 20
1042.7710422122
 30
0.0
 10
646.1064119912
 20
1042.3627799568
 30
0.0
 10
646.2363415978
 20
1041.9545940597
 30
0.0
  0
SPLINE
  5
370
100
AcDbEntity
  8
0
100
AcDbSpline
 62
7
  6
CONTINUOUS
 70
0
 71
3
 72
8
 73
4
 74
0
 42
0.0000001
 43
0.0000001
 44
0.0000000001
 40
0.0
 40
0.0
 40
0.0
 40
0.0
 40
1.0
 40
1.0
 40
1.0
 40
1.0
 10
653.1375482858
 20
1042.6545940597
 30
0.0
 10
653.2544849464
 20
1043.0219614136
 30
0.0
 10
653.3712961532
 20
1043.3893974917
 30
0.0
 10
653.4935224223
 20
1043.7550389753
 30
0.0
  0
SPLINE
  5
371
100
AcDbEntity
  8
0
100
AcDbSpline
 62
7
  6
CONTINUOUS
 70
0
 71
3
 72
9
 73
5
 74
0
 42
0.0000001
 43
0.0000001
 44
0.0000000001
 40
0.0
 40
0.0
 40
0.0
 40
0.0
 40
0.2734106883
 40
1.0
 40
1.0
 40
1.0
 40
1.0
 10
653.4935224223
 20
1043.7550389753
 30
0.0
 10
653.5388600306
 20
1043.8906670236
 30
0.0
 10
653.7078143071
 20
1044.3855375644
 30
0.0
 10
653.8905738429
 20
1044.8766963717
 30
0.0
 10
654.0477371478
 20
1045.2227127197
 30
0.0
  0
SPLINE
  5
372
100
AcDbEntity
  8
0
100
AcDbSpline
 62
7
  6
CONTINUOUS
 70
0
 71
3
 72
9
 73
5
 74
0
 42
0.0000001
 43
0.0000001
 44
0.0000000001
 40
0.0
 40
0.0
 40
0.0
 40
0.0
 40
0.629942645
 40
1.0
 40
1.0
 40
1.0
 40
1.0
 10
654.0477371478
 20
1045.2227127197
 30
0.0
 10
654.1696047763
 20
1045.4910208457
 30
0.0
 10
654.3562351664
 20
1045.9041832282
 30
0.0
 10
654.764435015
 20
1046.2545940597
 30
0.0
 10
654.9375482858
 20
1046.2545940597
 30
0.0
  0
SPLINE
  5
373
100
AcDbEntity
  8
0
100
AcDbSpline
 62
7
  6
CONTINUOUS
 70
0
 71
3
 72
9
 73
5
 74
0
 42
0.0000001
 43
0.0000001
 44
0.0000000001
 40
0.0
 40
0.0
 40
0.0
 40
0.0
 40
0.35794649
 40
1.0
 40
1.0
 40
1.0
 40
1.0
 10
1143.2375482858
 20
1046.2545940597
 30
0.0
 10
1143.4457084853
 20
1046.2545940597
 30
0.0
 10
1143.9210894203
 20
1045.7616203907
 30
0.0
 10
1144.1233759175
 20
1045.2493375107
 30
0.0
 10
1144.2642840726
 20
1044.9035668315
 30
0.0
  0
SPLINE
  5
374
100
AcDbEntity
  8
0
100
AcDbSpline
 62
7
  6
CONTINUOUS
 70
0
 71
3
 72
9
 73
5
 74
0
 42
0.0000001
 43
0.0000001
 44
0.0000000001
 40
0.0
 40
0.0
 40
0.0
 40
0.0
 40
0.2327045623
 40
1.0
 40
1.0
 40
1.0
 40
1.0
 10
1144.2642840726
 20
1044.9035668315
 30
0.0
 10
1144.3000592424
 20
1044.8157791178
 30
0.0
 10
1144.4488664468
 20
1044.4365170028
 30
0.0
 10
1144.5824770556
 20
1044.051489215
 30
0.0
 10
1144.6815741905
 20
1043.7550388347
 30
0.0
  0
SPLINE
  5
375
100
AcDbEntity
  8
0
100
AcDbSpline
 62
7
  6
CONTINUOUS
 70
0
 71
3
 72
8
 73
4
 74
0
 42
0.0000001
 43
0.0000001
 44
0.0000000001
 40
0.0
 40
0.0
 40
0.0
 40
0.0
 40
1.0
 40
1.0
 40
1.0
 40
1.0
 10
1144.6815741905
 20
1043.7550388347
 30
0.0
 10
1144.8038004426
 20
1043.3893973969
 30
0.0
 10
1144.9206116399
 20
1043.0219613671
 30
0.0
 10
1145.0375482858
 20
1042.6545940597
 30
0.0
  0
SPLINE
  5
376
100
AcDbEntity
  8
0
100
AcDbSpline
 62
7
  6
CONTINUOUS
 70
0
 71
3
 72
9
 73
5
 74
0
 42
0.0000001
 43
0.0000001
 44
0.0000000001
 40
0.0
 40
0.0
 40
0.0
 40
0.0
 40
0.1772613211
 40
1.0
 40
1.0
 40
1.0
 40
1.0
 10
152.4369449418
 20
742.7442974483
 30
0.0
 10
152.3638278007
 20
742.7442974483
 30
0.0
 10
151.9539247159
 20
742.8767485246
 30
0.0
 10
151.7453410346
 20
743.2935415971
 30
0.0
 10
151.5869507264
 20
743.593676831
 30
0.0
  0
SPLINE
  5
377
100
AcDbEntity
  8
0
100
AcDbSpline
 62
7
  6
CONTINUOUS
 70
0
 71
3
 72
8
 73
4
 74
0
 42
0.0000001
 43
0.0000001
 44
0.0000000001
 40
0.0
 40
0.0
 40
0.0
 40
0.0
 40
1.0
 40
1.0
 40
1.0
 40
1.0
 10
151.5869507264
 20
743.593676831
 30
0.0
 10
151.4330567935
 20
743.8852918426
 30
0.0
 10
151.3023679998
 20
744.1890092261
 30
0.0
 10
151.1781727562
 20
744.4944567651
 30
0.0
  0
SPLINE
  5
378
100
AcDbEntity
  8
0
100
AcDbSpline
 62
7
  6
CONTINUOUS
 70
0
 71
3
 72
8
 73
4
 74
0
 42
0.0000001
 43
0.0000001
 44
0.0000000001
 40
0.0
 40
0.0
 40
0.0
 40
0.0
 40
1.0
 40
1.0
 40
1.0
 40
1.0
 10
151.1781727562
 20
744.4944567651
 30
0.0
 10
151.0235440688
 20
744.8747527466
 30
0.0
 10
150.8804815158
 20
745.2596777446
 30
0.0
 10
150.7369449418
 20
745.6442974483
 30
0.0
  0
SPLINE
  5
379
100
AcDbEntity
  8
0
100
AcDbSpline
 62
7
  6
CONTINUOUS
 70
0
 71
3
 72
8
 73
4
 74
0
 42
0.0000001
 43
0.0000001
 44
0.0000000001
 40
0.0
 40
0.0
 40
0.0
 40
0.0
 40
1.0
 40
1.0
 40
1.0
 40
1.0
 10
1148.3369449418
 20
745.6442974483
 30
0.0
 10
1148.1934087462
 20
745.2596787588
 30
0.0
 10
1148.0503465711
 20
744.874754777
 30
0.0
 10
1147.8957183532
 20
744.4944597731
 30
0.0
  0
SPLINE
  5
37A
100
AcDbEntity
  8
0
100
AcDbSpline
 62
7
  6
CONTINUOUS
 70
0
 71
3
 72
8
 73
4
 74
0
 42
0.0000001
 43
0.0000001
 44
0.0000000001
 40
0.0
 40
0.0
 40
0.0
 40
0.0
 40
1.0
 40
1.0
 40
1.0
 40
1.0
 10
1147.8957183532
 20
744.4944597731
 30
0.0
 10
1147.7715258562
 20
744.189018847
 30
0.0
 10
1147.6408400297
 20
743.8853080933
 30
0.0
 10
1147.4869507264
 20
743.5936987347
 30
0.0
  0
SPLINE
  5
37B
100
AcDbEntity
  8
0
100
AcDbSpline
 62
7
  6
CONTINUOUS
 70
0
 71
3
 72
8
 73
4
 74
0
 42
0.0000001
 43
0.0000001
 44
0.0000000001
 40
0.0
 40
0.0
 40
0.0
 40
0.0
 40
1.0
 40
1.0
 40
1.0
 40
1.0
 10
1147.4869507264
 20
743.5936987347
 30
0.0
 10
1147.413422385
 20
743.4543677219
 30
0.0
 10
1147.3342737766
 20
743.3173895308
 30
0.0
 10
1147.243799562
 20
743.1884168026
 30
0.0
  0
SPLINE
  5
37C
100
AcDbEntity
  8
0
100
AcDbSpline
 62
7
  6
CONTINUOUS
 70
0
 71
3
 72
9
 73
5
 74
0
 42
0.0000001
 43
0.0000001
 44
0.0000000001
 40
0.0
 40
0.0
 40
0.0
 40
0.0
 40
0.3194874824
 40
1.0
 40
1.0
 40
1.0
 40
1.0
 10
1147.243799562
 20
743.1884168026
 30
0.0
 10
1147.1970220364
 20
743.1217345426
 30
0.0
 10
1147.0463084938
 20
742.9232543386
 30
0.0
 10
1146.810441806
 20
742.7442974483
 30
0.0
 10
1146.6369449418
 20
742.7442974483
 30
0.0
  0
SPLINE
  5
37D
100
AcDbEntity
  8
0
100
AcDbSpline
 62
7
  6
CONTINUOUS
 70
0
 71
3
 72
9
 73
5
 74
0
 42
0.0000001
 43
0.0000001
 44
0.0000000001
 40
0.0
 40
0.0
 40
0.0
 40
0.0
 40
0.1772613211
 40
1.0
 40
1.0
 40
1.0
 40
1.0
 10
1146.6369449418
 20
1019.4442974483
 30
0.0
 10
1146.7100620828
 20
1019.4442974483
 30
0.0
 10
1147.1199651676
 20
1019.3118463719
 30
0.0
 10
1147.328548849
 20
1018.8950532994
 30
0.0
 10
1147.4869391571
 20
1018.5949180656
 30
0.0
  0
SPLINE
  5
37E
100
AcDbEntity
  8
0
100
AcDbSpline
 62
7
  6
CONTINUOUS
 70
0
 71
3
 72
8
 73
4
 74
0
 42
0.0000001
 43
0.0000001
 44
0.0000000001
 40
0.0
 40
0.0
 40
0.0
 40
0.0
 40
1.0
 40
1.0
 40
1.0
 40
1.0
 10
1147.4869391571
 20
1018.5949180656
 30
0.0
 10
1147.64083309
 20
1018.3033030539
 30
0.0
 10
1147.7715218837
 20
1017.9995856704
 30
0.0
 10
1147.8957171273
 20
1017.6941381314
 30
0.0
  0
SPLINE
  5
37F
100
AcDbEntity
  8
0
100
AcDbSpline
 62
7
  6
CONTINUOUS
 70
0
 71
3
 72
8
 73
4
 74
0
 42
0.0000001
 43
0.0000001
 44
0.0000000001
 40
0.0
 40
0.0
 40
0.0
 40
0.0
 40
1.0
 40
1.0
 40
1.0
 40
1.0
 10
1147.8957171273
 20
1017.6941381314
 30
0.0
 10
1148.0503458147
 20
1017.3138421499
 30
0.0
 10
1148.1934083678
 20
1016.9289171519
 30
0.0
 10
1148.3369449418
 20
1016.5442974483
 30
0.0
  0
SPLINE
  5
380
100
AcDbEntity
  8
0
100
AcDbSpline
 62
7
  6
CONTINUOUS
 70
0
 71
3
 72
8
 73
4
 74
0
 42
0.0000001
 43
0.0000001
 44
0.0000000001
 40
0.0
 40
0.0
 40
0.0
 40
0.0
 40
1.0
 40
1.0
 40
1.0
 40
1.0
 10
150.7369449418
 20
1016.5442974483
 30
0.0
 10
150.8804811373
 20
1016.9289161377
 30
0.0
 10
151.0235433124
 20
1017.3138401195
 30
0.0
 10
151.1781715303
 20
1017.6941351234
 30
0.0
  0
SPLINE
  5
381
100
AcDbEntity
  8
0
100
AcDbSpline
 62
7
  6
CONTINUOUS
 70
0
 71
3
 72
8
 73
4
 74
0
 42
0.0000001
 43
0.0000001
 44
0.0000000001
 40
0.0
 40
0.0
 40
0.0
 40
0.0
 40
1.0
 40
1.0
 40
1.0
 40
1.0
 10
151.1781715303
 20
1017.6941351234
 30
0.0
 10
151.3023640273
 20
1017.9995760495
 30
0.0
 10
151.4330498538
 20
1018.3032868032
 30
0.0
 10
151.5869391571
 20
1018.5948961618
 30
0.0
  0
SPLINE
  5
382
100
AcDbEntity
  8
0
100
AcDbSpline
 62
7
  6
CONTINUOUS
 70
0
 71
3
 72
8
 73
4
 74
0
 42
0.0000001
 43
0.0000001
 44
0.0000000001
 40
0.0
 40
0.0
 40
0.0
 40
0.0
 40
1.0
 40
1.0
 40
1.0
 40
1.0
 10
151.5869391571
 20
1018.5948961618
 30
0.0
 10
151.6604674985
 20
1018.7342271746
 30
0.0
 10
151.7396161069
 20
1018.8712053657
 30
0.0
 10
151.8300903215
 20
1019.0001780939
 30
0.0
  0
SPLINE
  5
383
100
AcDbEntity
  8
0
100
AcDbSpline
 62
7
  6
CONTINUOUS
 70
0
 71
3
 72
9
 73
5
 74
0
 42
0.0000001
 43
0.0000001
 44
0.0000000001
 40
0.0
 40
0.0
 40
0.0
 40
0.0
 40
0.3194874824
 40
1.0
 40
1.0
 40
1.0
 40
1.0
 10
151.8300903215
 20
1019.0001780939
 30
0.0
 10
151.8768678471
 20
1019.0668603539
 30
0.0
 10
152.0275813898
 20
1019.2653405579
 30
0.0
 10
152.2634480775
 20
1019.4442974483
 30
0.0
 10
152.4369449418
 20
1019.4442974483
 30
0.0
  0
SPLINE
  5
384
100
AcDbEntity
  8
0
100
AcDbSpline
 62
7
  6
CONTINUOUS
 70
0
 71
3
 72
9
 73
5
 74
0
 42
0.0000001
 43
0.0000001
 44
0.0000000001
 40
0.0
 40
0.0
 40
0.0
 40
0.0
 40
0.7237743843
 40
1.0
 40
1.0
 40
1.0
 40
1.0
 10
167.1107509336
 20
1019.4442974482
 30
0.0
 10
167.4364951974
 20
1019.4442974482
 30
0.0
 10
167.8877272972
 20
1019.5983782787
 30
0.0
 10
168.2622847245
 20
1019.8449804669
 30
0.0
 10
168.3629073014
 20
1019.9179894493
 30
0.0
  0
SPLINE
  5
385
100
AcDbEntity
  8
0
100
AcDbSpline
 62
7
  6
CONTINUOUS
 70
0
 71
3
 72
8
 73
4
 74
0
 42
0.0000001
 43
0.0000001
 44
0.0000000001
 40
0.0
 40
0.0
 40
0.0
 40
0.0
 40
1.0
 40
1.0
 40
1.0
 40
1.0
 10
168.3629073014
 20
1019.9179894493
 30
0.0
 10
168.6681317918
 20
1020.1394519695
 30
0.0
 10
168.9429686369
 20
1020.4022810717
 30
0.0
 10
169.2049432708
 20
1020.6735317465
 30
0.0
  0
SPLINE
  5
386
100
AcDbEntity
  8
0
100
AcDbSpline
 62
7
  6
CONTINUOUS
 70
0
 71
3
 72
8
 73
4
 74
0
 42
0.0000001
 43
0.0000001
 44
0.0000000001
 40
0.0
 40
0.0
 40
0.0
 40
0.0
 40
1.0
 40
1.0
 40
1.0
 40
1.0
 10
169.2049432708
 20
1020.6735317465
 30
0.0
 10
169.3808610414
 20
1020.8556784423
 30
0.0
 10
169.5512013055
 20
1021.0431871697
 30
0.0
 10
169.7201861922
 20
1021.2317835346
 30
0.0
  0
SPLINE
  5
387
100
AcDbEntity
  8
0
100
AcDbSpline
 62
7
  6
CONTINUOUS
 70
0
 71
3
 72
8
 73
4
 74
0
 42
0.0000001
 43
0.0000001
 44
0.0000000001
 40
0.0
 40
0.0
 40
0.0
 40
0.0
 40
1.0
 40
1.0
 40
1.0
 40
1.0
 10
1129.1640112258
 20
1021.4442945907
 30
0.0
 10
1129.3955426125
 20
1021.1844151506
 30
0.0
 10
1129.6269206986
 20
1020.9241413314
 30
0.0
 10
1129.8687095834
 20
1020.6737771135
 30
0.0
  0
SPLINE
  5
388
100
AcDbEntity
  8
0
100
AcDbSpline
 62
7
  6
CONTINUOUS
 70
0
 71
3
 72
8
 73
4
 74
0
 42
0.0000001
 43
0.0000001
 44
0.0000000001
 40
0.0
 40
0.0
 40
0.0
 40
0.0
 40
1.0
 40
1.0
 40
1.0
 40
1.0
 10
1129.8687095834
 20
1020.6737771135
 30
0.0
 10
1130.1308409706
 20
1020.4023489219
 30
0.0
 10
1130.4058454454
 20
1020.1393427635
 30
0.0
 10
1130.7112829888
 20
1019.9177710267
 30
0.0
  0
SPLINE
  5
389
100
AcDbEntity
  8
0
100
AcDbSpline
 62
7
  6
CONTINUOUS
 70
0
 71
3
 72
9
 73
5
 74
0
 42
0.0000001
 43
0.0000001
 44
0.0000000001
 40
0.0
 40
0.0
 40
0.0
 40
0.0
 40
0.5059132152
 40
1.0
 40
1.0
 40
1.0
 40
1.0
 10
1130.7112829888
 20
1019.9177710267
 30
0.0
 10
1130.7450042716
 20
1019.8933087975
 30
0.0
 10
1130.8124420732
 20
1019.8460246314
 30
0.0
 10
1130.8815483976
 20
1019.8012041035
 30
0.0
 10
1130.9161243001
 20
1019.7797602175
 30
0.0
  0
SPLINE
  5
38A
100
AcDbEntity
  8
0
100
AcDbSpline
 62
7
  6
CONTINUOUS
 70
0
 71
3
 72
8
 73
4
 74
0
 42
0.0000001
 43
0.0000001
 44
0.0000000001
 40
0.0
 40
0.0
 40
0.0
 40
0.0
 40
1.0
 40
1.0
 40
1.0
 40
1.0
 10
1130.9161243001
 20
1019.7797602175
 30
0.0
 10
1131.227569952
 20
1019.5866024237
 30
0.0
 10
1131.5966579445
 20
1019.4442974482
 30
0.0
 10
1131.96313895
 20
1019.4442974482
 30
0.0
  0
ELLIPSE
  5
38B
100
AcDbEntity
  8
0
100
AcDbEllipse
 62
7
  6
CONTINUOUS
 10
681.3987645583
 20
1051.1865256184
 30
0.0
 11
0.2962303288
 21
2.9250169713
 31
0.0
 40
0.6793433418
 41
-3.214032106
 42
-3.0729005851
  0
ELLIPSE
  5
38C
100
AcDbEntity
  8
0
100
AcDbEllipse
 62
7
  6
CONTINUOUS
 10
711.2763320132
 20
1051.1865256189
 30
0.0
 11
-0.2962303288
 21
2.9250169718
 31
0.0
 40
0.6793433417
 41
-3.210284725
 42
-3.0691532012
  0
ENDSEC
  0
SECTION
  2
OBJECTS
  0
DICTIONARY
  5
C
100
AcDbDictionary
280
0
281
1
  3
ACAD_GROUP
350
D
  3
ACAD_MLINESTYLE
350
17
  3
ACAD_LAYOUT
350
1A
  3
ACAD_PLOTSETTINGS
350
19
  3
ACAD_PLOTSTYLENAME
350
E
  0
DICTIONARY
  5
D
102
{ACAD_REACTORS
330
C
102
}
100
AcDbDictionary
280
0
281
1
  0
ACDBDICTIONARYWDFLT
  5
E
102
{ACAD_REACTORS
330
C
102
}
100
AcDbDictionary
281
1
  3
Normal
350
F
100
AcDbDictionaryWithDefault
340
F
  0
DICTIONARY
  5
17
102
{ACAD_REACTORS
330
C
102
}
100
AcDbDictionary
280
0
281
1
  3
Standard
350
18
  0
DICTIONARY
  5
19
102
{ACAD_REACTORS
330
C
102
}
100
AcDbDictionary
281
1
  0
DICTIONARY
  5
1A
102
{ACAD_REACTORS
330
C
102
}
100
AcDbDictionary
281
1
  3
Model
350
38D
  3
Layout1
350
38E
  0
ACDBPLACEHOLDER
  5
F
102
{ACAD_REACTORS
330
E
102
}
  0
MLINESTYLE
  5
18
102
{ACAD_REACTORS
330
17
102
}
100
AcDbMlineStyle
  2
STANDARD
 70
0
  3

 62
256
 51
90.0
 52
90.0
 71
2
 49
0.5
 62
256
  6
BYLAYER
 49
-0.5
 62
256
  6
BYLAYER
  0
LAYOUT
  5
38D
102
{ACAD_REACTORS
330
1A
102
}
100
AcDbPlotSettings
  1

  2
none_device
  4

  6

 40
0.0
 41
0.0
 42
0.0
 43
0.0
 44
210.0
 45
297.0
 46
0.0
 47
0.0
 48
0.0
 49
0.0
140
0.0
141
0.0
142
1.0
143
1.0
 70
1024
 72
1
 73
0
 74
0
  7

 75
0
147
1.0
148
0.0
149
0.0
100
AcDbLayout
  1
Model
 70
0
 71
0
 10
0.0
 20
0.0
 11
210.0
 21
297.0
 12
0.0
 22
0.0
 32
0.0
 14
0.0
 24
0.0
 34
0.0
 15
0.0
 25
0.0
 35
0.0
146
0.0
 13
0.0
 23
0.0
 33
0.0
 16
1.0
 26
0.0
 36
0.0
 17
0.0
 27
1.0
 37
0.0
 76
0
330
210
345
0
346
0
  0
LAYOUT
  5
38E
102
{ACAD_REACTORS
330
1A
102
}
100
AcDbPlotSettings
  1

  2
none_device
  4

  6

 40
0.0
 41
0.0
 42
0.0
 43
0.0
 44
210.0
 45
297.0
 46
0.0
 47
0.0
 48
0.0
 49
0.0
140
0.0
141
0.0
142
1.0
143
1.0
 70
0
 72
1
 73
0
 74
0
  7

 75
0
147
1.0
148
0.0
149
0.0
100
AcDbLayout
  1
Layout1
 70
0
 71
1
 10
0.0
 20
0.0
 11
210.0
 21
297.0
 12
0.0
 22
0.0
 32
0.0
 14
0.0
 24
0.0
 34
0.0
 15
0.0
 25
0.0
 35
0.0
146
0.0
 13
0.0
 23
0.0
 33
0.0
 16
1.0
 26
0.0
 36
0.0
 17
0.0
 27
1.0
 37
0.0
 76
0
330
211
345
0
346
0
  0
ENDSEC
  0
EOF
