999
DXF file: C:\Users\sesa63760\Dev\_Creo\CAD\MCADUE0001287_3D-CAD\drw0001_7.dxf
999
Pro/ENGINEER 2019471 by Parametric Technology Corporation
  0
SECTION
  2
HEADER
  9
$ACADVER
  1
AC1024
  9
$DWGCODEPAGE
  3
ANSI_1252
  9
$EXTMAX
 10
1264.0629489645
 20
1787.7461706783
 30
0.0
  9
$EXTMIN
 10
0.0
 20
0.0
 30
0.0
  9
$LIMMIN
 10
0.0
 20
0.0
  9
$LIMMAX
 10
1264.0629489645
 20
1787.7461706783
  9
$VIEWCTR
 10
632.0314744822
 20
893.8730853392
  9
$VIEWSIZE
 40
1787.7461706783
  9
$CLAYER
  8
0
  9
$LTSCALE
 40
116.5345651998
  9
$CELTYPE
  6
BYLAYER
  9
$DIMSCALE
 40
1.0
  9
$DIMASZ
 40
15.0483684401
  9
$DIMEXO
 40
1.0
  9
$DIMDLI
 40
80.5147905017
  9
$DIMEXE
 40
1.0
  9
$DIMCEN
 40
19.0692924872
  9
$DIMLFAC
 40
1.0
  9
$DIMBLK
  1
_FILLED
  9
$DIMALT
 70
0
  9
$DIMALTF
 40
0.0393700787
  9
$DIMTXT
 40
21.0677158161
  9
$DIMTOL
 70
1
  9
$DIMLIM
 70
0
  9
$DIMTFAC
 40
1.0
  9
$DIMTP
 40
0.01
  9
$DIMTM
 40
0.01
  9
$DIMGAP
 40
0.625
  9
$DIMDSEP
 70
46
  9
$AUNITS
 70
0
  9
$PDMODE
 70
3
  9
$PDSIZE
 40
0.3125
  9
$HANDSEED
  5
310
  9
$TILEMODE
 70
1
  9
$MEASUREMENT
 70
1
  9
$INSUNITS
 70
4
  0
ENDSEC
  0
SECTION
  2
CLASSES
  0
CLASS
  1
ACDBDICTIONARYWDFLT
  2
AcDbDictionaryWithDefault
  3
AutoCAD 2000
 90
0
 91
1
280
0
281
0
  0
CLASS
  1
ACDBPLACEHOLDER
  2
AcDbPlaceHolder
  3
AutoCAD 2000
 90
0
 91
1
280
0
281
0
  0
CLASS
  1
LAYOUT
  2
AcDbLayout
  3
AutoCAD 2000
 90
0
 91
0
280
0
281
0
  0
ENDSEC
  0
SECTION
  2
TABLES
  0
TABLE
  2
VPORT
  5
8
100
AcDbSymbolTable
 70
2
  0
VPORT
  5
1F4
100
AcDbSymbolTableRecord
100
AcDbViewportTableRecord
  2
*ACTIVE
 70
0
 10
0.0
 20
0.0
 11
1.0
 21
1.0
 12
632.0314744822
 22
893.8730853392
 13
0.0
 23
0.0
 14
1.0
 24
1.0
 15
0.0
 25
0.0
 16
0.0
 26
0.0
 36
1.0
 17
0.0
 27
0.0
 37
0.0
 40
1787.7461706783
 41
0.7070707071
 42
50.0
 43
0.0
 44
0.0
 50
0.0
 51
0.0
 71
0
 72
100
 73
1
 74
1
 75
0
 76
0
 77
0
 78
0
  0
ENDTAB
  0
TABLE
  2
LTYPE
  5
5
100
AcDbSymbolTable
 70
6
  0
LTYPE
  5
14
100
AcDbSymbolTableRecord
100
AcDbLinetypeTableRecord
  2
BYBLOCK
 70
0
  3

 72
65
 73
0
 40
0.0
  0
LTYPE
  5
15
100
AcDbSymbolTableRecord
100
AcDbLinetypeTableRecord
  2
BYLAYER
 70
0
  3

 72
65
 73
0
 40
0.0
  0
LTYPE
  5
16
100
AcDbSymbolTableRecord
100
AcDbLinetypeTableRecord
  2
CONTINUOUS
 70
64
  3
Solid line
 72
65
 73
0
 40
0.0
  0
LTYPE
  5
1F5
100
AcDbSymbolTableRecord
100
AcDbLinetypeTableRecord
  2
CENTER
 70
64
  3
____ _ ____ _ ____ _ ____ _ ____ _ ____ _ ____
 72
65
 73
4
 40
0.6
 49
0.375
 74
0
 49
-0.075
 74
0
 49
0.075
 74
0
 49
-0.075
 74
0
  0
LTYPE
  5
1F6
100
AcDbSymbolTableRecord
100
AcDbLinetypeTableRecord
  2
HIDDEN
 70
64
  3
- - - - - - - - - - - - - - - - - - - -
 72
65
 73
2
 40
0.2
 49
0.1
 74
0
 49
-0.1
 74
0
  0
LTYPE
  5
1F7
100
AcDbSymbolTableRecord
100
AcDbLinetypeTableRecord
  2
PHANTOM
 70
64
  3
_____ _ _ _____ _ _ _____ _ _ _____
 72
65
 73
6
 40
0.8
 49
0.45
 74
0
 49
-0.05
 74
0
 49
0.1
 74
0
 49
-0.05
 74
0
 49
0.1
 74
0
 49
-0.05
 74
0
  0
LTYPE
  5
1F8
100
AcDbSymbolTableRecord
100
AcDbLinetypeTableRecord
  2
DOT
 70
64
  3
. . . . . . . . . . . . . . . . . . . .
 72
65
 73
2
 40
0.2
 49
0.1
 74
0
 49
-0.1
 74
0
  0
LTYPE
  5
1F9
100
AcDbSymbolTableRecord
100
AcDbLinetypeTableRecord
  2
DASHED
 70
64
  3
- - - - - - - - - - - - - - - - - - - -
 72
65
 73
2
 40
0.2
 49
0.1
 74
0
 49
-0.1
 74
0
  0
ENDTAB
  0
TABLE
  2
LAYER
  5
2
100
AcDbSymbolTable
 70
36
  0
LAYER
  5
10
100
AcDbSymbolTableRecord
100
AcDbLayerTableRecord
  2
0
 70
0
 62
7
  6
CONTINUOUS
370
-3
390
F
  0
LAYER
  5
1FA
100
AcDbSymbolTableRecord
100
AcDbLayerTableRecord
  2
DEFAULT_1
 70
0
 62
7
  6
CENTER
370
-3
390
F
  0
LAYER
  5
1FB
100
AcDbSymbolTableRecord
100
AcDbLayerTableRecord
  2
DEFAULT_2
 70
0
 62
8
  6
HIDDEN
370
-3
390
F
  0
LAYER
  5
1FC
100
AcDbSymbolTableRecord
100
AcDbLayerTableRecord
  2
DEFAULT_3
 70
0
 62
7
  6
PHANTOM
370
-3
390
F
  0
LAYER
  5
1FD
100
AcDbSymbolTableRecord
100
AcDbLayerTableRecord
  2
00_COMPONENTS
 70
0
 62
7
  6
CONTINUOUS
370
-3
390
F
  0
LAYER
  5
1FE
100
AcDbSymbolTableRecord
100
AcDbLayerTableRecord
  2
01_1_DEFAULT_DATUMS
 70
0
 62
7
  6
CONTINUOUS
370
-3
390
F
  0
LAYER
  5
1FF
100
AcDbSymbolTableRecord
100
AcDbLayerTableRecord
  2
01_PLANES
 70
0
 62
7
  6
CONTINUOUS
370
-3
390
F
  0
LAYER
  5
200
100
AcDbSymbolTableRecord
100
AcDbLayerTableRecord
  2
02_COORD_SYS
 70
0
 62
7
  6
CONTINUOUS
370
-3
390
F
  0
LAYER
  5
201
100
AcDbSymbolTableRecord
100
AcDbLayerTableRecord
  2
03_AXES
 70
0
 62
7
  6
CONTINUOUS
370
-3
390
F
  0
LAYER
  5
202
100
AcDbSymbolTableRecord
100
AcDbLayerTableRecord
  2
04_POINTS
 70
0
 62
7
  6
CONTINUOUS
370
-3
390
F
  0
LAYER
  5
203
100
AcDbSymbolTableRecord
100
AcDbLayerTableRecord
  2
05_CURVES
 70
0
 62
7
  6
CONTINUOUS
370
-3
390
F
  0
LAYER
  5
204
100
AcDbSymbolTableRecord
100
AcDbLayerTableRecord
  2
06_SURFS
 70
0
 62
7
  6
CONTINUOUS
370
-3
390
F
  0
LAYER
  5
205
100
AcDbSymbolTableRecord
100
AcDbLayerTableRecord
  2
07_COSMETICS
 70
0
 62
7
  6
CONTINUOUS
370
-3
390
F
  0
LAYER
  5
206
100
AcDbSymbolTableRecord
100
AcDbLayerTableRecord
  2
10_NOTES
 70
0
 62
7
  6
CONTINUOUS
370
-3
390
F
  0
LAYER
  5
207
100
AcDbSymbolTableRecord
100
AcDbLayerTableRecord
  2
11_NOTES_PUB
 70
0
 62
7
  6
CONTINUOUS
370
-3
390
F
  0
LAYER
  5
208
100
AcDbSymbolTableRecord
100
AcDbLayerTableRecord
  2
13_REF_GTOL
 70
0
 62
7
  6
CONTINUOUS
370
-3
390
F
  0
LAYER
  5
209
100
AcDbSymbolTableRecord
100
AcDbLayerTableRecord
  2
16_MISC
 70
0
 62
7
  6
CONTINUOUS
370
-3
390
F
  0
LAYER
  5
20A
100
AcDbSymbolTableRecord
100
AcDbLayerTableRecord
  2
17_NO_PRINT
 70
0
 62
7
  6
CONTINUOUS
370
-3
390
F
  0
LAYER
  5
20B
100
AcDbSymbolTableRecord
100
AcDbLayerTableRecord
  2
18_DATUM_CAMS_JOINTS
 70
0
 62
7
  6
CONTINUOUS
370
-3
390
F
  0
LAYER
  5
20C
100
AcDbSymbolTableRecord
100
AcDbLayerTableRecord
  2
19_DATUM_FUNCTIONAL
 70
0
 62
7
  6
CONTINUOUS
370
-3
390
F
  0
LAYER
  5
20D
100
AcDbSymbolTableRecord
100
AcDbLayerTableRecord
  2
20_DATUM_KINEMATIC_SCHEME
 70
0
 62
7
  6
CONTINUOUS
370
-3
390
F
  0
ENDTAB
  0
TABLE
  2
STYLE
  5
3
100
AcDbSymbolTable
 70
1
  0
STYLE
  5
11
100
AcDbSymbolTableRecord
100
AcDbTextStyleTableRecord
  2
STANDARD
 70
0
 40
0.0
 41
0.8
 50
0.0
 71
0
 42
0.2
  3
txt
  4

  0
STYLE
  5
20E
100
AcDbSymbolTableRecord
100
AcDbTextStyleTableRecord
  2
TEXTSTYLE_1
 70
0
 40
0.0
 41
0.8
 50
0.0
 71
0
 42
0.2
  3
gdt
  4

  0
ENDTAB
  0
TABLE
  2
VIEW
  5
6
100
AcDbSymbolTable
 70
0
  0
ENDTAB
  0
TABLE
  2
UCS
  5
7
100
AcDbSymbolTable
 70
0
  0
ENDTAB
  0
TABLE
  2
APPID
  5
9
100
AcDbSymbolTable
 70
1
  0
APPID
  5
20F
100
AcDbSymbolTableRecord
100
AcDbRegAppTableRecord
  2
ACAD
 70
0
  0
ENDTAB
  0
TABLE
  2
BLOCK_RECORD
  5
1
100
AcDbSymbolTable
 70
0
  0
BLOCK_RECORD
  5
210
100
AcDbSymbolTableRecord
100
AcDbBlockTableRecord
  2
*Model_Space
  0
BLOCK_RECORD
  5
211
100
AcDbSymbolTableRecord
100
AcDbBlockTableRecord
  2
*Paper_Space
  0
BLOCK_RECORD
  5
212
100
AcDbSymbolTableRecord
100
AcDbBlockTableRecord
  2
_FILLED
  0
ENDTAB
  0
TABLE
  2
DIMSTYLE
  5
A
100
AcDbSymbolTable
 70
1
100
AcDbDimStyleTable
 71
0
  0
DIMSTYLE
105
213
100
AcDbSymbolTableRecord
100
AcDbDimStyleTableRecord
  2
STANDARD
 70
0
  3

  4

 40
1.0
 41
15.0483684401
 42
1.0
 43
0.38
 44
1.0
 45
0.0
 46
0.0
 47
0.01
 48
0.01
140
21.0677158161
141
0.09
142
0.0
143
25.4
144
1.0
145
0.0
146
1.0
147
0.625
 71
1
 72
0
 73
0
 74
0
 75
0
 76
0
 77
1
 78
8
 79
2
170
0
171
1
172
0
173
0
174
0
175
0
176
0
177
0
178
0
270
2
179
2
271
2
272
2
273
2
274
2
275
0
280
0
281
0
282
0
283
1
284
8
285
0
286
0
287
3
288
0
340
11
278
46
341
212
342
212
343
212
344
212
  0
ENDTAB
  0
ENDSEC
  0
SECTION
  2
BLOCKS
  0
BLOCK
  5
20
100
AcDbEntity
  8
0
100
AcDbBlockBegin
  2
*Model_Space
 70
0
 10
0.0
 20
0.0
 30
0.0
  3
*Model_Space
  1

  0
ENDBLK
  5
21
100
AcDbEntity
  8
0
100
AcDbBlockEnd
  0
BLOCK
  5
1C
100
AcDbEntity
  8
0
100
AcDbBlockBegin
  2
*Paper_Space
 70
0
 10
0.0
 20
0.0
 30
0.0
  3
*Paper_Space
  1

  0
ENDBLK
  5
1D
100
AcDbEntity
  8
0
100
AcDbBlockEnd
  0
BLOCK
  5
214
100
AcDbEntity
  8
0
100
AcDbBlockBegin
  2
_FILLED
 70
64
 10
0.0
 20
0.0
  3
_FILLED
  1

  0
SOLID
  5
215
100
AcDbEntity
  8
0
  6
BYBLOCK
 62
0
100
AcDbTrace
 10
0.0
 20
0.0
 11
-1.0
 21
0.25
 12
-1.0
 22
-0.25
 13
-1.0
 23
-0.25
  0
ENDBLK
  5
216
100
AcDbEntity
  8
0
  6
BYBLOCK
 62
0
100
AcDbBlockEnd
  0
ENDSEC
  0
SECTION
  2
ENTITIES
  0
LINE
  5
217
100
AcDbEntity
  8
0
100
AcDbLine
 62
7
  6
CONTINUOUS
 10
134.2196582897
 20
778.6035625052
 11
134.2196582897
 21
1049.2035625052
  0
LINE
  5
218
100
AcDbEntity
  8
0
100
AcDbLine
 62
7
  6
CONTINUOUS
 10
135.5630920913
 20
767.1932658938
 11
135.5630920913
 21
757.5611558376
  0
LINE
  5
219
100
AcDbEntity
  8
0
100
AcDbLine
 62
7
  6
CONTINUOUS
 10
135.7196582897
 20
778.6035625052
 11
135.7196582897
 21
1049.2035625052
  0
LINE
  5
21A
100
AcDbEntity
  8
0
100
AcDbLine
 62
7
  6
CONTINUOUS
 10
136.7196582897
 20
775.4035625052
 11
136.7196582897
 21
774.9035625052
  0
LINE
  5
21B
100
AcDbEntity
  8
0
100
AcDbLine
 62
7
  6
CONTINUOUS
 10
137.0630920913
 20
767.1932658938
 11
137.0630920913
 21
757.5611558377
  0
LINE
  5
21C
100
AcDbEntity
  8
0
100
AcDbLine
 62
7
  6
CONTINUOUS
 10
138.7196582897
 20
773.9035625052
 11
138.7196582897
 21
775.4035625052
  0
LINE
  5
21D
100
AcDbEntity
  8
0
100
AcDbLine
 62
7
  6
CONTINUOUS
 10
140.1075258471
 20
773.2035625052
 11
140.1075258471
 21
773.3752680185
  0
LINE
  5
21E
100
AcDbEntity
  8
0
100
AcDbLine
 62
7
  6
CONTINUOUS
 10
146.0002501263
 20
773.3752680185
 11
146.0002501263
 21
773.2035625052
  0
LINE
  5
21F
100
AcDbEntity
  8
0
100
AcDbLine
 62
7
  6
CONTINUOUS
 10
137.0630920913
 20
757.5611558377
 11
137.7880121495
 21
756.1685973624
  0
LINE
  5
220
100
AcDbEntity
  8
0
100
AcDbLine
 62
7
  6
CONTINUOUS
 10
149.9962294032
 20
773.6035625052
 11
150.0491274974
 21
773.9035625052
  0
LINE
  5
221
100
AcDbEntity
  8
0
100
AcDbLine
 62
7
  6
CONTINUOUS
 10
151.988188469
 20
772.7127535098
 11
151.2457552855
 21
768.8932658938
  0
LINE
  5
222
100
AcDbEntity
  8
0
100
AcDbLine
 62
7
  6
CONTINUOUS
 10
152.7738303279
 20
768.8932658938
 11
153.4606292442
 21
772.4265400168
  0
LINE
  5
223
100
AcDbEntity
  8
0
100
AcDbLine
 62
7
  6
CONTINUOUS
 10
152.9541848218
 20
768.8932658938
 11
153.7567186484
 21
773.0219445144
  0
LINE
  5
224
100
AcDbEntity
  8
0
100
AcDbLine
 62
7
  6
CONTINUOUS
 10
155.2291594235
 20
773.0219445144
 11
154.4266255969
 21
768.8932658938
  0
LINE
  5
225
100
AcDbEntity
  8
0
100
AcDbLine
 62
7
  6
CONTINUOUS
 10
146.0002495037
 20
773.3752738763
 11
146.1511884895
 21
773.9035625052
  0
LINE
  5
226
100
AcDbEntity
  8
0
100
AcDbLine
 62
7
  6
CONTINUOUS
 10
146.3511104088
 20
773.9035625052
 11
146.1925549158
 21
773.3486182796
  0
LINE
  5
227
100
AcDbEntity
  8
0
100
AcDbLine
 62
7
  6
CONTINUOUS
 10
138.8274491859
 20
773.9035625052
 11
138.9204950437
 21
773.8221570511
  0
LINE
  5
228
100
AcDbEntity
  8
0
100
AcDbLine
 62
7
  6
CONTINUOUS
 10
138.7905167667
 20
773.6984089979
 11
138.5560556155
 21
773.9035625052
  0
LINE
  5
229
100
AcDbEntity
  8
0
100
AcDbLine
 62
7
  6
CONTINUOUS
 10
154.8549723354
 20
773.4035314445
 11
155.2291594236
 21
773.0219445144
  0
LINE
  5
22A
100
AcDbEntity
  8
0
100
AcDbLine
 62
7
  6
CONTINUOUS
 10
136.927647495
 20
754.9398692959
 11
144.7366036194
 21
749.4719793521
  0
LINE
  5
22B
100
AcDbEntity
  8
0
100
AcDbLine
 62
7
  6
CONTINUOUS
 10
137.7880121495
 20
756.1685973624
 11
143.6081886632
 21
752.0932658938
  0
LINE
  5
22C
100
AcDbEntity
  8
0
100
AcDbLine
 62
7
  6
CONTINUOUS
 10
141.8533831241
 20
753.3219939603
 11
140.9930184697
 21
752.0932658938
  0
LINE
  5
22D
100
AcDbEntity
  8
0
100
AcDbLine
 62
7
  6
CONTINUOUS
 10
144.7366036194
 20
749.4719793521
 11
145.0685400224
 21
749.9460336644
  0
LINE
  5
22E
100
AcDbEntity
  8
0
100
AcDbLine
 62
7
  6
CONTINUOUS
 10
149.8284094769
 20
773.4035625052
 11
149.9962294032
 21
773.6035625052
  0
LINE
  5
22F
100
AcDbEntity
  8
0
100
AcDbLine
 62
7
  6
CONTINUOUS
 10
1113.2101571558
 20
772.7357310214
 11
1114.682597931
 21
773.0219445144
  0
LINE
  5
230
100
AcDbEntity
  8
0
100
AcDbLine
 62
7
  6
CONTINUOUS
 10
153.7567186484
 20
773.0219445145
 11
155.2291594236
 21
772.7357310214
  0
LINE
  5
231
100
AcDbEntity
  8
0
100
AcDbLine
 62
7
  6
CONTINUOUS
 10
1094.9896593421
 20
742.9259882607
 11
1095.0174167395
 21
742.9277226198
  0
LINE
  5
232
100
AcDbEntity
  8
0
100
AcDbLine
 62
7
  6
CONTINUOUS
 10
1067.9951835114
 20
746.7607212716
 11
1066.6378085056
 21
746.7536679584
  0
LINE
  5
233
100
AcDbEntity
  8
0
100
AcDbLine
 62
7
  6
CONTINUOUS
 10
1094.1043740849
 20
747.3223642156
 11
1071.0218012333
 21
747.3223642134
  0
LINE
  5
234
100
AcDbEntity
  8
0
100
AcDbLine
 62
7
  6
CONTINUOUS
 10
1082.5630920913
 20
748.0662148
 11
1070.9421511161
 21
748.064886195
  0
LINE
  5
235
100
AcDbEntity
  8
0
100
AcDbLine
 62
7
  6
CONTINUOUS
 10
146.5720482157
 20
748.8932658938
 11
1121.5541359669
 21
748.8932658938
  0
LINE
  5
236
100
AcDbEntity
  8
0
100
AcDbLine
 62
7
  6
CONTINUOUS
 10
1124.5179955194
 20
752.0932658938
 11
143.6081886632
 21
752.0932658938
  0
LINE
  5
237
100
AcDbEntity
  8
0
100
AcDbLine
 62
7
  6
CONTINUOUS
 10
1094.1840227629
 20
748.0648861975
 11
1082.5630920913
 21
748.0662148
  0
LINE
  5
238
100
AcDbEntity
  8
0
100
AcDbLine
 62
7
  6
CONTINUOUS
 10
1098.488375677
 20
746.7536679584
 11
1097.1310004044
 21
746.7607212723
  0
LINE
  5
239
100
AcDbEntity
  8
0
100
AcDbLine
 62
7
  6
CONTINUOUS
 10
135.5630920913
 20
767.1932658938
 11
1132.5630920913
 21
767.1932658938
  0
LINE
  5
23A
100
AcDbEntity
  8
0
100
AcDbLine
 62
7
  6
CONTINUOUS
 10
138.043544243
 20
768.8932658938
 11
1130.0826399397
 21
768.8932658938
  0
LINE
  5
23B
100
AcDbEntity
  8
0
100
AcDbLine
 62
7
  6
CONTINUOUS
 10
155.2291594235
 20
773.0219445144
 11
1113.2101571559
 21
773.0219445144
  0
LINE
  5
23C
100
AcDbEntity
  8
0
100
AcDbLine
 62
7
  6
CONTINUOUS
 10
140.1075258375
 20
773.2035625052
 11
146.0002501263
 21
773.2035625052
  0
LINE
  5
23D
100
AcDbEntity
  8
0
100
AcDbLine
 62
7
  6
CONTINUOUS
 10
146.0002495037
 20
773.3752738763
 11
140.106797021
 21
773.37526216
  0
LINE
  5
23E
100
AcDbEntity
  8
0
100
AcDbLine
 62
7
  6
CONTINUOUS
 10
149.8283508068
 20
773.4035625052
 11
146.208253266
 21
773.4035625052
  0
LINE
  5
23F
100
AcDbEntity
  8
0
100
AcDbLine
 62
7
  6
CONTINUOUS
 10
149.9962294032
 20
773.6035625052
 11
146.2653961231
 21
773.6035625052
  0
LINE
  5
240
100
AcDbEntity
  8
0
100
AcDbLine
 62
7
  6
CONTINUOUS
 10
138.5196582897
 20
773.9035625052
 11
151.0065612856
 21
773.9035625052
  0
LINE
  5
241
100
AcDbEntity
  8
0
100
AcDbLine
 62
7
  6
CONTINUOUS
 10
1123.9696582898
 20
774.2035625052
 11
1122.4696582896
 21
774.2035625052
  0
LINE
  5
242
100
AcDbEntity
  8
0
100
AcDbLine
 62
7
  6
CONTINUOUS
 10
1128.2196582897
 20
775.2035625052
 11
1118.2196582897
 21
775.2035625052
  0
LINE
  5
243
100
AcDbEntity
  8
0
100
AcDbLine
 62
7
  6
CONTINUOUS
 10
137.4196582897
 20
775.4035625052
 11
1131.0196582897
 21
775.4035625052
  0
LINE
  5
244
100
AcDbEntity
  8
0
100
AcDbLine
 62
7
  6
CONTINUOUS
 10
1134.219658289
 20
778.6035625052
 11
134.2196582904
 21
778.6035625052
  0
LINE
  5
245
100
AcDbEntity
  8
0
100
AcDbLine
 62
7
  6
CONTINUOUS
 10
1070.1087438318
 20
742.9277257642
 11
1070.1365250208
 21
742.9259882604
  0
LINE
  5
246
100
AcDbEntity
  8
0
100
AcDbLine
 62
7
  6
CONTINUOUS
 10
1094.3437629475
 20
743.1281704564
 11
1094.3489278321
 21
743.1271055209
  0
LINE
  5
247
100
AcDbEntity
  8
0
100
AcDbLine
 62
7
  6
CONTINUOUS
 10
1094.3450405527
 20
743.1279888347
 11
1094.3489278321
 21
743.1271055209
  0
LINE
  5
248
100
AcDbEntity
  8
0
100
AcDbLine
 62
7
  6
CONTINUOUS
 10
1089.8522543955
 20
742.9674809207
 11
1090.0144990949
 21
742.919065908
  0
LINE
  5
249
100
AcDbEntity
  8
0
100
AcDbLine
 62
7
  6
CONTINUOUS
 10
1075.0562537761
 20
742.9123356756
 11
1075.0045154235
 21
742.9284020415
  0
LINE
  5
24A
100
AcDbEntity
  8
0
100
AcDbLine
 62
7
  6
CONTINUOUS
 10
1089.8520379462
 20
742.9674366074
 11
1090.0025745958
 21
742.9206414093
  0
LINE
  5
24B
100
AcDbEntity
  8
0
100
AcDbLine
 62
7
  6
CONTINUOUS
 10
1080.0616590329
 20
742.9122222798
 11
1080.0592056494
 21
742.9129971944
  0
LINE
  5
24C
100
AcDbEntity
  8
0
100
AcDbLine
 62
7
  6
CONTINUOUS
 10
1080.0616590329
 20
742.9122222798
 11
1080.0601642388
 21
742.9127063441
  0
LWPOLYLINE
  5
24D
100
AcDbEntity
  8
0
100
AcDbPolyline
 62
7
  6
CONTINUOUS
 90
5
 70
0
 10
1094.8105508892
 20
743.0022957721
 10
1094.905577084
 20
742.9702400101
 10
1094.9769158137
 20
742.9448941068
 10
1095.0138078527
 20
742.9301512253
 10
1095.0174842132
 20
742.9280910298
  0
LINE
  5
24E
100
AcDbEntity
  8
0
100
AcDbLine
 62
7
  6
CONTINUOUS
 10
1094.8105508892
 20
743.0022957721
 11
1095.0174962813
 21
742.9280757202
  0
LINE
  5
24F
100
AcDbEntity
  8
0
100
AcDbLine
 62
7
  6
CONTINUOUS
 10
134.2196582904
 20
1049.2035625052
 11
1134.219658289
 21
1049.2035625052
  0
LINE
  5
250
100
AcDbEntity
  8
0
100
AcDbLine
 62
7
  6
CONTINUOUS
 10
1131.0196582897
 20
1052.4035625052
 11
137.4196582897
 21
1052.4035625052
  0
LINE
  5
251
100
AcDbEntity
  8
0
100
AcDbLine
 62
7
  6
CONTINUOUS
 10
149.7196582897
 20
1052.6035625052
 11
162.7196582897
 21
1052.6035625052
  0
LINE
  5
252
100
AcDbEntity
  8
0
100
AcDbLine
 62
7
  6
CONTINUOUS
 10
1105.7196582897
 20
1052.6035625052
 11
1118.7196582897
 21
1052.6035625052
  0
LINE
  5
253
100
AcDbEntity
  8
0
100
AcDbLine
 62
7
  6
CONTINUOUS
 10
1070.1086851379
 20
742.9280924393
 11
1070.3019996611
 21
742.9979076205
  0
LINE
  5
254
100
AcDbEntity
  8
0
100
AcDbLine
 62
7
  6
CONTINUOUS
 10
1123.3895805632
 20
749.4719793521
 11
1123.0576441601
 21
749.9460336645
  0
LWPOLYLINE
  5
255
100
AcDbEntity
  8
0
100
AcDbPolyline
 62
7
  6
CONTINUOUS
 90
4
 70
0
 10
1070.1086999694
 20
742.9280910298
 10
1070.1166058874
 20
742.9320037808
 10
1070.1723687747
 20
742.9533564319
 10
1070.3019996611
 20
742.9979076205
  0
LINE
  5
256
100
AcDbEntity
  8
0
100
AcDbLine
 62
7
  6
CONTINUOUS
 10
1126.2728010584
 20
753.3219939602
 11
1127.1331657129
 21
752.0932658938
  0
LINE
  5
257
100
AcDbEntity
  8
0
100
AcDbLine
 62
7
  6
CONTINUOUS
 10
1124.5179955194
 20
752.0932658938
 11
1130.3381720331
 21
756.1685973624
  0
LINE
  5
258
100
AcDbEntity
  8
0
100
AcDbLine
 62
7
  6
CONTINUOUS
 10
1123.3895805632
 20
749.4719793521
 11
1131.1985366876
 21
754.9398692959
  0
LINE
  5
259
100
AcDbEntity
  8
0
100
AcDbLine
 62
7
  6
CONTINUOUS
 10
1066.6378085106
 20
746.7536674915
 11
1066.5630921026
 21
748.8932652483
  0
LINE
  5
25A
100
AcDbEntity
  8
0
100
AcDbLine
 62
7
  6
CONTINUOUS
 10
1075.0022039796
 20
742.9207670231
 11
1075.0022039796
 21
742.916865586
  0
LINE
  5
25B
100
AcDbEntity
  8
0
100
AcDbLine
 62
7
  6
CONTINUOUS
 10
1075.1239733987
 20
742.9207648475
 11
1075.1239733987
 21
742.9169781886
  0
LINE
  5
25C
100
AcDbEntity
  8
0
100
AcDbLine
 62
7
  6
CONTINUOUS
 10
1080.0022018886
 20
742.9214292812
 11
1080.0022018886
 21
742.9200418625
  0
LINE
  5
25D
100
AcDbEntity
  8
0
100
AcDbLine
 62
7
  6
CONTINUOUS
 10
1080.123975365
 20
742.9214270664
 11
1080.123975365
 21
742.9200650709
  0
LINE
  5
25E
100
AcDbEntity
  8
0
100
AcDbLine
 62
7
  6
CONTINUOUS
 10
1085.0022042249
 20
742.9200665395
 11
1085.0022042249
 21
742.9214285307
  0
LINE
  5
25F
100
AcDbEntity
  8
0
100
AcDbLine
 62
7
  6
CONTINUOUS
 10
1085.1239625155
 20
742.9200355463
 11
1085.1239625155
 21
742.9214229606
  0
LINE
  5
260
100
AcDbEntity
  8
0
100
AcDbLine
 62
7
  6
CONTINUOUS
 10
1090.1239725171
 20
742.9168631372
 11
1090.1239725171
 21
742.9207645785
  0
LINE
  5
261
100
AcDbEntity
  8
0
100
AcDbLine
 62
7
  6
CONTINUOUS
 10
1113.2101571558
 20
773.0219445144
 11
1113.5843442058
 21
773.4035314817
  0
LINE
  5
262
100
AcDbEntity
  8
0
100
AcDbLine
 62
7
  6
CONTINUOUS
 10
1114.0126909825
 20
768.8932658938
 11
1113.2101571559
 21
773.0219445144
  0
LINE
  5
263
100
AcDbEntity
  8
0
100
AcDbLine
 62
7
  6
CONTINUOUS
 10
1114.682597931
 20
773.0219445144
 11
1115.4851317576
 21
768.8932658938
  0
LINE
  5
264
100
AcDbEntity
  8
0
100
AcDbLine
 62
7
  6
CONTINUOUS
 10
1131.0630920913
 20
767.1932658938
 11
1131.0630920913
 21
757.5611558377
  0
LINE
  5
265
100
AcDbEntity
  8
0
100
AcDbLine
 62
7
  6
CONTINUOUS
 10
1132.5630920913
 20
767.1932658938
 11
1132.5630920913
 21
757.5611558377
  0
LINE
  5
266
100
AcDbEntity
  8
0
100
AcDbLine
 62
7
  6
CONTINUOUS
 10
1132.7196582897
 20
778.6035625052
 11
1132.7196582897
 21
1049.2035625052
  0
LINE
  5
267
100
AcDbEntity
  8
0
100
AcDbLine
 62
7
  6
CONTINUOUS
 10
1134.219658289
 20
778.6035625052
 11
1134.219658289
 21
1049.2035625052
  0
LINE
  5
268
100
AcDbEntity
  8
0
100
AcDbLine
 62
7
  6
CONTINUOUS
 10
1098.4883756719
 20
746.7536674915
 11
1098.56309208
 21
748.8932652483
  0
LINE
  5
269
100
AcDbEntity
  8
0
100
AcDbLine
 62
7
  6
CONTINUOUS
 10
1130.3381720331
 20
756.1685973624
 11
1131.0630920913
 21
757.5611558377
  0
ARC
  5
26A
100
AcDbEntity
  8
0
100
AcDbCircle
 62
7
  6
CONTINUOUS
 10
150.9212509818
 20
755.1339015131
 40
7.7326371888
100
AcDbArc
 50
220.2518226613
 51
222.4738483261
  0
ARC
  5
26B
100
AcDbEntity
  8
0
100
AcDbCircle
 62
7
  6
CONTINUOUS
 10
141.520154769
 20
778.7023583422
 40
5.4849134302
100
AcDbArc
 50
205.5021822007
 51
207.7672996397
  0
ARC
  5
26C
100
AcDbEntity
  8
0
100
AcDbCircle
 62
7
  6
CONTINUOUS
 10
138.7630920913
 20
757.5611558376
 40
3.2
100
AcDbArc
 50
180.0
 51
235.0000000002
  0
ARC
  5
26D
100
AcDbEntity
  8
0
100
AcDbCircle
 62
7
  6
CONTINUOUS
 10
146.5720482157
 20
752.0932658938
 40
3.2
100
AcDbArc
 50
235.0000000001
 51
270.0
  0
ARC
  5
26E
100
AcDbEntity
  8
0
100
AcDbCircle
 62
7
  6
CONTINUOUS
 10
137.4196582897
 20
778.6035625052
 40
3.2
100
AcDbArc
 50
180.0
 51
270.0
  0
ARC
  5
26F
100
AcDbEntity
  8
0
100
AcDbCircle
 62
7
  6
CONTINUOUS
 10
151.0065612856
 20
772.9035625052
 40
2.5
100
AcDbArc
 50
349.0
 51
72.2535328995
  0
ARC
  5
270
100
AcDbEntity
  8
0
100
AcDbCircle
 62
7
  6
CONTINUOUS
 10
138.5196582897
 20
776.0235625052
 40
2.12
100
AcDbArc
 50
211.8907918018
 51
270.0
  0
ARC
  5
271
100
AcDbEntity
  8
0
100
AcDbCircle
 62
7
  6
CONTINUOUS
 10
140.1075258477
 20
775.2035625052
 40
2.0
100
AcDbArc
 50
228.8140748343
 51
269.9999997064
  0
ARC
  5
272
100
AcDbEntity
  8
0
100
AcDbCircle
 62
7
  6
CONTINUOUS
 10
151.7934642815
 20
773.4035625052
 40
2.0
100
AcDbArc
 50
349.0
 51
56.3371844984
  0
ARC
  5
273
100
AcDbEntity
  8
0
100
AcDbCircle
 62
7
  6
CONTINUOUS
 10
140.1074753369
 20
775.1750553911
 40
1.7997933589
100
AcDbArc
 50
228.7375470409
 51
269.9784060546
  0
ARC
  5
274
100
AcDbEntity
  8
0
100
AcDbCircle
 62
7
  6
CONTINUOUS
 10
137.2630920913
 20
767.1932658938
 40
1.7
100
AcDbArc
 50
73.98679792
 51
180.0
  0
ARC
  5
275
100
AcDbEntity
  8
0
100
AcDbCircle
 62
7
  6
CONTINUOUS
 10
138.7630920913
 20
757.5611558376
 40
1.7
100
AcDbArc
 50
180.0
 51
235.0
  0
ARC
  5
276
100
AcDbEntity
  8
0
100
AcDbCircle
 62
7
  6
CONTINUOUS
 10
151.0065612856
 20
772.9035625052
 40
1.0
100
AcDbArc
 50
349.0
 51
90.0
  0
ARC
  5
277
100
AcDbEntity
  8
0
100
AcDbCircle
 62
7
  6
CONTINUOUS
 10
146.0002501263
 20
773.4035625052
 40
0.2
100
AcDbArc
 50
270.0
 51
344.054604099
  0
ARC
  5
278
100
AcDbEntity
  8
0
100
AcDbCircle
 62
7
  6
CONTINUOUS
 10
156.2196582897
 20
1031.9785625052
 40
21.625
100
AcDbArc
 50
72.5076754749
 51
107.4923245251
  0
ARC
  5
279
100
AcDbEntity
  8
0
100
AcDbCircle
 62
7
  6
CONTINUOUS
 10
137.4196582897
 20
1049.2035625052
 40
3.2
100
AcDbArc
 50
90.0
 51
179.9999999999
  0
ARC
  5
27A
100
AcDbEntity
  8
0
100
AcDbCircle
 62
7
  6
CONTINUOUS
 10
1076.8347057885
 20
732.9527111662
 40
10.469244775
100
AcDbArc
 50
72.0559016102
 51
72.2977667306
  0
ARC
  5
27B
100
AcDbEntity
  8
0
100
AcDbCircle
 62
7
  6
CONTINUOUS
 10
1077.3106439584
 20
734.4454874796
 40
8.9024333755
100
AcDbArc
 50
72.2945071638
 51
72.9258258433
  0
ARC
  5
27C
100
AcDbEntity
  8
0
100
AcDbCircle
 62
7
  6
CONTINUOUS
 10
1072.5630920913
 20
735.2726162229
 40
8.0125
100
AcDbArc
 50
72.2778900466
 51
96.9325082178
  0
ARC
  5
27D
100
AcDbEntity
  8
0
100
AcDbCircle
 62
7
  6
CONTINUOUS
 10
1072.5630920913
 20
735.2733720409
 40
8.0125
100
AcDbArc
 50
96.9331606023
 51
102.7984403401
  0
ARC
  5
27E
100
AcDbEntity
  8
0
100
AcDbCircle
 62
7
  6
CONTINUOUS
 10
1072.5630920913
 20
735.2881579483
 40
8.0125
100
AcDbArc
 50
96.93326714
 51
102.8002417513
  0
ARC
  5
27F
100
AcDbEntity
  8
0
100
AcDbCircle
 62
7
  6
CONTINUOUS
 10
1072.5630920913
 20
735.2889229773
 40
8.0125
100
AcDbArc
 50
72.2762937301
 51
96.9331084569
  0
ARC
  5
280
100
AcDbEntity
  8
0
100
AcDbCircle
 62
7
  6
CONTINUOUS
 10
1072.5207744934
 20
735.4437360495
 40
7.8682562943
100
AcDbArc
 50
96.7776418994
 51
97.1697094922
  0
ARC
  5
281
100
AcDbEntity
  8
0
100
AcDbCircle
 62
7
  6
CONTINUOUS
 10
1070.6353718075
 20
746.8932661083
 40
4.0
100
AcDbArc
 50
182.0000023379
 51
262.4340112404
  0
ARC
  5
282
100
AcDbEntity
  8
0
100
AcDbCircle
 62
7
  6
CONTINUOUS
 10
1075.0630920913
 20
743.1112732699
 40
0.2
100
AcDbArc
 50
252.2754884827
 51
287.7229141901
  0
ARC
  5
283
100
AcDbEntity
  8
0
100
AcDbCircle
 62
7
  6
CONTINUOUS
 10
1075.0630920913
 20
743.0957263553
 40
0.2
100
AcDbArc
 50
252.2778010594
 51
283.6524938568
  0
ARC
  5
284
100
AcDbEntity
  8
0
100
AcDbCircle
 62
7
  6
CONTINUOUS
 10
1075.0641887421
 20
743.108737841
 40
0.197251226
100
AcDbArc
 50
268.4167962359
 51
287.6458531627
  0
ARC
  5
285
100
AcDbEntity
  8
0
100
AcDbCircle
 62
7
  6
CONTINUOUS
 10
1075.0615280922
 20
743.1069068238
 40
0.1953648201
100
AcDbArc
 50
252.3562608231
 51
269.1819890342
  0
ARC
  5
286
100
AcDbEntity
  8
0
100
AcDbCircle
 62
7
  6
CONTINUOUS
 10
1077.5630920913
 20
735.2895084346
 40
8.0125
100
AcDbArc
 50
72.275034813
 51
107.7250319726
  0
ARC
  5
287
100
AcDbEntity
  8
0
100
AcDbCircle
 62
7
  6
CONTINUOUS
 10
1082.5630920913
 20
735.2897937066
 40
8.0125
100
AcDbArc
 50
72.27801301
 51
107.7220214657
  0
ARC
  5
288
100
AcDbEntity
  8
0
100
AcDbCircle
 62
7
  6
CONTINUOUS
 10
1077.5630920913
 20
735.27201201
 40
8.0125
100
AcDbArc
 50
72.5895225827
 51
106.508007077
  0
ARC
  5
289
100
AcDbEntity
  8
0
100
AcDbCircle
 62
7
  6
CONTINUOUS
 10
1082.5630920913
 20
735.2717415881
 40
8.0125
100
AcDbArc
 50
72.5954271619
 51
83.737633118
  0
ARC
  5
28A
100
AcDbEntity
  8
0
100
AcDbCircle
 62
7
  6
CONTINUOUS
 10
1082.5630920913
 20
735.2717415881
 40
8.0125
100
AcDbArc
 50
96.2988068035
 51
107.3856336831
  0
ARC
  5
28B
100
AcDbEntity
  8
0
100
AcDbCircle
 62
7
  6
CONTINUOUS
 10
1082.5630920913
 20
735.2780107221
 40
8.0125
100
AcDbArc
 50
72.2773670349
 51
107.7226302451
  0
ARC
  5
28C
100
AcDbEntity
  8
0
100
AcDbCircle
 62
7
  6
CONTINUOUS
 10
1077.5630920913
 20
735.2790923188
 40
8.0125
100
AcDbArc
 50
72.2751632556
 51
97.1802153355
  0
ARC
  5
28D
100
AcDbEntity
  8
0
100
AcDbCircle
 62
7
  6
CONTINUOUS
 10
1077.5630920913
 20
735.2803019784
 40
8.0125
100
AcDbArc
 50
97.1812965122
 51
97.5616455098
  0
ARC
  5
28E
100
AcDbEntity
  8
0
100
AcDbCircle
 62
7
  6
CONTINUOUS
 10
1076.979157617
 20
737.334853963
 40
5.8983076962
100
AcDbArc
 50
107.2241470887
 51
108.5446824074
  0
ARC
  5
28F
100
AcDbEntity
  8
0
100
AcDbCircle
 62
7
  6
CONTINUOUS
 10
1081.6052736477
 20
738.3517358762
 40
4.8146424911
100
AcDbArc
 50
108.3183186358
 51
108.6997196715
  0
ARC
  5
290
100
AcDbEntity
  8
0
100
AcDbCircle
 62
7
  6
CONTINUOUS
 10
1080.0630920913
 20
743.1119348597
 40
0.2
100
AcDbArc
 50
252.2748596028
 51
287.7229141901
  0
ARC
  5
291
100
AcDbEntity
  8
0
100
AcDbCircle
 62
7
  6
CONTINUOUS
 10
1080.0630920913
 20
743.1008851634
 40
0.2
100
AcDbArc
 50
252.2721572351
 51
287.7218171969
  0
ARC
  5
292
100
AcDbEntity
  8
0
100
AcDbCircle
 62
7
  6
CONTINUOUS
 10
1080.0645629073
 20
743.1081814294
 40
0.1959742179
100
AcDbArc
 50
269.1509030957
 51
287.6473563941
  0
ARC
  5
293
100
AcDbEntity
  8
0
100
AcDbCircle
 62
7
  6
CONTINUOUS
 10
1080.061467556
 20
743.1075776129
 40
0.1953549889
100
AcDbArc
 50
252.3540454822
 51
270.0561027428
  0
ARC
  5
294
100
AcDbEntity
  8
0
100
AcDbCircle
 62
7
  6
CONTINUOUS
 10
1091.2565038323
 20
722.8005695383
 40
20.5823184606
100
AcDbArc
 50
83.4974521492
 51
83.6349174162
  0
ARC
  5
295
100
AcDbEntity
  8
0
100
AcDbCircle
 62
7
  6
CONTINUOUS
 10
1087.5630920913
 20
735.2803019789
 40
8.0125
100
AcDbArc
 50
82.438371364
 51
82.8187478678
  0
ARC
  5
296
100
AcDbEntity
  8
0
100
AcDbCircle
 62
7
  6
CONTINUOUS
 10
1087.5630920913
 20
735.2720262719
 40
8.0125
100
AcDbArc
 50
72.27918069
 51
107.3881119141
  0
ARC
  5
297
100
AcDbEntity
  8
0
100
AcDbCircle
 62
7
  6
CONTINUOUS
 10
1087.5630920913
 20
735.2866437359
 40
8.0125
100
AcDbArc
 50
72.2703658501
 51
72.2750279008
  0
ARC
  5
298
100
AcDbEntity
  8
0
100
AcDbCircle
 62
7
  6
CONTINUOUS
 10
1087.5630920913
 20
735.2895183677
 40
8.0125
100
AcDbArc
 50
73.3995955353
 51
107.723695033
  0
ARC
  5
299
100
AcDbEntity
  8
0
100
AcDbCircle
 62
7
  6
CONTINUOUS
 10
1087.5630920913
 20
735.2790921843
 40
8.0125
100
AcDbArc
 50
82.8197851001
 51
107.7248769986
  0
ARC
  5
29A
100
AcDbEntity
  8
0
100
AcDbCircle
 62
7
  6
CONTINUOUS
 10
1083.4447974471
 20
738.1279506514
 40
5.0510370237
100
AcDbArc
 50
71.2957117339
 51
71.6537085951
  0
ARC
  5
29B
100
AcDbEntity
  8
0
100
AcDbCircle
 62
7
  6
CONTINUOUS
 10
1088.8779825457
 20
739.9690702582
 40
3.1664241748
100
AcDbArc
 50
71.842989834
 51
73.4285893064
  0
ARC
  5
29C
100
AcDbEntity
  8
0
100
AcDbCircle
 62
7
  6
CONTINUOUS
 10
1084.8802788128
 20
743.5932821895
 40
0.7055558385
100
AcDbArc
 50
285.1424232362
 51
285.3367029635
  0
ARC
  5
29D
100
AcDbEntity
  8
0
100
AcDbCircle
 62
7
  6
CONTINUOUS
 10
1085.0630920913
 20
743.1119348597
 40
0.2
100
AcDbArc
 50
252.2770858099
 51
287.7191919979
  0
ARC
  5
29E
100
AcDbEntity
  8
0
100
AcDbCircle
 62
7
  6
CONTINUOUS
 10
1085.0630920913
 20
743.100885163
 40
0.2
100
AcDbArc
 50
252.2781827649
 51
287.7262184348
  0
ARC
  5
29F
100
AcDbEntity
  8
0
100
AcDbCircle
 62
7
  6
CONTINUOUS
 10
1085.0616210313
 20
743.1081858572
 40
0.1959783759
100
AcDbArc
 50
252.3581996205
 51
270.8659350208
  0
ARC
  5
2A0
100
AcDbEntity
  8
0
100
AcDbCircle
 62
7
  6
CONTINUOUS
 10
1085.0647260797
 20
743.1075341614
 40
0.1953108678
100
AcDbArc
 50
269.9579569059
 51
287.6564217307
  0
ARC
  5
2A1
100
AcDbEntity
  8
0
100
AcDbCircle
 62
7
  6
CONTINUOUS
 10
1092.6375030058
 20
734.9705888072
 40
8.3456222567
100
AcDbArc
 50
100.848313006
 51
101.0126187354
  0
ARC
  5
2A2
100
AcDbEntity
  8
0
100
AcDbCircle
 62
7
  6
CONTINUOUS
 10
1092.5630920913
 20
735.2881626662
 40
8.0125
100
AcDbArc
 50
77.201367354
 51
83.0676150214
  0
ARC
  5
2A3
100
AcDbEntity
  8
0
100
AcDbCircle
 62
7
  6
CONTINUOUS
 10
1092.5630920913
 20
735.2733767589
 40
8.0125
100
AcDbArc
 50
77.2015515151
 51
83.0668295193
  0
ARC
  5
2A4
100
AcDbEntity
  8
0
100
AcDbCircle
 62
7
  6
CONTINUOUS
 10
1092.5630920913
 20
735.2726117298
 40
8.0125
100
AcDbArc
 50
83.0674898549
 51
107.7220424442
  0
ARC
  5
2A5
100
AcDbEntity
  8
0
100
AcDbCircle
 62
7
  6
CONTINUOUS
 10
1092.5630920913
 20
735.2889184842
 40
8.0125
100
AcDbArc
 50
83.0674167425
 51
107.722454074
  0
ARC
  5
2A6
100
AcDbEntity
  8
0
100
AcDbCircle
 62
7
  6
CONTINUOUS
 10
1094.4908123751
 20
746.8932661083
 40
4.0
100
AcDbArc
 50
277.5659887595
 51
357.9999976621
  0
ARC
  5
2A7
100
AcDbEntity
  8
0
100
AcDbCircle
 62
7
  6
CONTINUOUS
 10
1094.9753350721
 20
745.5179344341
 40
2.4715276496
100
AcDbArc
 50
255.3182748097
 51
256.1342194604
  0
ARC
  5
2A8
100
AcDbEntity
  8
0
100
AcDbCircle
 62
7
  6
CONTINUOUS
 10
1089.6433783749
 20
744.3803889633
 40
1.5288802467
100
AcDbArc
 50
286.3961241445
 51
287.3085426173
  0
ARC
  5
2A9
100
AcDbEntity
  8
0
100
AcDbCircle
 62
7
  6
CONTINUOUS
 10
1089.8365149705
 20
743.7277882604
 40
0.8483015484
100
AcDbArc
 50
285.9363814922
 51
286.3239597578
  0
ARC
  5
2AA
100
AcDbEntity
  8
0
100
AcDbCircle
 62
7
  6
CONTINUOUS
 10
1090.0630920913
 20
743.0957263553
 40
0.2
100
AcDbArc
 50
254.9156713342
 51
287.7245115171
  0
ARC
  5
2AB
100
AcDbEntity
  8
0
100
AcDbCircle
 62
7
  6
CONTINUOUS
 10
1090.0630920913
 20
743.1112732699
 40
0.2
100
AcDbArc
 50
252.3869170322
 51
287.7222009891
  0
ARC
  5
2AC
100
AcDbEntity
  8
0
100
AcDbCircle
 62
7
  6
CONTINUOUS
 10
1090.0648480899
 20
743.1055121468
 40
0.1939778315
100
AcDbArc
 50
281.4864479712
 51
287.8000850044
  0
ARC
  5
2AD
100
AcDbEntity
  8
0
100
AcDbCircle
 62
7
  6
CONTINUOUS
 10
1090.0606241277
 20
743.1019149511
 40
0.1903236546
100
AcDbArc
 50
256.4036549167
 51
262.6278005259
  0
ARC
  5
2AE
100
AcDbEntity
  8
0
100
AcDbCircle
 62
7
  6
CONTINUOUS
 10
1121.5541359669
 20
752.0932658938
 40
3.2
100
AcDbArc
 50
270.0
 51
304.9999999999
  0
ARC
  5
2AF
100
AcDbEntity
  8
0
100
AcDbCircle
 62
7
  6
CONTINUOUS
 10
1123.2196582897
 20
786.9223125052
 40
12.7408438324
100
AcDbArc
 50
273.3747129721
 51
293.1063268583
  0
ARC
  5
2B0
100
AcDbEntity
  8
0
100
AcDbCircle
 62
7
  6
CONTINUOUS
 10
1123.2196582897
 20
786.9223125052
 40
12.7408438324
100
AcDbArc
 50
246.8936731417
 51
266.6252870275
  0
ARC
  5
2B1
100
AcDbEntity
  8
0
100
AcDbCircle
 62
7
  6
CONTINUOUS
 10
1129.3630920913
 20
757.5611558377
 40
3.2
100
AcDbArc
 50
304.9999999999
 51
360.0
  0
ARC
  5
2B2
100
AcDbEntity
  8
0
100
AcDbCircle
 62
7
  6
CONTINUOUS
 10
1131.0196582897
 20
778.6035625052
 40
3.2
100
AcDbArc
 50
270.0
 51
360.0
  0
ARC
  5
2B3
100
AcDbEntity
  8
0
100
AcDbCircle
 62
7
  6
CONTINUOUS
 10
1116.6458522979
 20
773.4035625052
 40
2.0
100
AcDbArc
 50
90.0
 51
191.0000000013
  0
ARC
  5
2B4
100
AcDbEntity
  8
0
100
AcDbCircle
 62
7
  6
CONTINUOUS
 10
1130.8630920913
 20
767.1932658938
 40
1.7
100
AcDbArc
 50
0.0
 51
106.0214077179
  0
ARC
  5
2B5
100
AcDbEntity
  8
0
100
AcDbCircle
 62
7
  6
CONTINUOUS
 10
1129.3630920913
 20
757.5611558377
 40
1.7
100
AcDbArc
 50
305.0000000003
 51
360.0
  0
ARC
  5
2B6
100
AcDbEntity
  8
0
100
AcDbCircle
 62
7
  6
CONTINUOUS
 10
1112.2196582897
 20
1031.9785625052
 40
21.625
100
AcDbArc
 50
72.5076754749
 51
107.4923245251
  0
ARC
  5
2B7
100
AcDbEntity
  8
0
100
AcDbCircle
 62
7
  6
CONTINUOUS
 10
1126.9191618104
 20
1049.1047666683
 40
5.4849134301
100
AcDbArc
 50
25.5021822
 51
27.7672996393
  0
ARC
  5
2B8
100
AcDbEntity
  8
0
100
AcDbCircle
 62
7
  6
CONTINUOUS
 10
1131.0196582897
 20
1049.2035625052
 40
3.2
100
AcDbArc
 50
0.0000000001
 51
90.0
  0
SPLINE
  5
2B9
100
AcDbEntity
  8
0
100
AcDbSpline
 62
7
  6
CONTINUOUS
 70
0
 71
3
 72
15
 73
11
 74
0
 42
0.0000001
 43
0.0000001
 44
0.0000000001
 40
0.0
 40
0.0
 40
0.0
 40
0.0
 40
0.0109300185
 40
0.0442685707
 40
0.1025429739
 40
0.1918143402
 40
0.3190262052
 40
0.4913016119
 40
0.7158622531
 40
1.0
 40
1.0
 40
1.0
 40
1.0
 10
1070.193439799
 20
742.9348153896
 30
0.0
 10
1070.1943214332
 20
742.9327607013
 30
0.0
 10
1070.2064955727
 20
742.9403166696
 30
0.0
 10
1070.2233998227
 20
742.9404025807
 30
0.0
 10
1070.2611008294
 20
742.9535601351
 30
0.0
 10
1070.3141656695
 20
742.9672466722
 30
0.0
 10
1070.3911084976
 20
742.989740565
 30
0.0
 10
1070.4944375458
 20
743.0173059425
 30
0.0
 10
1070.6296474133
 20
743.0512757391
 30
0.0
 10
1070.7310233491
 20
743.0746551419
 30
0.0
 10
1070.7877575761
 20
743.0872864835
 30
0.0
  0
SPLINE
  5
2BA
100
AcDbEntity
  8
0
100
AcDbSpline
 62
7
  6
CONTINUOUS
 70
0
 71
3
 72
8
 73
4
 74
0
 42
0.0000001
 43
0.0000001
 44
0.0000000001
 40
0.0
 40
0.0
 40
0.0
 40
0.0
 40
1.0
 40
1.0
 40
1.0
 40
1.0
 10
1094.9327443643
 20
742.9348153418
 30
0.0
 10
1094.7411857888
 20
743.0097652383
 30
0.0
 10
1094.5290476556
 20
743.0236324715
 30
0.0
 10
1094.3384266065
 20
743.1009357087
 30
0.0
  0
SPLINE
  5
2BB
100
AcDbEntity
  8
0
100
AcDbSpline
 62
7
  6
CONTINUOUS
 70
0
 71
3
 72
15
 73
11
 74
0
 42
0.0000001
 43
0.0000001
 44
0.0000000001
 40
0.0
 40
0.0
 40
0.0
 40
0.0
 40
0.2841355412
 40
0.5086943353
 40
0.6809685636
 40
0.8081803366
 40
0.8974529267
 40
0.9557289952
 40
0.9890688407
 40
1.0
 40
1.0
 40
1.0
 40
1.0
 10
1094.3384266936
 20
743.0872863597
 30
0.0
 10
1094.3951601933
 20
743.0746539256
 30
0.0
 10
1094.4965349483
 20
743.0512731728
 30
0.0
 10
1094.6317435599
 20
743.01730346
 30
0.0
 10
1094.7350724641
 20
742.9897391543
 30
0.0
 10
1094.8120150538
 20
742.9672468738
 30
0.0
 10
1094.8650818313
 20
742.9535600714
 30
0.0
 10
1094.9027811234
 20
742.9404034256
 30
0.0
 10
1094.9196902529
 20
742.9403155512
 30
0.0
 10
1094.9318609279
 20
742.9327611745
 30
0.0
 10
1094.9327443643
 20
742.9348153418
 30
0.0
  0
SPLINE
  5
2BC
100
AcDbEntity
  8
0
100
AcDbSpline
 62
7
  6
CONTINUOUS
 70
0
 71
3
 72
8
 73
4
 74
0
 42
0.0000001
 43
0.0000001
 44
0.0000000001
 40
0.0
 40
0.0
 40
0.0
 40
0.0
 40
1.0
 40
1.0
 40
1.0
 40
1.0
 10
1070.7877574889
 20
743.1009355844
 30
0.0
 10
1070.5971348244
 20
743.0236364299
 30
0.0
 10
1070.3849995363
 20
743.0097622145
 30
0.0
 10
1070.193439799
 20
742.9348153896
 30
0.0
  0
SPLINE
  5
2BD
100
AcDbEntity
  8
0
100
AcDbSpline
 62
7
  6
CONTINUOUS
 70
0
 71
3
 72
8
 73
4
 74
0
 42
0.0000001
 43
0.0000001
 44
0.0000000001
 40
0.0
 40
0.0
 40
0.0
 40
0.0
 40
1.0
 40
1.0
 40
1.0
 40
1.0
 10
1070.6816123362
 20
743.1064033875
 30
0.0
 10
1070.715292199
 20
743.095131166
 30
0.0
 10
1070.7533783601
 20
743.0931811501
 30
0.0
 10
1070.7880235623
 20
743.1009981891
 30
0.0
  0
SPLINE
  5
2BE
100
AcDbEntity
  8
0
100
AcDbSpline
 62
7
  6
CONTINUOUS
 70
0
 71
3
 72
11
 73
7
 74
0
 42
0.0000001
 43
0.0000001
 44
0.0000000001
 40
0.0
 40
0.0
 40
0.0
 40
0.0
 40
0.244559597
 40
0.4903497094
 40
0.7415223536
 40
1.0
 40
1.0
 40
1.0
 40
1.0
 10
1071.0218035334
 20
747.3223541272
 30
0.0
 10
1070.8226856028
 20
747.3378353424
 30
0.0
 10
1070.4273987836
 20
747.4514657683
 30
0.0
 10
1069.9252676
 20
747.8065684551
 30
0.0
 10
1069.5467367802
 20
748.3048273126
 30
0.0
 10
1069.3869370747
 20
748.6925266749
 30
0.0
 10
1069.3193430634
 20
748.8924964693
 30
0.0
  0
SPLINE
  5
2BF
100
AcDbEntity
  8
0
100
AcDbSpline
 62
7
  6
CONTINUOUS
 70
0
 71
3
 72
9
 73
5
 74
0
 42
0.0000001
 43
0.0000001
 44
0.0000000001
 40
0.0
 40
0.0
 40
0.0
 40
0.0
 40
0.2925794231
 40
1.0
 40
1.0
 40
1.0
 40
1.0
 10
1085.225983209
 20
742.9629571551
 30
0.0
 10
1085.2146066557
 20
742.9593825383
 30
0.0
 10
1085.1757608562
 20
742.94704421
 30
0.0
 10
1085.1370694687
 20
742.9342240008
 30
0.0
 10
1085.1095669473
 20
742.9255665035
 30
0.0
  0
SPLINE
  5
2C0
100
AcDbEntity
  8
0
100
AcDbSpline
 62
7
  6
CONTINUOUS
 70
0
 71
3
 72
8
 73
4
 74
0
 42
0.0000001
 43
0.0000001
 44
0.0000000001
 40
0.0
 40
0.0
 40
0.0
 40
0.0
 40
1.0
 40
1.0
 40
1.0
 40
1.0
 10
1085.1095669473
 20
742.9255665035
 30
0.0
 10
1085.0954089496
 20
742.9211097184
 30
0.0
 10
1085.0812062876
 20
742.9167780376
 30
0.0
 10
1085.0668918969
 20
742.9128524738
 30
0.0
  0
SPLINE
  5
2C1
100
AcDbEntity
  8
0
100
AcDbSpline
 62
7
  6
CONTINUOUS
 70
0
 71
3
 72
9
 73
5
 74
0
 42
0.0000001
 43
0.0000001
 44
0.0000000001
 40
0.0
 40
0.0
 40
0.0
 40
0.0
 40
0.2546139992
 40
1.0
 40
1.0
 40
1.0
 40
1.0
 10
1088.7020099141
 20
743.2341754405
 30
0.0
 10
1088.4077189617
 20
743.2760799076
 30
0.0
 10
1087.2434821647
 20
743.3759061235
 30
0.0
 10
1086.0579885338
 20
743.2180436471
 30
0.0
 10
1085.225983209
 20
742.9629571551
 30
0.0
  0
SPLINE
  5
2C2
100
AcDbEntity
  8
0
100
AcDbSpline
 62
7
  6
CONTINUOUS
 70
0
 71
3
 72
9
 73
5
 74
0
 42
0.0000001
 43
0.0000001
 44
0.0000000001
 40
0.0
 40
0.0
 40
0.0
 40
0.0
 40
0.4721284624
 40
1.0
 40
1.0
 40
1.0
 40
1.0
 10
1089.1405248053
 20
743.1597018872
 30
0.0
 10
1089.0718624443
 20
743.1734198117
 30
0.0
 10
1088.9267496636
 20
743.2044623006
 30
0.0
 10
1088.779534933
 20
743.2232843199
 30
0.0
 10
1088.7020099141
 20
743.2341754405
 30
0.0
  0
SPLINE
  5
2C3
100
AcDbEntity
  8
0
100
AcDbSpline
 62
7
  6
CONTINUOUS
 70
0
 71
3
 72
11
 73
7
 74
0
 42
0.0000001
 43
0.0000001
 44
0.0000000001
 40
0.0
 40
0.0
 40
0.0
 40
0.0
 40
0.2422792026
 40
0.4976207193
 40
0.7541588738
 40
1.0
 40
1.0
 40
1.0
 40
1.0
 10
1067.9951834938
 20
746.7607213491
 30
0.0
 10
1068.0085133411
 20
746.3728837867
 30
0.0
 10
1068.1515278163
 20
745.5756790654
 30
0.0
 10
1068.7122492626
 20
744.4848568914
 30
0.0
 10
1069.5819066134
 20
743.6108333421
 30
0.0
 10
1070.3087678537
 20
743.23306501
 30
0.0
 10
1070.6816131074
 20
743.1064053877
 30
0.0
  0
SPLINE
  5
2C4
100
AcDbEntity
  8
0
100
AcDbSpline
 62
7
  6
CONTINUOUS
 70
0
 71
3
 72
9
 73
5
 74
0
 42
0.0000001
 43
0.0000001
 44
0.0000000001
 40
0.0
 40
0.0
 40
0.0
 40
0.0
 40
0.2322453085
 40
1.0
 40
1.0
 40
1.0
 40
1.0
 10
1089.567022229
 20
743.0611903011
 30
0.0
 10
1089.5340888719
 20
743.0691731679
 30
0.0
 10
1089.3922203614
 20
743.1032745599
 30
0.0
 10
1089.2500303631
 20
743.1360839598
 30
0.0
 10
1089.1405248053
 20
743.1597018872
 30
0.0
  0
SPLINE
  5
2C5
100
AcDbEntity
  8
0
100
AcDbSpline
 62
7
  6
CONTINUOUS
 70
0
 71
3
 72
9
 73
5
 74
0
 42
0.0000001
 43
0.0000001
 44
0.0000000001
 40
0.0
 40
0.0
 40
0.0
 40
0.0
 40
0.2246279322
 40
1.0
 40
1.0
 40
1.0
 40
1.0
 10
1089.7810788609
 20
743.0039770279
 30
0.0
 10
1089.7651777113
 20
743.0087128159
 30
0.0
 10
1089.6942316701
 20
743.0292692699
 30
0.0
 10
1089.6226697588
 20
743.0476538481
 30
0.0
 10
1089.567022229
 20
743.0611903011
 30
0.0
  0
SPLINE
  5
2C6
100
AcDbEntity
  8
0
100
AcDbSpline
 62
7
  6
CONTINUOUS
 70
0
 71
3
 72
9
 73
5
 74
0
 42
0.0000001
 43
0.0000001
 44
0.0000000001
 40
0.0
 40
0.0
 40
0.0
 40
0.0
 40
0.2199459977
 40
1.0
 40
1.0
 40
1.0
 40
1.0
 10
1070.6816130378
 20
743.1064054113
 30
0.0
 10
1070.6875961075
 20
743.1070737549
 30
0.0
 10
1070.7146886611
 20
743.111120609
 30
0.0
 10
1070.7412516596
 20
743.1179386296
 30
0.0
 10
1070.7619563645
 20
743.1231535791
 30
0.0
  0
SPLINE
  5
2C7
100
AcDbEntity
  8
0
100
AcDbSpline
 62
7
  6
CONTINUOUS
 70
0
 71
3
 72
9
 73
5
 74
0
 42
0.0000001
 43
0.0000001
 44
0.0000000001
 40
0.0
 40
0.0
 40
0.0
 40
0.0
 40
0.2101596342
 40
1.0
 40
1.0
 40
1.0
 40
1.0
 10
1070.7619563645
 20
743.1231535791
 30
0.0
 10
1070.7701590789
 20
743.1252196187
 30
0.0
 10
1070.8091673327
 20
743.1351325029
 30
0.0
 10
1070.8483906832
 20
743.1442650247
 30
0.0
 10
1070.879572029
 20
743.150461057
 30
0.0
  0
SPLINE
  5
2C8
100
AcDbEntity
  8
0
100
AcDbSpline
 62
7
  6
CONTINUOUS
 70
0
 71
3
 72
9
 73
5
 74
0
 42
0.0000001
 43
0.0000001
 44
0.0000000001
 40
0.0
 40
0.0
 40
0.0
 40
0.0
 40
0.2000977848
 40
1.0
 40
1.0
 40
1.0
 40
1.0
 10
1070.879572029
 20
743.150461057
 30
0.0
 10
1070.9053170766
 20
743.1555768448
 30
0.0
 10
1071.0345329254
 20
743.1782880552
 30
0.0
 10
1071.1645586127
 20
743.1961101167
 30
0.0
 10
1071.2677200362
 20
743.2152912855
 30
0.0
  0
SPLINE
  5
2C9
100
AcDbEntity
  8
0
100
AcDbSpline
 62
7
  6
CONTINUOUS
 70
0
 71
3
 72
9
 73
5
 74
0
 42
0.0000001
 43
0.0000001
 44
0.0000000001
 40
0.0
 40
0.0
 40
0.0
 40
0.0
 40
0.2221615282
 40
1.0
 40
1.0
 40
1.0
 40
1.0
 10
1071.2677200362
 20
743.2152912855
 30
0.0
 10
1071.2877188321
 20
743.2184093773
 30
0.0
 10
1071.3777269183
 20
743.2324032494
 30
0.0
 10
1071.4680702001
 20
743.2452533739
 30
0.0
 10
1071.5387452905
 20
743.2504561013
 30
0.0
  0
SPLINE
  5
2CA
100
AcDbEntity
  8
0
100
AcDbSpline
 62
7
  6
CONTINUOUS
 70
0
 71
3
 72
9
 73
5
 74
0
 42
0.0000001
 43
0.0000001
 44
0.0000000001
 40
0.0
 40
0.0
 40
0.0
 40
0.0
 40
0.2436249921
 40
1.0
 40
1.0
 40
1.0
 40
1.0
 10
1071.0217826265
 20
747.3223710751
 30
0.0
 10
1071.0094938914
 20
747.3818076719
 30
0.0
 10
1070.9656644928
 20
747.6271089497
 30
0.0
 10
1070.945219994
 20
747.876477153
 30
0.0
 10
1070.9421675697
 20
748.0648862079
 30
0.0
  0
SPLINE
  5
2CB
100
AcDbEntity
  8
0
100
AcDbSpline
 62
7
  6
CONTINUOUS
 70
0
 71
3
 72
9
 73
5
 74
0
 42
0.0000001
 43
0.0000001
 44
0.0000000001
 40
0.0
 40
0.0
 40
0.0
 40
0.0
 40
0.2436250927
 40
1.0
 40
1.0
 40
1.0
 40
1.0
 10
1094.1043908246
 20
747.3223711112
 30
0.0
 10
1094.1166799306
 20
747.3818076949
 30
0.0
 10
1094.1605108498
 20
747.6271088561
 30
0.0
 10
1094.1809569215
 20
747.8764770831
 30
0.0
 10
1094.1840105193
 20
748.0648862098
 30
0.0
  0
SPLINE
  5
2CC
100
AcDbEntity
  8
0
100
AcDbSpline
 62
7
  6
CONTINUOUS
 70
0
 71
3
 72
9
 73
5
 74
0
 42
0.0000001
 43
0.0000001
 44
0.0000000001
 40
0.0
 40
0.0
 40
0.0
 40
0.0
 40
0.2246942008
 40
1.0
 40
1.0
 40
1.0
 40
1.0
 10
1090.0694329968
 20
742.9120893514
 30
0.0
 10
1090.0651448055
 20
742.9132417178
 30
0.0
 10
1090.0461079746
 20
742.9185482712
 30
0.0
 10
1090.0272293257
 20
742.9244048453
 30
0.0
 10
1090.0126314354
 20
742.9290572346
 30
0.0
  0
SPLINE
  5
2CD
100
AcDbEntity
  8
0
100
AcDbSpline
 62
7
  6
CONTINUOUS
 70
0
 71
3
 72
9
 73
5
 74
0
 42
0.0000001
 43
0.0000001
 44
0.0000000001
 40
0.0
 40
0.0
 40
0.0
 40
0.0
 40
0.2295887286
 40
1.0
 40
1.0
 40
1.0
 40
1.0
 10
1090.0126314354
 20
742.9290572346
 30
0.0
 10
1090.0073435528
 20
742.9307424978
 30
0.0
 10
1089.9843354578
 20
742.9381578537
 30
0.0
 10
1089.9613955581
 20
742.9457823854
 30
0.0
 10
1089.9437263895
 20
742.9516674081
 30
0.0
  0
LINE
  5
2CE
100
AcDbEntity
  8
0
100
AcDbLine
 62
7
  6
CONTINUOUS
 10
1089.9437263895
 20
742.9516674081
 11
1089.8647101483
 21
742.9778259301
  0
SPLINE
  5
2CF
100
AcDbEntity
  8
0
100
AcDbSpline
 62
7
  6
CONTINUOUS
 70
0
 71
3
 72
11
 73
7
 74
0
 42
0.0000001
 43
0.0000001
 44
0.0000000001
 40
0.0
 40
0.0
 40
0.0
 40
0.0
 40
0.3399836651
 40
0.6246667484
 40
0.8454555297
 40
1.0
 40
1.0
 40
1.0
 40
1.0
 10
1071.0218012333
 20
747.3223642134
 30
0.0
 10
1071.0424399777
 20
746.8559860601
 30
0.0
 10
1071.0868929401
 20
745.9995399745
 30
0.0
 10
1071.18383037
 20
744.8415820116
 30
0.0
 10
1071.315011026
 20
743.9457924731
 30
0.0
 10
1071.4485495384
 20
743.4425520357
 30
0.0
 10
1071.5387475306
 20
743.250469051
 30
0.0
  0
SPLINE
  5
2D0
100
AcDbEntity
  8
0
100
AcDbSpline
 62
7
  6
CONTINUOUS
 70
0
 71
3
 72
8
 73
4
 74
0
 42
0.0000001
 43
0.0000001
 44
0.0000000001
 40
0.0
 40
0.0
 40
0.0
 40
0.0
 40
1.0
 40
1.0
 40
1.0
 40
1.0
 10
1090.0694259378
 20
742.9123311202
 30
0.0
 10
1090.0584597602
 20
742.9107621806
 30
0.0
 10
1090.0471879824
 20
742.9117343185
 30
0.0
 10
1090.0362028599
 20
742.9131645997
 30
0.0
  0
SPLINE
  5
2D1
100
AcDbEntity
  8
0
100
AcDbSpline
 62
7
  6
CONTINUOUS
 70
0
 71
3
 72
11
 73
7
 74
0
 42
0.0000001
 43
0.0000001
 44
0.0000000001
 40
0.0
 40
0.0
 40
0.0
 40
0.0
 40
0.1545500027
 40
0.3753384517
 40
0.6600197356
 40
1.0
 40
1.0
 40
1.0
 40
1.0
 10
1093.5873978055
 20
743.2504782545
 30
0.0
 10
1093.6775984281
 20
743.442568551
 30
0.0
 10
1093.811204817
 20
743.9457956493
 30
0.0
 10
1093.9423454194
 20
744.8416025838
 30
0.0
 10
1094.0393000847
 20
745.9995488843
 30
0.0
 10
1094.0837354272
 20
746.8559904244
 30
0.0
 10
1094.1043740849
 20
747.3223642156
 30
0.0
  0
LINE
  5
2D2
100
AcDbEntity
  8
0
100
AcDbLine
 62
7
  6
CONTINUOUS
 10
1075.0587373074
 20
742.9115624449
 11
1075.0567875325
 21
742.9121676999
  0
SPLINE
  5
2D3
100
AcDbEntity
  8
0
100
AcDbSpline
 62
7
  6
CONTINUOUS
 70
0
 71
3
 72
9
 73
5
 74
0
 42
0.0000001
 43
0.0000001
 44
0.0000000001
 40
0.0
 40
0.0
 40
0.0
 40
0.0
 40
0.4730119162
 40
1.0
 40
1.0
 40
1.0
 40
1.0
 10
1075.0058626969
 20
742.928021869
 30
0.0
 10
1074.4865369366
 20
743.0892486403
 30
0.0
 10
1073.3554469919
 20
743.3338624972
 30
0.0
 10
1072.1937849481
 20
743.3285042218
 30
0.0
 10
1071.5921905673
 20
743.2570061079
 30
0.0
  0
SPLINE
  5
2D4
100
AcDbEntity
  8
0
100
AcDbSpline
 62
7
  6
CONTINUOUS
 70
0
 71
3
 72
8
 73
4
 74
0
 42
0.0000001
 43
0.0000001
 44
0.0000000001
 40
0.0
 40
0.0
 40
0.0
 40
0.0
 40
1.0
 40
1.0
 40
1.0
 40
1.0
 10
1071.5387474766
 20
743.2504687393
 30
0.0
 10
1071.5566086094
 20
743.2432930757
 30
0.0
 10
1071.5768359181
 20
743.2402155553
 30
0.0
 10
1071.5959449991
 20
743.2425292608
 30
0.0
  0
SPLINE
  5
2D5
100
AcDbEntity
  8
0
100
AcDbSpline
 62
7
  6
CONTINUOUS
 70
0
 71
3
 72
8
 73
4
 74
0
 42
0.0000001
 43
0.0000001
 44
0.0000000001
 40
0.0
 40
0.0
 40
0.0
 40
0.0
 40
1.0
 40
1.0
 40
1.0
 40
1.0
 10
1090.0694259378
 20
742.9123311202
 30
0.0
 10
1090.0808049567
 20
742.9116976837
 30
0.0
 10
1090.0923064483
 20
742.9131560517
 30
0.0
 10
1090.1034760884
 20
742.9154193357
 30
0.0
  0
SPLINE
  5
2D6
100
AcDbEntity
  8
0
100
AcDbSpline
 62
7
  6
CONTINUOUS
 70
0
 71
3
 72
8
 73
4
 74
0
 42
0.0000001
 43
0.0000001
 44
0.0000000001
 40
0.0
 40
0.0
 40
0.0
 40
0.0
 40
1.0
 40
1.0
 40
1.0
 40
1.0
 10
1093.530238249
 20
743.2425283099
 30
0.0
 10
1093.5493354081
 20
743.2402164155
 30
0.0
 10
1093.5695514128
 20
743.2432981576
 30
0.0
 10
1093.5873978304
 20
743.2504781104
 30
0.0
  0
SPLINE
  5
2D7
100
AcDbEntity
  8
0
100
AcDbSpline
 62
7
  6
CONTINUOUS
 70
0
 71
3
 72
9
 73
5
 74
0
 42
0.0000001
 43
0.0000001
 44
0.0000000001
 40
0.0
 40
0.0
 40
0.0
 40
0.0
 40
0.5570749107
 40
1.0
 40
1.0
 40
1.0
 40
1.0
 10
1079.9244827524
 20
742.9555501564
 30
0.0
 10
1079.0823820627
 20
743.2139390425
 30
0.0
 10
1077.4826153613
 20
743.4319761198
 30
0.0
 10
1075.9014894628
 20
743.1762352513
 30
0.0
 10
1075.2326060551
 20
742.9686441011
 30
0.0
  0
LINE
  5
2D8
100
AcDbEntity
  8
0
100
AcDbLine
 62
7
  6
CONTINUOUS
 10
1075.1032355663
 20
742.9268974302
 11
1075.0587373074
 21
742.9115624449
  0
SPLINE
  5
2D9
100
AcDbEntity
  8
0
100
AcDbSpline
 62
7
  6
CONTINUOUS
 70
0
 71
3
 72
11
 73
7
 74
0
 42
0.0000001
 43
0.0000001
 44
0.0000000001
 40
0.0
 40
0.0
 40
0.0
 40
0.0
 40
0.179639878
 40
0.4998637496
 40
0.8201440184
 40
1.0
 40
1.0
 40
1.0
 40
1.0
 10
1085.0346589805
 20
742.9222509465
 30
0.0
 10
1084.7494175351
 20
743.0168514195
 30
0.0
 10
1083.9384182737
 20
743.2286409938
 30
0.0
 10
1082.563971427
 20
743.3684657119
 30
0.0
 10
1081.1891108835
 20
743.2288803735
 30
0.0
 10
1080.3776748576
 20
743.0169917732
 30
0.0
 10
1080.0920508161
 20
742.9223965482
 30
0.0
  0
SPLINE
  5
2DA
100
AcDbEntity
  8
0
100
AcDbSpline
 62
7
  6
CONTINUOUS
 70
0
 71
3
 72
10
 73
6
 74
0
 42
0.0000001
 43
0.0000001
 44
0.0000000001
 40
0.0
 40
0.0
 40
0.0
 40
0.0
 40
0.2084139944
 40
0.4486823793
 40
1.0
 40
1.0
 40
1.0
 40
1.0
 10
1093.538327283
 20
743.2560117226
 30
0.0
 10
1093.3670187886
 20
743.2751115074
 30
0.0
 10
1092.997262496
 20
743.3097768114
 30
0.0
 10
1092.1697032347
 20
743.3217842821
 30
0.0
 10
1091.5145989608
 20
743.2528835452
 30
0.0
 10
1091.0667773371
 20
743.1670655945
 30
0.0
  0
SPLINE
  5
2DB
100
AcDbEntity
  8
0
100
AcDbSpline
 62
7
  6
CONTINUOUS
 70
0
 71
3
 72
9
 73
5
 74
0
 42
0.0000001
 43
0.0000001
 44
0.0000000001
 40
0.0
 40
0.0
 40
0.0
 40
0.0
 40
0.3584968461
 40
1.0
 40
1.0
 40
1.0
 40
1.0
 10
1091.0432789884
 20
743.1625275663
 30
0.0
 10
1090.9288136427
 20
743.1402515961
 30
0.0
 10
1090.6107191188
 20
743.0716763351
 30
0.0
 10
1090.2975529217
 20
742.9825483808
 30
0.0
 10
1090.0982465795
 20
742.9207418397
 30
0.0
  0
SPLINE
  5
2DC
100
AcDbEntity
  8
0
100
AcDbSpline
 62
7
  6
CONTINUOUS
 70
0
 71
3
 72
14
 73
10
 74
0
 42
0.0000001
 43
0.0000001
 44
0.0000000001
 40
0.0
 40
0.0
 40
0.0
 40
0.0
 40
0.3917308931
 40
0.551539269
 40
0.6856306067
 40
0.7944241634
 40
0.8799573267
 40
0.9460578937
 40
1.0
 40
1.0
 40
1.0
 40
1.0
 10
1096.2877201731
 20
748.8929979256
 30
0.0
 10
1096.3155950478
 20
748.5802239843
 30
0.0
 10
1096.376901569
 20
748.1406290698
 30
0.0
 10
1096.5146005922
 20
747.6080223898
 30
0.0
 10
1096.6232708569
 20
747.303499258
 30
0.0
 10
1096.7401685921
 20
747.0666806761
 30
0.0
 10
1096.8628566924
 20
746.8962412859
 30
0.0
 10
1096.9911213339
 20
746.7884219065
 30
0.0
 10
1097.0877578619
 20
746.7608324167
 30
0.0
 10
1097.1309980012
 20
746.7607201432
 30
0.0
  0
SPLINE
  5
2DD
100
AcDbEntity
  8
0
100
AcDbSpline
 62
7
  6
CONTINUOUS
 70
0
 71
3
 72
9
 73
5
 74
0
 42
0.0000001
 43
0.0000001
 44
0.0000000001
 40
0.0
 40
0.0
 40
0.0
 40
0.0
 40
0.3115876193
 40
1.0
 40
1.0
 40
1.0
 40
1.0
 10
1094.4445630839
 20
743.1064297449
 30
0.0
 10
1094.4826278116
 20
743.0957911645
 30
0.0
 10
1094.605504321
 20
743.0643002083
 30
0.0
 10
1094.7274546914
 20
743.0291312024
 30
0.0
 10
1094.8105508892
 20
743.0022957721
 30
0.0
  0
SPLINE
  5
2DE
100
AcDbEntity
  8
0
100
AcDbSpline
 62
7
  6
CONTINUOUS
 70
0
 71
3
 72
8
 73
4
 74
0
 42
0.0000001
 43
0.0000001
 44
0.0000000001
 40
0.0
 40
0.0
 40
0.0
 40
0.0
 40
1.0
 40
1.0
 40
1.0
 40
1.0
 10
1094.4445631904
 20
743.1064297841
 30
0.0
 10
1094.4109714281
 20
743.0951773689
 30
0.0
 10
1094.3729969341
 20
743.0931963167
 30
0.0
 10
1094.3384263644
 20
743.1009357647
 30
0.0
  0
SPLINE
  5
2DF
100
AcDbEntity
  8
0
100
AcDbSpline
 62
7
  6
CONTINUOUS
 70
0
 71
3
 72
11
 73
7
 74
0
 42
0.0000001
 43
0.0000001
 44
0.0000000001
 40
0.0
 40
0.0
 40
0.0
 40
0.0
 40
0.2458421688
 40
0.5023806995
 40
0.7577218316
 40
1.0
 40
1.0
 40
1.0
 40
1.0
 10
1094.4445707591
 20
743.1064053947
 30
0.0
 10
1094.8174175944
 20
743.2330655575
 30
0.0
 10
1095.5442807583
 20
743.6108354926
 30
0.0
 10
1096.4139380124
 20
744.4848615831
 30
0.0
 10
1096.9746570633
 20
745.5756830241
 30
0.0
 10
1097.1176706448
 20
746.372885442
 30
0.0
 10
1097.1310004471
 20
746.7607213497
 30
0.0
  0
SPLINE
  5
2E0
100
AcDbEntity
  8
0
100
AcDbSpline
 62
7
  6
CONTINUOUS
 70
0
 71
3
 72
11
 73
7
 74
0
 42
0.0000001
 43
0.0000001
 44
0.0000000001
 40
0.0
 40
0.0
 40
0.0
 40
0.0
 40
0.2585030855
 40
0.5096459278
 40
0.7554839359
 40
1.0
 40
1.0
 40
1.0
 40
1.0
 10
1095.8069349257
 20
748.8926394602
 30
0.0
 10
1095.7399296348
 20
748.6924352584
 30
0.0
 10
1095.5789691158
 20
748.3051390548
 30
0.0
 10
1095.2009418538
 20
747.8065726875
 30
0.0
 10
1094.6988302024
 20
747.4514054943
 30
0.0
 10
1094.3034972101
 20
747.3374426054
 30
0.0
 10
1094.1043717832
 20
747.3223540267
 30
0.0
  0
SPLINE
  5
2E1
100
AcDbEntity
  8
0
100
AcDbSpline
 62
7
  6
CONTINUOUS
 70
0
 71
3
 72
12
 73
8
 74
0
 42
0.0000001
 43
0.0000001
 44
0.0000000001
 40
0.0
 40
0.0
 40
0.0
 40
0.0
 40
0.1938250243
 40
0.3579280324
 40
0.6326956456
 40
0.8497913897
 40
1.0
 40
1.0
 40
1.0
 40
1.0
 10
1093.5874000465
 20
743.2504652989
 30
0.0
 10
1093.6369628778
 20
743.2482828497
 30
0.0
 10
1093.7278251997
 20
743.2348496149
 30
0.0
 10
1093.8879931069
 20
743.2114853072
 30
0.0
 10
1094.0533112767
 20
743.1820394746
 30
0.0
 10
1094.2161414308
 20
743.1587933689
 30
0.0
 10
1094.3075625507
 20
743.1365659089
 30
0.0
 10
1094.3450405527
 20
743.1279888347
 30
0.0
  0
SPLINE
  5
2E2
100
AcDbEntity
  8
0
100
AcDbSpline
 62
7
  6
CONTINUOUS
 70
0
 71
3
 72
8
 73
4
 74
0
 42
0.0000001
 43
0.0000001
 44
0.0000000001
 40
0.0
 40
0.0
 40
0.0
 40
0.0
 40
1.0
 40
1.0
 40
1.0
 40
1.0
 10
1094.383037804
 20
743.1184276371
 30
0.0
 10
1094.3935548104
 20
743.1158441757
 30
0.0
 10
1094.4040998167
 20
743.1133528631
 30
0.0
 10
1094.4147185712
 20
743.1112259522
 30
0.0
  0
SPLINE
  5
2E3
100
AcDbEntity
  8
0
100
AcDbSpline
 62
7
  6
CONTINUOUS
 70
0
 71
3
 72
8
 73
4
 74
0
 42
0.0000001
 43
0.0000001
 44
0.0000000001
 40
0.0
 40
0.0
 40
0.0
 40
0.0
 40
1.0
 40
1.0
 40
1.0
 40
1.0
 10
1094.4147185712
 20
743.1112259522
 30
0.0
 10
1094.4246019225
 20
743.1092463408
 30
0.0
 10
1094.4345604932
 20
743.1075854471
 30
0.0
 10
1094.4445708396
 20
743.1064054221
 30
0.0
  0
SPLINE
  5
2E4
100
AcDbEntity
  8
0
100
AcDbSpline
 62
7
  6
CONTINUOUS
 70
0
 71
3
 72
9
 73
5
 74
0
 42
0.0000001
 43
0.0000001
 44
0.0000000001
 40
0.0
 40
0.0
 40
0.0
 40
0.0
 40
0.185326126
 40
1.0
 40
1.0
 40
1.0
 40
1.0
 10
1070.3019996611
 20
742.9979076205
 30
0.0
 10
1070.3251712543
 20
743.0055299729
 30
0.0
 10
1070.4505344812
 20
743.0457180852
 30
0.0
 10
1070.5787032903
 20
743.076327734
 30
0.0
 10
1070.681620836
 20
743.1064297318
 30
0.0
  0
SPLINE
  5
2E5
100
AcDbEntity
  8
0
100
AcDbSpline
 62
7
  6
CONTINUOUS
 70
0
 71
3
 72
11
 73
7
 74
0
 42
0.0000001
 43
0.0000001
 44
0.0000000001
 40
0.0
 40
0.0
 40
0.0
 40
0.0
 40
0.2308503308
 40
0.4670425967
 40
0.7216879583
 40
1.0
 40
1.0
 40
1.0
 40
1.0
 10
1094.184022919
 20
748.0649047509
 30
0.0
 10
1094.2828309229
 20
748.0649078786
 30
0.0
 10
1094.4856696312
 20
748.1036044185
 30
0.0
 10
1094.7449176497
 20
748.2861911892
 30
0.0
 10
1094.9328707708
 20
748.5626284133
 30
0.0
 10
1095.0116744559
 20
748.7783756541
 30
0.0
 10
1095.0442384135
 20
748.8929607627
 30
0.0
  0
SPLINE
  5
2E6
100
AcDbEntity
  8
0
100
AcDbSpline
 62
7
  6
CONTINUOUS
 70
0
 71
3
 72
11
 73
7
 74
0
 42
0.0000001
 43
0.0000001
 44
0.0000000001
 40
0.0
 40
0.0
 40
0.0
 40
0.0
 40
0.2785947155
 40
0.5333611993
 40
0.7694227097
 40
1.0
 40
1.0
 40
1.0
 40
1.0
 10
1070.079033693
 20
748.9032970609
 30
0.0
 10
1070.1113771546
 20
748.7874980849
 30
0.0
 10
1070.1897708506
 20
748.5694146106
 30
0.0
 10
1070.3777375564
 20
748.2894972338
 30
0.0
 10
1070.6382549431
 20
748.1042103863
 30
0.0
 10
1070.842642442
 20
748.0649091598
 30
0.0
 10
1070.9421509583
 20
748.064904764
 30
0.0
  0
SPLINE
  5
2E7
100
AcDbEntity
  8
0
100
AcDbSpline
 62
7
  6
CONTINUOUS
 70
0
 71
3
 72
14
 73
10
 74
0
 42
0.0000001
 43
0.0000001
 44
0.0000000001
 40
0.0
 40
0.0
 40
0.0
 40
0.0
 40
0.0539421009
 40
0.1200426499
 40
0.2055757947
 40
0.314369339
 40
0.4484606736
 40
0.6082690576
 40
1.0
 40
1.0
 40
1.0
 40
1.0
 10
1067.9951859149
 20
746.7607201472
 30
0.0
 10
1068.0384260563
 20
746.7608323723
 30
0.0
 10
1068.135062614
 20
746.788421765
 30
0.0
 10
1068.2633273086
 20
746.8962410777
 30
0.0
 10
1068.3860154493
 20
747.0666804294
 30
0.0
 10
1068.5029132235
 20
747.3034990057
 30
0.0
 10
1068.6115835259
 20
747.6080221678
 30
0.0
 10
1068.7492826015
 20
748.1406289619
 30
0.0
 10
1068.8105891381
 20
748.5802239867
 30
0.0
 10
1068.8384640172
 20
748.8929980129
 30
0.0
  0
SPLINE
  5
2E8
100
AcDbEntity
  8
0
100
AcDbSpline
 62
7
  6
CONTINUOUS
 70
0
 71
3
 72
11
 73
7
 74
0
 42
0.0000001
 43
0.0000001
 44
0.0000000001
 40
0.0
 40
0.0
 40
0.0
 40
0.0
 40
0.3857475143
 40
0.7054950854
 40
0.9179286282
 40
1.0
 40
1.0
 40
1.0
 40
1.0
 10
138.922219994
 20
773.820642917
 30
0.0
 10
138.9067249794
 20
773.8032884396
 30
0.0
 10
138.8784037618
 20
773.7728850869
 30
0.0
 10
138.8374514235
 20
773.7306206733
 30
0.0
 10
138.8133099545
 20
773.7120901057
 30
0.0
 10
138.7942418152
 20
773.6951495805
 30
0.0
 10
138.7905166319
 20
773.6984091159
 30
0.0
  0
SPLINE
  5
2E9
100
AcDbEntity
  8
0
100
AcDbSpline
 62
7
  6
CONTINUOUS
 70
0
 71
3
 72
11
 73
7
 74
0
 42
0.0000001
 43
0.0000001
 44
0.0000000001
 40
0.0
 40
0.0
 40
0.0
 40
0.0
 40
0.0900111832
 40
0.3049532721
 40
0.6229401182
 40
1.0
 40
1.0
 40
1.0
 40
1.0
 10
146.1925549158
 20
773.3486182796
 30
0.0
 10
146.1909338352
 20
773.3429444976
 30
0.0
 10
146.1638878789
 20
773.3424189798
 30
0.0
 10
146.1288340612
 20
773.3456899637
 30
0.0
 10
146.0674533938
 20
773.3575340142
 30
0.0
 10
146.0240536761
 20
773.3686132429
 30
0.0
 10
146.0002504145
 20
773.3752781533
 30
0.0
  0
SPLINE
  5
2EA
100
AcDbEntity
  8
0
100
AcDbSpline
 62
7
  6
CONTINUOUS
 70
0
 71
3
 72
8
 73
4
 74
0
 42
0.0000001
 43
0.0000001
 44
0.0000000001
 40
0.0
 40
0.0
 40
0.0
 40
0.0
 40
1.0
 40
1.0
 40
1.0
 40
1.0
 10
145.6686064813
 20
749.471979352
 30
0.0
 10
145.760053516
 20
749.3584897246
 30
0.0
 10
145.859097257
 20
749.2498296146
 30
0.0
 10
145.9697537375
 20
749.1549739399
 30
0.0
  0
SPLINE
  5
2EB
100
AcDbEntity
  8
0
100
AcDbSpline
 62
7
  6
CONTINUOUS
 70
0
 71
3
 72
8
 73
4
 74
0
 42
0.0000001
 43
0.0000001
 44
0.0000000001
 40
0.0
 40
0.0
 40
0.0
 40
0.0
 40
1.0
 40
1.0
 40
1.0
 40
1.0
 10
145.9697537375
 20
749.1549739399
 30
0.0
 10
146.0606321663
 20
749.0770721789
 30
0.0
 10
146.1612304847
 20
749.0073340141
 30
0.0
 10
146.2709009595
 20
748.9593761144
 30
0.0
  0
SPLINE
  5
2EC
100
AcDbEntity
  8
0
100
AcDbSpline
 62
7
  6
CONTINUOUS
 70
0
 71
3
 72
9
 73
5
 74
0
 42
0.0000001
 43
0.0000001
 44
0.0000000001
 40
0.0
 40
0.0
 40
0.0
 40
0.0
 40
0.5115295909
 40
1.0
 40
1.0
 40
1.0
 40
1.0
 10
146.2709009595
 20
748.9593761144
 30
0.0
 10
146.3193293741
 20
748.9381988098
 30
0.0
 10
146.4179608272
 20
748.9050083983
 30
0.0
 10
146.5215746084
 20
748.8932658938
 30
0.0
 10
146.5720482157
 20
748.8932658938
 30
0.0
  0
SPLINE
  5
2ED
100
AcDbEntity
  8
0
100
AcDbSpline
 62
7
  6
CONTINUOUS
 70
0
 71
3
 72
9
 73
5
 74
0
 42
0.0000001
 43
0.0000001
 44
0.0000000001
 40
0.0
 40
0.0
 40
0.0
 40
0.0
 40
0.7659581373
 40
1.0
 40
1.0
 40
1.0
 40
1.0
 10
143.6081886631
 20
752.0932658938
 30
0.0
 10
143.9513525221
 20
751.5816591254
 30
0.0
 10
144.3977563624
 20
750.9115106823
 30
0.0
 10
144.8978805423
 20
750.2810458873
 30
0.0
 10
145.019610143
 20
750.1374714574
 30
0.0
  0
SPLINE
  5
2EE
100
AcDbEntity
  8
0
100
AcDbSpline
 62
7
  6
CONTINUOUS
 70
0
 71
3
 72
8
 73
4
 74
0
 42
0.0000001
 43
0.0000001
 44
0.0000000001
 40
0.0
 40
0.0
 40
0.0
 40
0.0
 40
1.0
 40
1.0
 40
1.0
 40
1.0
 10
145.2177689748
 20
749.9124102617
 30
0.0
 10
145.3597494942
 20
749.7575599281
 30
0.0
 10
145.5089359069
 20
749.6085165316
 30
0.0
 10
145.6686064813
 20
749.471979352
 30
0.0
  0
SPLINE
  5
2EF
100
AcDbEntity
  8
0
100
AcDbSpline
 62
7
  6
CONTINUOUS
 70
0
 71
3
 72
8
 73
4
 74
0
 42
0.0000001
 43
0.0000001
 44
0.0000000001
 40
0.0
 40
0.0
 40
0.0
 40
0.0
 40
1.0
 40
1.0
 40
1.0
 40
1.0
 10
1122.4575777012
 20
749.471979352
 30
0.0
 10
1122.7078867105
 20
749.6860230872
 30
0.0
 10
1122.9330222436
 20
749.9297036532
 30
0.0
 10
1123.1443405606
 20
750.1823177652
 30
0.0
  0
SPLINE
  5
2F0
100
AcDbEntity
  8
0
100
AcDbSpline
 62
7
  6
CONTINUOUS
 70
0
 71
3
 72
8
 73
4
 74
0
 42
0.0000001
 43
0.0000001
 44
0.0000000001
 40
0.0
 40
0.0
 40
0.0
 40
0.0
 40
1.0
 40
1.0
 40
1.0
 40
1.0
 10
1123.1443405606
 20
750.1823177652
 30
0.0
 10
1123.3872436503
 20
750.4726889418
 30
0.0
 10
1123.6127696756
 20
750.777592407
 30
0.0
 10
1123.8312326601
 20
751.0867707626
 30
0.0
  0
SPLINE
  5
2F1
100
AcDbEntity
  8
0
100
AcDbSpline
 62
7
  6
CONTINUOUS
 70
0
 71
3
 72
8
 73
4
 74
0
 42
0.0000001
 43
0.0000001
 44
0.0000000001
 40
0.0
 40
0.0
 40
0.0
 40
0.0
 40
1.0
 40
1.0
 40
1.0
 40
1.0
 10
1123.8312326601
 20
751.0867707626
 30
0.0
 10
1124.0656140083
 20
751.4184774815
 30
0.0
 10
1124.2917455527
 20
751.7559605183
 30
0.0
 10
1124.5179955194
 20
752.0932658938
 30
0.0
  0
SPLINE
  5
2F2
100
AcDbEntity
  8
0
100
AcDbSpline
 62
7
  6
CONTINUOUS
 70
0
 71
3
 72
9
 73
5
 74
0
 42
0.0000001
 43
0.0000001
 44
0.0000000001
 40
0.0
 40
0.0
 40
0.0
 40
0.0
 40
0.2087842644
 40
1.0
 40
1.0
 40
1.0
 40
1.0
 10
1121.5541359669
 20
748.8932658938
 30
0.0
 10
1121.630429476
 20
748.8932658938
 30
0.0
 10
1121.997835142
 20
748.95938065
 30
0.0
 10
1122.2761715498
 20
749.2468466662
 30
0.0
 10
1122.4575777012
 20
749.471979352
 30
0.0
  0
SPLINE
  5
2F3
100
AcDbEntity
  8
0
100
AcDbSpline
 62
7
  6
CONTINUOUS
 70
0
 71
3
 72
8
 73
4
 74
0
 42
0.0000001
 43
0.0000001
 44
0.0000000001
 40
0.0
 40
0.0
 40
0.0
 40
0.0
 40
1.0
 40
1.0
 40
1.0
 40
1.0
 10
137.0630920913
 20
767.1932658938
 30
0.0
 10
137.1496454831
 20
767.4289907218
 30
0.0
 10
137.2357302417
 20
767.6649805786
 30
0.0
 10
137.3296138515
 20
767.8978830303
 30
0.0
  0
SPLINE
  5
2F4
100
AcDbEntity
  8
0
100
AcDbSpline
 62
7
  6
CONTINUOUS
 70
0
 71
3
 72
9
 73
5
 74
0
 42
0.0000001
 43
0.0000001
 44
0.0000000001
 40
0.0
 40
0.0
 40
0.0
 40
0.0
 40
0.2899932264
 40
1.0
 40
1.0
 40
1.0
 40
1.0
 10
137.3296138515
 20
767.8978830303
 30
0.0
 10
137.3603864291
 20
767.974222327
 30
0.0
 10
137.4702148287
 20
768.235403541
 30
0.0
 10
137.5932493249
 20
768.4948478304
 30
0.0
 10
137.7114995204
 20
768.6580260285
 30
0.0
  0
SPLINE
  5
2F5
100
AcDbEntity
  8
0
100
AcDbSpline
 62
7
  6
CONTINUOUS
 70
0
 71
3
 72
9
 73
5
 74
0
 42
0.0000001
 43
0.0000001
 44
0.0000000001
 40
0.0
 40
0.0
 40
0.0
 40
0.0
 40
0.5213619829
 40
1.0
 40
1.0
 40
1.0
 40
1.0
 10
137.7114995204
 20
768.6580260285
 30
0.0
 10
137.7257246415
 20
768.6776558449
 30
0.0
 10
137.7540627672
 20
768.7145612441
 30
0.0
 10
137.7849282282
 20
768.7494112545
 30
0.0
 10
137.8004115027
 20
768.7653981488
 30
0.0
  0
SPLINE
  5
2F6
100
AcDbEntity
  8
0
100
AcDbSpline
 62
7
  6
CONTINUOUS
 70
0
 71
3
 72
9
 73
5
 74
0
 42
0.0000001
 43
0.0000001
 44
0.0000000001
 40
0.0
 40
0.0
 40
0.0
 40
0.0
 40
0.5238130191
 40
1.0
 40
1.0
 40
1.0
 40
1.0
 10
137.8004115027
 20
768.7653981488
 30
0.0
 10
137.815442113
 20
768.7809176552
 30
0.0
 10
137.8454386293
 20
768.8093315281
 30
0.0
 10
137.8784874997
 20
768.8342247534
 30
0.0
 10
137.8949937258
 20
768.8448688875
 30
0.0
  0
SPLINE
  5
2F7
100
AcDbEntity
  8
0
100
AcDbSpline
 62
7
  6
CONTINUOUS
 70
0
 71
3
 72
9
 73
5
 74
0
 42
0.0000001
 43
0.0000001
 44
0.0000000001
 40
0.0
 40
0.0
 40
0.0
 40
0.0
 40
0.523228198
 40
1.0
 40
1.0
 40
1.0
 40
1.0
 10
137.8949937258
 20
768.8448688875
 30
0.0
 10
137.9181363587
 20
768.8597925462
 30
0.0
 10
137.9655633943
 20
768.8840251092
 30
0.0
 10
138.0184474941
 20
768.893279532
 30
0.0
 10
138.0435397108
 20
768.8932649711
 30
0.0
  0
SPLINE
  5
2F8
100
AcDbEntity
  8
0
100
AcDbSpline
 62
7
  6
CONTINUOUS
 70
0
 71
3
 72
8
 73
4
 74
0
 42
0.0000001
 43
0.0000001
 44
0.0000000001
 40
0.0
 40
0.0
 40
0.0
 40
0.0
 40
1.0
 40
1.0
 40
1.0
 40
1.0
 10
1131.0630920913
 20
767.1932658938
 30
0.0
 10
1130.9761518329
 20
767.4300443377
 30
0.0
 10
1130.8895981023
 20
767.6670592122
 30
0.0
 10
1130.7952115125
 20
767.9009690488
 30
0.0
  0
SPLINE
  5
2F9
100
AcDbEntity
  8
0
100
AcDbSpline
 62
7
  6
CONTINUOUS
 70
0
 71
3
 72
9
 73
5
 74
0
 42
0.0000001
 43
0.0000001
 44
0.0000000001
 40
0.0
 40
0.0
 40
0.0
 40
0.0
 40
0.2908376715
 40
1.0
 40
1.0
 40
1.0
 40
1.0
 10
1130.7952115125
 20
767.9009690488
 30
0.0
 10
1130.7641362329
 20
767.9779801324
 30
0.0
 10
1130.653518158
 20
768.2406383568
 30
0.0
 10
1130.5296421083
 20
768.5018188776
 30
0.0
 10
1130.4097633147
 20
768.6650109556
 30
0.0
  0
SPLINE
  5
2FA
100
AcDbEntity
  8
0
100
AcDbSpline
 62
7
  6
CONTINUOUS
 70
0
 71
3
 72
9
 73
5
 74
0
 42
0.0000001
 43
0.0000001
 44
0.0000000001
 40
0.0
 40
0.0
 40
0.0
 40
0.0
 40
0.5229464935
 40
1.0
 40
1.0
 40
1.0
 40
1.0
 10
1130.4097633147
 20
768.6650109556
 30
0.0
 10
1130.3946615286
 20
768.6855691526
 30
0.0
 10
1130.3645845596
 20
768.7240237027
 30
0.0
 10
1130.3316020558
 20
768.7600600629
 30
0.0
 10
1130.3150513606
 20
768.7764179308
 30
0.0
  0
SPLINE
  5
2FB
100
AcDbEntity
  8
0
100
AcDbSpline
 62
7
  6
CONTINUOUS
 70
0
 71
3
 72
9
 73
5
 74
0
 42
0.0000001
 43
0.0000001
 44
0.0000000001
 40
0.0
 40
0.0
 40
0.0
 40
0.0
 40
0.523717166
 40
1.0
 40
1.0
 40
1.0
 40
1.0
 10
1130.3150513606
 20
768.7764179308
 30
0.0
 10
1130.2999655317
 20
768.7913279991
 30
0.0
 10
1130.2698357489
 20
768.8185104655
 30
0.0
 10
1130.2366363605
 20
768.8419530111
 30
0.0
 10
1130.2200735358
 20
768.8518403848
 30
0.0
  0
SPLINE
  5
2FC
100
AcDbEntity
  8
0
100
AcDbSpline
 62
7
  6
CONTINUOUS
 70
0
 71
3
 72
9
 73
5
 74
0
 42
0.0000001
 43
0.0000001
 44
0.0000000001
 40
0.0
 40
0.0
 40
0.0
 40
0.0
 40
0.5202164554
 40
1.0
 40
1.0
 40
1.0
 40
1.0
 10
1130.2200735358
 20
768.8518403848
 30
0.0
 10
1130.1984960676
 20
768.8647213092
 30
0.0
 10
1130.1542988776
 20
768.8854908587
 30
0.0
 10
1130.105778361
 20
768.8932742505
 30
0.0
 10
1130.0826017596
 20
768.8932658211
 30
0.0
  0
SPLINE
  5
2FD
100
AcDbEntity
  8
0
100
AcDbSpline
 62
7
  6
CONTINUOUS
 70
0
 71
3
 72
8
 73
4
 74
0
 42
0.0000001
 43
0.0000001
 44
0.0000000001
 40
0.0
 40
0.0
 40
0.0
 40
0.0
 40
1.0
 40
1.0
 40
1.0
 40
1.0
 10
1113.5843255053
 20
773.4035478613
 30
0.0
 10
1113.8377391102
 20
773.6635673849
 30
0.0
 10
1114.0910438247
 20
773.9239723797
 30
0.0
 10
1114.3546992493
 20
774.1736009535
 30
0.0
  0
SPLINE
  5
2FE
100
AcDbEntity
  8
0
100
AcDbSpline
 62
7
  6
CONTINUOUS
 70
0
 71
3
 72
8
 73
4
 74
0
 42
0.0000001
 43
0.0000001
 44
0.0000000001
 40
0.0
 40
0.0
 40
0.0
 40
0.0
 40
1.0
 40
1.0
 40
1.0
 40
1.0
 10
1114.3546992493
 20
774.1736009535
 30
0.0
 10
1114.7066013454
 20
774.506781348
 30
0.0
 10
1115.0791703744
 20
774.8291084299
 30
0.0
 10
1115.5006975137
 20
775.0681881894
 30
0.0
  0
SPLINE
  5
2FF
100
AcDbEntity
  8
0
100
AcDbSpline
 62
7
  6
CONTINUOUS
 70
0
 71
3
 72
9
 73
5
 74
0
 42
0.0000001
 43
0.0000001
 44
0.0000000001
 40
0.0
 40
0.0
 40
0.0
 40
0.0
 40
0.2187053095
 40
1.0
 40
1.0
 40
1.0
 40
1.0
 10
151.7934642815
 20
775.4035625052
 30
0.0
 10
151.9860939797
 20
775.4035625052
 30
0.0
 10
152.8707253794
 20
775.2565929164
 30
0.0
 10
153.5842718922
 20
774.6472646516
 30
0.0
 10
154.0840046395
 20
774.1741809645
 30
0.0
  0
SPLINE
  5
300
100
AcDbEntity
  8
0
100
AcDbSpline
 62
7
  6
CONTINUOUS
 70
0
 71
3
 72
8
 73
4
 74
0
 42
0.0000001
 43
0.0000001
 44
0.0000000001
 40
0.0
 40
0.0
 40
0.0
 40
0.0
 40
1.0
 40
1.0
 40
1.0
 40
1.0
 10
154.0840046395
 20
774.1741809645
 30
0.0
 10
154.2239920594
 20
774.0416586011
 30
0.0
 10
154.3610073648
 20
773.9059925238
 30
0.0
 10
154.4967139833
 20
773.7690897545
 30
0.0
  0
SPLINE
  5
301
100
AcDbEntity
  8
0
100
AcDbSpline
 62
7
  6
CONTINUOUS
 70
0
 71
3
 72
8
 73
4
 74
0
 42
0.0000001
 43
0.0000001
 44
0.0000000001
 40
0.0
 40
0.0
 40
0.0
 40
0.0
 40
1.0
 40
1.0
 40
1.0
 40
1.0
 10
154.4967139833
 20
773.7690897545
 30
0.0
 10
154.6168260484
 20
773.6479189927
 30
0.0
 10
154.7359105283
 20
773.5257324894
 30
0.0
 10
154.8549910557
 20
773.4035478353
 30
0.0
  0
SPLINE
  5
302
100
AcDbEntity
  8
0
100
AcDbSpline
 62
7
  6
CONTINUOUS
 70
0
 71
3
 72
9
 73
5
 74
0
 42
0.0000001
 43
0.0000001
 44
0.0000000001
 40
0.0
 40
0.0
 40
0.0
 40
0.0
 40
0.1634964146
 40
1.0
 40
1.0
 40
1.0
 40
1.0
 10
1131.0196582897
 20
775.4035625052
 30
0.0
 10
1131.1003475996
 20
775.4035625052
 30
0.0
 10
1131.5832427117
 20
775.5995836765
 30
0.0
 10
1131.7755128997
 20
776.1256289605
 30
0.0
 10
1131.9443718302
 20
776.5023498986
 30
0.0
  0
SPLINE
  5
303
100
AcDbEntity
  8
0
100
AcDbSpline
 62
7
  6
CONTINUOUS
 70
0
 71
3
 72
8
 73
4
 74
0
 42
0.0000001
 43
0.0000001
 44
0.0000000001
 40
0.0
 40
0.0
 40
0.0
 40
0.0
 40
1.0
 40
1.0
 40
1.0
 40
1.0
 10
1131.9443718302
 20
776.5023498986
 30
0.0
 10
1132.0943363988
 20
776.8369178885
 30
0.0
 10
1132.2238762143
 20
777.1805522392
 30
0.0
 10
1132.3478159329
 20
777.5256088403
 30
0.0
  0
SPLINE
  5
304
100
AcDbEntity
  8
0
100
AcDbSpline
 62
7
  6
CONTINUOUS
 70
0
 71
3
 72
8
 73
4
 74
0
 42
0.0000001
 43
0.0000001
 44
0.0000000001
 40
0.0
 40
0.0
 40
0.0
 40
0.0
 40
1.0
 40
1.0
 40
1.0
 40
1.0
 10
1132.3478159329
 20
777.5256088403
 30
0.0
 10
1132.4763039479
 20
777.8833282076
 30
0.0
 10
1132.5978843614
 20
778.2435021961
 30
0.0
 10
1132.7196582897
 20
778.6035625052
 30
0.0
  0
SPLINE
  5
305
100
AcDbEntity
  8
0
100
AcDbSpline
 62
7
  6
CONTINUOUS
 70
0
 71
3
 72
8
 73
4
 74
0
 42
0.0000001
 43
0.0000001
 44
0.0000000001
 40
0.0
 40
0.0
 40
0.0
 40
0.0
 40
1.0
 40
1.0
 40
1.0
 40
1.0
 10
135.7196582897
 20
778.6035625052
 30
0.0
 10
135.8414149613
 20
778.2435532205
 30
0.0
 10
135.9629782648
 20
777.883430343
 30
0.0
 10
136.0914460147
 20
777.5257609295
 30
0.0
  0
SPLINE
  5
306
100
AcDbEntity
  8
0
100
AcDbSpline
 62
7
  6
CONTINUOUS
 70
0
 71
3
 72
8
 73
4
 74
0
 42
0.0000001
 43
0.0000001
 44
0.0000000001
 40
0.0
 40
0.0
 40
0.0
 40
0.0
 40
1.0
 40
1.0
 40
1.0
 40
1.0
 10
136.0914460147
 20
777.5257609295
 30
0.0
 10
136.2354227241
 20
777.1249127382
 30
0.0
 10
136.3858887198
 20
776.7250972276
 30
0.0
 10
136.5696425591
 20
776.3408536957
 30
0.0
  0
SPLINE
  5
307
100
AcDbEntity
  8
0
100
AcDbSpline
 62
7
  6
CONTINUOUS
 70
0
 71
3
 72
9
 73
5
 74
0
 42
0.0000001
 43
0.0000001
 44
0.0000000001
 40
0.0
 40
0.0
 40
0.0
 40
0.0
 40
0.3430016659
 40
1.0
 40
1.0
 40
1.0
 40
1.0
 10
136.666845512
 20
776.1470375028
 30
0.0
 10
136.7242979751
 20
776.0381972129
 30
0.0
 10
136.8942607556
 20
775.7404625747
 30
0.0
 10
137.183919381
 20
775.4035625052
 30
0.0
 10
137.4196582897
 20
775.4035625052
 30
0.0
  0
SPLINE
  5
308
100
AcDbEntity
  8
0
100
AcDbSpline
 62
7
  6
CONTINUOUS
 70
0
 71
3
 72
8
 73
4
 74
0
 42
0.0000001
 43
0.0000001
 44
0.0000000001
 40
0.0
 40
0.0
 40
0.0
 40
0.0
 40
1.0
 40
1.0
 40
1.0
 40
1.0
 10
1132.7196582897
 20
1049.2035625052
 30
0.0
 10
1132.5979016181
 20
1049.5635717899
 30
0.0
 10
1132.4763383146
 20
1049.9236946675
 30
0.0
 10
1132.3478705646
 20
1050.281364081
 30
0.0
  0
SPLINE
  5
309
100
AcDbEntity
  8
0
100
AcDbSpline
 62
7
  6
CONTINUOUS
 70
0
 71
3
 72
8
 73
4
 74
0
 42
0.0000001
 43
0.0000001
 44
0.0000000001
 40
0.0
 40
0.0
 40
0.0
 40
0.0
 40
1.0
 40
1.0
 40
1.0
 40
1.0
 10
1132.3478705646
 20
1050.281364081
 30
0.0
 10
1132.2038938552
 20
1050.6822122722
 30
0.0
 10
1132.0534278596
 20
1051.0820277828
 30
0.0
 10
1131.8696740203
 20
1051.4662713147
 30
0.0
  0
SPLINE
  5
30A
100
AcDbEntity
  8
0
100
AcDbSpline
 62
7
  6
CONTINUOUS
 70
0
 71
3
 72
9
 73
5
 74
0
 42
0.0000001
 43
0.0000001
 44
0.0000000001
 40
0.0
 40
0.0
 40
0.0
 40
0.0
 40
0.3430016659
 40
1.0
 40
1.0
 40
1.0
 40
1.0
 10
1131.7724710673
 20
1051.6600875076
 30
0.0
 10
1131.7150186042
 20
1051.7689277975
 30
0.0
 10
1131.5450558238
 20
1052.0666624357
 30
0.0
 10
1131.2553971983
 20
1052.4035625052
 30
0.0
 10
1131.0196582897
 20
1052.4035625052
 30
0.0
  0
SPLINE
  5
30B
100
AcDbEntity
  8
0
100
AcDbSpline
 62
7
  6
CONTINUOUS
 70
0
 71
3
 72
9
 73
5
 74
0
 42
0.0000001
 43
0.0000001
 44
0.0000000001
 40
0.0
 40
0.0
 40
0.0
 40
0.0
 40
0.1634964146
 40
1.0
 40
1.0
 40
1.0
 40
1.0
 10
137.4196582897
 20
1052.4035625052
 30
0.0
 10
137.3389689798
 20
1052.4035625052
 30
0.0
 10
136.8560738677
 20
1052.2075413339
 30
0.0
 10
136.6638036797
 20
1051.6814960499
 30
0.0
 10
136.4949447492
 20
1051.3047751119
 30
0.0
  0
SPLINE
  5
30C
100
AcDbEntity
  8
0
100
AcDbSpline
 62
7
  6
CONTINUOUS
 70
0
 71
3
 72
8
 73
4
 74
0
 42
0.0000001
 43
0.0000001
 44
0.0000000001
 40
0.0
 40
0.0
 40
0.0
 40
0.0
 40
1.0
 40
1.0
 40
1.0
 40
1.0
 10
136.4949447492
 20
1051.3047751119
 30
0.0
 10
136.3449801806
 20
1050.9702071219
 30
0.0
 10
136.2154403651
 20
1050.6265727712
 30
0.0
 10
136.0915006465
 20
1050.2815161702
 30
0.0
  0
SPLINE
  5
30D
100
AcDbEntity
  8
0
100
AcDbSpline
 62
7
  6
CONTINUOUS
 70
0
 71
3
 72
8
 73
4
 74
0
 42
0.0000001
 43
0.0000001
 44
0.0000000001
 40
0.0
 40
0.0
 40
0.0
 40
0.0
 40
1.0
 40
1.0
 40
1.0
 40
1.0
 10
136.0915006465
 20
1050.2815161702
 30
0.0
 10
135.9630126315
 20
1049.9237968028
 30
0.0
 10
135.8414322179
 20
1049.5636228143
 30
0.0
 10
135.7196582897
 20
1049.2035625052
 30
0.0
  0
ENDSEC
  0
SECTION
  2
OBJECTS
  0
DICTIONARY
  5
C
100
AcDbDictionary
280
0
281
1
  3
ACAD_GROUP
350
D
  3
ACAD_MLINESTYLE
350
17
  3
ACAD_LAYOUT
350
1A
  3
ACAD_PLOTSETTINGS
350
19
  3
ACAD_PLOTSTYLENAME
350
E
  0
DICTIONARY
  5
D
102
{ACAD_REACTORS
330
C
102
}
100
AcDbDictionary
280
0
281
1
  0
ACDBDICTIONARYWDFLT
  5
E
102
{ACAD_REACTORS
330
C
102
}
100
AcDbDictionary
281
1
  3
Normal
350
F
100
AcDbDictionaryWithDefault
340
F
  0
DICTIONARY
  5
17
102
{ACAD_REACTORS
330
C
102
}
100
AcDbDictionary
280
0
281
1
  3
Standard
350
18
  0
DICTIONARY
  5
19
102
{ACAD_REACTORS
330
C
102
}
100
AcDbDictionary
281
1
  0
DICTIONARY
  5
1A
102
{ACAD_REACTORS
330
C
102
}
100
AcDbDictionary
281
1
  3
Model
350
30E
  3
Layout1
350
30F
  0
ACDBPLACEHOLDER
  5
F
102
{ACAD_REACTORS
330
E
102
}
  0
MLINESTYLE
  5
18
102
{ACAD_REACTORS
330
17
102
}
100
AcDbMlineStyle
  2
STANDARD
 70
0
  3

 62
256
 51
90.0
 52
90.0
 71
2
 49
0.5
 62
256
  6
BYLAYER
 49
-0.5
 62
256
  6
BYLAYER
  0
LAYOUT
  5
30E
102
{ACAD_REACTORS
330
1A
102
}
100
AcDbPlotSettings
  1

  2
none_device
  4

  6

 40
0.0
 41
0.0
 42
0.0
 43
0.0
 44
210.0
 45
297.0
 46
0.0
 47
0.0
 48
0.0
 49
0.0
140
0.0
141
0.0
142
1.0
143
1.0
 70
1024
 72
1
 73
0
 74
0
  7

 75
0
147
1.0
148
0.0
149
0.0
100
AcDbLayout
  1
Model
 70
0
 71
0
 10
0.0
 20
0.0
 11
210.0
 21
297.0
 12
0.0
 22
0.0
 32
0.0
 14
0.0
 24
0.0
 34
0.0
 15
0.0
 25
0.0
 35
0.0
146
0.0
 13
0.0
 23
0.0
 33
0.0
 16
1.0
 26
0.0
 36
0.0
 17
0.0
 27
1.0
 37
0.0
 76
0
330
210
345
0
346
0
  0
LAYOUT
  5
30F
102
{ACAD_REACTORS
330
1A
102
}
100
AcDbPlotSettings
  1

  2
none_device
  4

  6

 40
0.0
 41
0.0
 42
0.0
 43
0.0
 44
210.0
 45
297.0
 46
0.0
 47
0.0
 48
0.0
 49
0.0
140
0.0
141
0.0
142
1.0
143
1.0
 70
0
 72
1
 73
0
 74
0
  7

 75
0
147
1.0
148
0.0
149
0.0
100
AcDbLayout
  1
Layout1
 70
0
 71
1
 10
0.0
 20
0.0
 11
210.0
 21
297.0
 12
0.0
 22
0.0
 32
0.0
 14
0.0
 24
0.0
 34
0.0
 15
0.0
 25
0.0
 35
0.0
146
0.0
 13
0.0
 23
0.0
 33
0.0
 16
1.0
 26
0.0
 36
0.0
 17
0.0
 27
1.0
 37
0.0
 76
0
330
211
345
0
346
0
  0
ENDSEC
  0
EOF
