999
DXF file: C:\Users\sesa63760\Dev\_Creo\CAD\MCADID0005430_3D-CAD\drw0001_7.dxf
999
Pro/ENGINEER 2019471 by Parametric Technology Corporation
  0
SECTION
  2
HEADER
  9
$ACADVER
  1
AC1024
  9
$DWGCODEPAGE
  3
ANSI_1252
  9
$EXTMAX
 10
91.0125323254
 20
128.7177242888
 30
0.0
  9
$EXTMIN
 10
0.0
 20
0.0
 30
0.0
  9
$LIMMIN
 10
0.0
 20
0.0
  9
$LIMMAX
 10
91.0125323254
 20
128.7177242888
  9
$VIEWCTR
 10
45.5062661627
 20
64.3588621444
  9
$VIEWSIZE
 40
128.7177242888
  9
$CLAYER
  8
0
  9
$LTSCALE
 40
8.3904886944
  9
$CELTYPE
  6
BYLAYER
  9
$DIMSCALE
 40
1.0
  9
$DIMASZ
 40
1.0834825277
  9
$DIMEXO
 40
1.0
  9
$DIMDLI
 40
5.7970649161
  9
$DIMEXE
 40
1.0
  9
$DIMCEN
 40
1.3729890591
  9
$DIMLFAC
 40
1.0
  9
$DIMBLK
  1
_FILLED
  9
$DIMALT
 70
0
  9
$DIMALTF
 40
0.0393700787
  9
$DIMTXT
 40
1.5168755388
  9
$DIMTOL
 70
1
  9
$DIMLIM
 70
0
  9
$DIMTFAC
 40
1.0
  9
$DIMTP
 40
0.01
  9
$DIMTM
 40
0.01
  9
$DIMGAP
 40
0.625
  9
$DIMDSEP
 70
46
  9
$AUNITS
 70
0
  9
$PDMODE
 70
3
  9
$PDSIZE
 40
0.3125
  9
$HANDSEED
  5
4D0
  9
$TILEMODE
 70
1
  9
$MEASUREMENT
 70
1
  9
$INSUNITS
 70
4
  0
ENDSEC
  0
SECTION
  2
CLASSES
  0
CLASS
  1
ACDBDICTIONARYWDFLT
  2
AcDbDictionaryWithDefault
  3
AutoCAD 2000
 90
0
 91
1
280
0
281
0
  0
CLASS
  1
ACDBPLACEHOLDER
  2
AcDbPlaceHolder
  3
AutoCAD 2000
 90
0
 91
1
280
0
281
0
  0
CLASS
  1
LAYOUT
  2
AcDbLayout
  3
AutoCAD 2000
 90
0
 91
0
280
0
281
0
  0
ENDSEC
  0
SECTION
  2
TABLES
  0
TABLE
  2
VPORT
  5
8
100
AcDbSymbolTable
 70
2
  0
VPORT
  5
1F4
100
AcDbSymbolTableRecord
100
AcDbViewportTableRecord
  2
*ACTIVE
 70
0
 10
0.0
 20
0.0
 11
1.0
 21
1.0
 12
45.5062661627
 22
64.3588621444
 13
0.0
 23
0.0
 14
1.0
 24
1.0
 15
0.0
 25
0.0
 16
0.0
 26
0.0
 36
1.0
 17
0.0
 27
0.0
 37
0.0
 40
128.7177242888
 41
0.7070707071
 42
50.0
 43
0.0
 44
0.0
 50
0.0
 51
0.0
 71
0
 72
100
 73
1
 74
1
 75
0
 76
0
 77
0
 78
0
  0
ENDTAB
  0
TABLE
  2
LTYPE
  5
5
100
AcDbSymbolTable
 70
6
  0
LTYPE
  5
14
100
AcDbSymbolTableRecord
100
AcDbLinetypeTableRecord
  2
BYBLOCK
 70
0
  3

 72
65
 73
0
 40
0.0
  0
LTYPE
  5
15
100
AcDbSymbolTableRecord
100
AcDbLinetypeTableRecord
  2
BYLAYER
 70
0
  3

 72
65
 73
0
 40
0.0
  0
LTYPE
  5
16
100
AcDbSymbolTableRecord
100
AcDbLinetypeTableRecord
  2
CONTINUOUS
 70
64
  3
Solid line
 72
65
 73
0
 40
0.0
  0
LTYPE
  5
1F5
100
AcDbSymbolTableRecord
100
AcDbLinetypeTableRecord
  2
CENTER
 70
64
  3
____ _ ____ _ ____ _ ____ _ ____ _ ____ _ ____
 72
65
 73
4
 40
0.6
 49
0.375
 74
0
 49
-0.075
 74
0
 49
0.075
 74
0
 49
-0.075
 74
0
  0
LTYPE
  5
1F6
100
AcDbSymbolTableRecord
100
AcDbLinetypeTableRecord
  2
HIDDEN
 70
64
  3
- - - - - - - - - - - - - - - - - - - -
 72
65
 73
2
 40
0.2
 49
0.1
 74
0
 49
-0.1
 74
0
  0
LTYPE
  5
1F7
100
AcDbSymbolTableRecord
100
AcDbLinetypeTableRecord
  2
PHANTOM
 70
64
  3
_____ _ _ _____ _ _ _____ _ _ _____
 72
65
 73
6
 40
0.8
 49
0.45
 74
0
 49
-0.05
 74
0
 49
0.1
 74
0
 49
-0.05
 74
0
 49
0.1
 74
0
 49
-0.05
 74
0
  0
LTYPE
  5
1F8
100
AcDbSymbolTableRecord
100
AcDbLinetypeTableRecord
  2
DOT
 70
64
  3
. . . . . . . . . . . . . . . . . . . .
 72
65
 73
2
 40
0.2
 49
0.1
 74
0
 49
-0.1
 74
0
  0
LTYPE
  5
1F9
100
AcDbSymbolTableRecord
100
AcDbLinetypeTableRecord
  2
DASHED
 70
64
  3
- - - - - - - - - - - - - - - - - - - -
 72
65
 73
2
 40
0.2
 49
0.1
 74
0
 49
-0.1
 74
0
  0
ENDTAB
  0
TABLE
  2
LAYER
  5
2
100
AcDbSymbolTable
 70
36
  0
LAYER
  5
10
100
AcDbSymbolTableRecord
100
AcDbLayerTableRecord
  2
0
 70
0
 62
7
  6
CONTINUOUS
370
-3
390
F
  0
LAYER
  5
1FA
100
AcDbSymbolTableRecord
100
AcDbLayerTableRecord
  2
DEFAULT_1
 70
0
 62
7
  6
CENTER
370
-3
390
F
  0
LAYER
  5
1FB
100
AcDbSymbolTableRecord
100
AcDbLayerTableRecord
  2
DEFAULT_2
 70
0
 62
7
  6
HIDDEN
370
-3
390
F
  0
LAYER
  5
1FC
100
AcDbSymbolTableRecord
100
AcDbLayerTableRecord
  2
DEFAULT_3
 70
0
 62
7
  6
PHANTOM
370
-3
390
F
  0
LAYER
  5
1FD
100
AcDbSymbolTableRecord
100
AcDbLayerTableRecord
  2
00_COMPONENTS
 70
0
 62
7
  6
CONTINUOUS
370
-3
390
F
  0
LAYER
  5
1FE
100
AcDbSymbolTableRecord
100
AcDbLayerTableRecord
  2
01_1_DEFAULT_DATUMS
 70
0
 62
7
  6
CONTINUOUS
370
-3
390
F
  0
LAYER
  5
1FF
100
AcDbSymbolTableRecord
100
AcDbLayerTableRecord
  2
01_PLANES
 70
0
 62
7
  6
CONTINUOUS
370
-3
390
F
  0
LAYER
  5
200
100
AcDbSymbolTableRecord
100
AcDbLayerTableRecord
  2
02_COORD_SYS
 70
0
 62
7
  6
CONTINUOUS
370
-3
390
F
  0
LAYER
  5
201
100
AcDbSymbolTableRecord
100
AcDbLayerTableRecord
  2
03_AXES
 70
0
 62
7
  6
CONTINUOUS
370
-3
390
F
  0
LAYER
  5
202
100
AcDbSymbolTableRecord
100
AcDbLayerTableRecord
  2
04_POINTS
 70
0
 62
7
  6
CONTINUOUS
370
-3
390
F
  0
LAYER
  5
203
100
AcDbSymbolTableRecord
100
AcDbLayerTableRecord
  2
05_CURVES
 70
0
 62
7
  6
CONTINUOUS
370
-3
390
F
  0
LAYER
  5
204
100
AcDbSymbolTableRecord
100
AcDbLayerTableRecord
  2
06_SURFS
 70
0
 62
7
  6
CONTINUOUS
370
-3
390
F
  0
LAYER
  5
205
100
AcDbSymbolTableRecord
100
AcDbLayerTableRecord
  2
07_COSMETICS
 70
0
 62
7
  6
CONTINUOUS
370
-3
390
F
  0
LAYER
  5
206
100
AcDbSymbolTableRecord
100
AcDbLayerTableRecord
  2
10_NOTES
 70
0
 62
7
  6
CONTINUOUS
370
-3
390
F
  0
LAYER
  5
207
100
AcDbSymbolTableRecord
100
AcDbLayerTableRecord
  2
11_NOTES_PUB
 70
0
 62
7
  6
CONTINUOUS
370
-3
390
F
  0
LAYER
  5
208
100
AcDbSymbolTableRecord
100
AcDbLayerTableRecord
  2
13_REF_GTOL
 70
0
 62
7
  6
CONTINUOUS
370
-3
390
F
  0
LAYER
  5
209
100
AcDbSymbolTableRecord
100
AcDbLayerTableRecord
  2
16_MISC
 70
0
 62
7
  6
CONTINUOUS
370
-3
390
F
  0
LAYER
  5
20A
100
AcDbSymbolTableRecord
100
AcDbLayerTableRecord
  2
17_NO_PRINT
 70
0
 62
7
  6
CONTINUOUS
370
-3
390
F
  0
LAYER
  5
20B
100
AcDbSymbolTableRecord
100
AcDbLayerTableRecord
  2
18_DATUM_CAMS_JOINTS
 70
0
 62
7
  6
CONTINUOUS
370
-3
390
F
  0
LAYER
  5
20C
100
AcDbSymbolTableRecord
100
AcDbLayerTableRecord
  2
19_DATUM_FUNCTIONAL
 70
0
 62
7
  6
CONTINUOUS
370
-3
390
F
  0
LAYER
  5
20D
100
AcDbSymbolTableRecord
100
AcDbLayerTableRecord
  2
20_DATUM_KINEMATIC_SCHEME
 70
0
 62
7
  6
CONTINUOUS
370
-3
390
F
  0
ENDTAB
  0
TABLE
  2
STYLE
  5
3
100
AcDbSymbolTable
 70
1
  0
STYLE
  5
11
100
AcDbSymbolTableRecord
100
AcDbTextStyleTableRecord
  2
STANDARD
 70
0
 40
0.0
 41
1.0
 50
0.0
 71
0
 42
0.2
  3
ARIAL.TTF
  4

  0
STYLE
  5
20E
100
AcDbSymbolTableRecord
100
AcDbTextStyleTableRecord
  2
TEXTSTYLE_1
 70
0
 40
0.0
 41
0.8
 50
0.0
 71
0
 42
0.2
  3
gdt
  4

  0
ENDTAB
  0
TABLE
  2
VIEW
  5
6
100
AcDbSymbolTable
 70
0
  0
ENDTAB
  0
TABLE
  2
UCS
  5
7
100
AcDbSymbolTable
 70
0
  0
ENDTAB
  0
TABLE
  2
APPID
  5
9
100
AcDbSymbolTable
 70
1
  0
APPID
  5
20F
100
AcDbSymbolTableRecord
100
AcDbRegAppTableRecord
  2
ACAD
 70
0
  0
ENDTAB
  0
TABLE
  2
BLOCK_RECORD
  5
1
100
AcDbSymbolTable
 70
0
  0
BLOCK_RECORD
  5
210
100
AcDbSymbolTableRecord
100
AcDbBlockTableRecord
  2
*Model_Space
  0
BLOCK_RECORD
  5
211
100
AcDbSymbolTableRecord
100
AcDbBlockTableRecord
  2
*Paper_Space
  0
BLOCK_RECORD
  5
212
100
AcDbSymbolTableRecord
100
AcDbBlockTableRecord
  2
_FILLED
  0
ENDTAB
  0
TABLE
  2
DIMSTYLE
  5
A
100
AcDbSymbolTable
 70
1
100
AcDbDimStyleTable
 71
0
  0
DIMSTYLE
105
213
100
AcDbSymbolTableRecord
100
AcDbDimStyleTableRecord
  2
STANDARD
 70
0
  3

  4

 40
1.0
 41
1.0834825277
 42
1.0
 43
0.38
 44
1.0
 45
0.0
 46
0.0
 47
0.01
 48
0.01
140
1.5168755388
141
0.09
142
0.0
143
25.4
144
1.0
145
0.0
146
1.0
147
0.625
 71
1
 72
0
 73
0
 74
0
 75
0
 76
0
 77
1
 78
8
 79
2
170
0
171
1
172
0
173
0
174
0
175
0
176
0
177
0
178
0
270
2
179
2
271
2
272
2
273
2
274
2
275
0
280
0
281
0
282
0
283
1
284
8
285
0
286
0
287
3
288
0
340
11
278
46
341
212
342
212
343
212
344
212
  0
ENDTAB
  0
ENDSEC
  0
SECTION
  2
BLOCKS
  0
BLOCK
  5
20
100
AcDbEntity
  8
0
100
AcDbBlockBegin
  2
*Model_Space
 70
0
 10
0.0
 20
0.0
 30
0.0
  3
*Model_Space
  1

  0
ENDBLK
  5
21
100
AcDbEntity
  8
0
100
AcDbBlockEnd
  0
BLOCK
  5
1C
100
AcDbEntity
  8
0
100
AcDbBlockBegin
  2
*Paper_Space
 70
0
 10
0.0
 20
0.0
 30
0.0
  3
*Paper_Space
  1

  0
ENDBLK
  5
1D
100
AcDbEntity
  8
0
100
AcDbBlockEnd
  0
BLOCK
  5
214
100
AcDbEntity
  8
0
100
AcDbBlockBegin
  2
_FILLED
 70
64
 10
0.0
 20
0.0
  3
_FILLED
  1

  0
SOLID
  5
215
100
AcDbEntity
  8
0
  6
BYBLOCK
 62
0
100
AcDbTrace
 10
0.0
 20
0.0
 11
-1.0
 21
0.25
 12
-1.0
 22
-0.25
 13
-1.0
 23
-0.25
  0
ENDBLK
  5
216
100
AcDbEntity
  8
0
  6
BYBLOCK
 62
0
100
AcDbBlockEnd
  0
ENDSEC
  0
SECTION
  2
ENTITIES
  0
LINE
  5
217
100
AcDbEntity
  8
0
100
AcDbLine
 62
7
  6
BYLAYER
 10
9.6638153969
 20
35.1320277163
 11
9.6638153969
 21
93.2680194283
  0
LINE
  5
218
100
AcDbEntity
  8
0
100
AcDbLine
 62
7
  6
BYLAYER
 10
9.8638153969
 20
46.0158719556
 11
9.8638153969
 21
34.9320497646
  0
LINE
  5
219
100
AcDbEntity
  8
0
100
AcDbLine
 62
7
  6
BYLAYER
 10
10.1638153969
 20
93.7680183987
 11
10.1638153969
 21
45.9158719556
  0
LINE
  5
21A
100
AcDbEntity
  8
0
100
AcDbLine
 62
7
  6
BYLAYER
 10
11.1638153969
 20
93.9629531413
 11
11.1638153969
 21
92.4649807027
  0
LINE
  5
21B
100
AcDbEntity
  8
0
100
AcDbLine
 62
7
  6
BYLAYER
 10
11.6638153969
 20
50.8158719556
 11
11.6638153969
 21
68.1256660814
  0
LINE
  5
21C
100
AcDbEntity
  8
0
100
AcDbLine
 62
7
  6
BYLAYER
 10
11.6638153969
 20
74.4158719556
 11
11.6638153969
 21
88.1286389662
  0
LINE
  5
21D
100
AcDbEntity
  8
0
100
AcDbLine
 62
7
  6
BYLAYER
 10
12.5638153969
 20
92.8687938343
 11
12.5638153969
 21
93.5525584482
  0
LINE
  5
21E
100
AcDbEntity
  8
0
100
AcDbLine
 62
7
  6
BYLAYER
 10
12.5638153969
 20
93.5972453096
 11
12.5638153969
 21
93.9629531413
  0
LINE
  5
21F
100
AcDbEntity
  8
0
100
AcDbLine
 62
7
  6
BYLAYER
 10
12.6638153969
 20
94.4158719556
 11
12.6638153969
 21
93.8270107956
  0
LINE
  5
220
100
AcDbEntity
  8
0
100
AcDbLine
 62
7
  6
BYLAYER
 10
13.7638153969
 20
93.9815675092
 11
13.7638153969
 21
92.8687938343
  0
LINE
  5
221
100
AcDbEntity
  8
0
100
AcDbLine
 62
7
  6
BYLAYER
 10
14.0388153969
 20
54.5158719556
 11
14.0388153969
 21
65.3158719556
  0
LINE
  5
222
100
AcDbEntity
  8
0
100
AcDbLine
 62
7
  6
BYLAYER
 10
14.2388153969
 20
65.3158719556
 11
14.2388153969
 21
54.5158719556
  0
LINE
  5
223
100
AcDbEntity
  8
0
100
AcDbLine
 62
7
  6
BYLAYER
 10
14.5388153969
 20
65.8158719556
 11
14.5388153969
 21
65.6158719556
  0
LINE
  5
224
100
AcDbEntity
  8
0
100
AcDbLine
 62
7
  6
BYLAYER
 10
14.5388153969
 20
54.2158719556
 11
14.5388153969
 21
54.0158719556
  0
LINE
  5
225
100
AcDbEntity
  8
0
100
AcDbLine
 62
7
  6
BYLAYER
 10
17.4888153969
 20
67.8158719556
 11
17.4888153969
 21
65.8158719556
  0
LINE
  5
226
100
AcDbEntity
  8
0
100
AcDbLine
 62
7
  6
BYLAYER
 10
17.4888153969
 20
54.0158719556
 11
17.4888153969
 21
52.0158719556
  0
LINE
  5
227
100
AcDbEntity
  8
0
100
AcDbLine
 62
7
  6
BYLAYER
 10
38.7076609881
 20
35.5159191097
 11
38.708078886
 21
35.5159343063
  0
LWPOLYLINE
  5
228
100
AcDbEntity
  8
0
100
AcDbPolyline
 62
7
  6
BYLAYER
 90
3
 70
0
 10
35.299618566
 20
35.7575413823
 10
35.6470260875
 20
35.7667606442
 10
36.0291571398
 20
35.7727854196
  0
LINE
  5
229
100
AcDbEntity
  8
0
100
AcDbLine
 62
7
  6
BYLAYER
 10
36.0291571398
 20
35.7727854196
 11
36.4360529261
 21
35.7747560689
  0
LINE
  5
22A
100
AcDbEntity
  8
0
100
AcDbLine
 62
7
  6
BYLAYER
 10
9.8638153969
 20
34.9320497675
 11
33.7138153969
 21
34.9320497675
  0
LINE
  5
22B
100
AcDbEntity
  8
0
100
AcDbLine
 62
7
  6
BYLAYER
 10
39.1138153969
 20
34.9320497677
 11
81.4638153969
 21
34.9320497677
  0
LINE
  5
22C
100
AcDbEntity
  8
0
100
AcDbLine
 62
7
  6
BYLAYER
 10
33.9138153969
 20
35.5158719556
 11
34.1183286343
 21
35.5158719556
  0
LINE
  5
22D
100
AcDbEntity
  8
0
100
AcDbLine
 62
7
  6
BYLAYER
 10
38.7079801877
 20
35.5158719556
 11
38.9138153969
 21
35.5158719556
  0
LINE
  5
22E
100
AcDbEntity
  8
0
100
AcDbLine
 62
7
  6
BYLAYER
 10
36.4379507747
 20
35.5753547377
 11
36.4139758055
 21
35.5753544083
  0
LINE
  5
22F
100
AcDbEntity
  8
0
100
AcDbLine
 62
7
  6
BYLAYER
 10
35.3661164842
 20
35.6158719556
 11
37.4615143095
 21
35.6158719556
  0
LINE
  5
230
100
AcDbEntity
  8
0
100
AcDbLine
 62
7
  6
BYLAYER
 10
27.9138153969
 20
36.1240711063
 11
28.9138153969
 21
36.1240711063
  0
LINE
  5
231
100
AcDbEntity
  8
0
100
AcDbLine
 62
7
  6
BYLAYER
 10
62.4138153969
 20
36.1240711063
 11
63.4138153969
 21
36.1240711063
  0
LINE
  5
232
100
AcDbEntity
  8
0
100
AcDbLine
 62
7
  6
BYLAYER
 10
81.4638153969
 20
36.3241964363
 11
63.4138153969
 21
36.3241964363
  0
LINE
  5
233
100
AcDbEntity
  8
0
100
AcDbLine
 62
7
  6
BYLAYER
 10
62.4138153969
 20
36.3241964363
 11
39.1138153969
 21
36.3241964363
  0
LINE
  5
234
100
AcDbEntity
  8
0
100
AcDbLine
 62
7
  6
BYLAYER
 10
33.7138153969
 20
36.3241964363
 11
28.9138153969
 21
36.3241964363
  0
LINE
  5
235
100
AcDbEntity
  8
0
100
AcDbLine
 62
7
  6
BYLAYER
 10
27.9138153969
 20
36.3241964363
 11
9.8638153969
 21
36.3241964363
  0
LWPOLYLINE
  5
236
100
AcDbEntity
  8
0
100
AcDbPolyline
 62
7
  6
BYLAYER
 90
3
 70
0
 10
36.4135716014
 20
35.7747689443
 10
36.6287814519
 20
35.7740584446
 10
37.0732531384
 20
35.7685656877
  0
LWPOLYLINE
  5
237
100
AcDbEntity
  8
0
100
AcDbPolyline
 62
7
  6
BYLAYER
 90
9
 70
0
 10
36.4137808714
 20
36.2973520065
 10
36.6692274926
 20
36.2957198553
 10
37.1436824078
 20
36.2841838877
 10
37.5666808663
 20
36.2639575602
 10
37.9234394982
 20
36.2375433155
 10
38.2025172434
 20
36.207277825
 10
38.396195941
 20
36.176201894
 10
38.4964374044
 20
36.1514416293
 10
38.5002072732
 20
36.1501221895
  0
LINE
  5
238
100
AcDbEntity
  8
0
100
AcDbLine
 62
7
  6
BYLAYER
 10
38.7079801877
 20
35.5158719556
 11
38.6964051342
 21
35.5160394284
  0
LWPOLYLINE
  5
239
100
AcDbEntity
  8
0
100
AcDbPolyline
 62
7
  6
BYLAYER
 90
8
 70
0
 10
37.0732531384
 20
35.7685656877
 10
37.4786819198
 20
35.7587426174
 10
37.8323185567
 20
35.7457880838
 10
38.1244484397
 20
35.7307751751
 10
38.3475558444
 20
35.7147894751
 10
38.5008644573
 20
35.6991574469
 10
38.5815244341
 20
35.6867666728
 10
38.5857696515
 20
35.6858499238
  0
LINE
  5
23A
100
AcDbEntity
  8
0
100
AcDbLine
 62
7
  6
BYLAYER
 10
38.7080246219
 20
35.515942899
 11
38.7073063906
 21
35.5159752039
  0
LINE
  5
23B
100
AcDbEntity
  8
0
100
AcDbLine
 62
7
  6
BYLAYER
 10
19.2888153969
 20
52.0158719556
 11
19.2888153969
 21
67.8158719556
  0
LWPOLYLINE
  5
23C
100
AcDbEntity
  8
0
100
AcDbPolyline
 62
7
  6
BYLAYER
 90
8
 70
0
 10
34.2384254355
 20
35.6854157729
 10
34.2438841272
 20
35.6864859259
 10
34.3150973083
 20
35.6975814651
 10
34.4440095066
 20
35.7114259371
 10
34.6254927404
 20
35.7257054837
 10
34.7357963613
 20
35.7326993105
 10
34.9942185824
 20
35.7459289201
 10
35.299618566
 20
35.7575413823
  0
LINE
  5
23D
100
AcDbEntity
  8
0
100
AcDbLine
 62
7
  6
BYLAYER
 10
33.7138153969
 20
37.1215697538
 11
39.1138153969
 21
37.1215697538
  0
LINE
  5
23E
100
AcDbEntity
  8
0
100
AcDbLine
 62
7
  6
BYLAYER
 10
28.9138153969
 20
37.3706855655
 11
27.9138153969
 21
37.3706855655
  0
LINE
  5
23F
100
AcDbEntity
  8
0
100
AcDbLine
 62
7
  6
BYLAYER
 10
62.4138153969
 20
37.3706855655
 11
63.4138153969
 21
37.3706855655
  0
LINE
  5
240
100
AcDbEntity
  8
0
100
AcDbLine
 62
7
  6
BYLAYER
 10
63.4138153969
 20
37.4877549974
 11
62.4138153969
 21
37.4877549974
  0
LINE
  5
241
100
AcDbEntity
  8
0
100
AcDbLine
 62
7
  6
BYLAYER
 10
28.9138153969
 20
37.4877549974
 11
27.9138153969
 21
37.4877549974
  0
LINE
  5
242
100
AcDbEntity
  8
0
100
AcDbLine
 62
7
  6
BYLAYER
 10
9.8638153969
 20
38.2356197831
 11
27.9138153969
 21
38.2356197831
  0
LINE
  5
243
100
AcDbEntity
  8
0
100
AcDbLine
 62
7
  6
BYLAYER
 10
28.9138153969
 20
38.235619783
 11
62.4138153969
 21
38.2356197831
  0
LINE
  5
244
100
AcDbEntity
  8
0
100
AcDbLine
 62
7
  6
BYLAYER
 10
63.4138153969
 20
38.2356197831
 11
81.4638153969
 21
38.2356197831
  0
LINE
  5
245
100
AcDbEntity
  8
0
100
AcDbLine
 62
7
  6
BYLAYER
 10
21.2888153969
 20
54.5158719556
 11
21.2888153969
 21
65.3158719556
  0
LINE
  5
246
100
AcDbEntity
  8
0
100
AcDbLine
 62
7
  6
BYLAYER
 10
21.4888153969
 20
65.3158719556
 11
21.4888153969
 21
54.5158719556
  0
LINE
  5
247
100
AcDbEntity
  8
0
100
AcDbLine
 62
7
  6
BYLAYER
 10
21.7888153969
 20
65.8158719556
 11
21.7888153969
 21
65.6158719556
  0
LINE
  5
248
100
AcDbEntity
  8
0
100
AcDbLine
 62
7
  6
BYLAYER
 10
21.7888153969
 20
54.2158719556
 11
21.7888153969
 21
54.0158719556
  0
LINE
  5
249
100
AcDbEntity
  8
0
100
AcDbLine
 62
7
  6
BYLAYER
 10
23.2645966308
 20
82.9015657149
 11
23.2620655075
 21
75.6515661567
  0
LINE
  5
24A
100
AcDbEntity
  8
0
100
AcDbLine
 62
7
  6
BYLAYER
 10
23.8643347539
 20
82.1513562883
 11
23.862833536
 21
77.8513565504
  0
LINE
  5
24B
100
AcDbEntity
  8
0
100
AcDbLine
 62
7
  6
BYLAYER
 10
24.7388153969
 20
67.8158719556
 11
24.7388153969
 21
65.8158719556
  0
LINE
  5
24C
100
AcDbEntity
  8
0
100
AcDbLine
 62
7
  6
BYLAYER
 10
24.7388153969
 20
54.0158719556
 11
24.7388153969
 21
52.0158719556
  0
LINE
  5
24D
100
AcDbEntity
  8
0
100
AcDbLine
 62
7
  6
BYLAYER
 10
26.5388153969
 20
52.0158719556
 11
26.5388153969
 21
67.8158719556
  0
LINE
  5
24E
100
AcDbEntity
  8
0
100
AcDbLine
 62
7
  6
BYLAYER
 10
24.3623796489
 20
76.5511820694
 11
24.3626065772
 21
77.2011820298
  0
LINE
  5
24F
100
AcDbEntity
  8
0
100
AcDbLine
 62
7
  6
BYLAYER
 10
24.9126065437
 20
77.2009900135
 11
24.912833472
 21
77.8509899739
  0
LINE
  5
250
100
AcDbEntity
  8
0
100
AcDbLine
 62
7
  6
BYLAYER
 10
25.2134095274
 20
79.5008851372
 11
25.2136888238
 21
80.3008850884
  0
LINE
  5
251
100
AcDbEntity
  8
0
100
AcDbLine
 62
7
  6
BYLAYER
 10
25.4036888015
 20
80.3008187556
 11
25.4034095052
 21
79.5008188043
  0
LINE
  5
252
100
AcDbEntity
  8
0
100
AcDbLine
 62
7
  6
BYLAYER
 10
25.8236887759
 20
80.300672125
 11
25.8234094796
 21
79.5006721737
  0
LINE
  5
253
100
AcDbEntity
  8
0
100
AcDbLine
 62
7
  6
BYLAYER
 10
26.0134094787
 20
79.5006058408
 11
26.013688775
 21
80.3006057921
  0
LINE
  5
254
100
AcDbEntity
  8
0
100
AcDbLine
 62
7
  6
BYLAYER
 10
26.3126064583
 20
77.2005012449
 11
26.3128333866
 21
77.8505012053
  0
LINE
  5
255
100
AcDbEntity
  8
0
100
AcDbLine
 62
7
  6
BYLAYER
 10
26.8623794965
 20
76.5503092682
 11
26.8626064248
 21
77.2003092286
  0
LINE
  5
256
100
AcDbEntity
  8
0
100
AcDbLine
 62
7
  6
BYLAYER
 10
27.0391964931
 20
81.7502478547
 11
27.0378349233
 21
77.8502480924
  0
LINE
  5
257
100
AcDbEntity
  8
0
100
AcDbLine
 62
7
  6
BYLAYER
 10
27.1628333348
 20
77.8502044529
 11
27.1643345528
 21
82.1502041908
  0
LINE
  5
258
100
AcDbEntity
  8
0
100
AcDbLine
 62
7
  6
BYLAYER
 10
63.4138153969
 20
43.5158719556
 11
62.4138153969
 21
43.5158719556
  0
LINE
  5
259
100
AcDbEntity
  8
0
100
AcDbLine
 62
7
  6
BYLAYER
 10
28.9138153969
 20
43.5158719556
 11
27.9138153969
 21
43.5158719556
  0
LINE
  5
25A
100
AcDbEntity
  8
0
100
AcDbLine
 62
7
  6
BYLAYER
 10
81.1638153968
 20
45.9158719556
 11
10.1638153969
 21
45.9158719556
  0
LINE
  5
25B
100
AcDbEntity
  8
0
100
AcDbLine
 62
7
  6
BYLAYER
 10
10.1638153969
 20
46.2853096774
 11
81.1638153969
 21
46.2853096774
  0
LINE
  5
25C
100
AcDbEntity
  8
0
100
AcDbLine
 62
7
  6
BYLAYER
 10
27.9138153969
 20
36.1240711063
 11
27.9138153969
 21
43.5158719556
  0
LINE
  5
25D
100
AcDbEntity
  8
0
100
AcDbLine
 62
7
  6
BYLAYER
 10
28.5388153969
 20
54.5158719556
 11
28.5388153969
 21
65.3158719556
  0
LINE
  5
25E
100
AcDbEntity
  8
0
100
AcDbLine
 62
7
  6
BYLAYER
 10
28.7388153969
 20
65.3158719556
 11
28.7388153969
 21
54.5158719556
  0
LINE
  5
25F
100
AcDbEntity
  8
0
100
AcDbLine
 62
7
  6
BYLAYER
 10
28.9138153969
 20
43.5158719556
 11
28.9138153969
 21
36.1240711063
  0
LINE
  5
260
100
AcDbEntity
  8
0
100
AcDbLine
 62
7
  6
BYLAYER
 10
29.0388153969
 20
65.8158719556
 11
29.0388153969
 21
65.6158719556
  0
LINE
  5
261
100
AcDbEntity
  8
0
100
AcDbLine
 62
7
  6
BYLAYER
 10
29.0388153969
 20
54.2158719556
 11
29.0388153969
 21
54.0158719556
  0
LINE
  5
262
100
AcDbEntity
  8
0
100
AcDbLine
 62
7
  6
BYLAYER
 10
27.5643345285
 20
82.1500645426
 11
27.5628333105
 21
77.8500648047
  0
LINE
  5
263
100
AcDbEntity
  8
0
100
AcDbLine
 62
7
  6
BYLAYER
 10
27.6891934598
 20
81.7500374967
 11
27.6878318842
 21
77.8500211651
  0
LINE
  5
264
100
AcDbEntity
  8
0
100
AcDbLine
 62
7
  6
BYLAYER
 10
27.8626063639
 20
77.1999601081
 11
27.8623794356
 21
76.5499601478
  0
LINE
  5
265
100
AcDbEntity
  8
0
100
AcDbLine
 62
7
  6
BYLAYER
 10
28.4128332587
 20
77.8497680523
 11
28.4126063304
 21
77.1997680919
  0
LINE
  5
266
100
AcDbEntity
  8
0
100
AcDbLine
 62
7
  6
BYLAYER
 10
28.7134093141
 20
79.4996632156
 11
28.7136886105
 21
80.2996631668
  0
LINE
  5
267
100
AcDbEntity
  8
0
100
AcDbLine
 62
7
  6
BYLAYER
 10
28.9036885882
 20
80.299596834
 11
28.9034092919
 21
79.4995968827
  0
LINE
  5
268
100
AcDbEntity
  8
0
100
AcDbLine
 62
7
  6
BYLAYER
 10
29.3236885626
 20
80.2994502034
 11
29.3234092663
 21
79.4994502521
  0
LINE
  5
269
100
AcDbEntity
  8
0
100
AcDbLine
 62
7
  6
BYLAYER
 10
29.5134092654
 20
79.4993839192
 11
29.5136885617
 21
80.2993838705
  0
LINE
  5
26A
100
AcDbEntity
  8
0
100
AcDbLine
 62
7
  6
BYLAYER
 10
29.812606245
 20
77.1992793232
 11
29.8128331733
 21
77.8492792836
  0
LINE
  5
26B
100
AcDbEntity
  8
0
100
AcDbLine
 62
7
  6
BYLAYER
 10
30.3623792832
 20
76.5490873466
 11
30.3626062115
 21
77.199087307
  0
LWPOLYLINE
  5
26C
100
AcDbEntity
  8
0
100
AcDbPolyline
 62
7
  6
BYLAYER
 90
9
 70
0
 10
34.3305840835
 20
36.1521293797
 10
34.3306303325
 20
36.1512889139
 10
34.4291112355
 20
36.1757549632
 10
34.6205542757
 20
36.206680448
 10
34.896856415
 20
36.2368826751
 10
35.250492572
 20
36.2633204622
 10
35.6700587084
 20
36.2836754549
 10
36.1409171031
 20
36.2954898838
 10
36.4137836796
 20
36.2973520065
  0
LINE
  5
26D
100
AcDbEntity
  8
0
100
AcDbLine
 62
7
  6
BYLAYER
 10
31.9888153969
 20
67.8158719556
 11
31.9888153969
 21
65.8158719556
  0
LINE
  5
26E
100
AcDbEntity
  8
0
100
AcDbLine
 62
7
  6
BYLAYER
 10
31.9888153969
 20
54.0158719556
 11
31.9888153969
 21
52.0158719556
  0
LINE
  5
26F
100
AcDbEntity
  8
0
100
AcDbLine
 62
7
  6
BYLAYER
 10
30.5391962798
 20
81.7490259331
 11
30.53783471
 21
77.8490261708
  0
LINE
  5
270
100
AcDbEntity
  8
0
100
AcDbLine
 62
7
  6
BYLAYER
 10
30.6628331215
 20
77.8489825312
 11
30.6643343395
 21
82.1489822692
  0
LINE
  5
271
100
AcDbEntity
  8
0
100
AcDbLine
 62
7
  6
BYLAYER
 10
31.0643343152
 20
82.148842621
 11
31.0628330972
 21
77.8488428831
  0
LINE
  5
272
100
AcDbEntity
  8
0
100
AcDbLine
 62
7
  6
BYLAYER
 10
31.1891932465
 20
81.7488155752
 11
31.1878316709
 21
77.8487992435
  0
LINE
  5
273
100
AcDbEntity
  8
0
100
AcDbLine
 62
7
  6
BYLAYER
 10
31.3626061506
 20
77.1987381865
 11
31.3623792223
 21
76.5487382262
  0
LINE
  5
274
100
AcDbEntity
  8
0
100
AcDbLine
 62
7
  6
BYLAYER
 10
31.9128330454
 20
77.8485461307
 11
31.9126061171
 21
77.1985461703
  0
LINE
  5
275
100
AcDbEntity
  8
0
100
AcDbLine
 62
7
  6
BYLAYER
 10
32.2134091008
 20
79.498441294
 11
32.2136883972
 21
80.2984412452
  0
LINE
  5
276
100
AcDbEntity
  8
0
100
AcDbLine
 62
7
  6
BYLAYER
 10
32.403688375
 20
80.2983749123
 11
32.4034090786
 21
79.4983749611
  0
LINE
  5
277
100
AcDbEntity
  8
0
100
AcDbLine
 62
7
  6
BYLAYER
 10
32.8236883493
 20
80.2982282817
 11
32.823409053
 21
79.4982283305
  0
LINE
  5
278
100
AcDbEntity
  8
0
100
AcDbLine
 62
7
  6
BYLAYER
 10
33.0134090521
 20
79.4981619976
 11
33.0136883484
 21
80.2981619489
  0
LINE
  5
279
100
AcDbEntity
  8
0
100
AcDbLine
 62
7
  6
BYLAYER
 10
33.3126060317
 20
77.1980574016
 11
33.31283296
 21
77.848057362
  0
LWPOLYLINE
  5
27A
100
AcDbEntity
  8
0
100
AcDbPolyline
 62
7
  6
BYLAYER
 90
3
 70
0
 10
79.9696108837
 20
91.9778244607
 10
79.6995863555
 20
91.876531937
 10
79.5638153969
 20
91.8653351677
  0
LINE
  5
27B
100
AcDbEntity
  8
0
100
AcDbLine
 62
7
  6
BYLAYER
 10
10.1638153969
 20
50.333971408
 11
81.1638153969
 21
50.333971408
  0
LINE
  5
27C
100
AcDbEntity
  8
0
100
AcDbLine
 62
7
  6
BYLAYER
 10
81.1638153969
 20
50.8158719556
 11
10.1638153968
 21
50.8158719556
  0
LINE
  5
27D
100
AcDbEntity
  8
0
100
AcDbLine
 62
7
  6
BYLAYER
 10
11.6638153969
 20
51.3158719556
 11
79.6638153969
 21
51.3158719556
  0
LINE
  5
27E
100
AcDbEntity
  8
0
100
AcDbLine
 62
7
  6
BYLAYER
 10
9.6638153969
 20
51.8158719556
 11
11.6638153969
 21
51.8158719556
  0
LINE
  5
27F
100
AcDbEntity
  8
0
100
AcDbLine
 62
7
  6
BYLAYER
 10
79.6638153969
 20
51.8158719556
 11
81.6638153969
 21
51.8158719556
  0
LINE
  5
280
100
AcDbEntity
  8
0
100
AcDbLine
 62
7
  6
BYLAYER
 10
17.4888153969
 20
52.0158719556
 11
19.2888153969
 21
52.0158719556
  0
LINE
  5
281
100
AcDbEntity
  8
0
100
AcDbLine
 62
7
  6
BYLAYER
 10
24.7388153969
 20
52.0158719556
 11
26.5388153969
 21
52.0158719556
  0
LINE
  5
282
100
AcDbEntity
  8
0
100
AcDbLine
 62
7
  6
BYLAYER
 10
31.9888153969
 20
52.0158719556
 11
33.7888153969
 21
52.0158719556
  0
LINE
  5
283
100
AcDbEntity
  8
0
100
AcDbLine
 62
7
  6
BYLAYER
 10
39.2388153969
 20
52.0158719556
 11
41.0388153969
 21
52.0158719556
  0
LINE
  5
284
100
AcDbEntity
  8
0
100
AcDbLine
 62
7
  6
BYLAYER
 10
46.4888153969
 20
52.0158719556
 11
48.2888153969
 21
52.0158719556
  0
LINE
  5
285
100
AcDbEntity
  8
0
100
AcDbLine
 62
7
  6
BYLAYER
 10
53.7388153969
 20
52.0158719556
 11
55.5388153969
 21
52.0158719556
  0
LINE
  5
286
100
AcDbEntity
  8
0
100
AcDbLine
 62
7
  6
BYLAYER
 10
60.9888153969
 20
52.0158719556
 11
62.7888153969
 21
52.0158719556
  0
LINE
  5
287
100
AcDbEntity
  8
0
100
AcDbLine
 62
7
  6
BYLAYER
 10
68.2388153969
 20
52.0158719556
 11
70.0388153969
 21
52.0158719556
  0
LINE
  5
288
100
AcDbEntity
  8
0
100
AcDbLine
 62
7
  6
BYLAYER
 10
75.4888153969
 20
52.0158719556
 11
77.2888153969
 21
52.0158719556
  0
LINE
  5
289
100
AcDbEntity
  8
0
100
AcDbLine
 62
7
  6
BYLAYER
 10
36.413965599
 20
35.6152204791
 11
36.4139758055
 21
35.5753637026
  0
LINE
  5
28A
100
AcDbEntity
  8
0
100
AcDbLine
 62
7
  6
BYLAYER
 10
36.4137808714
 20
36.2973520065
 11
36.41378052
 21
36.2988911874
  0
LINE
  5
28B
100
AcDbEntity
  8
0
100
AcDbLine
 62
7
  6
BYLAYER
 10
33.7138153969
 20
34.9320497646
 11
33.7138153969
 21
37.1215697538
  0
LINE
  5
28C
100
AcDbEntity
  8
0
100
AcDbLine
 62
7
  6
BYLAYER
 10
33.7888153969
 20
52.0158719556
 11
33.7888153969
 21
67.8158719556
  0
LINE
  5
28D
100
AcDbEntity
  8
0
100
AcDbLine
 62
7
  6
BYLAYER
 10
33.9138153969
 20
35.1320263622
 11
33.9138153969
 21
37.0782447948
  0
LINE
  5
28E
100
AcDbEntity
  8
0
100
AcDbLine
 62
7
  6
BYLAYER
 10
35.7888153969
 20
54.5158719556
 11
35.7888153969
 21
65.3158719556
  0
LINE
  5
28F
100
AcDbEntity
  8
0
100
AcDbLine
 62
7
  6
BYLAYER
 10
35.9888153969
 20
65.3158719556
 11
35.9888153969
 21
54.5158719556
  0
LINE
  5
290
100
AcDbEntity
  8
0
100
AcDbLine
 62
7
  6
BYLAYER
 10
36.2888153969
 20
65.8158719556
 11
36.2888153969
 21
65.6158719556
  0
LINE
  5
291
100
AcDbEntity
  8
0
100
AcDbLine
 62
7
  6
BYLAYER
 10
36.2888153969
 20
54.2158719556
 11
36.2888153969
 21
54.0158719556
  0
LINE
  5
292
100
AcDbEntity
  8
0
100
AcDbLine
 62
7
  6
BYLAYER
 10
36.4138191131
 20
36.1815658974
 11
36.4138472526
 21
35.9032678013
  0
LINE
  5
293
100
AcDbEntity
  8
0
100
AcDbLine
 62
7
  6
BYLAYER
 10
33.8623790699
 20
76.547865425
 11
33.8626059982
 21
77.1978653854
  0
LINE
  5
294
100
AcDbEntity
  8
0
100
AcDbLine
 62
7
  6
BYLAYER
 10
34.0391960665
 20
81.7478040115
 11
34.0378344967
 21
77.8478042492
  0
LINE
  5
295
100
AcDbEntity
  8
0
100
AcDbLine
 62
7
  6
BYLAYER
 10
34.1628329082
 20
77.8477606096
 11
34.1643341262
 21
82.1477603476
  0
LINE
  5
296
100
AcDbEntity
  8
0
100
AcDbLine
 62
7
  6
BYLAYER
 10
34.5643341018
 20
82.1476206994
 11
34.5628328839
 21
77.8476209615
  0
LINE
  5
297
100
AcDbEntity
  8
0
100
AcDbLine
 62
7
  6
BYLAYER
 10
34.6891930332
 20
81.7475936535
 11
34.6878314576
 21
77.8475773219
  0
LINE
  5
298
100
AcDbEntity
  8
0
100
AcDbLine
 62
7
  6
BYLAYER
 10
34.8626059373
 20
77.1975162649
 11
34.862379009
 21
76.5475163045
  0
LINE
  5
299
100
AcDbEntity
  8
0
100
AcDbLine
 62
7
  6
BYLAYER
 10
35.4128328321
 20
77.8473242091
 11
35.4126059038
 21
77.1973242487
  0
LINE
  5
29A
100
AcDbEntity
  8
0
100
AcDbLine
 62
7
  6
BYLAYER
 10
35.7134088875
 20
79.4972193724
 11
35.7136881839
 21
80.2972193236
  0
LINE
  5
29B
100
AcDbEntity
  8
0
100
AcDbLine
 62
7
  6
BYLAYER
 10
35.9036881617
 20
80.2971529907
 11
35.9034088653
 21
79.4971530395
  0
LINE
  5
29C
100
AcDbEntity
  8
0
100
AcDbLine
 62
7
  6
BYLAYER
 10
36.323688136
 20
80.2970063601
 11
36.3234088397
 21
79.4970064089
  0
LINE
  5
29D
100
AcDbEntity
  8
0
100
AcDbLine
 62
7
  6
BYLAYER
 10
36.5134088388
 20
79.496940076
 11
36.5136881351
 21
80.2969400272
  0
LINE
  5
29E
100
AcDbEntity
  8
0
100
AcDbLine
 62
7
  6
BYLAYER
 10
77.2888153969
 20
54.0158719556
 11
72.538815243
 21
54.0158719556
  0
LINE
  5
29F
100
AcDbEntity
  8
0
100
AcDbLine
 62
7
  6
BYLAYER
 10
70.0388153969
 20
54.0158719556
 11
65.288815243
 21
54.0158719556
  0
LINE
  5
2A0
100
AcDbEntity
  8
0
100
AcDbLine
 62
7
  6
BYLAYER
 10
62.7888153969
 20
54.0158719556
 11
58.038815243
 21
54.0158719556
  0
LINE
  5
2A1
100
AcDbEntity
  8
0
100
AcDbLine
 62
7
  6
BYLAYER
 10
55.5388153969
 20
54.0158719556
 11
50.788815243
 21
54.0158719556
  0
LINE
  5
2A2
100
AcDbEntity
  8
0
100
AcDbLine
 62
7
  6
BYLAYER
 10
48.2888153969
 20
54.0158719556
 11
43.5388152429
 21
54.0158719556
  0
LINE
  5
2A3
100
AcDbEntity
  8
0
100
AcDbLine
 62
7
  6
BYLAYER
 10
41.0388153969
 20
54.0158719556
 11
36.2888152429
 21
54.0158719556
  0
LINE
  5
2A4
100
AcDbEntity
  8
0
100
AcDbLine
 62
7
  6
BYLAYER
 10
33.7888153969
 20
54.0158719556
 11
29.0388152429
 21
54.0158719556
  0
LINE
  5
2A5
100
AcDbEntity
  8
0
100
AcDbLine
 62
7
  6
BYLAYER
 10
26.5388153969
 20
54.0158719556
 11
21.7888152429
 21
54.0158719556
  0
LINE
  5
2A6
100
AcDbEntity
  8
0
100
AcDbLine
 62
7
  6
BYLAYER
 10
19.2888153969
 20
54.0158719556
 11
14.5388152429
 21
54.0158719556
  0
LINE
  5
2A7
100
AcDbEntity
  8
0
100
AcDbLine
 62
7
  6
BYLAYER
 10
14.5388153969
 20
54.2158719556
 11
19.2888153969
 21
54.2158719556
  0
LINE
  5
2A8
100
AcDbEntity
  8
0
100
AcDbLine
 62
7
  6
BYLAYER
 10
21.7888153969
 20
54.2158719556
 11
26.5388153969
 21
54.2158719556
  0
LINE
  5
2A9
100
AcDbEntity
  8
0
100
AcDbLine
 62
7
  6
BYLAYER
 10
29.0388153969
 20
54.2158719556
 11
33.7888153969
 21
54.2158719556
  0
LINE
  5
2AA
100
AcDbEntity
  8
0
100
AcDbLine
 62
7
  6
BYLAYER
 10
36.2888153969
 20
54.2158719556
 11
41.0388153969
 21
54.2158719556
  0
LINE
  5
2AB
100
AcDbEntity
  8
0
100
AcDbLine
 62
7
  6
BYLAYER
 10
43.5388153969
 20
54.2158719556
 11
48.2888153969
 21
54.2158719556
  0
LINE
  5
2AC
100
AcDbEntity
  8
0
100
AcDbLine
 62
7
  6
BYLAYER
 10
50.7888153969
 20
54.2158719556
 11
55.5388153969
 21
54.2158719556
  0
LINE
  5
2AD
100
AcDbEntity
  8
0
100
AcDbLine
 62
7
  6
BYLAYER
 10
58.0388153969
 20
54.2158719556
 11
62.7888153969
 21
54.2158719556
  0
LINE
  5
2AE
100
AcDbEntity
  8
0
100
AcDbLine
 62
7
  6
BYLAYER
 10
65.2888153969
 20
54.2158719556
 11
70.0388153969
 21
54.2158719556
  0
LINE
  5
2AF
100
AcDbEntity
  8
0
100
AcDbLine
 62
7
  6
BYLAYER
 10
72.5388153969
 20
54.2158719556
 11
77.2888153969
 21
54.2158719556
  0
LINE
  5
2B0
100
AcDbEntity
  8
0
100
AcDbLine
 62
7
  6
BYLAYER
 10
14.0388153969
 20
54.5158719556
 11
14.2388153969
 21
54.5158719556
  0
LINE
  5
2B1
100
AcDbEntity
  8
0
100
AcDbLine
 62
7
  6
BYLAYER
 10
21.2888153969
 20
54.5158719556
 11
21.4888153969
 21
54.5158719556
  0
LINE
  5
2B2
100
AcDbEntity
  8
0
100
AcDbLine
 62
7
  6
BYLAYER
 10
28.5388153969
 20
54.5158719556
 11
28.7388153969
 21
54.5158719556
  0
LINE
  5
2B3
100
AcDbEntity
  8
0
100
AcDbLine
 62
7
  6
BYLAYER
 10
35.7888153969
 20
54.5158719556
 11
35.9888153969
 21
54.5158719556
  0
LINE
  5
2B4
100
AcDbEntity
  8
0
100
AcDbLine
 62
7
  6
BYLAYER
 10
43.0388153969
 20
54.5158719556
 11
43.2388153969
 21
54.5158719556
  0
LINE
  5
2B5
100
AcDbEntity
  8
0
100
AcDbLine
 62
7
  6
BYLAYER
 10
50.2888153969
 20
54.5158719556
 11
50.4888153969
 21
54.5158719556
  0
LINE
  5
2B6
100
AcDbEntity
  8
0
100
AcDbLine
 62
7
  6
BYLAYER
 10
57.5388153969
 20
54.5158719556
 11
57.7388153969
 21
54.5158719556
  0
LINE
  5
2B7
100
AcDbEntity
  8
0
100
AcDbLine
 62
7
  6
BYLAYER
 10
64.7888153969
 20
54.5158719556
 11
64.9888153969
 21
54.5158719556
  0
LINE
  5
2B8
100
AcDbEntity
  8
0
100
AcDbLine
 62
7
  6
BYLAYER
 10
72.0388153969
 20
54.5158719556
 11
72.2388153969
 21
54.5158719556
  0
LINE
  5
2B9
100
AcDbEntity
  8
0
100
AcDbLine
 62
7
  6
BYLAYER
 10
37.9138153969
 20
89.4158719556
 11
37.9138153969
 21
93.180473979
  0
LINE
  5
2BA
100
AcDbEntity
  8
0
100
AcDbLine
 62
7
  6
BYLAYER
 10
38.9138153969
 20
37.0782447948
 11
38.9138153969
 21
35.132027688
  0
LINE
  5
2BB
100
AcDbEntity
  8
0
100
AcDbLine
 62
7
  6
BYLAYER
 10
39.1138153969
 20
37.1215697538
 11
39.1138153969
 21
34.9320497648
  0
LINE
  5
2BC
100
AcDbEntity
  8
0
100
AcDbLine
 62
7
  6
BYLAYER
 10
39.2388153969
 20
67.8158719556
 11
39.2388153969
 21
65.8158719556
  0
LINE
  5
2BD
100
AcDbEntity
  8
0
100
AcDbLine
 62
7
  6
BYLAYER
 10
39.2388153969
 20
54.0158719556
 11
39.2388153969
 21
52.0158719556
  0
LINE
  5
2BE
100
AcDbEntity
  8
0
100
AcDbLine
 62
7
  6
BYLAYER
 10
36.8128327467
 20
77.8468354404
 11
36.8126058184
 21
77.19683548
  0
LINE
  5
2BF
100
AcDbEntity
  8
0
100
AcDbLine
 62
7
  6
BYLAYER
 10
37.3626057849
 20
77.1966434638
 11
37.3623788566
 21
76.5466435034
  0
LINE
  5
2C0
100
AcDbEntity
  8
0
100
AcDbLine
 62
7
  6
BYLAYER
 10
37.8628326828
 20
77.8464688639
 11
37.8643339007
 21
82.1464686019
  0
LINE
  5
2C1
100
AcDbEntity
  8
0
100
AcDbLine
 62
7
  6
BYLAYER
 10
38.4620645812
 20
75.6462595257
 11
38.4645957045
 21
82.8962590839
  0
LINE
  5
2C2
100
AcDbEntity
  8
0
100
AcDbLine
 62
7
  6
BYLAYER
 10
36.4135716014
 20
35.7747689443
 11
36.4135841209
 21
35.7752781735
  0
LINE
  5
2C3
100
AcDbEntity
  8
0
100
AcDbLine
 62
7
  6
BYLAYER
 10
39.9138153969
 20
91.9158719556
 11
39.9138153969
 21
94.4158719556
  0
LINE
  5
2C4
100
AcDbEntity
  8
0
100
AcDbLine
 62
7
  6
BYLAYER
 10
41.0388153969
 20
52.0158719556
 11
41.0388153969
 21
67.8158719556
  0
LINE
  5
2C5
100
AcDbEntity
  8
0
100
AcDbLine
 62
7
  6
BYLAYER
 10
11.6638153969
 20
59.0158719556
 11
14.0388153969
 21
59.0158719556
  0
LINE
  5
2C6
100
AcDbEntity
  8
0
100
AcDbLine
 62
7
  6
BYLAYER
 10
19.2888153969
 20
59.0158719556
 11
21.2888153969
 21
59.0158719556
  0
LINE
  5
2C7
100
AcDbEntity
  8
0
100
AcDbLine
 62
7
  6
BYLAYER
 10
26.5388153969
 20
59.0158719556
 11
28.5388153969
 21
59.0158719556
  0
LINE
  5
2C8
100
AcDbEntity
  8
0
100
AcDbLine
 62
7
  6
BYLAYER
 10
33.7888153969
 20
59.0158719556
 11
35.7888153969
 21
59.0158719556
  0
LINE
  5
2C9
100
AcDbEntity
  8
0
100
AcDbLine
 62
7
  6
BYLAYER
 10
41.0388153969
 20
59.0158719556
 11
43.0388153969
 21
59.0158719556
  0
LINE
  5
2CA
100
AcDbEntity
  8
0
100
AcDbLine
 62
7
  6
BYLAYER
 10
48.2888153969
 20
59.0158719556
 11
50.2888153969
 21
59.0158719556
  0
LINE
  5
2CB
100
AcDbEntity
  8
0
100
AcDbLine
 62
7
  6
BYLAYER
 10
55.5388153969
 20
59.0158719556
 11
57.5388153969
 21
59.0158719556
  0
LINE
  5
2CC
100
AcDbEntity
  8
0
100
AcDbLine
 62
7
  6
BYLAYER
 10
62.7888153969
 20
59.0158719556
 11
64.7888153969
 21
59.0158719556
  0
LINE
  5
2CD
100
AcDbEntity
  8
0
100
AcDbLine
 62
7
  6
BYLAYER
 10
70.0388153969
 20
59.0158719556
 11
72.0388153969
 21
59.0158719556
  0
LINE
  5
2CE
100
AcDbEntity
  8
0
100
AcDbLine
 62
7
  6
BYLAYER
 10
77.2888153969
 20
59.0158719556
 11
79.6638153969
 21
59.0158719556
  0
LINE
  5
2CF
100
AcDbEntity
  8
0
100
AcDbLine
 62
7
  6
BYLAYER
 10
81.6638153969
 20
60.6808542752
 11
79.6638153969
 21
60.6808542752
  0
LINE
  5
2D0
100
AcDbEntity
  8
0
100
AcDbLine
 62
7
  6
BYLAYER
 10
11.6638153969
 20
60.6808542752
 11
9.6638153969
 21
60.6808542752
  0
LINE
  5
2D1
100
AcDbEntity
  8
0
100
AcDbLine
 62
7
  6
BYLAYER
 10
11.6638153969
 20
60.8158719556
 11
14.0388153969
 21
60.8158719556
  0
LINE
  5
2D2
100
AcDbEntity
  8
0
100
AcDbLine
 62
7
  6
BYLAYER
 10
19.2888153969
 20
60.8158719556
 11
21.2888153969
 21
60.8158719556
  0
LINE
  5
2D3
100
AcDbEntity
  8
0
100
AcDbLine
 62
7
  6
BYLAYER
 10
26.5388153969
 20
60.8158719556
 11
28.5388153969
 21
60.8158719556
  0
LINE
  5
2D4
100
AcDbEntity
  8
0
100
AcDbLine
 62
7
  6
BYLAYER
 10
33.7888153969
 20
60.8158719556
 11
35.7888153969
 21
60.8158719556
  0
LINE
  5
2D5
100
AcDbEntity
  8
0
100
AcDbLine
 62
7
  6
BYLAYER
 10
41.0388153969
 20
60.8158719556
 11
43.0388153969
 21
60.8158719556
  0
LINE
  5
2D6
100
AcDbEntity
  8
0
100
AcDbLine
 62
7
  6
BYLAYER
 10
48.2888153969
 20
60.8158719556
 11
50.2888153969
 21
60.8158719556
  0
LINE
  5
2D7
100
AcDbEntity
  8
0
100
AcDbLine
 62
7
  6
BYLAYER
 10
55.5388153969
 20
60.8158719556
 11
57.5388153969
 21
60.8158719556
  0
LINE
  5
2D8
100
AcDbEntity
  8
0
100
AcDbLine
 62
7
  6
BYLAYER
 10
62.7888153969
 20
60.8158719556
 11
64.7888153969
 21
60.8158719556
  0
LINE
  5
2D9
100
AcDbEntity
  8
0
100
AcDbLine
 62
7
  6
BYLAYER
 10
70.0388153969
 20
60.8158719556
 11
72.0388153969
 21
60.8158719556
  0
LINE
  5
2DA
100
AcDbEntity
  8
0
100
AcDbLine
 62
7
  6
BYLAYER
 10
77.2888153969
 20
60.8158719556
 11
79.6638153969
 21
60.8158719556
  0
LINE
  5
2DB
100
AcDbEntity
  8
0
100
AcDbLine
 62
7
  6
BYLAYER
 10
10.1638153969
 20
61.698754248
 11
11.6638153969
 21
61.698754248
  0
LINE
  5
2DC
100
AcDbEntity
  8
0
100
AcDbLine
 62
7
  6
BYLAYER
 10
79.6638153969
 20
61.698754248
 11
81.1638153969
 21
61.698754248
  0
LINE
  5
2DD
100
AcDbEntity
  8
0
100
AcDbLine
 62
7
  6
BYLAYER
 10
43.0388153969
 20
54.5158719556
 11
43.0388153969
 21
65.3158719556
  0
LINE
  5
2DE
100
AcDbEntity
  8
0
100
AcDbLine
 62
7
  6
BYLAYER
 10
43.2388153969
 20
65.3158719556
 11
43.2388153969
 21
54.5158719556
  0
LINE
  5
2DF
100
AcDbEntity
  8
0
100
AcDbLine
 62
7
  6
BYLAYER
 10
43.5388153969
 20
65.8158719556
 11
43.5388153969
 21
65.6158719556
  0
LINE
  5
2E0
100
AcDbEntity
  8
0
100
AcDbLine
 62
7
  6
BYLAYER
 10
43.5388153969
 20
54.2158719556
 11
43.5388153969
 21
54.0158719556
  0
LINE
  5
2E1
100
AcDbEntity
  8
0
100
AcDbLine
 62
7
  6
BYLAYER
 10
46.4888153969
 20
67.8158719556
 11
46.4888153969
 21
65.8158719556
  0
LINE
  5
2E2
100
AcDbEntity
  8
0
100
AcDbLine
 62
7
  6
BYLAYER
 10
46.4888153969
 20
54.0158719556
 11
46.4888153969
 21
52.0158719556
  0
LINE
  5
2E3
100
AcDbEntity
  8
0
100
AcDbLine
 62
7
  6
BYLAYER
 10
48.2888153969
 20
52.0158719556
 11
48.2888153969
 21
67.8158719556
  0
LINE
  5
2E4
100
AcDbEntity
  8
0
100
AcDbLine
 62
7
  6
BYLAYER
 10
48.0145966309
 20
82.9015657149
 11
48.0120655075
 21
75.6515661567
  0
LINE
  5
2E5
100
AcDbEntity
  8
0
100
AcDbLine
 62
7
  6
BYLAYER
 10
48.6143347539
 20
82.1513562883
 11
48.612833536
 21
77.8513565504
  0
LINE
  5
2E6
100
AcDbEntity
  8
0
100
AcDbLine
 62
7
  6
BYLAYER
 10
49.1123796489
 20
76.5511820694
 11
49.1126065772
 21
77.2011820298
  0
LINE
  5
2E7
100
AcDbEntity
  8
0
100
AcDbLine
 62
7
  6
BYLAYER
 10
72.2388153969
 20
65.3158719556
 11
72.0388153969
 21
65.3158719556
  0
LINE
  5
2E8
100
AcDbEntity
  8
0
100
AcDbLine
 62
7
  6
BYLAYER
 10
64.9888153969
 20
65.3158719556
 11
64.7888153969
 21
65.3158719556
  0
LINE
  5
2E9
100
AcDbEntity
  8
0
100
AcDbLine
 62
7
  6
BYLAYER
 10
57.7388153969
 20
65.3158719556
 11
57.5388153969
 21
65.3158719556
  0
LINE
  5
2EA
100
AcDbEntity
  8
0
100
AcDbLine
 62
7
  6
BYLAYER
 10
50.4888153969
 20
65.3158719556
 11
50.2888153969
 21
65.3158719556
  0
LINE
  5
2EB
100
AcDbEntity
  8
0
100
AcDbLine
 62
7
  6
BYLAYER
 10
43.2388153969
 20
65.3158719556
 11
43.0388153969
 21
65.3158719556
  0
LINE
  5
2EC
100
AcDbEntity
  8
0
100
AcDbLine
 62
7
  6
BYLAYER
 10
35.9888153969
 20
65.3158719556
 11
35.7888153969
 21
65.3158719556
  0
LINE
  5
2ED
100
AcDbEntity
  8
0
100
AcDbLine
 62
7
  6
BYLAYER
 10
28.7388153969
 20
65.3158719556
 11
28.5388153969
 21
65.3158719556
  0
LINE
  5
2EE
100
AcDbEntity
  8
0
100
AcDbLine
 62
7
  6
BYLAYER
 10
21.4888153969
 20
65.3158719556
 11
21.2888153969
 21
65.3158719556
  0
LINE
  5
2EF
100
AcDbEntity
  8
0
100
AcDbLine
 62
7
  6
BYLAYER
 10
14.2388153969
 20
65.3158719556
 11
14.0388153969
 21
65.3158719556
  0
LINE
  5
2F0
100
AcDbEntity
  8
0
100
AcDbLine
 62
7
  6
BYLAYER
 10
77.2888153969
 20
65.6158719556
 11
72.5388153969
 21
65.6158719556
  0
LINE
  5
2F1
100
AcDbEntity
  8
0
100
AcDbLine
 62
7
  6
BYLAYER
 10
70.0388153969
 20
65.6158719556
 11
65.2888153969
 21
65.6158719556
  0
LINE
  5
2F2
100
AcDbEntity
  8
0
100
AcDbLine
 62
7
  6
BYLAYER
 10
62.7888153969
 20
65.6158719556
 11
58.0388153969
 21
65.6158719556
  0
LINE
  5
2F3
100
AcDbEntity
  8
0
100
AcDbLine
 62
7
  6
BYLAYER
 10
55.5388153969
 20
65.6158719556
 11
50.7888153969
 21
65.6158719556
  0
LINE
  5
2F4
100
AcDbEntity
  8
0
100
AcDbLine
 62
7
  6
BYLAYER
 10
48.2888153969
 20
65.6158719556
 11
43.5388153969
 21
65.6158719556
  0
LINE
  5
2F5
100
AcDbEntity
  8
0
100
AcDbLine
 62
7
  6
BYLAYER
 10
41.0388153969
 20
65.6158719556
 11
36.2888153969
 21
65.6158719556
  0
LINE
  5
2F6
100
AcDbEntity
  8
0
100
AcDbLine
 62
7
  6
BYLAYER
 10
33.7888153969
 20
65.6158719556
 11
29.0388153969
 21
65.6158719556
  0
LINE
  5
2F7
100
AcDbEntity
  8
0
100
AcDbLine
 62
7
  6
BYLAYER
 10
26.5388153969
 20
65.6158719556
 11
21.7888153969
 21
65.6158719556
  0
LINE
  5
2F8
100
AcDbEntity
  8
0
100
AcDbLine
 62
7
  6
BYLAYER
 10
19.2888153969
 20
65.6158719556
 11
14.5388153969
 21
65.6158719556
  0
LINE
  5
2F9
100
AcDbEntity
  8
0
100
AcDbLine
 62
7
  6
BYLAYER
 10
14.5388153969
 20
65.8158719556
 11
19.2888153969
 21
65.8158719556
  0
LINE
  5
2FA
100
AcDbEntity
  8
0
100
AcDbLine
 62
7
  6
BYLAYER
 10
21.7888153969
 20
65.8158719556
 11
26.5388153969
 21
65.8158719556
  0
LINE
  5
2FB
100
AcDbEntity
  8
0
100
AcDbLine
 62
7
  6
BYLAYER
 10
29.0388153969
 20
65.8158719556
 11
33.7888153969
 21
65.8158719556
  0
LINE
  5
2FC
100
AcDbEntity
  8
0
100
AcDbLine
 62
7
  6
BYLAYER
 10
36.2888153969
 20
65.8158719556
 11
41.0388153969
 21
65.8158719556
  0
LINE
  5
2FD
100
AcDbEntity
  8
0
100
AcDbLine
 62
7
  6
BYLAYER
 10
43.5388153969
 20
65.8158719556
 11
48.2888153969
 21
65.8158719556
  0
LINE
  5
2FE
100
AcDbEntity
  8
0
100
AcDbLine
 62
7
  6
BYLAYER
 10
50.7888153969
 20
65.8158719556
 11
55.5388153969
 21
65.8158719556
  0
LINE
  5
2FF
100
AcDbEntity
  8
0
100
AcDbLine
 62
7
  6
BYLAYER
 10
58.0388153969
 20
65.8158719556
 11
62.7888153969
 21
65.8158719556
  0
LINE
  5
300
100
AcDbEntity
  8
0
100
AcDbLine
 62
7
  6
BYLAYER
 10
65.2888153969
 20
65.8158719556
 11
70.0388153969
 21
65.8158719556
  0
LINE
  5
301
100
AcDbEntity
  8
0
100
AcDbLine
 62
7
  6
BYLAYER
 10
72.5388153969
 20
65.8158719556
 11
77.2888153969
 21
65.8158719556
  0
LINE
  5
302
100
AcDbEntity
  8
0
100
AcDbLine
 62
7
  6
BYLAYER
 10
79.6638153969
 20
67.8158719556
 11
11.6638153969
 21
67.8158719556
  0
LINE
  5
303
100
AcDbEntity
  8
0
100
AcDbLine
 62
7
  6
BYLAYER
 10
11.6638153969
 20
68.1256660809
 11
79.6638153969
 21
68.1256660809
  0
LINE
  5
304
100
AcDbEntity
  8
0
100
AcDbLine
 62
7
  6
BYLAYER
 10
50.2888153969
 20
54.5158719556
 11
50.2888153969
 21
65.3158719556
  0
LINE
  5
305
100
AcDbEntity
  8
0
100
AcDbLine
 62
7
  6
BYLAYER
 10
50.4888153969
 20
65.3158719556
 11
50.4888153969
 21
54.5158719556
  0
LINE
  5
306
100
AcDbEntity
  8
0
100
AcDbLine
 62
7
  6
BYLAYER
 10
50.7888153969
 20
65.8158719556
 11
50.7888153969
 21
65.6158719556
  0
LINE
  5
307
100
AcDbEntity
  8
0
100
AcDbLine
 62
7
  6
BYLAYER
 10
50.7888153969
 20
54.2158719556
 11
50.7888153969
 21
54.0158719556
  0
LINE
  5
308
100
AcDbEntity
  8
0
100
AcDbLine
 62
7
  6
BYLAYER
 10
51.4138153969
 20
91.9158719556
 11
51.4138153969
 21
94.4158719556
  0
LINE
  5
309
100
AcDbEntity
  8
0
100
AcDbLine
 62
7
  6
BYLAYER
 10
49.6626065437
 20
77.2009900135
 11
49.662833472
 21
77.8509899739
  0
LINE
  5
30A
100
AcDbEntity
  8
0
100
AcDbLine
 62
7
  6
BYLAYER
 10
49.9634095274
 20
79.5008851372
 11
49.9636888238
 21
80.3008850884
  0
LINE
  5
30B
100
AcDbEntity
  8
0
100
AcDbLine
 62
7
  6
BYLAYER
 10
50.1536888015
 20
80.3008187556
 11
50.1534095052
 21
79.5008188043
  0
LINE
  5
30C
100
AcDbEntity
  8
0
100
AcDbLine
 62
7
  6
BYLAYER
 10
50.5736887759
 20
80.300672125
 11
50.5734094796
 21
79.5006721737
  0
LINE
  5
30D
100
AcDbEntity
  8
0
100
AcDbLine
 62
7
  6
BYLAYER
 10
50.7634094787
 20
79.5006058408
 11
50.763688775
 21
80.3006057921
  0
LINE
  5
30E
100
AcDbEntity
  8
0
100
AcDbLine
 62
7
  6
BYLAYER
 10
51.0626064583
 20
77.2005012449
 11
51.0628333866
 21
77.8505012053
  0
LINE
  5
30F
100
AcDbEntity
  8
0
100
AcDbLine
 62
7
  6
BYLAYER
 10
51.6123794965
 20
76.5503092682
 11
51.6126064248
 21
77.2003092286
  0
LINE
  5
310
100
AcDbEntity
  8
0
100
AcDbLine
 62
7
  6
BYLAYER
 10
51.7878349233
 20
77.8502480924
 11
51.7891964989
 21
81.75026437
  0
LINE
  5
311
100
AcDbEntity
  8
0
100
AcDbLine
 62
7
  6
BYLAYER
 10
51.9128333348
 20
77.8502044529
 11
51.9143345528
 21
82.1502041908
  0
LINE
  5
312
100
AcDbEntity
  8
0
100
AcDbLine
 62
7
  6
BYLAYER
 10
80.0705041141
 20
92.0728549294
 11
79.9696108837
 21
91.9778244607
  0
LINE
  5
313
100
AcDbEntity
  8
0
100
AcDbLine
 62
7
  6
BYLAYER
 10
53.4138153969
 20
93.1804760627
 11
53.4138153969
 21
89.4158719556
  0
LINE
  5
314
100
AcDbEntity
  8
0
100
AcDbLine
 62
7
  6
BYLAYER
 10
53.7388153969
 20
67.8158719556
 11
53.7388153969
 21
65.8158719556
  0
LINE
  5
315
100
AcDbEntity
  8
0
100
AcDbLine
 62
7
  6
BYLAYER
 10
53.7388153969
 20
54.0158719556
 11
53.7388153969
 21
52.0158719556
  0
LINE
  5
316
100
AcDbEntity
  8
0
100
AcDbLine
 62
7
  6
BYLAYER
 10
52.3143345285
 20
82.1500645426
 11
52.3128333105
 21
77.8500648047
  0
LINE
  5
317
100
AcDbEntity
  8
0
100
AcDbLine
 62
7
  6
BYLAYER
 10
52.4391934598
 20
81.7500374967
 11
52.4378318842
 21
77.8500211651
  0
LINE
  5
318
100
AcDbEntity
  8
0
100
AcDbLine
 62
7
  6
BYLAYER
 10
52.6126063639
 20
77.1999601081
 11
52.6123794356
 21
76.5499601478
  0
LINE
  5
319
100
AcDbEntity
  8
0
100
AcDbLine
 62
7
  6
BYLAYER
 10
53.1628332587
 20
77.8497680523
 11
53.1626063304
 21
77.1997680919
  0
LINE
  5
31A
100
AcDbEntity
  8
0
100
AcDbLine
 62
7
  6
BYLAYER
 10
53.4634093141
 20
79.4996632156
 11
53.4636886105
 21
80.2996631668
  0
LINE
  5
31B
100
AcDbEntity
  8
0
100
AcDbLine
 62
7
  6
BYLAYER
 10
53.6536885882
 20
80.299596834
 11
53.6534092919
 21
79.4995968827
  0
LINE
  5
31C
100
AcDbEntity
  8
0
100
AcDbLine
 62
7
  6
BYLAYER
 10
54.0736885626
 20
80.2994502034
 11
54.0734092663
 21
79.4994502521
  0
LINE
  5
31D
100
AcDbEntity
  8
0
100
AcDbLine
 62
7
  6
BYLAYER
 10
54.2634092654
 20
79.4993839192
 11
54.2636885617
 21
80.2993838705
  0
LINE
  5
31E
100
AcDbEntity
  8
0
100
AcDbLine
 62
7
  6
BYLAYER
 10
54.562606245
 20
77.1992793232
 11
54.5628331733
 21
77.8492792836
  0
LINE
  5
31F
100
AcDbEntity
  8
0
100
AcDbLine
 62
7
  6
BYLAYER
 10
55.1123792832
 20
76.5490873466
 11
55.1126062115
 21
77.199087307
  0
LINE
  5
320
100
AcDbEntity
  8
0
100
AcDbLine
 62
7
  6
BYLAYER
 10
55.28783471
 20
77.8490261708
 11
55.2891962856
 21
81.7490424483
  0
LINE
  5
321
100
AcDbEntity
  8
0
100
AcDbLine
 62
7
  6
BYLAYER
 10
55.4128331215
 20
77.8489825312
 11
55.4143343395
 21
82.1489822692
  0
LINE
  5
322
100
AcDbEntity
  8
0
100
AcDbLine
 62
7
  6
BYLAYER
 10
11.6638153969
 20
74.4158719556
 11
79.6638153969
 21
74.4158719556
  0
LINE
  5
323
100
AcDbEntity
  8
0
100
AcDbLine
 62
7
  6
BYLAYER
 10
55.5388153969
 20
52.0158719556
 11
55.5388153969
 21
67.8158719556
  0
LINE
  5
324
100
AcDbEntity
  8
0
100
AcDbLine
 62
7
  6
BYLAYER
 10
57.5388153969
 20
54.5158719556
 11
57.5388153969
 21
65.3158719556
  0
LINE
  5
325
100
AcDbEntity
  8
0
100
AcDbLine
 62
7
  6
BYLAYER
 10
57.7388153969
 20
65.3158719556
 11
57.7388153969
 21
54.5158719556
  0
LINE
  5
326
100
AcDbEntity
  8
0
100
AcDbLine
 62
7
  6
BYLAYER
 10
58.0388153969
 20
65.8158719556
 11
58.0388153969
 21
65.6158719556
  0
LINE
  5
327
100
AcDbEntity
  8
0
100
AcDbLine
 62
7
  6
BYLAYER
 10
58.0388153969
 20
54.2158719556
 11
58.0388153969
 21
54.0158719556
  0
LINE
  5
328
100
AcDbEntity
  8
0
100
AcDbLine
 62
7
  6
BYLAYER
 10
55.8143343152
 20
82.148842621
 11
55.8128330972
 21
77.8488428831
  0
LINE
  5
329
100
AcDbEntity
  8
0
100
AcDbLine
 62
7
  6
BYLAYER
 10
55.9391932465
 20
81.7488155752
 11
55.9378316709
 21
77.8487992435
  0
LINE
  5
32A
100
AcDbEntity
  8
0
100
AcDbLine
 62
7
  6
BYLAYER
 10
56.1126061506
 20
77.1987381865
 11
56.1123792223
 21
76.5487382262
  0
LINE
  5
32B
100
AcDbEntity
  8
0
100
AcDbLine
 62
7
  6
BYLAYER
 10
56.6628330454
 20
77.8485461307
 11
56.6626061171
 21
77.1985461703
  0
LINE
  5
32C
100
AcDbEntity
  8
0
100
AcDbLine
 62
7
  6
BYLAYER
 10
56.9634091008
 20
79.498441294
 11
56.9636883972
 21
80.2984412452
  0
LINE
  5
32D
100
AcDbEntity
  8
0
100
AcDbLine
 62
7
  6
BYLAYER
 10
57.153688375
 20
80.2983749123
 11
57.1534090786
 21
79.4983749611
  0
LINE
  5
32E
100
AcDbEntity
  8
0
100
AcDbLine
 62
7
  6
BYLAYER
 10
57.5736883493
 20
80.2982282817
 11
57.573409053
 21
79.4982283305
  0
LINE
  5
32F
100
AcDbEntity
  8
0
100
AcDbLine
 62
7
  6
BYLAYER
 10
57.7634090521
 20
79.4981619976
 11
57.7636883484
 21
80.2981619489
  0
LINE
  5
330
100
AcDbEntity
  8
0
100
AcDbLine
 62
7
  6
BYLAYER
 10
58.0626060317
 20
77.1980574016
 11
58.06283296
 21
77.848057362
  0
LINE
  5
331
100
AcDbEntity
  8
0
100
AcDbLine
 62
7
  6
BYLAYER
 10
23.2620655075
 20
75.6515661567
 11
38.4620645812
 21
75.6462595257
  0
LINE
  5
332
100
AcDbEntity
  8
0
100
AcDbLine
 62
7
  6
BYLAYER
 10
63.2120645812
 20
75.6462595257
 11
48.0120655075
 21
75.6515661567
  0
LINE
  5
333
100
AcDbEntity
  8
0
100
AcDbLine
 62
7
  6
BYLAYER
 10
76.118803289
 20
75.6462877119
 11
67.9188037888
 21
75.6491504997
  0
LINE
  5
334
100
AcDbEntity
  8
0
100
AcDbLine
 62
7
  6
BYLAYER
 10
24.3623796489
 20
76.5511820694
 11
26.8623794965
 21
76.5503092682
  0
LINE
  5
335
100
AcDbEntity
  8
0
100
AcDbLine
 62
7
  6
BYLAYER
 10
27.8623794356
 20
76.5499601478
 11
30.3623792832
 21
76.5490873466
  0
LINE
  5
336
100
AcDbEntity
  8
0
100
AcDbLine
 62
7
  6
BYLAYER
 10
31.3623792223
 20
76.5487382262
 11
33.8623790699
 21
76.547865425
  0
LINE
  5
337
100
AcDbEntity
  8
0
100
AcDbLine
 62
7
  6
BYLAYER
 10
34.862379009
 20
76.5475163045
 11
37.3623788566
 21
76.5466435034
  0
LINE
  5
338
100
AcDbEntity
  8
0
100
AcDbLine
 62
7
  6
BYLAYER
 10
49.1123796489
 20
76.5511820694
 11
51.6123794965
 21
76.5503092682
  0
LINE
  5
339
100
AcDbEntity
  8
0
100
AcDbLine
 62
7
  6
BYLAYER
 10
52.6123794356
 20
76.5499601478
 11
55.1123792832
 21
76.5490873466
  0
LINE
  5
33A
100
AcDbEntity
  8
0
100
AcDbLine
 62
7
  6
BYLAYER
 10
56.1123792223
 20
76.5487382262
 11
58.6123790699
 21
76.547865425
  0
LINE
  5
33B
100
AcDbEntity
  8
0
100
AcDbLine
 62
7
  6
BYLAYER
 10
59.612379009
 20
76.5475163045
 11
62.1123788566
 21
76.5466435034
  0
LINE
  5
33C
100
AcDbEntity
  8
0
100
AcDbLine
 62
7
  6
BYLAYER
 10
69.0191179301
 20
76.5487664123
 11
71.5191177778
 21
76.5478936112
  0
LINE
  5
33D
100
AcDbEntity
  8
0
100
AcDbLine
 62
7
  6
BYLAYER
 10
72.5191177168
 20
76.5475444907
 11
75.0191175645
 21
76.5466716896
  0
LINE
  5
33E
100
AcDbEntity
  8
0
100
AcDbLine
 62
7
  6
BYLAYER
 10
35.4126059038
 20
77.1973242487
 11
34.8626059373
 21
77.1975162649
  0
LINE
  5
33F
100
AcDbEntity
  8
0
100
AcDbLine
 62
7
  6
BYLAYER
 10
33.8626059982
 20
77.1978653854
 11
33.3126060317
 21
77.1980574016
  0
LINE
  5
340
100
AcDbEntity
  8
0
100
AcDbLine
 62
7
  6
BYLAYER
 10
31.9126061171
 20
77.1985461703
 11
31.3626061506
 21
77.1987381865
  0
LINE
  5
341
100
AcDbEntity
  8
0
100
AcDbLine
 62
7
  6
BYLAYER
 10
30.3626062115
 20
77.199087307
 11
29.812606245
 21
77.1992793232
  0
LINE
  5
342
100
AcDbEntity
  8
0
100
AcDbLine
 62
7
  6
BYLAYER
 10
28.4126063304
 20
77.1997680919
 11
27.8626063639
 21
77.1999601081
  0
LINE
  5
343
100
AcDbEntity
  8
0
100
AcDbLine
 62
7
  6
BYLAYER
 10
26.8626064248
 20
77.2003092286
 11
26.3126064583
 21
77.2005012449
  0
LINE
  5
344
100
AcDbEntity
  8
0
100
AcDbLine
 62
7
  6
BYLAYER
 10
24.3626065772
 20
77.2011820298
 11
24.9126065437
 21
77.2009900135
  0
LINE
  5
345
100
AcDbEntity
  8
0
100
AcDbLine
 62
7
  6
BYLAYER
 10
36.8126058184
 20
77.19683548
 11
37.3626057849
 21
77.1966434638
  0
LINE
  5
346
100
AcDbEntity
  8
0
100
AcDbLine
 62
7
  6
BYLAYER
 10
60.1626059038
 20
77.1973242487
 11
59.6126059373
 21
77.1975162649
  0
LINE
  5
347
100
AcDbEntity
  8
0
100
AcDbLine
 62
7
  6
BYLAYER
 10
58.6126059982
 20
77.1978653854
 11
58.0626060317
 21
77.1980574016
  0
LINE
  5
348
100
AcDbEntity
  8
0
100
AcDbLine
 62
7
  6
BYLAYER
 10
56.6626061171
 20
77.1985461703
 11
56.1126061506
 21
77.1987381865
  0
LINE
  5
349
100
AcDbEntity
  8
0
100
AcDbLine
 62
7
  6
BYLAYER
 10
55.1126062115
 20
77.199087307
 11
54.562606245
 21
77.1992793232
  0
LINE
  5
34A
100
AcDbEntity
  8
0
100
AcDbLine
 62
7
  6
BYLAYER
 10
53.1626063304
 20
77.1997680919
 11
52.6126063639
 21
77.1999601081
  0
LINE
  5
34B
100
AcDbEntity
  8
0
100
AcDbLine
 62
7
  6
BYLAYER
 10
51.6126064248
 20
77.2003092286
 11
51.0626064583
 21
77.2005012449
  0
LINE
  5
34C
100
AcDbEntity
  8
0
100
AcDbLine
 62
7
  6
BYLAYER
 10
49.1126065772
 20
77.2011820298
 11
49.6626065437
 21
77.2009900135
  0
LINE
  5
34D
100
AcDbEntity
  8
0
100
AcDbLine
 62
7
  6
BYLAYER
 10
61.5626058184
 20
77.19683548
 11
62.1126057849
 21
77.1966434638
  0
LINE
  5
34E
100
AcDbEntity
  8
0
100
AcDbLine
 62
7
  6
BYLAYER
 10
73.0693446116
 20
77.1973524349
 11
72.5193446451
 21
77.1975444511
  0
LINE
  5
34F
100
AcDbEntity
  8
0
100
AcDbLine
 62
7
  6
BYLAYER
 10
71.5193447061
 20
77.1978935716
 11
70.9693447396
 21
77.1980855878
  0
LINE
  5
350
100
AcDbEntity
  8
0
100
AcDbLine
 62
7
  6
BYLAYER
 10
69.0193448584
 20
77.1987663727
 11
69.5693448249
 21
77.1985743565
  0
LINE
  5
351
100
AcDbEntity
  8
0
100
AcDbLine
 62
7
  6
BYLAYER
 10
74.4693445263
 20
77.1968636662
 11
75.0193444928
 21
77.19667165
  0
LINE
  5
352
100
AcDbEntity
  8
0
100
AcDbLine
 62
7
  6
BYLAYER
 10
60.9888153969
 20
67.8158719556
 11
60.9888153969
 21
65.8158719556
  0
LINE
  5
353
100
AcDbEntity
  8
0
100
AcDbLine
 62
7
  6
BYLAYER
 10
60.9888153969
 20
54.0158719556
 11
60.9888153969
 21
52.0158719556
  0
LINE
  5
354
100
AcDbEntity
  8
0
100
AcDbLine
 62
7
  6
BYLAYER
 10
58.6123790699
 20
76.547865425
 11
58.6126059982
 21
77.1978653854
  0
LINE
  5
355
100
AcDbEntity
  8
0
100
AcDbLine
 62
7
  6
BYLAYER
 10
58.7878344967
 20
77.8478042492
 11
58.7891960723
 21
81.7478205268
  0
LINE
  5
356
100
AcDbEntity
  8
0
100
AcDbLine
 62
7
  6
BYLAYER
 10
58.9128329082
 20
77.8477606096
 11
58.9143341262
 21
82.1477603476
  0
LINE
  5
357
100
AcDbEntity
  8
0
100
AcDbLine
 62
7
  6
BYLAYER
 10
59.3143341018
 20
82.1476206994
 11
59.3128328839
 21
77.8476209615
  0
LINE
  5
358
100
AcDbEntity
  8
0
100
AcDbLine
 62
7
  6
BYLAYER
 10
59.4391930332
 20
81.7475936535
 11
59.4378314576
 21
77.8475773219
  0
LINE
  5
359
100
AcDbEntity
  8
0
100
AcDbLine
 62
7
  6
BYLAYER
 10
59.6126059373
 20
77.1975162649
 11
59.612379009
 21
76.5475163045
  0
LINE
  5
35A
100
AcDbEntity
  8
0
100
AcDbLine
 62
7
  6
BYLAYER
 10
60.1628328321
 20
77.8473242091
 11
60.1626059038
 21
77.1973242487
  0
LINE
  5
35B
100
AcDbEntity
  8
0
100
AcDbLine
 62
7
  6
BYLAYER
 10
60.4634088875
 20
79.4972193724
 11
60.4636881839
 21
80.2972193236
  0
LINE
  5
35C
100
AcDbEntity
  8
0
100
AcDbLine
 62
7
  6
BYLAYER
 10
60.6536881617
 20
80.2971529907
 11
60.6534088653
 21
79.4971530395
  0
LINE
  5
35D
100
AcDbEntity
  8
0
100
AcDbLine
 62
7
  6
BYLAYER
 10
61.073688136
 20
80.2970063601
 11
61.0734088397
 21
79.4970064089
  0
LINE
  5
35E
100
AcDbEntity
  8
0
100
AcDbLine
 62
7
  6
BYLAYER
 10
61.2634088388
 20
79.496940076
 11
61.2636881351
 21
80.2969400272
  0
LINE
  5
35F
100
AcDbEntity
  8
0
100
AcDbLine
 62
7
  6
BYLAYER
 10
61.5628327467
 20
77.8468354404
 11
61.5626058184
 21
77.19683548
  0
LINE
  5
360
100
AcDbEntity
  8
0
100
AcDbLine
 62
7
  6
BYLAYER
 10
81.1638153969
 20
79.0076143106
 11
79.6638153969
 21
79.0076143106
  0
LINE
  5
361
100
AcDbEntity
  8
0
100
AcDbLine
 62
7
  6
BYLAYER
 10
11.6638153969
 20
79.0076143106
 11
10.1638153969
 21
79.0076143106
  0
LINE
  5
362
100
AcDbEntity
  8
0
100
AcDbLine
 62
7
  6
BYLAYER
 10
37.8628326828
 20
77.8464688639
 11
36.8128327467
 21
77.8468354404
  0
LINE
  5
363
100
AcDbEntity
  8
0
100
AcDbLine
 62
7
  6
BYLAYER
 10
24.912833472
 20
77.8509899739
 11
23.862833536
 21
77.8513565504
  0
LINE
  5
364
100
AcDbEntity
  8
0
100
AcDbLine
 62
7
  6
BYLAYER
 10
26.3128333866
 20
77.8505012053
 11
27.1628333348
 21
77.8502044529
  0
LINE
  5
365
100
AcDbEntity
  8
0
100
AcDbLine
 62
7
  6
BYLAYER
 10
27.5628333105
 20
77.8500648047
 11
28.4128332587
 21
77.8497680523
  0
LINE
  5
366
100
AcDbEntity
  8
0
100
AcDbLine
 62
7
  6
BYLAYER
 10
29.8128331733
 20
77.8492792836
 11
30.6628331215
 21
77.8489825312
  0
LINE
  5
367
100
AcDbEntity
  8
0
100
AcDbLine
 62
7
  6
BYLAYER
 10
31.0628330972
 20
77.8488428831
 11
31.9128330454
 21
77.8485461307
  0
LINE
  5
368
100
AcDbEntity
  8
0
100
AcDbLine
 62
7
  6
BYLAYER
 10
33.31283296
 20
77.848057362
 11
34.1628329082
 21
77.8477606096
  0
LINE
  5
369
100
AcDbEntity
  8
0
100
AcDbLine
 62
7
  6
BYLAYER
 10
34.5628328839
 20
77.8476209615
 11
35.4128328321
 21
77.8473242091
  0
LINE
  5
36A
100
AcDbEntity
  8
0
100
AcDbLine
 62
7
  6
BYLAYER
 10
62.6128326828
 20
77.8464688639
 11
61.5628327467
 21
77.8468354404
  0
LINE
  5
36B
100
AcDbEntity
  8
0
100
AcDbLine
 62
7
  6
BYLAYER
 10
49.662833472
 20
77.8509899739
 11
48.612833536
 21
77.8513565504
  0
LINE
  5
36C
100
AcDbEntity
  8
0
100
AcDbLine
 62
7
  6
BYLAYER
 10
51.0628333866
 20
77.8505012053
 11
51.9128333348
 21
77.8502044529
  0
LINE
  5
36D
100
AcDbEntity
  8
0
100
AcDbLine
 62
7
  6
BYLAYER
 10
52.3128333105
 20
77.8500648047
 11
53.1628332587
 21
77.8497680523
  0
LINE
  5
36E
100
AcDbEntity
  8
0
100
AcDbLine
 62
7
  6
BYLAYER
 10
54.5628331733
 20
77.8492792836
 11
55.4128331215
 21
77.8489825312
  0
LINE
  5
36F
100
AcDbEntity
  8
0
100
AcDbLine
 62
7
  6
BYLAYER
 10
55.8128330972
 20
77.8488428831
 11
56.6628330454
 21
77.8485461307
  0
LINE
  5
370
100
AcDbEntity
  8
0
100
AcDbLine
 62
7
  6
BYLAYER
 10
58.06283296
 20
77.848057362
 11
58.9128329082
 21
77.8477606096
  0
LINE
  5
371
100
AcDbEntity
  8
0
100
AcDbLine
 62
7
  6
BYLAYER
 10
59.3128328839
 20
77.8476209615
 11
60.1628328321
 21
77.8473242091
  0
LINE
  5
372
100
AcDbEntity
  8
0
100
AcDbLine
 62
7
  6
BYLAYER
 10
75.5195713906
 20
77.8464970501
 11
74.4695714546
 21
77.8468636266
  0
LINE
  5
373
100
AcDbEntity
  8
0
100
AcDbLine
 62
7
  6
BYLAYER
 10
69.5695717532
 20
77.8485743169
 11
68.5195718172
 21
77.8489408933
  0
LINE
  5
374
100
AcDbEntity
  8
0
100
AcDbLine
 62
7
  6
BYLAYER
 10
70.9695716679
 20
77.8480855482
 11
71.8195716161
 21
77.8477887958
  0
LINE
  5
375
100
AcDbEntity
  8
0
100
AcDbLine
 62
7
  6
BYLAYER
 10
72.2195715917
 20
77.8476491476
 11
73.0695715399
 21
77.8473523952
  0
LINE
  5
376
100
AcDbEntity
  8
0
100
AcDbLine
 62
7
  6
BYLAYER
 10
25.2134095274
 20
79.5008851372
 11
26.0134094787
 21
79.5006058408
  0
LINE
  5
377
100
AcDbEntity
  8
0
100
AcDbLine
 62
7
  6
BYLAYER
 10
28.7134093141
 20
79.4996632156
 11
29.5134092654
 21
79.4993839192
  0
LINE
  5
378
100
AcDbEntity
  8
0
100
AcDbLine
 62
7
  6
BYLAYER
 10
32.2134091008
 20
79.498441294
 11
33.0134090521
 21
79.4981619976
  0
LINE
  5
379
100
AcDbEntity
  8
0
100
AcDbLine
 62
7
  6
BYLAYER
 10
35.7134088875
 20
79.4972193724
 11
36.5134088388
 21
79.496940076
  0
LINE
  5
37A
100
AcDbEntity
  8
0
100
AcDbLine
 62
7
  6
BYLAYER
 10
49.9634095274
 20
79.5008851372
 11
50.7634094787
 21
79.5006058408
  0
LINE
  5
37B
100
AcDbEntity
  8
0
100
AcDbLine
 62
7
  6
BYLAYER
 10
53.4634093141
 20
79.4996632156
 11
54.2634092654
 21
79.4993839192
  0
LINE
  5
37C
100
AcDbEntity
  8
0
100
AcDbLine
 62
7
  6
BYLAYER
 10
56.9634091008
 20
79.498441294
 11
57.7634090521
 21
79.4981619976
  0
LINE
  5
37D
100
AcDbEntity
  8
0
100
AcDbLine
 62
7
  6
BYLAYER
 10
60.4634088875
 20
79.4972193724
 11
61.2634088388
 21
79.496940076
  0
LINE
  5
37E
100
AcDbEntity
  8
0
100
AcDbLine
 62
7
  6
BYLAYER
 10
69.8701478087
 20
79.4984694802
 11
70.6701477599
 21
79.4981901838
  0
LINE
  5
37F
100
AcDbEntity
  8
0
100
AcDbLine
 62
7
  6
BYLAYER
 10
73.3701475954
 20
79.4972475585
 11
74.1701475466
 21
79.4969682622
  0
LINE
  5
380
100
AcDbEntity
  8
0
100
AcDbLine
 62
7
  6
BYLAYER
 10
25.2136888238
 20
80.3008850884
 11
26.013688775
 21
80.3006057921
  0
LINE
  5
381
100
AcDbEntity
  8
0
100
AcDbLine
 62
7
  6
BYLAYER
 10
28.7136886105
 20
80.2996631668
 11
29.5136885617
 21
80.2993838705
  0
LINE
  5
382
100
AcDbEntity
  8
0
100
AcDbLine
 62
7
  6
BYLAYER
 10
32.2136883972
 20
80.2984412452
 11
33.0136883484
 21
80.2981619489
  0
LINE
  5
383
100
AcDbEntity
  8
0
100
AcDbLine
 62
7
  6
BYLAYER
 10
35.7136881839
 20
80.2972193236
 11
36.5136881351
 21
80.2969400272
  0
LINE
  5
384
100
AcDbEntity
  8
0
100
AcDbLine
 62
7
  6
BYLAYER
 10
49.9636888238
 20
80.3008850884
 11
50.763688775
 21
80.3006057921
  0
LINE
  5
385
100
AcDbEntity
  8
0
100
AcDbLine
 62
7
  6
BYLAYER
 10
53.4636886105
 20
80.2996631668
 11
54.2636885617
 21
80.2993838705
  0
LINE
  5
386
100
AcDbEntity
  8
0
100
AcDbLine
 62
7
  6
BYLAYER
 10
56.9636883972
 20
80.2984412452
 11
57.7636883484
 21
80.2981619489
  0
LINE
  5
387
100
AcDbEntity
  8
0
100
AcDbLine
 62
7
  6
BYLAYER
 10
60.4636881839
 20
80.2972193236
 11
61.2636881351
 21
80.2969400272
  0
LINE
  5
388
100
AcDbEntity
  8
0
100
AcDbLine
 62
7
  6
BYLAYER
 10
69.870427105
 20
80.2984694314
 11
70.6704270563
 21
80.298190135
  0
LINE
  5
389
100
AcDbEntity
  8
0
100
AcDbLine
 62
7
  6
BYLAYER
 10
73.3704268917
 20
80.2972475098
 11
74.170426843
 21
80.2969682134
  0
LINE
  5
38A
100
AcDbEntity
  8
0
100
AcDbLine
 62
7
  6
BYLAYER
 10
62.4138153969
 20
36.1240711063
 11
62.4138153969
 21
43.5158719556
  0
LINE
  5
38B
100
AcDbEntity
  8
0
100
AcDbLine
 62
7
  6
BYLAYER
 10
62.7888153969
 20
52.0158719556
 11
62.7888153969
 21
67.8158719556
  0
LINE
  5
38C
100
AcDbEntity
  8
0
100
AcDbLine
 62
7
  6
BYLAYER
 10
63.4138153969
 20
43.5158719556
 11
63.4138153969
 21
36.1240711063
  0
LINE
  5
38D
100
AcDbEntity
  8
0
100
AcDbLine
 62
7
  6
BYLAYER
 10
62.1126057849
 20
77.1966434638
 11
62.1123788566
 21
76.5466435034
  0
LINE
  5
38E
100
AcDbEntity
  8
0
100
AcDbLine
 62
7
  6
BYLAYER
 10
62.6128326828
 20
77.8464688639
 11
62.6143339007
 21
82.1464686019
  0
LINE
  5
38F
100
AcDbEntity
  8
0
100
AcDbLine
 62
7
  6
BYLAYER
 10
63.2120645812
 20
75.6462595257
 11
63.2145957045
 21
82.8962590839
  0
LINE
  5
390
100
AcDbEntity
  8
0
100
AcDbLine
 62
7
  6
BYLAYER
 10
79.6638153969
 20
82.9121946956
 11
11.6638153969
 21
82.9121946956
  0
LINE
  5
391
100
AcDbEntity
  8
0
100
AcDbLine
 62
7
  6
BYLAYER
 10
79.6638153969
 20
83.2150990833
 11
81.1638153969
 21
83.2152743194
  0
LINE
  5
392
100
AcDbEntity
  8
0
100
AcDbLine
 62
7
  6
BYLAYER
 10
10.1638153969
 20
83.2152743194
 11
11.6638153969
 21
83.2151055095
  0
LINE
  5
393
100
AcDbEntity
  8
0
100
AcDbLine
 62
7
  6
BYLAYER
 10
37.8641943336
 20
81.7464686263
 11
34.6891930274
 21
81.7475770842
  0
LINE
  5
394
100
AcDbEntity
  8
0
100
AcDbLine
 62
7
  6
BYLAYER
 10
34.0391960665
 20
81.7478040115
 11
31.1891932407
 21
81.7487990058
  0
LINE
  5
395
100
AcDbEntity
  8
0
100
AcDbLine
 62
7
  6
BYLAYER
 10
30.5391962798
 20
81.7490259331
 11
27.689193454
 21
81.7500209275
  0
LINE
  5
396
100
AcDbEntity
  8
0
100
AcDbLine
 62
7
  6
BYLAYER
 10
27.0391964931
 20
81.7502478547
 11
23.8641951868
 21
81.7513563127
  0
LINE
  5
397
100
AcDbEntity
  8
0
100
AcDbLine
 62
7
  6
BYLAYER
 10
62.6141943336
 20
81.7464686263
 11
59.4391930274
 21
81.7475770842
  0
LINE
  5
398
100
AcDbEntity
  8
0
100
AcDbLine
 62
7
  6
BYLAYER
 10
58.7891960665
 20
81.7478040115
 11
55.9391932407
 21
81.7487990059
  0
LINE
  5
399
100
AcDbEntity
  8
0
100
AcDbLine
 62
7
  6
BYLAYER
 10
55.2891962798
 20
81.7490259331
 11
52.439193454
 21
81.7500209275
  0
LINE
  5
39A
100
AcDbEntity
  8
0
100
AcDbLine
 62
7
  6
BYLAYER
 10
51.7891964931
 20
81.7502478547
 11
48.6141951868
 21
81.7513563127
  0
LINE
  5
39B
100
AcDbEntity
  8
0
100
AcDbLine
 62
7
  6
BYLAYER
 10
75.5209330415
 20
81.7464968124
 11
72.3459317352
 21
81.7476052704
  0
LINE
  5
39C
100
AcDbEntity
  8
0
100
AcDbLine
 62
7
  6
BYLAYER
 10
71.6959347743
 20
81.7478321977
 11
68.5209334681
 21
81.7489406557
  0
LINE
  5
39D
100
AcDbEntity
  8
0
100
AcDbLine
 62
7
  6
BYLAYER
 10
23.8643347539
 20
82.1513562883
 11
24.6978195641
 21
82.1510653017
  0
LINE
  5
39E
100
AcDbEntity
  8
0
100
AcDbLine
 62
7
  6
BYLAYER
 10
26.5308497304
 20
82.1504253533
 11
27.1643345528
 21
82.1502041908
  0
LINE
  5
39F
100
AcDbEntity
  8
0
100
AcDbLine
 62
7
  6
BYLAYER
 10
27.5643345284
 20
82.1500645426
 11
28.1978193509
 21
82.1498433801
  0
LINE
  5
3A0
100
AcDbEntity
  8
0
100
AcDbLine
 62
7
  6
BYLAYER
 10
30.0308495171
 20
82.1492034317
 11
30.6643343395
 21
82.1489822692
  0
LINE
  5
3A1
100
AcDbEntity
  8
0
100
AcDbLine
 62
7
  6
BYLAYER
 10
31.0643343151
 20
82.148842621
 11
31.6978191376
 21
82.1486214585
  0
LINE
  5
3A2
100
AcDbEntity
  8
0
100
AcDbLine
 62
7
  6
BYLAYER
 10
33.5308493038
 20
82.1479815101
 11
34.1643341262
 21
82.1477603476
  0
LINE
  5
3A3
100
AcDbEntity
  8
0
100
AcDbLine
 62
7
  6
BYLAYER
 10
34.5643341018
 20
82.1476206994
 11
35.1978189243
 21
82.1473995369
  0
LINE
  5
3A4
100
AcDbEntity
  8
0
100
AcDbLine
 62
7
  6
BYLAYER
 10
37.0308490905
 20
82.1467595885
 11
37.8643339007
 21
82.1464686019
  0
LINE
  5
3A5
100
AcDbEntity
  8
0
100
AcDbLine
 62
7
  6
BYLAYER
 10
48.6143347539
 20
82.1513562883
 11
49.4478195641
 21
82.1510653017
  0
LINE
  5
3A6
100
AcDbEntity
  8
0
100
AcDbLine
 62
7
  6
BYLAYER
 10
51.2808497304
 20
82.1504253533
 11
51.9143345528
 21
82.1502041908
  0
LINE
  5
3A7
100
AcDbEntity
  8
0
100
AcDbLine
 62
7
  6
BYLAYER
 10
52.3143345284
 20
82.1500645426
 11
52.9478193509
 21
82.1498433801
  0
LINE
  5
3A8
100
AcDbEntity
  8
0
100
AcDbLine
 62
7
  6
BYLAYER
 10
54.7808495171
 20
82.1492034317
 11
55.4143343395
 21
82.1489822692
  0
LINE
  5
3A9
100
AcDbEntity
  8
0
100
AcDbLine
 62
7
  6
BYLAYER
 10
55.8143343151
 20
82.148842621
 11
56.4478191376
 21
82.1486214585
  0
LINE
  5
3AA
100
AcDbEntity
  8
0
100
AcDbLine
 62
7
  6
BYLAYER
 10
58.2808493038
 20
82.1479815101
 11
58.9143341262
 21
82.1477603476
  0
LINE
  5
3AB
100
AcDbEntity
  8
0
100
AcDbLine
 62
7
  6
BYLAYER
 10
59.3143341018
 20
82.1476206994
 11
59.9478189243
 21
82.1473995369
  0
LINE
  5
3AC
100
AcDbEntity
  8
0
100
AcDbLine
 62
7
  6
BYLAYER
 10
61.7808490905
 20
82.1467595885
 11
62.6143339007
 21
82.1464686019
  0
LINE
  5
3AD
100
AcDbEntity
  8
0
100
AcDbLine
 62
7
  6
BYLAYER
 10
68.5210730352
 20
82.1489406313
 11
69.3545578454
 21
82.1486496447
  0
LINE
  5
3AE
100
AcDbEntity
  8
0
100
AcDbLine
 62
7
  6
BYLAYER
 10
71.1875880117
 20
82.1480096963
 11
71.8210728341
 21
82.1477885338
  0
LINE
  5
3AF
100
AcDbEntity
  8
0
100
AcDbLine
 62
7
  6
BYLAYER
 10
72.2210728097
 20
82.1476488856
 11
72.8545576321
 21
82.1474277231
  0
LINE
  5
3B0
100
AcDbEntity
  8
0
100
AcDbLine
 62
7
  6
BYLAYER
 10
74.6875877984
 20
82.1467877747
 11
75.5210726086
 21
82.1464967881
  0
LINE
  5
3B1
100
AcDbEntity
  8
0
100
AcDbLine
 62
7
  6
BYLAYER
 10
38.4645957045
 20
82.8962590839
 11
23.2645966308
 21
82.9015657149
  0
LINE
  5
3B2
100
AcDbEntity
  8
0
100
AcDbLine
 62
7
  6
BYLAYER
 10
48.0145966309
 20
82.9015657149
 11
63.2145957045
 21
82.8962590839
  0
LINE
  5
3B3
100
AcDbEntity
  8
0
100
AcDbLine
 62
7
  6
BYLAYER
 10
76.1213344124
 20
82.8962872701
 11
67.9213349121
 21
82.8991500579
  0
LINE
  5
3B4
100
AcDbEntity
  8
0
100
AcDbLine
 62
7
  6
BYLAYER
 10
64.7888153969
 20
54.5158719556
 11
64.7888153969
 21
65.3158719556
  0
LINE
  5
3B5
100
AcDbEntity
  8
0
100
AcDbLine
 62
7
  6
BYLAYER
 10
64.9888153969
 20
65.3158719556
 11
64.9888153969
 21
54.5158719556
  0
LINE
  5
3B6
100
AcDbEntity
  8
0
100
AcDbLine
 62
7
  6
BYLAYER
 10
65.2888153969
 20
65.8158719556
 11
65.2888153969
 21
65.6158719556
  0
LINE
  5
3B7
100
AcDbEntity
  8
0
100
AcDbLine
 62
7
  6
BYLAYER
 10
65.2888153969
 20
54.2158719556
 11
65.2888153969
 21
54.0158719556
  0
LINE
  5
3B8
100
AcDbEntity
  8
0
100
AcDbLine
 62
7
  6
BYLAYER
 10
80.069895296
 20
92.0713788832
 11
80.0705041141
 21
92.0728549294
  0
LINE
  5
3B9
100
AcDbEntity
  8
0
100
AcDbLine
 62
7
  6
BYLAYER
 10
81.1638153969
 20
83.9405632871
 11
79.6638153969
 21
83.9405632872
  0
LINE
  5
3BA
100
AcDbEntity
  8
0
100
AcDbLine
 62
7
  6
BYLAYER
 10
11.6638153969
 20
83.9405632872
 11
10.1638153969
 21
83.9405632871
  0
LINE
  5
3BB
100
AcDbEntity
  8
0
100
AcDbLine
 62
7
  6
BYLAYER
 10
68.2388153969
 20
67.8158719556
 11
68.2388153969
 21
65.8158719556
  0
LINE
  5
3BC
100
AcDbEntity
  8
0
100
AcDbLine
 62
7
  6
BYLAYER
 10
68.2388153969
 20
54.0158719556
 11
68.2388153969
 21
52.0158719556
  0
LINE
  5
3BD
100
AcDbEntity
  8
0
100
AcDbLine
 62
7
  6
BYLAYER
 10
70.0388153969
 20
52.0158719556
 11
70.0388153969
 21
67.8158719556
  0
LINE
  5
3BE
100
AcDbEntity
  8
0
100
AcDbLine
 62
7
  6
BYLAYER
 10
67.9213349121
 20
82.8991500579
 11
67.9188037888
 21
75.6491504997
  0
LINE
  5
3BF
100
AcDbEntity
  8
0
100
AcDbLine
 62
7
  6
BYLAYER
 10
68.5210730352
 20
82.1489406313
 11
68.5195718172
 21
77.8489408933
  0
LINE
  5
3C0
100
AcDbEntity
  8
0
100
AcDbLine
 62
7
  6
BYLAYER
 10
69.0191179301
 20
76.5487664123
 11
69.0193448584
 21
77.1987663727
  0
LINE
  5
3C1
100
AcDbEntity
  8
0
100
AcDbLine
 62
7
  6
BYLAYER
 10
69.5693448249
 20
77.1985743565
 11
69.5695717532
 21
77.8485743169
  0
LINE
  5
3C2
100
AcDbEntity
  8
0
100
AcDbLine
 62
7
  6
BYLAYER
 10
69.8701478087
 20
79.4984694802
 11
69.870427105
 21
80.2984694314
  0
LINE
  5
3C3
100
AcDbEntity
  8
0
100
AcDbLine
 62
7
  6
BYLAYER
 10
70.0604270828
 20
80.2984030985
 11
70.0601477864
 21
79.4984031473
  0
LINE
  5
3C4
100
AcDbEntity
  8
0
100
AcDbLine
 62
7
  6
BYLAYER
 10
70.4804270572
 20
80.2982564679
 11
70.4801477608
 21
79.4982565167
  0
LINE
  5
3C5
100
AcDbEntity
  8
0
100
AcDbLine
 62
7
  6
BYLAYER
 10
70.6701477599
 20
79.4981901838
 11
70.6704270563
 21
80.298190135
  0
LINE
  5
3C6
100
AcDbEntity
  8
0
100
AcDbLine
 62
7
  6
BYLAYER
 10
70.9693447396
 20
77.1980855878
 11
70.9695716679
 21
77.8480855482
  0
LINE
  5
3C7
100
AcDbEntity
  8
0
100
AcDbLine
 62
7
  6
BYLAYER
 10
79.6638153969
 20
88.1286389662
 11
11.6638153969
 21
88.1286389662
  0
LINE
  5
3C8
100
AcDbEntity
  8
0
100
AcDbLine
 62
7
  6
BYLAYER
 10
37.9138153969
 20
89.4158719556
 11
53.4138153969
 21
89.4158719556
  0
LINE
  5
3C9
100
AcDbEntity
  8
0
100
AcDbLine
 62
7
  6
BYLAYER
 10
72.0388153969
 20
54.5158719556
 11
72.0388153969
 21
65.3158719556
  0
LINE
  5
3CA
100
AcDbEntity
  8
0
100
AcDbLine
 62
7
  6
BYLAYER
 10
72.2388153969
 20
65.3158719556
 11
72.2388153969
 21
54.5158719556
  0
LINE
  5
3CB
100
AcDbEntity
  8
0
100
AcDbLine
 62
7
  6
BYLAYER
 10
72.5388153969
 20
65.8158719556
 11
72.5388153969
 21
65.6158719556
  0
LINE
  5
3CC
100
AcDbEntity
  8
0
100
AcDbLine
 62
7
  6
BYLAYER
 10
72.5388153969
 20
54.2158719556
 11
72.5388153969
 21
54.0158719556
  0
LINE
  5
3CD
100
AcDbEntity
  8
0
100
AcDbLine
 62
7
  6
BYLAYER
 10
71.5191177778
 20
76.5478936112
 11
71.5193447061
 21
77.1978935716
  0
LINE
  5
3CE
100
AcDbEntity
  8
0
100
AcDbLine
 62
7
  6
BYLAYER
 10
71.6959347743
 20
81.7478321977
 11
71.6945732045
 21
77.8478324354
  0
LINE
  5
3CF
100
AcDbEntity
  8
0
100
AcDbLine
 62
7
  6
BYLAYER
 10
71.8195716161
 20
77.8477887958
 11
71.8210728341
 21
82.1477885338
  0
LINE
  5
3D0
100
AcDbEntity
  8
0
100
AcDbLine
 62
7
  6
BYLAYER
 10
72.2210728097
 20
82.1476488856
 11
72.2195715917
 21
77.8476491476
  0
LINE
  5
3D1
100
AcDbEntity
  8
0
100
AcDbLine
 62
7
  6
BYLAYER
 10
72.345931742
 20
81.7476246295
 11
72.3445701654
 21
77.8476055081
  0
LINE
  5
3D2
100
AcDbEntity
  8
0
100
AcDbLine
 62
7
  6
BYLAYER
 10
72.5193446451
 20
77.1975444511
 11
72.5191177168
 21
76.5475444907
  0
LINE
  5
3D3
100
AcDbEntity
  8
0
100
AcDbLine
 62
7
  6
BYLAYER
 10
73.0695715399
 20
77.8473523952
 11
73.0693446116
 21
77.1973524349
  0
LINE
  5
3D4
100
AcDbEntity
  8
0
100
AcDbLine
 62
7
  6
BYLAYER
 10
73.3701475954
 20
79.4972475585
 11
73.3704268917
 21
80.2972475098
  0
LINE
  5
3D5
100
AcDbEntity
  8
0
100
AcDbLine
 62
7
  6
BYLAYER
 10
73.5604268695
 20
80.2971811769
 11
73.5601475731
 21
79.4971812257
  0
LINE
  5
3D6
100
AcDbEntity
  8
0
100
AcDbLine
 62
7
  6
BYLAYER
 10
73.9804268439
 20
80.2970345463
 11
73.9801475475
 21
79.4970345951
  0
LINE
  5
3D7
100
AcDbEntity
  8
0
100
AcDbLine
 62
7
  6
BYLAYER
 10
80.1211167796
 20
93.7022082613
 11
79.9295882842
 21
93.6927307903
  0
LINE
  5
3D8
100
AcDbEntity
  8
0
100
AcDbLine
 62
7
  6
BYLAYER
 10
79.9295882842
 20
93.6927307903
 11
79.604982892
 21
93.686830966
  0
LINE
  5
3D9
100
AcDbEntity
  8
0
100
AcDbLine
 62
7
  6
BYLAYER
 10
11.1638153969
 20
92.4649127984
 11
10.1638153969
 21
92.4645123758
  0
LINE
  5
3DA
100
AcDbEntity
  8
0
100
AcDbLine
 62
7
  6
BYLAYER
 10
79.5638153969
 20
91.7647907599
 11
76.5638153969
 21
91.7647907599
  0
LINE
  5
3DB
100
AcDbEntity
  8
0
100
AcDbLine
 62
7
  6
BYLAYER
 10
79.5638153969
 20
91.8655661855
 11
76.5638153969
 21
91.8655661855
  0
LINE
  5
3DC
100
AcDbEntity
  8
0
100
AcDbLine
 62
7
  6
BYLAYER
 10
39.9138153969
 20
91.9158719556
 11
37.9138153969
 21
91.9158719556
  0
LINE
  5
3DD
100
AcDbEntity
  8
0
100
AcDbLine
 62
7
  6
BYLAYER
 10
51.4138153969
 20
91.9158719556
 11
53.4138153969
 21
91.9158719556
  0
LINE
  5
3DE
100
AcDbEntity
  8
0
100
AcDbLine
 62
7
  6
BYLAYER
 10
11.1638153969
 20
92.5333694601
 11
10.1638153969
 21
92.5333694601
  0
LINE
  5
3DF
100
AcDbEntity
  8
0
100
AcDbLine
 62
7
  6
BYLAYER
 10
12.5638153969
 20
92.8687938343
 11
13.7638153969
 21
92.8687938343
  0
LINE
  5
3E0
100
AcDbEntity
  8
0
100
AcDbLine
 62
7
  6
BYLAYER
 10
75.4888153969
 20
67.8158719556
 11
75.4888153969
 21
65.8158719556
  0
LINE
  5
3E1
100
AcDbEntity
  8
0
100
AcDbLine
 62
7
  6
BYLAYER
 10
75.4888153969
 20
54.0158719556
 11
75.4888153969
 21
52.0158719556
  0
LINE
  5
3E2
100
AcDbEntity
  8
0
100
AcDbLine
 62
7
  6
BYLAYER
 10
75.5638153969
 20
92.4643941944
 11
75.5638153969
 21
93.9818501169
  0
LINE
  5
3E3
100
AcDbEntity
  8
0
100
AcDbLine
 62
7
  6
BYLAYER
 10
76.0638153969
 20
92.065734968
 11
76.0638153969
 21
93.4817338379
  0
LINE
  5
3E4
100
AcDbEntity
  8
0
100
AcDbLine
 62
7
  6
BYLAYER
 10
76.0638154001
 20
92.0333007536
 11
76.0638153969
 21
92.0333694619
  0
LINE
  5
3E5
100
AcDbEntity
  8
0
100
AcDbLine
 62
7
  6
BYLAYER
 10
76.5638153969
 20
93.6868340732
 11
76.5638153969
 21
91.7647907599
  0
LINE
  5
3E6
100
AcDbEntity
  8
0
100
AcDbLine
 62
7
  6
BYLAYER
 10
74.1701475466
 20
79.4969682622
 11
74.170426843
 21
80.2969682134
  0
LINE
  5
3E7
100
AcDbEntity
  8
0
100
AcDbLine
 62
7
  6
BYLAYER
 10
74.4695714546
 20
77.8468636266
 11
74.4693445263
 21
77.1968636662
  0
LINE
  5
3E8
100
AcDbEntity
  8
0
100
AcDbLine
 62
7
  6
BYLAYER
 10
75.0193444928
 20
77.19667165
 11
75.0191175645
 21
76.5466716896
  0
LINE
  5
3E9
100
AcDbEntity
  8
0
100
AcDbLine
 62
7
  6
BYLAYER
 10
75.5195713906
 20
77.8464970501
 11
75.5210726086
 21
82.1464967881
  0
LINE
  5
3EA
100
AcDbEntity
  8
0
100
AcDbLine
 62
7
  6
BYLAYER
 10
76.118803289
 20
75.6462877119
 11
76.1213344124
 21
82.8962872701
  0
LINE
  5
3EB
100
AcDbEntity
  8
0
100
AcDbLine
 62
7
  6
BYLAYER
 10
80.0638153969
 20
93.4441708485
 11
80.2642733855
 21
93.4443306587
  0
LINE
  5
3EC
100
AcDbEntity
  8
0
100
AcDbLine
 62
7
  6
BYLAYER
 10
53.4138153969
 20
93.1804760627
 11
51.4138153969
 21
93.1804760627
  0
LINE
  5
3ED
100
AcDbEntity
  8
0
100
AcDbLine
 62
7
  6
BYLAYER
 10
79.5638153969
 20
93.1868340732
 11
76.5638153969
 21
93.1868340732
  0
LINE
  5
3EE
100
AcDbEntity
  8
0
100
AcDbLine
 62
7
  6
BYLAYER
 10
10.1638559888
 20
93.2680194283
 11
9.6638153969
 21
93.2680194283
  0
LINE
  5
3EF
100
AcDbEntity
  8
0
100
AcDbLine
 62
7
  6
BYLAYER
 10
81.6638153969
 20
93.4450478925
 11
81.2894281666
 21
93.4450478925
  0
LINE
  5
3F0
100
AcDbEntity
  8
0
100
AcDbLine
 62
7
  6
BYLAYER
 10
81.1638153969
 20
93.4512785312
 11
80.5638153969
 21
93.4512785312
  0
LINE
  5
3F1
100
AcDbEntity
  8
0
100
AcDbLine
 62
7
  6
BYLAYER
 10
81.1638153969
 20
93.4753954214
 11
80.4137695902
 21
93.4753954214
  0
LINE
  5
3F2
100
AcDbEntity
  8
0
100
AcDbLine
 62
7
  6
BYLAYER
 10
12.5638153969
 20
93.53212162
 11
11.1638153969
 21
93.53212162
  0
LINE
  5
3F3
100
AcDbEntity
  8
0
100
AcDbLine
 62
7
  6
BYLAYER
 10
12.5638153969
 20
93.5525638244
 11
11.1638153969
 21
93.5525638244
  0
LINE
  5
3F4
100
AcDbEntity
  8
0
100
AcDbLine
 62
7
  6
BYLAYER
 10
10.1638153969
 20
93.7680194283
 11
11.1638153969
 21
93.7680194283
  0
LINE
  5
3F5
100
AcDbEntity
  8
0
100
AcDbLine
 62
7
  6
BYLAYER
 10
13.7638153969
 20
93.8110983618
 11
12.5638153969
 21
93.8110983618
  0
LINE
  5
3F6
100
AcDbEntity
  8
0
100
AcDbLine
 62
7
  6
BYLAYER
 10
80.5229478447
 20
93.9450478925
 11
81.1638153969
 21
93.9450478925
  0
LINE
  5
3F7
100
AcDbEntity
  8
0
100
AcDbLine
 62
7
  6
BYLAYER
 10
11.1638153969
 20
93.9630323434
 11
12.5638153969
 21
93.9630323434
  0
LINE
  5
3F8
100
AcDbEntity
  8
0
100
AcDbLine
 62
7
  6
BYLAYER
 10
75.5638153969
 20
93.9818501169
 11
51.4138153969
 21
93.9818501169
  0
LINE
  5
3F9
100
AcDbEntity
  8
0
100
AcDbLine
 62
7
  6
BYLAYER
 10
39.9138153969
 20
93.9818501169
 11
13.7638153969
 21
93.9818501169
  0
LINE
  5
3FA
100
AcDbEntity
  8
0
100
AcDbLine
 62
7
  6
BYLAYER
 10
12.6638153969
 20
94.4158719556
 11
78.6638153969
 21
94.4158719556
  0
LINE
  5
3FB
100
AcDbEntity
  8
0
100
AcDbLine
 62
7
  6
BYLAYER
 10
37.9138153969
 20
93.1805722228
 11
39.9138153969
 21
93.1804760627
  0
LINE
  5
3FC
100
AcDbEntity
  8
0
100
AcDbLine
 62
7
  6
BYLAYER
 10
10.1638898155
 20
93.2680139287
 11
11.1638153969
 21
93.2660583013
  0
LWPOLYLINE
  5
3FD
100
AcDbEntity
  8
0
100
AcDbPolyline
 62
7
  6
BYLAYER
 90
4
 70
0
 10
79.604982892
 20
93.686830966
 10
76.5203585908
 20
93.6868371647
 10
76.1705766338
 20
93.6935517114
 10
75.9716394633
 20
93.7043825057
  0
LWPOLYLINE
  5
3FE
100
AcDbEntity
  8
0
100
AcDbPolyline
 62
7
  6
BYLAYER
 90
4
 70
0
 10
76.5638153969
 20
91.8653365894
 10
76.3777598205
 20
91.886696267
 10
76.1269702023
 20
92.0000665026
 10
76.0616933169
 20
92.065734968
  0
LINE
  5
3FF
100
AcDbEntity
  8
0
100
AcDbLine
 62
7
  6
BYLAYER
 10
77.2888153969
 20
52.0158719556
 11
77.2888153969
 21
67.8158719556
  0
LINE
  5
400
100
AcDbEntity
  8
0
100
AcDbLine
 62
7
  6
BYLAYER
 10
78.6638153969
 20
93.6868340732
 11
78.6638153969
 21
94.4158719556
  0
LINE
  5
401
100
AcDbEntity
  8
0
100
AcDbLine
 62
7
  6
BYLAYER
 10
79.5638153969
 20
91.7647907599
 11
79.5638153969
 21
93.6868340732
  0
LINE
  5
402
100
AcDbEntity
  8
0
100
AcDbLine
 62
7
  6
BYLAYER
 10
79.6638153969
 20
88.1286389661
 11
79.6638153969
 21
74.4158719556
  0
LINE
  5
403
100
AcDbEntity
  8
0
100
AcDbLine
 62
7
  6
BYLAYER
 10
79.6638153969
 20
68.1256660813
 11
79.6638153969
 21
50.8158719556
  0
LINE
  5
404
100
AcDbEntity
  8
0
100
AcDbLine
 62
7
  6
BYLAYER
 10
80.0638153969
 20
93.4749990159
 11
80.0638153969
 21
92.0713788832
  0
LINE
  5
405
100
AcDbEntity
  8
0
100
AcDbLine
 62
7
  6
BYLAYER
 10
80.0638153969
 20
92.0333694601
 11
80.0638271498
 21
92.0363247757
  0
LINE
  5
406
100
AcDbEntity
  8
0
100
AcDbLine
 62
7
  6
BYLAYER
 10
80.4137165797
 20
93.4753954191
 11
80.5638153969
 21
93.4512785312
  0
LINE
  5
407
100
AcDbEntity
  8
0
100
AcDbLine
 62
7
  6
BYLAYER
 10
81.6638153969
 20
92.9753954214
 11
81.6637573671
 21
92.9826204754
  0
LINE
  5
408
100
AcDbEntity
  8
0
100
AcDbLine
 62
7
  6
BYLAYER
 10
80.5638153969
 20
93.4512785312
 11
80.5638153969
 21
92.4643941955
  0
LINE
  5
409
100
AcDbEntity
  8
0
100
AcDbLine
 62
7
  6
BYLAYER
 10
81.1638153969
 20
45.9158719556
 11
81.1638153969
 21
93.9450478925
  0
LINE
  5
40A
100
AcDbEntity
  8
0
100
AcDbLine
 62
7
  6
BYLAYER
 10
81.4638153969
 20
34.9320497648
 11
81.4638153969
 21
46.0158719556
  0
LINE
  5
40B
100
AcDbEntity
  8
0
100
AcDbLine
 62
7
  6
BYLAYER
 10
81.6638153969
 20
35.1320263622
 11
81.6638153969
 21
46.4158719556
  0
LINE
  5
40C
100
AcDbEntity
  8
0
100
AcDbLine
 62
7
  6
BYLAYER
 10
81.6638153969
 20
46.4165569746
 11
81.6638153969
 21
93.4450478925
  0
ARC
  5
40D
100
AcDbEntity
  8
0
100
AcDbCircle
 62
7
  6
BYLAYER
 10
36.3408953944
 20
-117.9863728182
 40
153.5201260905
100
AcDbArc
 50
89.5767736855
 51
89.9729444431
  0
ARC
  5
40E
100
AcDbEntity
  8
0
100
AcDbCircle
 62
7
  6
BYLAYER
 10
36.4324766719
 20
-105.7581732561
 40
141.2919106813
100
AcDbArc
 50
90.007740346
 51
90.4373359249
  0
ARC
  5
40F
100
AcDbEntity
  8
0
100
AcDbCircle
 62
7
  6
BYLAYER
 10
9.8593334505
 20
43.1036557892
 40
4.8680380693
100
AcDbArc
 50
268.87570054
 51
270.0527515694
  0
ARC
  5
410
100
AcDbEntity
  8
0
100
AcDbCircle
 62
7
  6
BYLAYER
 10
9.815579601
 20
40.9434839585
 40
2.7074239406
100
AcDbArc
 50
268.0275737546
 51
268.9044748011
  0
ARC
  5
411
100
AcDbEntity
  8
0
100
AcDbCircle
 62
7
  6
BYLAYER
 10
25.6147710479
 20
83.4007452513
 40
1.55
100
AcDbArc
 50
233.7306759882
 51
306.2293177533
  0
CIRCLE
  5
412
100
AcDbEntity
  8
0
100
AcDbCircle
 62
7
  6
BYLAYER
 10
25.6135492073
 20
79.9007454646
 40
1.1
  0
CIRCLE
  5
413
100
AcDbEntity
  8
0
100
AcDbCircle
 62
7
  6
BYLAYER
 10
25.6135491954
 20
79.9007454646
 40
0.9
  0
ARC
  5
414
100
AcDbEntity
  8
0
100
AcDbCircle
 62
7
  6
BYLAYER
 10
10.1638153969
 20
93.2680194283
 40
0.5
100
AcDbArc
 50
90.0
 51
180.0
  0
ARC
  5
415
100
AcDbEntity
  8
0
100
AcDbCircle
 62
7
  6
BYLAYER
 10
10.1638153969
 20
92.0333694601
 40
0.5
100
AcDbArc
 50
90.0
 51
179.8310405117
  0
ARC
  5
416
100
AcDbEntity
  8
0
100
AcDbCircle
 62
7
  6
BYLAYER
 10
10.1638153969
 20
46.4158719556
 40
0.5
100
AcDbArc
 50
180.0
 51
269.9999999998
  0
ARC
  5
417
100
AcDbEntity
  8
0
100
AcDbCircle
 62
7
  6
BYLAYER
 10
10.1638153968
 20
51.3158719556
 40
0.5
100
AcDbArc
 50
179.9999999982
 51
270.0000000039
  0
ARC
  5
418
100
AcDbEntity
  8
0
100
AcDbCircle
 62
7
  6
BYLAYER
 10
14.5388153969
 20
65.3158719556
 40
0.5
100
AcDbArc
 50
90.0
 51
180.0
  0
ARC
  5
419
100
AcDbEntity
  8
0
100
AcDbCircle
 62
7
  6
BYLAYER
 10
14.5388153969
 20
54.5158719556
 40
0.5
100
AcDbArc
 50
180.0
 51
269.9999362957
  0
ARC
  5
41A
100
AcDbEntity
  8
0
100
AcDbCircle
 62
7
  6
BYLAYER
 10
21.7888153969
 20
65.3158719556
 40
0.5
100
AcDbArc
 50
90.0
 51
180.0
  0
ARC
  5
41B
100
AcDbEntity
  8
0
100
AcDbCircle
 62
7
  6
BYLAYER
 10
21.7888153969
 20
54.5158719556
 40
0.5
100
AcDbArc
 50
180.0
 51
269.9999362956
  0
ARC
  5
41C
100
AcDbEntity
  8
0
100
AcDbCircle
 62
7
  6
BYLAYER
 10
21.7888153969
 20
65.3158719556
 40
0.3
100
AcDbArc
 50
90.0
 51
180.0
  0
ARC
  5
41D
100
AcDbEntity
  8
0
100
AcDbCircle
 62
7
  6
BYLAYER
 10
21.7888153969
 20
54.5158719556
 40
0.3
100
AcDbArc
 50
180.0
 51
270.0
  0
ARC
  5
41E
100
AcDbEntity
  8
0
100
AcDbCircle
 62
7
  6
BYLAYER
 10
14.5388153969
 20
65.3158719556
 40
0.3
100
AcDbArc
 50
90.0
 51
180.0
  0
ARC
  5
41F
100
AcDbEntity
  8
0
100
AcDbCircle
 62
7
  6
BYLAYER
 10
14.5388153969
 20
54.5158719556
 40
0.3
100
AcDbArc
 50
180.0
 51
270.0
  0
ARC
  5
420
100
AcDbEntity
  8
0
100
AcDbCircle
 62
7
  6
BYLAYER
 10
36.3985029548
 20
-1.0008047946
 40
36.7760940351
100
AcDbArc
 50
89.2810646669
 51
89.862942482
  0
ARC
  5
421
100
AcDbEntity
  8
0
100
AcDbCircle
 62
7
  6
BYLAYER
 10
36.3998216999
 20
-0.9929449638
 40
36.7682182963
100
AcDbArc
 50
88.8761343363
 51
89.2829658202
  0
ARC
  5
422
100
AcDbEntity
  8
0
100
AcDbCircle
 62
7
  6
BYLAYER
 10
36.4095927706
 20
-0.7481253704
 40
36.5234127356
100
AcDbArc
 50
90.2219363003
 51
90.7901216261
  0
ARC
  5
423
100
AcDbEntity
  8
0
100
AcDbCircle
 62
7
  6
BYLAYER
 10
36.4029523722
 20
-0.3109738214
 40
36.0862111881
100
AcDbArc
 50
90.7891506546
 51
91.080163928
  0
ARC
  5
424
100
AcDbEntity
  8
0
100
AcDbCircle
 62
7
  6
BYLAYER
 10
36.405138522
 20
0.3762331435
 40
35.3990454033
100
AcDbArc
 50
89.9863302399
 51
90.221776059
  0
ARC
  5
425
100
AcDbEntity
  8
0
100
AcDbCircle
 62
7
  6
BYLAYER
 10
36.4046879615
 20
0.6435397104
 40
35.1317395117
100
AcDbArc
 50
89.8666144951
 51
89.9854913883
  0
ARC
  5
426
100
AcDbEntity
  8
0
100
AcDbCircle
 62
7
  6
BYLAYER
 10
36.4711894859
 20
2.3027717144
 40
33.471736491
100
AcDbArc
 50
88.2255277677
 51
88.8876240605
  0
ARC
  5
427
100
AcDbEntity
  8
0
100
AcDbCircle
 62
7
  6
BYLAYER
 10
36.344619924
 20
2.6772018282
 40
33.0974669594
100
AcDbArc
 50
91.0767171138
 51
91.7746099408
  0
ARC
  5
428
100
AcDbEntity
  8
0
100
AcDbCircle
 62
7
  6
BYLAYER
 10
36.1566019624
 20
8.9216920812
 40
26.8501497229
100
AcDbArc
 50
91.7862409325
 51
92.4242878009
  0
ARC
  5
429
100
AcDbEntity
  8
0
100
AcDbCircle
 62
7
  6
BYLAYER
 10
36.687037068
 20
9.0425981568
 40
26.7284592059
100
AcDbArc
 50
87.5969863223
 51
88.2406241034
  0
ARC
  5
42A
100
AcDbEntity
  8
0
100
AcDbCircle
 62
7
  6
BYLAYER
 10
36.4183047365
 20
15.5930923743
 40
20.7058145904
100
AcDbArc
 50
90.4980689113
 51
91.0164690981
  0
ARC
  5
42B
100
AcDbEntity
  8
0
100
AcDbCircle
 62
7
  6
BYLAYER
 10
36.4095827864
 20
15.6092811493
 40
20.689624674
100
AcDbArc
 50
89.0127752117
 51
89.5309689789
  0
ARC
  5
42C
100
AcDbEntity
  8
0
100
AcDbCircle
 62
7
  6
BYLAYER
 10
36.4157259364
 20
15.7039448246
 40
20.5949338457
100
AcDbArc
 50
91.0147667896
 51
91.9756952522
  0
ARC
  5
42D
100
AcDbEntity
  8
0
100
AcDbCircle
 62
7
  6
BYLAYER
 10
36.4157265928
 20
15.8508623015
 40
20.4479736231
100
AcDbArc
 50
88.0227655607
 51
89.0183248484
  0
ARC
  5
42E
100
AcDbEntity
  8
0
100
AcDbCircle
 62
7
  6
BYLAYER
 10
36.4143388375
 20
16.0837505752
 40
20.2151404556
100
AcDbArc
 50
90.0015824385
 51
90.4989176727
  0
ARC
  5
42F
100
AcDbEntity
  8
0
100
AcDbCircle
 62
7
  6
BYLAYER
 10
36.4133879129
 20
16.1021923141
 40
20.1966988772
100
AcDbArc
 50
89.5303165126
 51
89.9988862168
  0
ARC
  5
430
100
AcDbEntity
  8
0
100
AcDbCircle
 62
7
  6
BYLAYER
 10
35.8394228913
 20
16.4573233081
 40
19.3078466422
100
AcDbArc
 50
92.4297949546
 51
93.3200335961
  0
ARC
  5
431
100
AcDbEntity
  8
0
100
AcDbCircle
 62
7
  6
BYLAYER
 10
37.0753405401
 20
17.9211257885
 40
17.8414651604
100
AcDbArc
 50
86.6596852649
 51
87.6474091264
  0
ARC
  5
432
100
AcDbEntity
  8
0
100
AcDbCircle
 62
7
  6
BYLAYER
 10
35.5139807404
 20
22.290629508
 40
13.4654897433
100
AcDbArc
 50
93.375046118
 51
93.6663213085
  0
ARC
  5
433
100
AcDbEntity
  8
0
100
AcDbCircle
 62
7
  6
BYLAYER
 10
37.399279187
 20
23.5150398543
 40
12.2381802892
100
AcDbArc
 50
86.2254961459
 51
86.6477499879
  0
ARC
  5
434
100
AcDbEntity
  8
0
100
AcDbCircle
 62
7
  6
BYLAYER
 10
35.4789367149
 20
29.2967367665
 40
6.9668374701
100
AcDbArc
 50
95.7581971711
 51
96.9855281436
  0
ARC
  5
435
100
AcDbEntity
  8
0
100
AcDbCircle
 62
7
  6
BYLAYER
 10
37.4063933177
 20
29.8124354107
 40
6.4479453232
100
AcDbArc
 50
82.9294786948
 51
84.2366568196
  0
ARC
  5
436
100
AcDbEntity
  8
0
100
AcDbCircle
 62
7
  6
BYLAYER
 10
37.4619106336
 20
35.9158719556
 40
0.3
100
AcDbArc
 50
270.0
 51
324.9431424398
  0
ARC
  5
437
100
AcDbEntity
  8
0
100
AcDbCircle
 62
7
  6
BYLAYER
 10
35.3657201601
 20
35.9158719556
 40
0.3
100
AcDbArc
 50
214.9779976873
 51
270.0
  0
ARC
  5
438
100
AcDbEntity
  8
0
100
AcDbCircle
 62
7
  6
BYLAYER
 10
36.8580006707
 20
74.9858609989
 40
39.4077417071
100
AcDbArc
 50
270.9384202801
 51
271.3986263809
  0
ARC
  5
439
100
AcDbEntity
  8
0
100
AcDbCircle
 62
7
  6
BYLAYER
 10
35.9207940834
 20
73.0052107462
 40
37.4265265127
100
AcDbArc
 50
268.6000363839
 51
269.0855950947
  0
ARC
  5
43A
100
AcDbEntity
  8
0
100
AcDbCircle
 62
7
  6
BYLAYER
 10
29.1147708346
 20
83.3995233297
 40
1.55
100
AcDbArc
 50
233.7306759875
 51
306.229317754
  0
ARC
  5
43B
100
AcDbEntity
  8
0
100
AcDbCircle
 62
7
  6
BYLAYER
 10
32.6147706213
 20
83.3983014081
 40
1.55
100
AcDbArc
 50
233.7306759875
 51
306.2293177533
  0
ARC
  5
43C
100
AcDbEntity
  8
0
100
AcDbCircle
 62
7
  6
BYLAYER
 10
36.114770408
 20
83.3970794865
 40
1.55
100
AcDbArc
 50
233.7306759882
 51
306.2293177534
  0
CIRCLE
  5
43D
100
AcDbEntity
  8
0
100
AcDbCircle
 62
7
  6
BYLAYER
 10
29.113548994
 20
79.899523543
 40
1.1
  0
CIRCLE
  5
43E
100
AcDbEntity
  8
0
100
AcDbCircle
 62
7
  6
BYLAYER
 10
36.1135485674
 20
79.8970796998
 40
1.1
  0
CIRCLE
  5
43F
100
AcDbEntity
  8
0
100
AcDbCircle
 62
7
  6
BYLAYER
 10
32.6135487807
 20
79.8983016214
 40
1.1
  0
CIRCLE
  5
440
100
AcDbEntity
  8
0
100
AcDbCircle
 62
7
  6
BYLAYER
 10
29.1135489821
 20
79.899523543
 40
0.9
  0
CIRCLE
  5
441
100
AcDbEntity
  8
0
100
AcDbCircle
 62
7
  6
BYLAYER
 10
32.6135487688
 20
79.8983016214
 40
0.9
  0
CIRCLE
  5
442
100
AcDbEntity
  8
0
100
AcDbCircle
 62
7
  6
BYLAYER
 10
36.1135485555
 20
79.8970796998
 40
0.9
  0
ARC
  5
443
100
AcDbEntity
  8
0
100
AcDbCircle
 62
7
  6
BYLAYER
 10
43.5388153969
 20
54.5158719556
 40
0.5
100
AcDbArc
 50
180.0
 51
269.9999362956
  0
ARC
  5
444
100
AcDbEntity
  8
0
100
AcDbCircle
 62
7
  6
BYLAYER
 10
43.5388153969
 20
65.3158719556
 40
0.5
100
AcDbArc
 50
90.0
 51
180.0
  0
ARC
  5
445
100
AcDbEntity
  8
0
100
AcDbCircle
 62
7
  6
BYLAYER
 10
36.2888153969
 20
54.5158719556
 40
0.5
100
AcDbArc
 50
180.0
 51
269.9999362956
  0
ARC
  5
446
100
AcDbEntity
  8
0
100
AcDbCircle
 62
7
  6
BYLAYER
 10
36.2888153969
 20
65.3158719556
 40
0.5
100
AcDbArc
 50
90.0
 51
180.0
  0
ARC
  5
447
100
AcDbEntity
  8
0
100
AcDbCircle
 62
7
  6
BYLAYER
 10
29.0388153969
 20
54.5158719556
 40
0.5
100
AcDbArc
 50
180.0
 51
269.9999362956
  0
ARC
  5
448
100
AcDbEntity
  8
0
100
AcDbCircle
 62
7
  6
BYLAYER
 10
29.0388153969
 20
65.3158719556
 40
0.5
100
AcDbArc
 50
90.0
 51
180.0
  0
ARC
  5
449
100
AcDbEntity
  8
0
100
AcDbCircle
 62
7
  6
BYLAYER
 10
43.5388153969
 20
65.3158719556
 40
0.3
100
AcDbArc
 50
90.0
 51
180.0
  0
ARC
  5
44A
100
AcDbEntity
  8
0
100
AcDbCircle
 62
7
  6
BYLAYER
 10
43.5388153969
 20
54.5158719556
 40
0.3
100
AcDbArc
 50
180.0
 51
270.0
  0
ARC
  5
44B
100
AcDbEntity
  8
0
100
AcDbCircle
 62
7
  6
BYLAYER
 10
36.2888153969
 20
65.3158719556
 40
0.3
100
AcDbArc
 50
90.0
 51
180.0
  0
ARC
  5
44C
100
AcDbEntity
  8
0
100
AcDbCircle
 62
7
  6
BYLAYER
 10
36.2888153969
 20
54.5158719556
 40
0.3
100
AcDbArc
 50
180.0
 51
270.0
  0
ARC
  5
44D
100
AcDbEntity
  8
0
100
AcDbCircle
 62
7
  6
BYLAYER
 10
29.0388153969
 20
65.3158719556
 40
0.3
100
AcDbArc
 50
90.0
 51
180.0
  0
ARC
  5
44E
100
AcDbEntity
  8
0
100
AcDbCircle
 62
7
  6
BYLAYER
 10
29.0388153969
 20
54.5158719556
 40
0.3
100
AcDbArc
 50
180.0
 51
270.0
  0
ARC
  5
44F
100
AcDbEntity
  8
0
100
AcDbCircle
 62
7
  6
BYLAYER
 10
65.2888153969
 20
54.5158719556
 40
0.5
100
AcDbArc
 50
180.0
 51
269.9999363244
  0
ARC
  5
450
100
AcDbEntity
  8
0
100
AcDbCircle
 62
7
  6
BYLAYER
 10
65.2888153969
 20
65.3158719556
 40
0.5
100
AcDbArc
 50
90.0
 51
180.0
  0
ARC
  5
451
100
AcDbEntity
  8
0
100
AcDbCircle
 62
7
  6
BYLAYER
 10
58.0388153969
 20
54.5158719556
 40
0.5
100
AcDbArc
 50
180.0
 51
269.9999363244
  0
ARC
  5
452
100
AcDbEntity
  8
0
100
AcDbCircle
 62
7
  6
BYLAYER
 10
58.0388153969
 20
65.3158719556
 40
0.5
100
AcDbArc
 50
90.0
 51
180.0
  0
ARC
  5
453
100
AcDbEntity
  8
0
100
AcDbCircle
 62
7
  6
BYLAYER
 10
50.7888153969
 20
54.5158719556
 40
0.5
100
AcDbArc
 50
180.0
 51
269.9999363246
  0
ARC
  5
454
100
AcDbEntity
  8
0
100
AcDbCircle
 62
7
  6
BYLAYER
 10
50.7888153969
 20
65.3158719556
 40
0.5
100
AcDbArc
 50
90.0
 51
180.0
  0
ARC
  5
455
100
AcDbEntity
  8
0
100
AcDbCircle
 62
7
  6
BYLAYER
 10
65.2888153969
 20
65.3158719556
 40
0.3
100
AcDbArc
 50
90.0
 51
180.0
  0
ARC
  5
456
100
AcDbEntity
  8
0
100
AcDbCircle
 62
7
  6
BYLAYER
 10
65.2888153969
 20
54.5158719556
 40
0.3
100
AcDbArc
 50
180.0
 51
270.0
  0
ARC
  5
457
100
AcDbEntity
  8
0
100
AcDbCircle
 62
7
  6
BYLAYER
 10
58.0388153969
 20
65.3158719556
 40
0.3
100
AcDbArc
 50
90.0
 51
180.0
  0
ARC
  5
458
100
AcDbEntity
  8
0
100
AcDbCircle
 62
7
  6
BYLAYER
 10
58.0388153969
 20
54.5158719556
 40
0.3
100
AcDbArc
 50
180.0
 51
270.0
  0
ARC
  5
459
100
AcDbEntity
  8
0
100
AcDbCircle
 62
7
  6
BYLAYER
 10
50.7888153969
 20
65.3158719556
 40
0.3
100
AcDbArc
 50
90.0
 51
180.0
  0
ARC
  5
45A
100
AcDbEntity
  8
0
100
AcDbCircle
 62
7
  6
BYLAYER
 10
50.7888153969
 20
54.5158719556
 40
0.3
100
AcDbArc
 50
180.0
 51
270.0
  0
ARC
  5
45B
100
AcDbEntity
  8
0
100
AcDbCircle
 62
7
  6
BYLAYER
 10
60.864770408
 20
83.3970794865
 40
1.55
100
AcDbArc
 50
233.7306759882
 51
306.2293177534
  0
ARC
  5
45C
100
AcDbEntity
  8
0
100
AcDbCircle
 62
7
  6
BYLAYER
 10
53.8647708346
 20
83.3995233297
 40
1.55
100
AcDbArc
 50
233.7306759875
 51
306.229317754
  0
ARC
  5
45D
100
AcDbEntity
  8
0
100
AcDbCircle
 62
7
  6
BYLAYER
 10
57.3647706213
 20
83.3983014081
 40
1.55
100
AcDbArc
 50
233.7306759875
 51
306.2293177533
  0
ARC
  5
45E
100
AcDbEntity
  8
0
100
AcDbCircle
 62
7
  6
BYLAYER
 10
50.3647710479
 20
83.4007452513
 40
1.55
100
AcDbArc
 50
233.7306759882
 51
306.2293177533
  0
CIRCLE
  5
45F
100
AcDbEntity
  8
0
100
AcDbCircle
 62
7
  6
BYLAYER
 10
53.863548994
 20
79.899523543
 40
1.1
  0
CIRCLE
  5
460
100
AcDbEntity
  8
0
100
AcDbCircle
 62
7
  6
BYLAYER
 10
50.3635492073
 20
79.9007454646
 40
1.1
  0
CIRCLE
  5
461
100
AcDbEntity
  8
0
100
AcDbCircle
 62
7
  6
BYLAYER
 10
57.3635487807
 20
79.8983016214
 40
1.1
  0
CIRCLE
  5
462
100
AcDbEntity
  8
0
100
AcDbCircle
 62
7
  6
BYLAYER
 10
60.8635485674
 20
79.8970796998
 40
1.1
  0
CIRCLE
  5
463
100
AcDbEntity
  8
0
100
AcDbCircle
 62
7
  6
BYLAYER
 10
53.8635489821
 20
79.899523543
 40
0.9
  0
CIRCLE
  5
464
100
AcDbEntity
  8
0
100
AcDbCircle
 62
7
  6
BYLAYER
 10
50.3635491954
 20
79.9007454646
 40
0.9
  0
CIRCLE
  5
465
100
AcDbEntity
  8
0
100
AcDbCircle
 62
7
  6
BYLAYER
 10
60.8635485555
 20
79.8970796998
 40
0.9
  0
CIRCLE
  5
466
100
AcDbEntity
  8
0
100
AcDbCircle
 62
7
  6
BYLAYER
 10
57.3635487688
 20
79.8983016214
 40
0.9
  0
ARC
  5
467
100
AcDbEntity
  8
0
100
AcDbCircle
 62
7
  6
BYLAYER
 10
81.1638153969
 20
51.3158719556
 40
0.5
100
AcDbArc
 50
269.9999999958
 51
360.0
  0
ARC
  5
468
100
AcDbEntity
  8
0
100
AcDbCircle
 62
7
  6
BYLAYER
 10
81.1638153969
 20
46.4158719556
 40
0.5
100
AcDbArc
 50
269.9999999995
 51
0.0784976362
  0
ARC
  5
469
100
AcDbEntity
  8
0
100
AcDbCircle
 62
7
  6
BYLAYER
 10
72.5388153969
 20
54.5158719556
 40
0.5
100
AcDbArc
 50
180.0
 51
269.9999363244
  0
ARC
  5
46A
100
AcDbEntity
  8
0
100
AcDbCircle
 62
7
  6
BYLAYER
 10
72.5388153969
 20
65.3158719556
 40
0.5
100
AcDbArc
 50
90.0
 51
180.0
  0
ARC
  5
46B
100
AcDbEntity
  8
0
100
AcDbCircle
 62
7
  6
BYLAYER
 10
72.5388153969
 20
65.3158719556
 40
0.3
100
AcDbArc
 50
90.0
 51
180.0
  0
ARC
  5
46C
100
AcDbEntity
  8
0
100
AcDbCircle
 62
7
  6
BYLAYER
 10
72.5388153969
 20
54.5158719556
 40
0.3
100
AcDbArc
 50
180.0
 51
270.0
  0
ARC
  5
46D
100
AcDbEntity
  8
0
100
AcDbCircle
 62
7
  6
BYLAYER
 10
70.2715093291
 20
83.3983295943
 40
1.55
100
AcDbArc
 50
233.7306759875
 51
306.229317754
  0
ARC
  5
46E
100
AcDbEntity
  8
0
100
AcDbCircle
 62
7
  6
BYLAYER
 10
73.7715091158
 20
83.3971076727
 40
1.55
100
AcDbArc
 50
233.7306759875
 51
306.2293177534
  0
ARC
  5
46F
100
AcDbEntity
  8
0
100
AcDbCircle
 62
7
  6
BYLAYER
 10
76.5638313252
 20
93.0147708874
 40
1.2499801284
100
AcDbArc
 50
268.967594431
 51
269.9992698327
  0
ARC
  5
470
100
AcDbEntity
  8
0
100
AcDbCircle
 62
7
  6
BYLAYER
 10
79.5637898045
 20
92.9798349317
 40
1.2150441721
100
AcDbArc
 50
270.0012067565
 51
271.0721581239
  0
CIRCLE
  5
471
100
AcDbEntity
  8
0
100
AcDbCircle
 62
7
  6
BYLAYER
 10
73.7702872753
 20
79.897107886
 40
1.1
  0
CIRCLE
  5
472
100
AcDbEntity
  8
0
100
AcDbCircle
 62
7
  6
BYLAYER
 10
70.2702874886
 20
79.8983298076
 40
1.1
  0
CIRCLE
  5
473
100
AcDbEntity
  8
0
100
AcDbCircle
 62
7
  6
BYLAYER
 10
73.7702872634
 20
79.897107886
 40
0.9
  0
CIRCLE
  5
474
100
AcDbEntity
  8
0
100
AcDbCircle
 62
7
  6
BYLAYER
 10
70.2702874767
 20
79.8983298076
 40
0.9
  0
ARC
  5
475
100
AcDbEntity
  8
0
100
AcDbCircle
 62
7
  6
BYLAYER
 10
75.5638153969
 20
93.4818501169
 40
0.5
100
AcDbArc
 50
0.0
 51
90.0
  0
ARC
  5
476
100
AcDbEntity
  8
0
100
AcDbCircle
 62
7
  6
BYLAYER
 10
81.1638153969
 20
92.9753954214
 40
0.5
100
AcDbArc
 50
0.830877324
 51
90.0
  0
ARC
  5
477
100
AcDbEntity
  8
0
100
AcDbCircle
 62
7
  6
BYLAYER
 10
81.1638153969
 20
93.4450478925
 40
0.5
100
AcDbArc
 50
0.0
 51
90.0
  0
ARC
  5
478
100
AcDbEntity
  8
0
100
AcDbCircle
 62
7
  6
BYLAYER
 10
80.4256734479
 20
92.0332572675
 40
0.3618588174
100
AcDbArc
 50
174.4830176679
 51
179.5142924114
  0
ARC
  5
479
100
AcDbEntity
  8
0
100
AcDbCircle
 62
7
  6
BYLAYER
 10
75.7033471963
 20
92.0333156212
 40
0.3604682046
100
AcDbArc
 50
0.0085586055
 51
4.4356501923
  0
SPLINE
  5
47A
100
AcDbEntity
  8
0
100
AcDbSpline
 62
7
  6
BYLAYER
 70
0
 71
3
 72
25
 73
21
 74
0
 42
0.0000001
 43
0.0000001
 44
0.0000000001
 40
0.0
 40
0.0
 40
0.0
 40
0.0
 40
0.1949529818
 40
0.3824548275
 40
0.4710941704
 40
0.5552110911
 40
0.6339908186
 40
0.7066558445
 40
0.7725245739
 40
0.8309486111
 40
0.8813846409
 40
0.9233357816
 40
0.9410012842
 40
0.956407698
 40
0.9695168607
 40
0.9802924152
 40
0.9887142409
 40
0.9947780061
 40
0.9984957874
 40
1.0
 40
1.0
 40
1.0
 40
1.0
 10
71.6959347811
 20
81.7478514508
 30
0.0
 10
71.6959438624
 20
81.7738633703
 30
0.0
 10
71.6960526284
 20
81.8248930406
 30
0.0
 10
71.696417579
 20
81.8877486661
 30
0.0
 10
71.6968498039
 20
81.9358147865
 30
0.0
 10
71.6972290567
 20
81.9693742797
 30
0.0
 10
71.6976651886
 20
82.0008014933
 30
0.0
 10
71.6981543616
 20
82.0297928334
 30
0.0
 10
71.6986907545
 20
82.0560668134
 30
0.0
 10
71.6992691059
 20
82.0793732967
 30
0.0
 10
71.6998825178
 20
82.0994860566
 30
0.0
 10
71.7004428759
 20
82.1141601666
 30
0.0
 10
71.7009181886
 20
82.1241580801
 30
0.0
 10
71.7012590301
 20
82.130312744
 30
0.0
 10
71.7016017887
 20
82.1355375454
 30
0.0
 10
71.701949738
 20
82.1398526421
 30
0.0
 10
71.7022869773
 20
82.1431589971
 30
0.0
 10
71.7026387179
 20
82.1456728368
 30
0.0
 10
71.7029253326
 20
82.1469509921
 30
0.0
 10
71.7032269226
 20
82.1478296762
 30
0.0
 10
71.7034276247
 20
82.1478296061
 30
0.0
  0
SPLINE
  5
47B
100
AcDbEntity
  8
0
100
AcDbSpline
 62
7
  6
BYLAYER
 70
0
 71
3
 72
25
 73
21
 74
0
 42
0.0000001
 43
0.0000001
 44
0.0000000001
 40
0.0
 40
0.0
 40
0.0
 40
0.0
 40
0.1949508847
 40
0.3824525917
 40
0.4710931075
 40
0.5552106544
 40
0.6339900925
 40
0.7066541201
 40
0.7725214702
 40
0.8309437175
 40
0.88137797
 40
0.9233280589
 40
0.9409932487
 40
0.9563997751
 40
0.9695097357
 40
0.9802869128
 40
0.9887106647
 40
0.9947762465
 40
0.998495357
 40
1.0
 40
1.0
 40
1.0
 40
1.0
 10
72.345931742
 20
81.7476246295
 30
0.0
 10
72.3459408232
 20
81.7736362574
 30
0.0
 10
72.3458677607
 20
81.8246656698
 30
0.0
 10
72.3455467347
 20
81.8875213647
 30
0.0
 10
72.345148068
 20
81.935587975
 30
0.0
 10
72.3447922363
 20
81.9691479109
 30
0.0
 10
72.3443780257
 20
82.0005753185
 30
0.0
 10
72.3439090658
 20
82.0295666236
 30
0.0
 10
72.3433909911
 20
82.0558404031
 30
0.0
 10
72.3428288876
 20
82.0791466133
 30
0.0
 10
72.3422294915
 20
82.0992591699
 30
0.0
 10
72.3416793706
 20
82.1139332413
 30
0.0
 10
72.3412110315
 20
82.1239313118
 30
0.0
 10
72.3408744852
 20
82.13008629
 30
0.0
 10
72.3405353687
 20
82.1353116619
 30
0.0
 10
72.3401904535
 20
82.1396275929
 30
0.0
 10
72.339855514
 20
82.142934866
 30
0.0
 10
72.3395055828
 20
82.145449725
 30
0.0
 10
72.3392197965
 20
82.1467283903
 30
0.0
 10
72.3389189295
 20
82.1476077431
 30
0.0
 10
72.3387181702
 20
82.1476078132
 30
0.0
  0
SPLINE
  5
47C
100
AcDbEntity
  8
0
100
AcDbSpline
 62
7
  6
BYLAYER
 70
0
 71
3
 72
24
 73
20
 74
0
 42
0.0000001
 43
0.0000001
 44
0.0000000001
 40
0.0
 40
0.0
 40
0.0
 40
0.0
 40
0.1949060751
 40
0.3824687905
 40
0.5552018349
 40
0.6339736651
 40
0.7066551459
 40
0.7725143799
 40
0.8309467901
 40
0.881381323
 40
0.9233257176
 40
0.9409972899
 40
0.9564084592
 40
0.9695150137
 40
0.9802853438
 40
0.9887070517
 40
0.9947736629
 40
0.9984947636
 40
1.0
 40
1.0
 40
1.0
 40
1.0
 10
55.2891962856
 20
81.7490424483
 30
0.0
 10
55.2892053647
 20
81.7750482628
 30
0.0
 10
55.2893141317
 20
81.8260801083
 30
0.0
 10
55.289744669
 20
81.9001581685
 30
0.0
 10
55.2903265078
 20
81.958739179
 30
0.0
 10
55.2909268599
 20
82.0019904107
 30
0.0
 10
55.291415602
 20
82.0309818053
 30
0.0
 10
55.2919524949
 20
82.0572579765
 30
0.0
 10
55.2925305983
 20
82.080564253
 30
0.0
 10
55.2931437812
 20
82.100677157
 30
0.0
 10
55.2937043607
 20
82.1153510558
 30
0.0
 10
55.2941795588
 20
82.125349576
 30
0.0
 10
55.2945203839
 20
82.1315053814
 30
0.0
 10
55.294863346
 20
82.1367297777
 30
0.0
 10
55.2952115908
 20
82.1410438425
 30
0.0
 10
55.2955489998
 20
82.1443497636
 30
0.0
 10
55.2959004701
 20
82.1468647544
 30
0.0
 10
55.2961873716
 20
82.1481432425
 30
0.0
 10
55.2964882398
 20
82.1490234117
 30
0.0
 10
55.2966890796
 20
82.1490233416
 30
0.0
  0
SPLINE
  5
47D
100
AcDbEntity
  8
0
100
AcDbSpline
 62
7
  6
BYLAYER
 70
0
 71
3
 72
24
 73
20
 74
0
 42
0.0000001
 43
0.0000001
 44
0.0000000001
 40
0.0
 40
0.0
 40
0.0
 40
0.0
 40
0.194905234
 40
0.3824678394
 40
0.5552027673
 40
0.6339744947
 40
0.7066550574
 40
0.7725126409
 40
0.8309430782
 40
0.881375689
 40
0.9233183321
 40
0.9409895252
 40
0.956400939
 40
0.9695085521
 40
0.9802804675
 40
0.9887039207
 40
0.9947721358
 40
0.998494392
 40
1.0
 40
1.0
 40
1.0
 40
1.0
 10
59.4391930332
 20
81.7475936535
 30
0.0
 10
59.4392021123
 20
81.773599348
 30
0.0
 10
59.4391290488
 20
81.8246311151
 30
0.0
 10
59.438750286
 20
81.8987095608
 30
0.0
 10
59.4382093417
 20
81.9572911689
 30
0.0
 10
59.4376391582
 20
82.0005429112
 30
0.0
 10
59.437170634
 20
82.0295342745
 30
0.0
 10
59.4366520592
 20
82.0558101998
 30
0.0
 10
59.4360902002
 20
82.0791161266
 30
0.0
 10
59.4354910419
 20
82.0992286935
 30
0.0
 10
59.4349406884
 20
82.1139024341
 30
0.0
 10
59.4344724673
 20
82.1239010282
 30
0.0
 10
59.4341359369
 20
82.1300571923
 30
0.0
 10
59.4337966258
 20
82.1352822085
 30
0.0
 10
59.4334514084
 20
82.1395971126
 30
0.0
 10
59.4331162981
 20
82.1429038988
 30
0.0
 10
59.4327666287
 20
82.1454198201
 30
0.0
 10
59.432480564
 20
82.1466987822
 30
0.0
 10
59.432180403
 20
82.1475795569
 30
0.0
 10
59.4319795137
 20
82.147579627
 30
0.0
  0
SPLINE
  5
47E
100
AcDbEntity
  8
0
100
AcDbSpline
 62
7
  6
BYLAYER
 70
0
 71
3
 72
24
 73
20
 74
0
 42
0.0000001
 43
0.0000001
 44
0.0000000001
 40
0.0
 40
0.0
 40
0.0
 40
0.0
 40
0.1949060751
 40
0.3824687906
 40
0.555201835
 40
0.6339736652
 40
0.706655146
 40
0.77251438
 40
0.8309467902
 40
0.881381323
 40
0.9233257177
 40
0.94099729
 40
0.9564084593
 40
0.9695150138
 40
0.9802853439
 40
0.9887070517
 40
0.9947736629
 40
0.9984947636
 40
1.0
 40
1.0
 40
1.0
 40
1.0
 10
51.7891964989
 20
81.75026437
 30
0.0
 10
51.789205578
 20
81.7762701844
 30
0.0
 10
51.789314345
 20
81.8273020299
 30
0.0
 10
51.7897448823
 20
81.9013800902
 30
0.0
 10
51.7903267211
 20
81.9599611006
 30
0.0
 10
51.7909270732
 20
82.0032123324
 30
0.0
 10
51.7914158153
 20
82.032203727
 30
0.0
 10
51.7919527082
 20
82.0584798982
 30
0.0
 10
51.7925308116
 20
82.0817861747
 30
0.0
 10
51.7931439945
 20
82.1018990786
 30
0.0
 10
51.793704574
 20
82.1165729775
 30
0.0
 10
51.7941797721
 20
82.1265714976
 30
0.0
 10
51.7945205972
 20
82.1327273031
 30
0.0
 10
51.7948635593
 20
82.1379516994
 30
0.0
 10
51.7952118041
 20
82.1422657641
 30
0.0
 10
51.7955492131
 20
82.1455716852
 30
0.0
 10
51.7959006834
 20
82.148086676
 30
0.0
 10
51.7961875849
 20
82.1493651641
 30
0.0
 10
51.7964884531
 20
82.1502453333
 30
0.0
 10
51.7966892929
 20
82.1502452632
 30
0.0
  0
SPLINE
  5
47F
100
AcDbEntity
  8
0
100
AcDbSpline
 62
7
  6
BYLAYER
 70
0
 71
3
 72
24
 73
20
 74
0
 42
0.0000001
 43
0.0000001
 44
0.0000000001
 40
0.0
 40
0.0
 40
0.0
 40
0.0
 40
0.1949060752
 40
0.3824687906
 40
0.555201835
 40
0.6339736653
 40
0.7066551461
 40
0.77251438
 40
0.8309467903
 40
0.8813813231
 40
0.9233257178
 40
0.9409972901
 40
0.9564084593
 40
0.9695150138
 40
0.9802853439
 40
0.9887070518
 40
0.9947736629
 40
0.9984947636
 40
1.0
 40
1.0
 40
1.0
 40
1.0
 10
58.7891960723
 20
81.7478205268
 30
0.0
 10
58.7892051514
 20
81.7738263412
 30
0.0
 10
58.7893139184
 20
81.8248581867
 30
0.0
 10
58.7897444557
 20
81.898936247
 30
0.0
 10
58.7903262945
 20
81.9575172574
 30
0.0
 10
58.7909266466
 20
82.0007684892
 30
0.0
 10
58.7914153887
 20
82.0297598838
 30
0.0
 10
58.7919522816
 20
82.056036055
 30
0.0
 10
58.792530385
 20
82.0793423315
 30
0.0
 10
58.7931435679
 20
82.0994552355
 30
0.0
 10
58.7937041474
 20
82.1141291343
 30
0.0
 10
58.7941793455
 20
82.1241276544
 30
0.0
 10
58.7945201706
 20
82.1302834599
 30
0.0
 10
58.7948631327
 20
82.1355078562
 30
0.0
 10
58.7952113775
 20
82.1398219209
 30
0.0
 10
58.7955487865
 20
82.143127842
 30
0.0
 10
58.7959002568
 20
82.1456428328
 30
0.0
 10
58.7961871583
 20
82.1469213209
 30
0.0
 10
58.7964880265
 20
82.1478014901
 30
0.0
 10
58.7966888663
 20
82.14780142
 30
0.0
  0
SPLINE
  5
480
100
AcDbEntity
  8
0
100
AcDbSpline
 62
7
  6
BYLAYER
 70
0
 71
3
 72
24
 73
20
 74
0
 42
0.0000001
 43
0.0000001
 44
0.0000000001
 40
0.0
 40
0.0
 40
0.0
 40
0.0
 40
0.194905234
 40
0.3824678394
 40
0.5552027674
 40
0.6339744948
 40
0.7066550575
 40
0.772512641
 40
0.8309430783
 40
0.8813756891
 40
0.9233183321
 40
0.9409895253
 40
0.956400939
 40
0.9695085521
 40
0.9802804675
 40
0.9887039207
 40
0.9947721358
 40
0.998494392
 40
1.0
 40
1.0
 40
1.0
 40
1.0
 10
52.4391934598
 20
81.7500374967
 30
0.0
 10
52.4392025389
 20
81.7760431912
 30
0.0
 10
52.4391294753
 20
81.8270749583
 30
0.0
 10
52.4387507126
 20
81.9011534041
 30
0.0
 10
52.4382097683
 20
81.9597350121
 30
0.0
 10
52.4376395848
 20
82.0029867545
 30
0.0
 10
52.4371710606
 20
82.0319781178
 30
0.0
 10
52.4366524858
 20
82.0582540431
 30
0.0
 10
52.4360906268
 20
82.0815599699
 30
0.0
 10
52.4354914685
 20
82.1016725368
 30
0.0
 10
52.434941115
 20
82.1163462774
 30
0.0
 10
52.4344728939
 20
82.1263448715
 30
0.0
 10
52.4341363635
 20
82.1325010356
 30
0.0
 10
52.4337970524
 20
82.1377260518
 30
0.0
 10
52.4334518349
 20
82.1420409559
 30
0.0
 10
52.4331167247
 20
82.145347742
 30
0.0
 10
52.4327670552
 20
82.1478636633
 30
0.0
 10
52.4324809906
 20
82.1491426255
 30
0.0
 10
52.4321808296
 20
82.1500234001
 30
0.0
 10
52.4319799402
 20
82.1500234702
 30
0.0
  0
SPLINE
  5
481
100
AcDbEntity
  8
0
100
AcDbSpline
 62
7
  6
BYLAYER
 70
0
 71
3
 72
24
 73
20
 74
0
 42
0.0000001
 43
0.0000001
 44
0.0000000001
 40
0.0
 40
0.0
 40
0.0
 40
0.0
 40
0.194905234
 40
0.3824678394
 40
0.5552027674
 40
0.6339744948
 40
0.7066550575
 40
0.772512641
 40
0.8309430783
 40
0.8813756891
 40
0.9233183321
 40
0.9409895253
 40
0.956400939
 40
0.9695085521
 40
0.9802804675
 40
0.9887039207
 40
0.9947721358
 40
0.998494392
 40
1.0
 40
1.0
 40
1.0
 40
1.0
 10
55.9391932465
 20
81.7488155752
 30
0.0
 10
55.9392023256
 20
81.7748212697
 30
0.0
 10
55.939129262
 20
81.8258530368
 30
0.0
 10
55.9387504993
 20
81.8999314825
 30
0.0
 10
55.938209555
 20
81.9585130906
 30
0.0
 10
55.9376393715
 20
82.0017648329
 30
0.0
 10
55.9371708473
 20
82.0307561962
 30
0.0
 10
55.9366522725
 20
82.0570321215
 30
0.0
 10
55.9360904135
 20
82.0803380483
 30
0.0
 10
55.9354912552
 20
82.1004506152
 30
0.0
 10
55.9349409017
 20
82.1151243557
 30
0.0
 10
55.9344726806
 20
82.1251229498
 30
0.0
 10
55.9341361502
 20
82.131279114
 30
0.0
 10
55.9337968391
 20
82.1365041302
 30
0.0
 10
55.9334516216
 20
82.1408190342
 30
0.0
 10
55.9331165114
 20
82.1441258204
 30
0.0
 10
55.9327668419
 20
82.1466417417
 30
0.0
 10
55.9324807773
 20
82.1479207038
 30
0.0
 10
55.9321806163
 20
82.1488014785
 30
0.0
 10
55.9319797269
 20
82.1488015486
 30
0.0
  0
SPLINE
  5
482
100
AcDbEntity
  8
0
100
AcDbSpline
 62
7
  6
BYLAYER
 70
0
 71
3
 72
24
 73
20
 74
0
 42
0.0000001
 43
0.0000001
 44
0.0000000001
 40
0.0
 40
0.0
 40
0.0
 40
0.0
 40
0.194905234
 40
0.3824678394
 40
0.5552027674
 40
0.6339744948
 40
0.7066550575
 40
0.772512641
 40
0.8309430783
 40
0.8813756891
 40
0.9233183321
 40
0.9409895253
 40
0.956400939
 40
0.9695085521
 40
0.9802804675
 40
0.9887039207
 40
0.9947721358
 40
0.998494392
 40
1.0
 40
1.0
 40
1.0
 40
1.0
 10
27.6891934598
 20
81.7500374967
 30
0.0
 10
27.6892025389
 20
81.7760431912
 30
0.0
 10
27.6891294753
 20
81.8270749583
 30
0.0
 10
27.6887507126
 20
81.9011534041
 30
0.0
 10
27.6882097683
 20
81.9597350121
 30
0.0
 10
27.6876395848
 20
82.0029867545
 30
0.0
 10
27.6871710606
 20
82.0319781178
 30
0.0
 10
27.6866524858
 20
82.0582540431
 30
0.0
 10
27.6860906268
 20
82.0815599699
 30
0.0
 10
27.6854914685
 20
82.1016725368
 30
0.0
 10
27.684941115
 20
82.1163462774
 30
0.0
 10
27.6844728939
 20
82.1263448715
 30
0.0
 10
27.6841363635
 20
82.1325010356
 30
0.0
 10
27.6837970524
 20
82.1377260518
 30
0.0
 10
27.6834518349
 20
82.1420409559
 30
0.0
 10
27.6831167247
 20
82.145347742
 30
0.0
 10
27.6827670552
 20
82.1478636633
 30
0.0
 10
27.6824809906
 20
82.1491426255
 30
0.0
 10
27.6821808296
 20
82.1500234001
 30
0.0
 10
27.6819799402
 20
82.1500234702
 30
0.0
  0
SPLINE
  5
483
100
AcDbEntity
  8
0
100
AcDbSpline
 62
7
  6
BYLAYER
 70
0
 71
3
 72
24
 73
20
 74
0
 42
0.0000001
 43
0.0000001
 44
0.0000000001
 40
0.0
 40
0.0
 40
0.0
 40
0.0
 40
0.194905234
 40
0.3824678394
 40
0.5552027673
 40
0.6339744947
 40
0.7066550574
 40
0.7725126409
 40
0.8309430782
 40
0.881375689
 40
0.9233183321
 40
0.9409895252
 40
0.956400939
 40
0.9695085521
 40
0.9802804675
 40
0.9887039207
 40
0.9947721358
 40
0.998494392
 40
1.0
 40
1.0
 40
1.0
 40
1.0
 10
34.6891930332
 20
81.7475936535
 30
0.0
 10
34.6892021123
 20
81.773599348
 30
0.0
 10
34.6891290488
 20
81.8246311151
 30
0.0
 10
34.688750286
 20
81.8987095608
 30
0.0
 10
34.6882093417
 20
81.9572911689
 30
0.0
 10
34.6876391582
 20
82.0005429112
 30
0.0
 10
34.687170634
 20
82.0295342745
 30
0.0
 10
34.6866520592
 20
82.0558101998
 30
0.0
 10
34.6860902002
 20
82.0791161266
 30
0.0
 10
34.6854910419
 20
82.0992286935
 30
0.0
 10
34.6849406884
 20
82.1139024341
 30
0.0
 10
34.6844724673
 20
82.1239010282
 30
0.0
 10
34.6841359369
 20
82.1300571923
 30
0.0
 10
34.6837966258
 20
82.1352822085
 30
0.0
 10
34.6834514084
 20
82.1395971126
 30
0.0
 10
34.6831162981
 20
82.1429038988
 30
0.0
 10
34.6827666287
 20
82.1454198201
 30
0.0
 10
34.682480564
 20
82.1466987822
 30
0.0
 10
34.682180403
 20
82.1475795569
 30
0.0
 10
34.6819795137
 20
82.147579627
 30
0.0
  0
SPLINE
  5
484
100
AcDbEntity
  8
0
100
AcDbSpline
 62
7
  6
BYLAYER
 70
0
 71
3
 72
24
 73
20
 74
0
 42
0.0000001
 43
0.0000001
 44
0.0000000001
 40
0.0
 40
0.0
 40
0.0
 40
0.0
 40
0.194905234
 40
0.3824678394
 40
0.5552027674
 40
0.6339744948
 40
0.7066550575
 40
0.772512641
 40
0.8309430783
 40
0.8813756891
 40
0.9233183321
 40
0.9409895253
 40
0.956400939
 40
0.9695085521
 40
0.9802804675
 40
0.9887039207
 40
0.9947721358
 40
0.998494392
 40
1.0
 40
1.0
 40
1.0
 40
1.0
 10
31.1891932465
 20
81.7488155752
 30
0.0
 10
31.1892023256
 20
81.7748212697
 30
0.0
 10
31.189129262
 20
81.8258530367
 30
0.0
 10
31.1887504993
 20
81.8999314825
 30
0.0
 10
31.188209555
 20
81.9585130905
 30
0.0
 10
31.1876393715
 20
82.0017648329
 30
0.0
 10
31.1871708473
 20
82.0307561962
 30
0.0
 10
31.1866522725
 20
82.0570321215
 30
0.0
 10
31.1860904135
 20
82.0803380482
 30
0.0
 10
31.1854912552
 20
82.1004506152
 30
0.0
 10
31.1849409017
 20
82.1151243557
 30
0.0
 10
31.1844726806
 20
82.1251229498
 30
0.0
 10
31.1841361502
 20
82.131279114
 30
0.0
 10
31.1837968391
 20
82.1365041302
 30
0.0
 10
31.1834516216
 20
82.1408190342
 30
0.0
 10
31.1831165114
 20
82.1441258204
 30
0.0
 10
31.1827668419
 20
82.1466417417
 30
0.0
 10
31.1824807773
 20
82.1479207038
 30
0.0
 10
31.1821806163
 20
82.1488014785
 30
0.0
 10
31.1819797269
 20
82.1488015486
 30
0.0
  0
SPLINE
  5
485
100
AcDbEntity
  8
0
100
AcDbSpline
 62
7
  6
BYLAYER
 70
0
 71
3
 72
24
 73
20
 74
0
 42
0.0000001
 43
0.0000001
 44
0.0000000001
 40
0.0
 40
0.0
 40
0.0
 40
0.0
 40
0.1949060751
 40
0.3824687905
 40
0.5552018349
 40
0.6339736651
 40
0.7066551459
 40
0.7725143799
 40
0.8309467902
 40
0.881381323
 40
0.9233257176
 40
0.94099729
 40
0.9564084592
 40
0.9695150137
 40
0.9802853438
 40
0.9887070517
 40
0.9947736629
 40
0.9984947636
 40
1.0
 40
1.0
 40
1.0
 40
1.0
 10
30.5391962856
 20
81.7490424485
 30
0.0
 10
30.5392053647
 20
81.7750482629
 30
0.0
 10
30.5393141317
 20
81.8260801084
 30
0.0
 10
30.539744669
 20
81.9001581686
 30
0.0
 10
30.5403265078
 20
81.958739179
 30
0.0
 10
30.5409268599
 20
82.0019904108
 30
0.0
 10
30.541415602
 20
82.0309818053
 30
0.0
 10
30.5419524949
 20
82.0572579765
 30
0.0
 10
30.5425305983
 20
82.080564253
 30
0.0
 10
30.5431437812
 20
82.100677157
 30
0.0
 10
30.5437043607
 20
82.1153510558
 30
0.0
 10
30.5441795588
 20
82.125349576
 30
0.0
 10
30.5445203839
 20
82.1315053814
 30
0.0
 10
30.544863346
 20
82.1367297777
 30
0.0
 10
30.5452115908
 20
82.1410438425
 30
0.0
 10
30.5455489998
 20
82.1443497636
 30
0.0
 10
30.5459004701
 20
82.1468647544
 30
0.0
 10
30.5461873716
 20
82.1481432425
 30
0.0
 10
30.5464882398
 20
82.1490234117
 30
0.0
 10
30.5466890796
 20
82.1490233416
 30
0.0
  0
SPLINE
  5
486
100
AcDbEntity
  8
0
100
AcDbSpline
 62
7
  6
BYLAYER
 70
0
 71
3
 72
24
 73
20
 74
0
 42
0.0000001
 43
0.0000001
 44
0.0000000001
 40
0.0
 40
0.0
 40
0.0
 40
0.0
 40
0.1949060752
 40
0.3824687906
 40
0.555201835
 40
0.6339736653
 40
0.7066551461
 40
0.7725143801
 40
0.8309467903
 40
0.8813813231
 40
0.9233257178
 40
0.9409972901
 40
0.9564084593
 40
0.9695150138
 40
0.9802853439
 40
0.9887070518
 40
0.9947736629
 40
0.9984947636
 40
1.0
 40
1.0
 40
1.0
 40
1.0
 10
34.0391960723
 20
81.7478205269
 30
0.0
 10
34.0392051514
 20
81.7738263413
 30
0.0
 10
34.0393139184
 20
81.8248581868
 30
0.0
 10
34.0397444557
 20
81.8989362471
 30
0.0
 10
34.0403262945
 20
81.9575172575
 30
0.0
 10
34.0409266466
 20
82.0007684892
 30
0.0
 10
34.0414153887
 20
82.0297598838
 30
0.0
 10
34.0419522816
 20
82.056036055
 30
0.0
 10
34.042530385
 20
82.0793423315
 30
0.0
 10
34.0431435679
 20
82.0994552355
 30
0.0
 10
34.0437041474
 20
82.1141291343
 30
0.0
 10
34.0441793455
 20
82.1241276544
 30
0.0
 10
34.0445201706
 20
82.1302834599
 30
0.0
 10
34.0448631327
 20
82.1355078562
 30
0.0
 10
34.0452113775
 20
82.1398219209
 30
0.0
 10
34.0455487865
 20
82.143127842
 30
0.0
 10
34.0459002568
 20
82.1456428328
 30
0.0
 10
34.0461871583
 20
82.1469213209
 30
0.0
 10
34.0464880265
 20
82.1478014901
 30
0.0
 10
34.0466888663
 20
82.14780142
 30
0.0
  0
SPLINE
  5
487
100
AcDbEntity
  8
0
100
AcDbSpline
 62
7
  6
BYLAYER
 70
0
 71
3
 72
24
 73
20
 74
0
 42
0.0000001
 43
0.0000001
 44
0.0000000001
 40
0.0
 40
0.0
 40
0.0
 40
0.0
 40
0.1949060752
 40
0.3824687906
 40
0.555201835
 40
0.6339736652
 40
0.706655146
 40
0.77251438
 40
0.8309467902
 40
0.881381323
 40
0.9233257177
 40
0.94099729
 40
0.9564084593
 40
0.9695150138
 40
0.9802853439
 40
0.9887070517
 40
0.9947736629
 40
0.9984947636
 40
1.0
 40
1.0
 40
1.0
 40
1.0
 10
27.0391964989
 20
81.7502643701
 30
0.0
 10
27.039205578
 20
81.7762701846
 30
0.0
 10
27.039314345
 20
81.82730203
 30
0.0
 10
27.0397448823
 20
81.9013800903
 30
0.0
 10
27.0403267211
 20
81.9599611007
 30
0.0
 10
27.0409270732
 20
82.0032123324
 30
0.0
 10
27.0414158153
 20
82.032203727
 30
0.0
 10
27.0419527082
 20
82.0584798982
 30
0.0
 10
27.0425308116
 20
82.0817861747
 30
0.0
 10
27.0431439945
 20
82.1018990787
 30
0.0
 10
27.043704574
 20
82.1165729775
 30
0.0
 10
27.0441797721
 20
82.1265714976
 30
0.0
 10
27.0445205972
 20
82.1327273031
 30
0.0
 10
27.0448635593
 20
82.1379516994
 30
0.0
 10
27.0452118041
 20
82.1422657641
 30
0.0
 10
27.0455492131
 20
82.1455716852
 30
0.0
 10
27.0459006834
 20
82.148086676
 30
0.0
 10
27.0461875849
 20
82.1493651641
 30
0.0
 10
27.0464884531
 20
82.1502453333
 30
0.0
 10
27.0466892929
 20
82.1502452632
 30
0.0
  0
LINE
  5
488
100
AcDbEntity
  8
0
100
AcDbLine
 62
7
  6
BYLAYER
 10
35.3540127965
 20
35.5296214739
 11
35.2765451459
 21
35.5290394772
  0
LINE
  5
489
100
AcDbEntity
  8
0
100
AcDbLine
 62
7
  6
BYLAYER
 10
35.2765451459
 20
35.5290394772
 11
35.2546401172
 21
35.5288686798
  0
SPLINE
  5
48A
100
AcDbEntity
  8
0
100
AcDbSpline
 62
7
  6
BYLAYER
 70
0
 71
3
 72
14
 73
10
 74
0
 42
0.0000001
 43
0.0000001
 44
0.0000000001
 40
0.0
 40
0.0
 40
0.0
 40
0.0
 40
0.4161328448
 40
0.5887002667
 40
0.732899206
 40
0.847289455
 40
0.9307102651
 40
0.9820007671
 40
1.0
 40
1.0
 40
1.0
 40
1.0
 10
35.2546401172
 20
35.5288686798
 30
0.0
 10
35.0970075693
 20
35.5276297536
 30
0.0
 10
34.8740075244
 20
35.5255945793
 30
0.0
 10
34.5963925284
 20
35.5224781293
 30
0.0
 10
34.4330737713
 20
35.5205200487
 30
0.0
 10
34.3035336956
 20
35.5186133086
 30
0.0
 10
34.2091650065
 20
35.5175795804
 30
0.0
 10
34.1513512878
 20
35.5160102789
 30
0.0
 10
34.1250772922
 20
35.5162421176
 30
0.0
 10
34.11827319
 20
35.5158010701
 30
0.0
  0
SPLINE
  5
48B
100
AcDbEntity
  8
0
100
AcDbSpline
 62
7
  6
BYLAYER
 70
0
 71
3
 72
11
 73
7
 74
0
 42
0.0000001
 43
0.0000001
 44
0.0000000001
 40
0.0
 40
0.0
 40
0.0
 40
0.0
 40
0.2493466464
 40
0.4998354438
 40
0.7502724557
 40
1.0
 40
1.0
 40
1.0
 40
1.0
 10
81.463317726
 20
34.9320498886
 30
0.0
 10
81.4892968373
 20
34.931932983
 30
0.0
 10
81.5419105543
 20
34.9424181911
 30
0.0
 10
81.6088043397
 20
34.9865895878
 30
0.0
 10
81.6531895137
 20
35.0533971199
 30
0.0
 10
81.6638154676
 20
35.1060069845
 30
0.0
 10
81.663815395
 20
35.1320260445
 30
0.0
  0
SPLINE
  5
48C
100
AcDbEntity
  8
0
100
AcDbSpline
 62
7
  6
BYLAYER
 70
0
 71
3
 72
11
 73
7
 74
0
 42
0.0000001
 43
0.0000001
 44
0.0000000001
 40
0.0
 40
0.0
 40
0.0
 40
0.0
 40
0.2497133224
 40
0.5001189018
 40
0.7506506046
 40
1.0
 40
1.0
 40
1.0
 40
1.0
 10
38.9138153969
 20
35.1320277552
 30
0.0
 10
38.9138153897
 20
35.1060078277
 30
0.0
 10
38.9244374243
 20
35.0533975944
 30
0.0
 10
38.9688274912
 20
34.9865827075
 30
0.0
 10
39.0357351191
 20
34.9424179743
 30
0.0
 10
39.0883587304
 20
34.9319274616
 30
0.0
 10
39.1143404383
 20
34.932052063
 30
0.0
  0
SPLINE
  5
48D
100
AcDbEntity
  8
0
100
AcDbSpline
 62
7
  6
BYLAYER
 70
0
 71
3
 72
9
 73
5
 74
0
 42
0.0000001
 43
0.0000001
 44
0.0000000001
 40
0.0
 40
0.0
 40
0.0
 40
0.0
 40
0.4841738509
 40
1.0
 40
1.0
 40
1.0
 40
1.0
 10
80.5229486342
 20
93.9450480625
 30
0.0
 10
80.4657827882
 20
93.9450472151
 30
0.0
 10
80.3465523392
 20
93.9232677912
 30
0.0
 10
80.2447451557
 20
93.8561329816
 30
0.0
 10
80.2016365806
 20
93.8131117579
 30
0.0
  0
SPLINE
  5
48E
100
AcDbEntity
  8
0
100
AcDbSpline
 62
7
  6
BYLAYER
 70
0
 71
3
 72
11
 73
7
 74
0
 42
0.0000001
 43
0.0000001
 44
0.0000000001
 40
0.0
 40
0.0
 40
0.0
 40
0.0
 40
0.0770467447
 40
0.2763899645
 40
0.5901161435
 40
1.0
 40
1.0
 40
1.0
 40
1.0
 10
38.7073063906
 20
35.5159752039
 30
0.0
 10
38.678389835
 20
35.5169558196
 30
0.0
 10
38.5745867697
 20
35.5177391768
 30
0.0
 10
38.3530220132
 20
35.5214261164
 30
0.0
 10
38.0064383905
 20
35.5249439461
 30
0.0
 10
37.7347173078
 20
35.527549549
 30
0.0
 10
37.5807993862
 20
35.5287618626
 30
0.0
  0
LINE
  5
48F
100
AcDbEntity
  8
0
100
AcDbLine
 62
7
  6
BYLAYER
 10
37.5807993862
 20
35.5287618626
 11
37.5544939513
 21
35.5289671498
  0
LINE
  5
490
100
AcDbEntity
  8
0
100
AcDbLine
 62
7
  6
BYLAYER
 10
37.5544939513
 20
35.5289671498
 11
37.4748910719
 21
35.5295650144
  0
SPLINE
  5
491
100
AcDbEntity
  8
0
100
AcDbSpline
 62
7
  6
BYLAYER
 70
0
 71
3
 72
11
 73
7
 74
0
 42
0.0000001
 43
0.0000001
 44
0.0000000001
 40
0.0
 40
0.0
 40
0.0
 40
0.0
 40
0.249713316
 40
0.5001188795
 40
0.7506506042
 40
1.0
 40
1.0
 40
1.0
 40
1.0
 10
9.6638153969
 20
35.1320278521
 30
0.0
 10
9.6638153772
 20
35.1060079162
 30
0.0
 10
9.6744373919
 20
35.0533976616
 30
0.0
 10
9.7188274543
 20
34.9865827355
 30
0.0
 10
9.7857351034
 20
34.942417981
 30
0.0
 10
9.8383587357
 20
34.9319274586
 30
0.0
 10
9.8643404526
 20
34.9320520642
 30
0.0
  0
SPLINE
  5
492
100
AcDbEntity
  8
0
100
AcDbSpline
 62
7
  6
BYLAYER
 70
0
 71
3
 72
11
 73
7
 74
0
 42
0.0000001
 43
0.0000001
 44
0.0000000001
 40
0.0
 40
0.0
 40
0.0
 40
0.0
 40
0.2493466464
 40
0.4998354438
 40
0.7502724557
 40
1.0
 40
1.0
 40
1.0
 40
1.0
 10
33.713317726
 20
34.9320498886
 30
0.0
 10
33.7392968373
 20
34.931932983
 30
0.0
 10
33.7919105543
 20
34.9424181911
 30
0.0
 10
33.8588043397
 20
34.9865895878
 30
0.0
 10
33.9031895137
 20
35.0533971199
 30
0.0
 10
33.9138154676
 20
35.1060069845
 30
0.0
 10
33.913815395
 20
35.1320260445
 30
0.0
  0
SPLINE
  5
493
100
AcDbEntity
  8
0
100
AcDbSpline
 62
7
  6
BYLAYER
 70
0
 71
3
 72
9
 73
5
 74
0
 42
0.0000001
 43
0.0000001
 44
0.0000000001
 40
0.0
 40
0.0
 40
0.0
 40
0.0
 40
0.4686050343
 40
1.0
 40
1.0
 40
1.0
 40
1.0
 10
80.2016365806
 20
93.8131117579
 30
0.0
 10
80.1604764768
 20
93.7720350573
 30
0.0
 10
80.0890235033
 20
93.66658093
 30
0.0
 10
80.0638153969
 20
93.5409409889
 30
0.0
 10
80.0638153969
 20
93.4749990159
 30
0.0
  0
SPLINE
  5
494
100
AcDbEntity
  8
0
100
AcDbSpline
 62
7
  6
BYLAYER
 70
0
 71
3
 72
9
 73
5
 74
0
 42
0.0000001
 43
0.0000001
 44
0.0000000001
 40
0.0
 40
0.0
 40
0.0
 40
0.0
 40
0.5386855124
 40
1.0
 40
1.0
 40
1.0
 40
1.0
 10
80.0638153969
 20
93.1174334595
 30
0.0
 10
80.0638153969
 20
93.168924563
 30
0.0
 10
80.0800681573
 20
93.2659414741
 30
0.0
 10
80.1339168971
 20
93.3485610421
 30
0.0
 10
80.1652686852
 20
93.3795687193
 30
0.0
  0
SPLINE
  5
495
100
AcDbEntity
  8
0
100
AcDbSpline
 62
7
  6
BYLAYER
 70
0
 71
3
 72
9
 73
5
 74
0
 42
0.0000001
 43
0.0000001
 44
0.0000000001
 40
0.0
 40
0.0
 40
0.0
 40
0.0
 40
0.5054144941
 40
1.0
 40
1.0
 40
1.0
 40
1.0
 10
80.1652686852
 20
93.3795687193
 30
0.0
 10
80.1977998504
 20
93.4117428289
 30
0.0
 10
80.2774679899
 20
93.4613513717
 30
0.0
 10
80.3689954825
 20
93.4754073379
 30
0.0
 10
80.413769387
 20
93.4753924894
 30
0.0
  0
SPLINE
  5
496
100
AcDbEntity
  8
0
100
AcDbSpline
 62
7
  6
BYLAYER
 70
0
 71
3
 72
11
 73
7
 74
0
 42
0.0000001
 43
0.0000001
 44
0.0000000001
 40
0.0
 40
0.0
 40
0.0
 40
0.0
 40
0.2486560614
 40
0.4984576105
 40
0.7491686588
 40
1.0
 40
1.0
 40
1.0
 40
1.0
 10
81.6638153969
 20
36.5223186703
 30
0.0
 10
81.6638153969
 20
36.4965714629
 30
0.0
 10
81.6532502443
 20
36.4444391316
 30
0.0
 10
81.6088751884
 20
36.3784083636
 30
0.0
 10
81.5422291713
 20
36.3345957571
 30
0.0
 10
81.4897878446
 20
36.3241964363
 30
0.0
 10
81.4638153969
 20
36.3241964363
 30
0.0
  0
SPLINE
  5
497
100
AcDbEntity
  8
0
100
AcDbSpline
 62
7
  6
BYLAYER
 70
0
 71
3
 72
9
 73
5
 74
0
 42
0.0000001
 43
0.0000001
 44
0.0000000001
 40
0.0
 40
0.0
 40
0.0
 40
0.0
 40
0.2757839234
 40
1.0
 40
1.0
 40
1.0
 40
1.0
 10
81.4638153969
 20
38.2356197831
 30
0.0
 10
81.4768176343
 20
38.2356197831
 30
0.0
 10
81.5239630026
 20
38.2357932393
 30
0.0
 10
81.5711132986
 20
38.2364732569
 30
0.0
 10
81.6052367531
 20
38.2376641483
 30
0.0
  0
SPLINE
  5
498
100
AcDbEntity
  8
0
100
AcDbSpline
 62
7
  6
BYLAYER
 70
0
 71
3
 72
13
 73
9
 74
0
 42
0.0000001
 43
0.0000001
 44
0.0000000001
 40
0.0
 40
0.0
 40
0.0
 40
0.0
 40
0.421682276
 40
0.7357308752
 40
0.8482823882
 40
0.9298243933
 40
0.9799523895
 40
1.0
 40
1.0
 40
1.0
 40
1.0
 10
81.6052367531
 20
38.2376641483
 30
0.0
 10
81.6135267606
 20
38.2379534654
 30
0.0
 10
81.627953141
 20
38.2385438076
 30
0.0
 10
81.644712078
 20
38.2395454697
 30
0.0
 10
81.6545322848
 20
38.2404645425
 30
0.0
 10
81.6595234653
 20
38.2411038565
 30
0.0
 10
81.6620370244
 20
38.241658103
 30
0.0
 10
81.6638153969
 20
38.2422053191
 30
0.0
 10
81.6638153969
 20
38.2425996824
 30
0.0
  0
SPLINE
  5
499
100
AcDbEntity
  8
0
100
AcDbSpline
 62
7
  6
BYLAYER
 70
0
 71
3
 72
11
 73
7
 74
0
 42
0.0000001
 43
0.0000001
 44
0.0000000001
 40
0.0
 40
0.0
 40
0.0
 40
0.0
 40
0.2443437979
 40
0.4920462715
 40
0.7444205364
 40
1.0
 40
1.0
 40
1.0
 40
1.0
 10
81.6637559901
 20
92.9826450935
 30
0.0
 10
81.6627497571
 20
93.044093314
 30
0.0
 10
81.6347958582
 20
93.1688303056
 30
0.0
 10
81.5221531254
 20
93.3243642568
 30
0.0
 10
81.3571297599
 20
93.4273761731
 30
0.0
 10
81.2280978091
 20
93.4512785312
 30
0.0
 10
81.1638153969
 20
93.4512785312
 30
0.0
  0
SPLINE
  5
49A
100
AcDbEntity
  8
0
100
AcDbSpline
 62
7
  6
BYLAYER
 70
0
 71
3
 72
11
 73
7
 74
0
 42
0.0000001
 43
0.0000001
 44
0.0000000001
 40
0.0
 40
0.0
 40
0.0
 40
0.0
 40
0.266025834
 40
0.5233756213
 40
0.7670473375
 40
1.0
 40
1.0
 40
1.0
 40
1.0
 10
75.5638153969
 20
92.4643942013
 30
0.0
 10
75.6258951635
 20
92.4643942008
 30
0.0
 10
75.7489556008
 20
92.4445047839
 30
0.0
 10
75.909937845
 20
92.3584179558
 30
0.0
 10
76.0244986233
 20
92.2254769271
 30
0.0
 10
76.0585379576
 20
92.1153935104
 30
0.0
 10
76.062735735
 20
92.0611940132
 30
0.0
  0
SPLINE
  5
49B
100
AcDbEntity
  8
0
100
AcDbSpline
 62
7
  6
BYLAYER
 70
0
 71
3
 72
11
 73
7
 74
0
 42
0.0000001
 43
0.0000001
 44
0.0000000001
 40
0.0
 40
0.0
 40
0.0
 40
0.0
 40
0.233031761
 40
0.4768549211
 40
0.7341756835
 40
1.0
 40
1.0
 40
1.0
 40
1.0
 10
80.0654908524
 20
92.0680466569
 30
0.0
 10
80.0706602567
 20
92.1216548066
 30
0.0
 10
80.1060298811
 20
92.2300955441
 30
0.0
 10
80.2207963807
 20
92.3605403269
 30
0.0
 10
80.3805755288
 20
92.4449104731
 30
0.0
 10
80.5023797762
 20
92.4643942009
 30
0.0
 10
80.5638153969
 20
92.4643942013
 30
0.0
  0
SPLINE
  5
49C
100
AcDbEntity
  8
0
100
AcDbSpline
 62
7
  6
BYLAYER
 70
0
 71
3
 72
9
 73
5
 74
0
 42
0.0000001
 43
0.0000001
 44
0.0000000001
 40
0.0
 40
0.0
 40
0.0
 40
0.0
 40
0.4591123177
 40
1.0
 40
1.0
 40
1.0
 40
1.0
 10
76.2103827176
 20
93.2104730559
 30
0.0
 10
76.2639171952
 20
93.2017078684
 30
0.0
 10
76.3817567278
 20
93.1905113697
 30
0.0
 10
76.4999057794
 20
93.1868538062
 30
0.0
 10
76.5638153969
 20
93.1868538062
 30
0.0
  0
SPLINE
  5
49D
100
AcDbEntity
  8
0
100
AcDbSpline
 62
7
  6
BYLAYER
 70
0
 71
3
 72
10
 73
6
 74
0
 42
0.0000001
 43
0.0000001
 44
0.0000000001
 40
0.0
 40
0.0
 40
0.0
 40
0.0
 40
0.3375370905
 40
0.6263454634
 40
1.0
 40
1.0
 40
1.0
 40
1.0
 10
76.0638153969
 20
93.2680223502
 30
0.0
 10
76.0638154514
 20
93.2588356158
 30
0.0
 10
76.0807656483
 20
93.2460112345
 30
0.0
 10
76.1044445664
 20
93.2356781929
 30
0.0
 10
76.1219789265
 20
93.230000088
 30
0.0
 10
76.1317659635
 20
93.2272364762
 30
0.0
  0
SPLINE
  5
49E
100
AcDbEntity
  8
0
100
AcDbSpline
 62
7
  6
BYLAYER
 70
0
 71
3
 72
9
 73
5
 74
0
 42
0.0000001
 43
0.0000001
 44
0.0000000001
 40
0.0
 40
0.0
 40
0.0
 40
0.0
 40
0.2204079517
 40
1.0
 40
1.0
 40
1.0
 40
1.0
 10
76.1317659635
 20
93.2272364762
 30
0.0
 10
76.1374513756
 20
93.2256310596
 30
0.0
 10
76.1633934301
 20
93.2188683956
 30
0.0
 10
76.1897600664
 20
93.2138331775
 30
0.0
 10
76.2103813696
 20
93.2104568064
 30
0.0
  0
SPLINE
  5
49F
100
AcDbEntity
  8
0
100
AcDbSpline
 62
7
  6
BYLAYER
 70
0
 71
3
 72
9
 73
5
 74
0
 42
0.0000001
 43
0.0000001
 44
0.0000000001
 40
0.0
 40
0.0
 40
0.0
 40
0.0
 40
0.6025838929
 40
1.0
 40
1.0
 40
1.0
 40
1.0
 10
79.9176496319
 20
93.2104881782
 30
0.0
 10
79.9443176809
 20
93.2148637655
 30
0.0
 10
79.9881891474
 20
93.2233849478
 30
0.0
 10
80.0315072788
 20
93.2375087464
 30
0.0
 10
80.0467377624
 20
93.2467662717
 30
0.0
  0
SPLINE
  5
4A0
100
AcDbEntity
  8
0
100
AcDbSpline
 62
7
  6
BYLAYER
 70
0
 71
3
 72
9
 73
5
 74
0
 42
0.0000001
 43
0.0000001
 44
0.0000000001
 40
0.0
 40
0.0
 40
0.0
 40
0.0
 40
0.5393147427
 40
1.0
 40
1.0
 40
1.0
 40
1.0
 10
79.5638153969
 20
93.1868340469
 30
0.0
 10
79.6275715714
 20
93.1868340469
 30
0.0
 10
79.7457858624
 20
93.1906256562
 30
0.0
 10
79.8636575546
 20
93.2018902066
 30
0.0
 10
79.9174361298
 20
93.2104836389
 30
0.0
  0
SPLINE
  5
4A1
100
AcDbEntity
  8
0
100
AcDbSpline
 62
7
  6
BYLAYER
 70
0
 71
3
 72
11
 73
7
 74
0
 42
0.0000001
 43
0.0000001
 44
0.0000000001
 40
0.0
 40
0.0
 40
0.0
 40
0.0
 40
0.2508313412
 40
0.5015423895
 40
0.7513439386
 40
1.0
 40
1.0
 40
1.0
 40
1.0
 10
39.1138153969
 20
36.3241964363
 30
0.0
 10
39.0878429492
 20
36.3241964363
 30
0.0
 10
39.0354016224
 20
36.3345957571
 30
0.0
 10
38.9687556053
 20
36.3784083636
 30
0.0
 10
38.9243805494
 20
36.4444391316
 30
0.0
 10
38.9138153969
 20
36.4965714629
 30
0.0
 10
38.9138153969
 20
36.5223186703
 30
0.0
  0
SPLINE
  5
4A2
100
AcDbEntity
  8
0
100
AcDbSpline
 62
7
  6
BYLAYER
 70
0
 71
3
 72
11
 73
7
 74
0
 42
0.0000001
 43
0.0000001
 44
0.0000000001
 40
0.0
 40
0.0
 40
0.0
 40
0.0
 40
0.2032508689
 40
0.4324235309
 40
0.6971345041
 40
1.0
 40
1.0
 40
1.0
 40
1.0
 10
75.5638153957
 20
92.4643941944
 30
0.0
 10
75.5638153951
 20
92.4119005933
 30
0.0
 10
75.58739887
 20
92.2996835512
 30
0.0
 10
75.6811896418
 20
92.1432220467
 30
0.0
 10
75.8297173079
 20
91.9981779033
 30
0.0
 10
75.9555905246
 20
91.9204618858
 30
0.0
 10
76.0259852203
 20
91.8863573012
 30
0.0
  0
SPLINE
  5
4A3
100
AcDbEntity
  8
0
100
AcDbSpline
 62
7
  6
BYLAYER
 70
0
 71
3
 72
9
 73
5
 74
0
 42
0.0000001
 43
0.0000001
 44
0.0000000001
 40
0.0
 40
0.0
 40
0.0
 40
0.0
 40
0.2360724784
 40
1.0
 40
1.0
 40
1.0
 40
1.0
 10
76.0259852203
 20
91.8863573012
 30
0.0
 10
76.0636374628
 20
91.8681156698
 30
0.0
 10
76.2272293417
 20
91.7995693537
 30
0.0
 10
76.4059428522
 20
91.7674314146
 30
0.0
 10
76.5413093066
 20
91.7649936753
 30
0.0
  0
SPLINE
  5
4A4
100
AcDbEntity
  8
0
100
AcDbSpline
 62
7
  6
BYLAYER
 70
0
 71
3
 72
9
 73
5
 74
0
 42
0.0000001
 43
0.0000001
 44
0.0000000001
 40
0.0
 40
0.0
 40
0.0
 40
0.0
 40
0.2626097444
 40
1.0
 40
1.0
 40
1.0
 40
1.0
 10
79.5865252217
 20
91.7650034862
 30
0.0
 10
79.6341899649
 20
91.765894541
 30
0.0
 10
79.815320101
 20
91.7797404412
 30
0.0
 10
79.9936810907
 20
91.8325857264
 30
0.0
 10
80.1134381298
 20
91.8923977904
 30
0.0
  0
SPLINE
  5
4A5
100
AcDbEntity
  8
0
100
AcDbSpline
 62
7
  6
BYLAYER
 70
0
 71
3
 72
11
 73
7
 74
0
 42
0.0000001
 43
0.0000001
 44
0.0000000001
 40
0.0
 40
0.0
 40
0.0
 40
0.0
 40
0.302452509
 40
0.5666579179
 40
0.7962632902
 40
1.0
 40
1.0
 40
1.0
 40
1.0
 10
80.1134381298
 20
91.8923977904
 30
0.0
 10
80.182114722
 20
91.9266979764
 30
0.0
 10
80.3050219171
 20
92.0038843224
 30
0.0
 10
80.4493202036
 20
92.1479399514
 30
0.0
 10
80.5405928016
 20
92.302214313
 30
0.0
 10
80.5638153979
 20
92.4126836079
 30
0.0
 10
80.5638153972
 20
92.4643941955
 30
0.0
  0
SPLINE
  5
4A6
100
AcDbEntity
  8
0
100
AcDbSpline
 62
7
  6
BYLAYER
 70
0
 71
3
 72
12
 73
8
 74
0
 42
0.0000001
 43
0.0000001
 44
0.0000000001
 40
0.0
 40
0.0
 40
0.0
 40
0.0
 40
0.0830057295
 40
0.1554376291
 40
0.2564424118
 40
0.5622207205
 40
1.0
 40
1.0
 40
1.0
 40
1.0
 10
33.9138153969
 20
37.0782447948
 30
0.0
 10
33.9138153969
 20
37.0840839593
 30
0.0
 10
33.9042732755
 20
37.093218613
 30
0.0
 10
33.8883642845
 20
37.1003748701
 30
0.0
 10
33.8558151353
 20
37.1106030085
 30
0.0
 10
33.7969934888
 20
37.1190668032
 30
0.0
 10
33.744611647
 20
37.1215697538
 30
0.0
 10
33.7138153969
 20
37.1215697538
 30
0.0
  0
SPLINE
  5
4A7
100
AcDbEntity
  8
0
100
AcDbSpline
 62
7
  6
BYLAYER
 70
0
 71
3
 72
12
 73
8
 74
0
 42
0.0000001
 43
0.0000001
 44
0.0000000001
 40
0.0
 40
0.0
 40
0.0
 40
0.0
 40
0.4397156748
 40
0.7446016143
 40
0.845222942
 40
0.9173831901
 40
1.0
 40
1.0
 40
1.0
 40
1.0
 10
39.1138153969
 20
37.1215697538
 30
0.0
 10
39.0828814738
 20
37.1215697538
 30
0.0
 10
39.0304194554
 20
37.1190898381
 30
0.0
 10
38.971560043
 20
37.1105287486
 30
0.0
 10
38.9391230245
 20
37.1003219641
 30
0.0
 10
38.9232761096
 20
37.0931780445
 30
0.0
 10
38.9138153969
 20
37.0840568733
 30
0.0
 10
38.9138153969
 20
37.0782447948
 30
0.0
  0
SPLINE
  5
4A8
100
AcDbEntity
  8
0
100
AcDbSpline
 62
7
  6
BYLAYER
 70
0
 71
3
 72
12
 73
8
 74
0
 42
0.0000001
 43
0.0000001
 44
0.0000000001
 40
0.0
 40
0.0
 40
0.0
 40
0.0
 40
0.0322072832
 40
0.0870774763
 40
0.2815213463
 40
0.5893095866
 40
1.0
 40
1.0
 40
1.0
 40
1.0
 10
81.6638153969
 20
83.8969854157
 30
0.0
 10
81.6638153969
 20
83.89861938
 30
0.0
 10
81.6607089326
 20
83.9025627148
 30
0.0
 10
81.6479100724
 20
83.90857517
 30
0.0
 10
81.6201152343
 20
83.915408756
 30
0.0
 10
81.5744481714
 20
83.9222860247
 30
0.0
 10
81.5381255574
 20
83.9259905524
 30
0.0
 10
81.5173687875
 20
83.9277996241
 30
0.0
  0
SPLINE
  5
4A9
100
AcDbEntity
  8
0
100
AcDbSpline
 62
7
  6
BYLAYER
 70
0
 71
3
 72
9
 73
5
 74
0
 42
0.0000001
 43
0.0000001
 44
0.0000000001
 40
0.0
 40
0.0
 40
0.0
 40
0.0
 40
0.4591809714
 40
1.0
 40
1.0
 40
1.0
 40
1.0
 10
81.5173687875
 20
83.9277996241
 30
0.0
 10
81.4634118657
 20
83.9325022797
 30
0.0
 10
81.3455590543
 20
83.9386324321
 30
0.0
 10
81.2276062618
 20
83.9405632871
 30
0.0
 10
81.1638153969
 20
83.9405632871
 30
0.0
  0
SPLINE
  5
4AA
100
AcDbEntity
  8
0
100
AcDbSpline
 62
7
  6
BYLAYER
 70
0
 71
3
 72
9
 73
5
 74
0
 42
0.0000001
 43
0.0000001
 44
0.0000000001
 40
0.0
 40
0.0
 40
0.0
 40
0.0
 40
0.5412602466
 40
1.0
 40
1.0
 40
1.0
 40
1.0
 10
81.1638153969
 20
83.2152743194
 30
0.0
 10
81.2276117451
 20
83.2152743194
 30
0.0
 10
81.345474215
 20
83.2140114191
 30
0.0
 10
81.4633273251
 20
83.2118679939
 30
0.0
 10
81.5173690422
 20
83.2101205325
 30
0.0
  0
SPLINE
  5
4AB
100
AcDbEntity
  8
0
100
AcDbSpline
 62
7
  6
BYLAYER
 70
0
 71
3
 72
17
 73
13
 74
0
 42
0.0000001
 43
0.0000001
 44
0.0000000001
 40
0.0
 40
0.0
 40
0.0
 40
0.0
 40
0.2230035948
 40
0.4213048224
 40
0.592904903
 40
0.7360887703
 40
0.8484126694
 40
0.8927701163
 40
0.9299549289
 40
0.9601494695
 40
0.9827060474
 40
1.0
 40
1.0
 40
1.0
 40
1.0
 10
81.5173690422
 20
83.2101205325
 30
0.0
 10
81.5283358239
 20
83.209765917
 30
0.0
 10
81.549058775
 20
83.2092349993
 30
0.0
 10
81.5782185812
 20
83.2083569569
 30
0.0
 10
81.6034181738
 20
83.2065681813
 30
0.0
 10
81.6242480735
 20
83.2037779438
 30
0.0
 10
81.6389014845
 20
83.2019833571
 30
0.0
 10
81.6485205463
 20
83.2024131059
 30
0.0
 10
81.6538049428
 20
83.2034832382
 30
0.0
 10
81.658278064
 20
83.205283972
 30
0.0
 10
81.6606070483
 20
83.206096707
 30
0.0
 10
81.6637893466
 20
83.2083364306
 30
0.0
 10
81.6638144963
 20
83.2074858828
 30
0.0
  0
SPLINE
  5
4AC
100
AcDbEntity
  8
0
100
AcDbSpline
 62
7
  6
BYLAYER
 70
0
 71
3
 72
15
 73
11
 74
0
 42
0.0000001
 43
0.0000001
 44
0.0000000001
 40
0.0
 40
0.0
 40
0.0
 40
0.0
 40
0.3701079814
 40
0.5379246328
 40
0.6856382919
 40
0.8081141753
 40
0.901568747
 40
0.9366647341
 40
0.9641476798
 40
1.0
 40
1.0
 40
1.0
 40
1.0
 10
81.1638153969
 20
79.0076143106
 30
0.0
 10
81.2276293909
 20
79.0076143106
 30
0.0
 10
81.3204322441
 20
79.0103532341
 30
0.0
 10
81.4382489267
 20
79.020377001
 30
0.0
 10
81.5131780558
 20
79.0300492311
 30
0.0
 10
81.574815809
 20
79.04188573
 30
0.0
 10
81.6165509469
 20
79.0534853741
 30
0.0
 10
81.6413482039
 20
79.0645387313
 30
0.0
 10
81.6555518188
 20
79.0730851302
 30
0.0
 10
81.6638153969
 20
79.0828190484
 30
0.0
 10
81.6638153969
 20
79.0890007031
 30
0.0
  0
SPLINE
  5
4AD
100
AcDbEntity
  8
0
100
AcDbSpline
 62
7
  6
BYLAYER
 70
0
 71
3
 72
13
 73
9
 74
0
 42
0.0000001
 43
0.0000001
 44
0.0000000001
 40
0.0
 40
0.0
 40
0.0
 40
0.0
 40
0.3169724419
 40
0.5993584838
 40
0.7198788555
 40
0.8250999663
 40
0.9168153837
 40
1.0
 40
1.0
 40
1.0
 40
1.0
 10
81.1638153969
 20
61.6987542479
 30
0.0
 10
81.2279219735
 20
61.6987542479
 30
0.0
 10
81.3493748716
 20
61.7103834969
 30
0.0
 10
81.4899836395
 20
61.754714487
 30
0.0
 10
81.5783701763
 20
61.8081001634
 30
0.0
 10
81.6260826317
 20
61.8519396506
 30
0.0
 10
81.6564378229
 20
61.9007936817
 30
0.0
 10
81.6638153969
 20
61.936405441
 30
0.0
 10
81.6638153969
 20
61.953229241
 30
0.0
  0
SPLINE
  5
4AE
100
AcDbEntity
  8
0
100
AcDbSpline
 62
7
  6
BYLAYER
 70
0
 71
3
 72
11
 73
7
 74
0
 42
0.0000001
 43
0.0000001
 44
0.0000000001
 40
0.0
 40
0.0
 40
0.0
 40
0.0
 40
0.2508313412
 40
0.5015423895
 40
0.7513439386
 40
1.0
 40
1.0
 40
1.0
 40
1.0
 10
33.7138153969
 20
36.3241964363
 30
0.0
 10
33.7397878446
 20
36.3241964363
 30
0.0
 10
33.7922291713
 20
36.3345957571
 30
0.0
 10
33.8588751884
 20
36.3784083636
 30
0.0
 10
33.9032502443
 20
36.4444391316
 30
0.0
 10
33.9138153969
 20
36.4965714629
 30
0.0
 10
33.9138153969
 20
36.5223186703
 30
0.0
  0
SPLINE
  5
4AF
100
AcDbEntity
  8
0
100
AcDbSpline
 62
7
  6
BYLAYER
 70
0
 71
3
 72
11
 73
7
 74
0
 42
0.0000001
 43
0.0000001
 44
0.0000000001
 40
0.0
 40
0.0
 40
0.0
 40
0.0
 40
0.2486560614
 40
0.4984576105
 40
0.7491686588
 40
1.0
 40
1.0
 40
1.0
 40
1.0
 10
9.6638153969
 20
36.5223186703
 30
0.0
 10
9.6638153969
 20
36.4965714629
 30
0.0
 10
9.6743805494
 20
36.4444391316
 30
0.0
 10
9.7187556053
 20
36.3784083636
 30
0.0
 10
9.7854016224
 20
36.3345957571
 30
0.0
 10
9.8378429492
 20
36.3241964363
 30
0.0
 10
9.8638153969
 20
36.3241964363
 30
0.0
  0
SPLINE
  5
4B0
100
AcDbEntity
  8
0
100
AcDbSpline
 62
7
  6
BYLAYER
 70
0
 71
3
 72
13
 73
9
 74
0
 42
0.0000001
 43
0.0000001
 44
0.0000000001
 40
0.0
 40
0.0
 40
0.0
 40
0.0
 40
0.0200476105
 40
0.0701756067
 40
0.1517176118
 40
0.2642691248
 40
0.578317724
 40
1.0
 40
1.0
 40
1.0
 40
1.0
 10
9.6638153969
 20
38.2425996824
 30
0.0
 10
9.6638153969
 20
38.2422053191
 30
0.0
 10
9.6655937693
 20
38.241658103
 30
0.0
 10
9.6681073284
 20
38.2411038565
 30
0.0
 10
9.673098509
 20
38.2404645425
 30
0.0
 10
9.6829187158
 20
38.2395454697
 30
0.0
 10
9.6996776528
 20
38.2385438076
 30
0.0
 10
9.7141040331
 20
38.2379534654
 30
0.0
 10
9.7223940406
 20
38.2376641483
 30
0.0
  0
SPLINE
  5
4B1
100
AcDbEntity
  8
0
100
AcDbSpline
 62
7
  6
BYLAYER
 70
0
 71
3
 72
9
 73
5
 74
0
 42
0.0000001
 43
0.0000001
 44
0.0000000001
 40
0.0
 40
0.0
 40
0.0
 40
0.0
 40
0.537340577
 40
1.0
 40
1.0
 40
1.0
 40
1.0
 10
35.7057041801
 20
36.2866358347
 30
0.0
 10
35.539640217
 20
36.2808889169
 30
0.0
 10
35.2307152717
 20
36.2663803757
 30
0.0
 10
34.9222940485
 20
36.2428207536
 30
0.0
 10
34.7799510665
 20
36.2284207897
 30
0.0
  0
SPLINE
  5
4B2
100
AcDbEntity
  8
0
100
AcDbSpline
 62
7
  6
BYLAYER
 70
0
 71
3
 72
9
 73
5
 74
0
 42
0.0000001
 43
0.0000001
 44
0.0000000001
 40
0.0
 40
0.0
 40
0.0
 40
0.0
 40
0.5819692148
 40
1.0
 40
1.0
 40
1.0
 40
1.0
 10
34.6316394119
 20
36.2118587188
 30
0.0
 10
34.5593229151
 20
36.2029181814
 30
0.0
 10
34.4353888433
 20
36.1851758353
 30
0.0
 10
34.312470402
 20
36.1598804833
 30
0.0
 10
34.2622372339
 20
36.145177503
 30
0.0
  0
SPLINE
  5
4B3
100
AcDbEntity
  8
0
100
AcDbSpline
 62
7
  6
BYLAYER
 70
0
 71
3
 72
16
 73
12
 74
0
 42
0.0000001
 43
0.0000001
 44
0.0000000001
 40
0.0
 40
0.0
 40
0.0
 40
0.0
 40
0.1994663496
 40
0.3521097599
 40
0.4604839726
 40
0.5332576439
 40
0.5643438926
 40
0.5980820868
 40
0.6879546254
 40
0.8202045863
 40
1.0
 40
1.0
 40
1.0
 40
1.0
 10
34.2622372339
 20
36.145177503
 30
0.0
 10
34.247374661
 20
36.1408273073
 30
0.0
 10
34.2213313435
 20
36.1324792633
 30
0.0
 10
34.1884275413
 20
36.1181013226
 30
0.0
 10
34.1665316969
 20
36.104260614
 30
0.0
 10
34.1560965147
 20
36.0899890786
 30
0.0
 10
34.1563357522
 20
36.0789341893
 30
0.0
 10
34.1616703753
 20
36.0678801851
 30
0.0
 10
34.1778098057
 20
36.0552077371
 30
0.0
 10
34.2060180374
 20
36.0419953207
 30
0.0
 10
34.2291462123
 20
36.0344669355
 30
0.0
 10
34.2425513291
 20
36.0305740729
 30
0.0
  0
SPLINE
  5
4B4
100
AcDbEntity
  8
0
100
AcDbSpline
 62
7
  6
BYLAYER
 70
0
 71
3
 72
13
 73
9
 74
0
 42
0.0000001
 43
0.0000001
 44
0.0000000001
 40
0.0
 40
0.0
 40
0.0
 40
0.0
 40
0.0602554538
 40
0.144242493
 40
0.2501640087
 40
0.3753945708
 40
0.6705779999
 40
1.0
 40
1.0
 40
1.0
 40
1.0
 10
34.2425513291
 20
36.0305740729
 30
0.0
 10
34.2845666704
 20
36.0183727653
 30
0.0
 10
34.3876157752
 20
35.9981907401
 30
0.0
 10
34.5676353055
 20
35.9741558553
 30
0.0
 10
34.7955608032
 20
35.9530898207
 30
0.0
 10
35.176913093
 20
35.927923796
 30
0.0
 10
35.7211274358
 20
35.908337299
 30
0.0
 10
36.174655918
 20
35.9032827456
 30
0.0
 10
36.4138472557
 20
35.9032678013
 30
0.0
  0
SPLINE
  5
4B5
100
AcDbEntity
  8
0
100
AcDbSpline
 62
7
  6
BYLAYER
 70
0
 71
3
 72
13
 73
9
 74
0
 42
0.0000001
 43
0.0000001
 44
0.0000000001
 40
0.0
 40
0.0
 40
0.0
 40
0.0
 40
0.0960557819
 40
0.19767271
 40
0.3081987645
 40
0.4293690522
 40
0.7016491475
 40
1.0
 40
1.0
 40
1.0
 40
1.0
 10
9.6638153969
 20
46.6005484282
 30
0.0
 10
9.6638156807
 20
46.5798464975
 30
0.0
 10
9.67080414
 20
46.5370124758
 30
0.0
 10
9.7004650008
 20
46.476678655
 30
0.0
 10
9.7479889569
 20
46.4219196029
 30
0.0
 10
9.8351938605
 20
46.3561276566
 30
0.0
 10
9.9760783769
 20
46.3000291342
 30
0.0
 10
10.0995148568
 20
46.2853096774
 30
0.0
 10
10.1638153969
 20
46.2853096774
 30
0.0
  0
SPLINE
  5
4B6
100
AcDbEntity
  8
0
100
AcDbSpline
 62
7
  6
BYLAYER
 70
0
 71
3
 72
13
 73
9
 74
0
 42
0.0000001
 43
0.0000001
 44
0.0000000001
 40
0.0
 40
0.0
 40
0.0
 40
0.0
 40
0.3155286316
 40
0.5971046367
 40
0.7176569702
 40
0.8232784813
 40
0.9157749774
 40
1.0
 40
1.0
 40
1.0
 40
1.0
 10
10.1638153969
 20
50.3339714081
 30
0.0
 10
10.0996970248
 20
50.3339714081
 30
0.0
 10
9.9781113178
 20
50.3458248258
 30
0.0
 10
9.8374701352
 20
50.3910251039
 30
0.0
 10
9.7491626055
 20
50.4453541199
 30
0.0
 10
9.7014528619
 20
50.4900216635
 30
0.0
 10
9.6711545256
 20
50.5397544954
 30
0.0
 10
9.6638153969
 20
50.5759058211
 30
0.0
 10
9.6638153969
 20
50.5930211343
 30
0.0
  0
SPLINE
  5
4B7
100
AcDbEntity
  8
0
100
AcDbSpline
 62
7
  6
BYLAYER
 70
0
 71
3
 72
14
 73
10
 74
0
 42
0.0000001
 43
0.0000001
 44
0.0000000001
 40
0.0
 40
0.0
 40
0.0
 40
0.0
 40
0.329398649
 40
0.4833169529
 40
0.6245970758
 40
0.7498379611
 40
0.8557609968
 40
0.9397420521
 40
1.0
 40
1.0
 40
1.0
 40
1.0
 10
36.4138472527
 20
35.9032676984
 30
0.0
 10
36.6529869393
 20
35.9032527573
 30
0.0
 10
37.0038965267
 20
35.9070816871
 30
0.0
 10
37.4571406992
 20
35.9210928218
 30
0.0
 10
37.7620649646
 20
35.9352800654
 30
0.0
 10
38.0318764899
 20
35.9530792653
 30
0.0
 10
38.259776005
 20
35.9741138714
 30
0.0
 10
38.4397680332
 20
35.9981500503
 30
0.0
 10
38.5427972341
 20
36.0183391103
 30
0.0
 10
38.5848082852
 20
36.0305389261
 30
0.0
  0
SPLINE
  5
4B8
100
AcDbEntity
  8
0
100
AcDbSpline
 62
7
  6
BYLAYER
 70
0
 71
3
 72
15
 73
11
 74
0
 42
0.0000001
 43
0.0000001
 44
0.0000000001
 40
0.0
 40
0.0
 40
0.0
 40
0.0
 40
0.1819105599
 40
0.3163108228
 40
0.4081836505
 40
0.4728644921
 40
0.5449990369
 40
0.6518259332
 40
0.8025656196
 40
1.0
 40
1.0
 40
1.0
 40
1.0
 10
38.5848082852
 20
36.0305389261
 30
0.0
 10
38.5980960627
 20
36.0343976355
 30
0.0
 10
38.6211034629
 20
36.0417848947
 30
0.0
 10
38.6490766181
 20
36.0551279036
 30
0.0
 10
38.6674163734
 20
36.0685182922
 30
0.0
 10
38.6733774927
 20
36.0868247605
 30
0.0
 10
38.6618448575
 20
36.1034424968
 30
0.0
 10
38.6409489826
 20
36.1170890519
 30
0.0
 10
38.6091823796
 20
36.1313464202
 30
0.0
 10
38.5840171437
 20
36.1395885395
 30
0.0
 10
38.5696293878
 20
36.1438917948
 30
0.0
  0
SPLINE
  5
4B9
100
AcDbEntity
  8
0
100
AcDbSpline
 62
7
  6
BYLAYER
 70
0
 71
3
 72
9
 73
5
 74
0
 42
0.0000001
 43
0.0000001
 44
0.0000000001
 40
0.0
 40
0.0
 40
0.0
 40
0.0
 40
0.4163673257
 40
1.0
 40
1.0
 40
1.0
 40
1.0
 10
38.5696293878
 20
36.1438917948
 30
0.0
 10
38.5196431989
 20
36.1588422382
 30
0.0
 10
38.3966588547
 20
36.1844254934
 30
0.0
 10
38.2726509598
 20
36.2023174529
 30
0.0
 10
38.2000767451
 20
36.2113466859
 30
0.0
  0
SPLINE
  5
4BA
100
AcDbEntity
  8
0
100
AcDbSpline
 62
7
  6
BYLAYER
 70
0
 71
3
 72
9
 73
5
 74
0
 42
0.0000001
 43
0.0000001
 44
0.0000000001
 40
0.0
 40
0.0
 40
0.0
 40
0.0
 40
0.4621486756
 40
1.0
 40
1.0
 40
1.0
 40
1.0
 10
38.0538945013
 20
36.227787397
 30
0.0
 10
37.9106562124
 20
36.2423926099
 30
0.0
 10
37.5999325478
 20
36.2662344782
 30
0.0
 10
37.2886966514
 20
36.28087215
 30
0.0
 10
37.1212307991
 20
36.2866615055
 30
0.0
  0
SPLINE
  5
4BB
100
AcDbEntity
  8
0
100
AcDbSpline
 62
7
  6
BYLAYER
 70
0
 71
3
 72
10
 73
6
 74
0
 42
0.0000001
 43
0.0000001
 44
0.0000000001
 40
0.0
 40
0.0
 40
0.0
 40
0.0
 40
0.6120650517
 40
0.8351720585
 40
1.0
 40
1.0
 40
1.0
 40
1.0
 10
34.6529203266
 20
35.7285604868
 30
0.0
 10
34.5583487706
 20
35.7224907017
 30
0.0
 10
34.4293338997
 20
35.71302288
 30
0.0
 10
34.2754649683
 20
35.6957727033
 30
0.0
 10
34.2160159715
 20
35.6868995357
 30
0.0
 10
34.1909698858
 20
35.6820024625
 30
0.0
  0
SPLINE
  5
4BC
100
AcDbEntity
  8
0
100
AcDbSpline
 62
7
  6
BYLAYER
 70
0
 71
3
 72
16
 73
12
 74
0
 42
0.0000001
 43
0.0000001
 44
0.0000000001
 40
0.0
 40
0.0
 40
0.0
 40
0.0
 40
0.3601618466
 40
0.4610515622
 40
0.5157012535
 40
0.5374080075
 40
0.5659041411
 40
0.6054704215
 40
0.6576493668
 40
0.8017893069
 40
1.0
 40
1.0
 40
1.0
 40
1.0
 10
34.1909698858
 20
35.6820024625
 30
0.0
 10
34.1748548456
 20
35.6788516097
 30
0.0
 10
34.1536705323
 20
35.6741439451
 30
0.0
 10
34.1326882481
 20
35.6658181188
 30
0.0
 10
34.1254705649
 20
35.659623765
 30
0.0
 10
34.1267289512
 20
35.6545856645
 30
0.0
 10
34.1298359414
 20
35.6517591411
 30
0.0
 10
34.1345742247
 20
35.649000771
 30
0.0
 10
34.1445735719
 20
35.6449507298
 30
0.0
 10
34.1619973404
 20
35.6403388045
 30
0.0
 10
34.1773317148
 20
35.6374071981
 30
0.0
 10
34.1862396025
 20
35.6358871518
 30
0.0
  0
SPLINE
  5
4BD
100
AcDbEntity
  8
0
100
AcDbSpline
 62
7
  6
BYLAYER
 70
0
 71
3
 72
11
 73
7
 74
0
 42
0.0000001
 43
0.0000001
 44
0.0000000001
 40
0.0
 40
0.0
 40
0.0
 40
0.0
 40
0.1471743769
 40
0.3666979338
 40
0.6535036072
 40
1.0
 40
1.0
 40
1.0
 40
1.0
 10
34.1862396025
 20
35.6358871518
 30
0.0
 10
34.2259821958
 20
35.6291054564
 30
0.0
 10
34.3260655902
 20
35.6190226221
 30
0.0
 10
34.5046546498
 20
35.607168356
 30
0.0
 10
34.738105198
 20
35.5972277851
 30
0.0
 10
34.9115154965
 20
35.5921896373
 30
0.0
 10
35.0064062794
 20
35.5898558534
 30
0.0
  0
SPLINE
  5
4BE
100
AcDbEntity
  8
0
100
AcDbSpline
 62
7
  6
BYLAYER
 70
0
 71
3
 72
9
 73
5
 74
0
 42
0.0000001
 43
0.0000001
 44
0.0000000001
 40
0.0
 40
0.0
 40
0.0
 40
0.0
 40
0.236149386
 40
1.0
 40
1.0
 40
1.0
 40
1.0
 10
35.3235154188
 20
35.5834504321
 30
0.0
 10
35.4093440145
 20
35.5820461392
 30
0.0
 10
35.7728106305
 20
35.5771009828
 30
0.0
 10
36.1363167297
 20
35.5753718198
 30
0.0
 10
36.4139757206
 20
35.5753622034
 30
0.0
  0
SPLINE
  5
4BF
100
AcDbEntity
  8
0
100
AcDbSpline
 62
7
  6
BYLAYER
 70
0
 71
3
 72
9
 73
5
 74
0
 42
0.0000001
 43
0.0000001
 44
0.0000000001
 40
0.0
 40
0.0
 40
0.0
 40
0.0
 40
0.2601719135
 40
1.0
 40
1.0
 40
1.0
 40
1.0
 10
36.4379506707
 20
35.5753646023
 30
0.0
 10
36.5303548816
 20
35.5753882412
 30
0.0
 10
36.8855195663
 20
35.576091169
 30
0.0
 10
37.2406864172
 20
35.5790708857
 30
0.0
 10
37.5034124435
 20
35.583404856
 30
0.0
  0
SPLINE
  5
4C0
100
AcDbEntity
  8
0
100
AcDbSpline
 62
7
  6
BYLAYER
 70
0
 71
3
 72
11
 73
7
 74
0
 42
0.0000001
 43
0.0000001
 44
0.0000000001
 40
0.0
 40
0.0
 40
0.0
 40
0.0
 40
0.3415154887
 40
0.6275001906
 40
0.8496946549
 40
1.0
 40
1.0
 40
1.0
 40
1.0
 10
37.8198731502
 20
35.589859834
 30
0.0
 10
37.9131676964
 20
35.5921752186
 30
0.0
 10
38.0845625607
 20
35.597192492
 30
0.0
 10
38.3165853566
 20
35.606883823
 30
0.0
 10
38.4961174152
 20
35.6183406234
 30
0.0
 10
38.5975747667
 20
35.628083018
 30
0.0
 10
38.6380990172
 20
35.6347731212
 30
0.0
  0
SPLINE
  5
4C1
100
AcDbEntity
  8
0
100
AcDbSpline
 62
7
  6
BYLAYER
 70
0
 71
3
 72
17
 73
13
 74
0
 42
0.0000001
 43
0.0000001
 44
0.0000000001
 40
0.0
 40
0.0
 40
0.0
 40
0.0
 40
0.2049644819
 40
0.3526429839
 40
0.4058948055
 40
0.4463285938
 40
0.4756198922
 40
0.497903514
 40
0.5513674073
 40
0.6489709363
 40
0.7981194918
 40
1.0
 40
1.0
 40
1.0
 40
1.0
 10
38.6380990172
 20
35.6347731212
 30
0.0
 10
38.6473549724
 20
35.6363011765
 30
0.0
 10
38.6632261143
 20
35.6392539261
 30
0.0
 10
38.6812414592
 20
35.6439675535
 30
0.0
 10
38.6915126185
 20
35.6481151211
 30
0.0
 10
38.6963920111
 20
35.6509414536
 30
0.0
 10
38.6995793333
 20
35.6538247375
 30
0.0
 10
38.7010734775
 20
35.6588122216
 30
0.0
 10
38.6943802234
 20
35.6653043237
 30
0.0
 10
38.6821395021
 20
35.6703211137
 30
0.0
 10
38.6622427573
 20
35.676479739
 30
0.0
 10
38.6466061139
 20
35.6798574996
 30
0.0
 10
38.6375484865
 20
35.6816846764
 30
0.0
  0
SPLINE
  5
4C2
100
AcDbEntity
  8
0
100
AcDbSpline
 62
7
  6
BYLAYER
 70
0
 71
3
 72
10
 73
6
 74
0
 42
0.0000001
 43
0.0000001
 44
0.0000000001
 40
0.0
 40
0.0
 40
0.0
 40
0.0
 40
0.1647850638
 40
0.3873472316
 40
1.0
 40
1.0
 40
1.0
 40
1.0
 10
38.6375484865
 20
35.6816846764
 30
0.0
 10
38.6141175661
 20
35.6864113483
 30
0.0
 10
38.5585481104
 20
35.6950006576
 30
0.0
 10
38.4144526559
 20
35.7116919183
 30
0.0
 10
38.2935923416
 20
35.7208168946
 30
0.0
 10
38.2049171329
 20
35.7266738273
 30
0.0
  0
SPLINE
  5
4C3
100
AcDbEntity
  8
0
100
AcDbSpline
 62
7
  6
BYLAYER
 70
0
 71
3
 72
13
 73
9
 74
0
 42
0.0000001
 43
0.0000001
 44
0.0000000001
 40
0.0
 40
0.0
 40
0.0
 40
0.0
 40
0.3169724419
 40
0.5993584838
 40
0.7198788555
 40
0.8250999663
 40
0.9168153837
 40
1.0
 40
1.0
 40
1.0
 40
1.0
 10
10.1638153969
 20
61.6987542478
 30
0.0
 10
10.0997088202
 20
61.6987542478
 30
0.0
 10
9.9782559221
 20
61.7103834968
 30
0.0
 10
9.8376471542
 20
61.7547144869
 30
0.0
 10
9.7492606174
 20
61.8081001633
 30
0.0
 10
9.701548162
 20
61.8519396506
 30
0.0
 10
9.6711929708
 20
61.9007936816
 30
0.0
 10
9.6638153969
 20
61.9364054409
 30
0.0
 10
9.6638153969
 20
61.953229241
 30
0.0
  0
SPLINE
  5
4C4
100
AcDbEntity
  8
0
100
AcDbSpline
 62
7
  6
BYLAYER
 70
0
 71
3
 72
15
 73
11
 74
0
 42
0.0000001
 43
0.0000001
 44
0.0000000001
 40
0.0
 40
0.0
 40
0.0
 40
0.0
 40
0.01718101
 40
0.0669275388
 40
0.1486115411
 40
0.2610414551
 40
0.4035588704
 40
0.5756972378
 40
0.7755488816
 40
1.0
 40
1.0
 40
1.0
 40
1.0
 10
9.6638163477
 20
83.2077314239
 30
0.0
 10
9.6638418818
 20
83.2085719328
 30
0.0
 10
9.6689415392
 20
83.2078839553
 30
0.0
 10
9.6744096834
 20
83.2072155643
 30
0.0
 10
9.6872377454
 20
83.2056381957
 30
0.0
 10
9.7032822262
 20
83.2048551245
 30
0.0
 10
9.7243575453
 20
83.2048345073
 30
0.0
 10
9.7494419356
 20
83.2064323743
 30
0.0
 10
9.7785550834
 20
83.2087822551
 30
0.0
 10
9.7992905302
 20
83.2099578331
 30
0.0
 10
9.8102702326
 20
83.2103114667
 30
0.0
  0
SPLINE
  5
4C5
100
AcDbEntity
  8
0
100
AcDbSpline
 62
7
  6
BYLAYER
 70
0
 71
3
 72
9
 73
5
 74
0
 42
0.0000001
 43
0.0000001
 44
0.0000000001
 40
0.0
 40
0.0
 40
0.0
 40
0.0
 40
0.4587437941
 40
1.0
 40
1.0
 40
1.0
 40
1.0
 10
9.8102702326
 20
83.2103114667
 30
0.0
 10
9.8643109444
 20
83.2120520069
 30
0.0
 10
9.9821624311
 20
83.2141210094
 30
0.0
 10
10.1000215358
 20
83.2152743194
 30
0.0
 10
10.1638153969
 20
83.2152743194
 30
0.0
  0
SPLINE
  5
4C6
100
AcDbEntity
  8
0
100
AcDbSpline
 62
7
  6
BYLAYER
 70
0
 71
3
 72
15
 73
11
 74
0
 42
0.0000001
 43
0.0000001
 44
0.0000000001
 40
0.0
 40
0.0
 40
0.0
 40
0.0
 40
0.3701079814
 40
0.5379246328
 40
0.6856382919
 40
0.8081141753
 40
0.901568747
 40
0.9366647341
 40
0.9641476798
 40
1.0
 40
1.0
 40
1.0
 40
1.0
 10
10.1638153969
 20
79.0076143106
 30
0.0
 10
10.1000014028
 20
79.0076143106
 30
0.0
 10
10.0071985496
 20
79.0103532341
 30
0.0
 10
9.889381867
 20
79.020377001
 30
0.0
 10
9.8144527379
 20
79.0300492311
 30
0.0
 10
9.7528149848
 20
79.04188573
 30
0.0
 10
9.7110798468
 20
79.0534853741
 30
0.0
 10
9.6862825898
 20
79.0645387313
 30
0.0
 10
9.6720789749
 20
79.0730851302
 30
0.0
 10
9.6638153969
 20
79.0828190484
 30
0.0
 10
9.6638153969
 20
79.0890007031
 30
0.0
  0
SPLINE
  5
4C7
100
AcDbEntity
  8
0
100
AcDbSpline
 62
7
  6
BYLAYER
 70
0
 71
3
 72
9
 73
5
 74
0
 42
0.0000001
 43
0.0000001
 44
0.0000000001
 40
0.0
 40
0.0
 40
0.0
 40
0.0
 40
0.5408190286
 40
1.0
 40
1.0
 40
1.0
 40
1.0
 10
10.1638153969
 20
83.9405632871
 30
0.0
 10
10.1000245319
 20
83.9405632871
 30
0.0
 10
9.9820717394
 20
83.9386324321
 30
0.0
 10
9.8642189281
 20
83.9325022797
 30
0.0
 10
9.8102620063
 20
83.9277996241
 30
0.0
  0
SPLINE
  5
4C8
100
AcDbEntity
  8
0
100
AcDbSpline
 62
7
  6
BYLAYER
 70
0
 71
3
 72
10
 73
6
 74
0
 42
0.0000001
 43
0.0000001
 44
0.0000000001
 40
0.0
 40
0.0
 40
0.0
 40
0.0
 40
0.5494515984
 40
0.7925602473
 40
1.0
 40
1.0
 40
1.0
 40
1.0
 10
36.4138170613
 20
36.181564006
 30
0.0
 10
36.1424819805
 20
36.1815837996
 30
0.0
 10
35.7510039356
 20
36.1877187515
 30
0.0
 10
35.2577393811
 20
36.2119146288
 30
0.0
 10
35.0358531789
 20
36.2291943009
 30
0.0
 10
34.9339493745
 20
36.2396593011
 30
0.0
  0
SPLINE
  5
4C9
100
AcDbEntity
  8
0
100
AcDbSpline
 62
7
  6
BYLAYER
 70
0
 71
3
 72
12
 73
8
 74
0
 42
0.0000001
 43
0.0000001
 44
0.0000000001
 40
0.0
 40
0.0
 40
0.0
 40
0.0
 40
0.4106904134
 40
0.7184786538
 40
0.9129225237
 40
0.9677927168
 40
1.0
 40
1.0
 40
1.0
 40
1.0
 10
9.8102620063
 20
83.9277996241
 30
0.0
 10
9.7895052363
 20
83.9259905524
 30
0.0
 10
9.7531826223
 20
83.9222860247
 30
0.0
 10
9.7075155594
 20
83.915408756
 30
0.0
 10
9.6797207213
 20
83.90857517
 30
0.0
 10
9.6669218612
 20
83.9025627148
 30
0.0
 10
9.6638153969
 20
83.89861938
 30
0.0
 10
9.6638153969
 20
83.8969854157
 30
0.0
  0
SPLINE
  5
4CA
100
AcDbEntity
  8
0
100
AcDbSpline
 62
7
  6
BYLAYER
 70
0
 71
3
 72
13
 73
9
 74
0
 42
0.0000001
 43
0.0000001
 44
0.0000000001
 40
0.0
 40
0.0
 40
0.0
 40
0.0
 40
0.3155286316
 40
0.5971046367
 40
0.7176569702
 40
0.8232784813
 40
0.9157749774
 40
1.0
 40
1.0
 40
1.0
 40
1.0
 10
81.1638153969
 20
50.3339714081
 30
0.0
 10
81.227933769
 20
50.3339714081
 30
0.0
 10
81.3495194759
 20
50.3458248258
 30
0.0
 10
81.4901606585
 20
50.3910251039
 30
0.0
 10
81.5784681882
 20
50.4453541199
 30
0.0
 10
81.6261779318
 20
50.4900216635
 30
0.0
 10
81.6564762681
 20
50.5397544954
 30
0.0
 10
81.6638153969
 20
50.5759058211
 30
0.0
 10
81.6638153969
 20
50.5930211343
 30
0.0
  0
SPLINE
  5
4CB
100
AcDbEntity
  8
0
100
AcDbSpline
 62
7
  6
BYLAYER
 70
0
 71
3
 72
11
 73
7
 74
0
 42
0.0000001
 43
0.0000001
 44
0.0000000001
 40
0.0
 40
0.0
 40
0.0
 40
0.0
 40
0.2667355552
 40
0.5240501159
 40
0.7673050835
 40
1.0
 40
1.0
 40
1.0
 40
1.0
 10
10.1638167705
 20
92.4643889107
 30
0.0
 10
10.0992577457
 20
92.4643894314
 30
0.0
 10
9.971309661
 20
92.4431007895
 30
0.0
 10
9.8059962003
 20
92.3500404765
 30
0.0
 10
9.6919856903
 20
92.2077038319
 30
0.0
 10
9.664047377
 20
92.0911628246
 30
0.0
 10
9.6638183935
 20
92.034843251
 30
0.0
  0
SPLINE
  5
4CC
100
AcDbEntity
  8
0
100
AcDbSpline
 62
7
  6
BYLAYER
 70
0
 71
3
 72
13
 73
9
 74
0
 42
0.0000001
 43
0.0000001
 44
0.0000000001
 40
0.0
 40
0.0
 40
0.0
 40
0.0
 40
0.2981927672
 40
0.5703310965
 40
0.6915553405
 40
0.8021769214
 40
0.9038887675
 40
1.0
 40
1.0
 40
1.0
 40
1.0
 10
81.1638153968
 20
46.2853096774
 30
0.0
 10
81.2280856469
 20
46.2853096774
 30
0.0
 10
81.3514651402
 20
46.300009304
 30
0.0
 10
81.4923143272
 20
46.3560670388
 30
0.0
 10
81.5795477084
 20
46.4218321761
 30
0.0
 10
81.6271318421
 20
46.4766189737
 30
0.0
 10
81.6568065154
 20
46.53700966
 30
0.0
 10
81.6638153969
 20
46.5798757167
 30
0.0
 10
81.6638153969
 20
46.6005908165
 30
0.0
  0
SPLINE
  5
4CD
100
AcDbEntity
  8
0
100
AcDbSpline
 62
7
  6
BYLAYER
 70
0
 71
3
 72
10
 73
6
 74
0
 42
0.0000001
 43
0.0000001
 44
0.0000000001
 40
0.0
 40
0.0
 40
0.0
 40
0.0
 40
0.2074062268
 40
0.4505197707
 40
1.0
 40
1.0
 40
1.0
 40
1.0
 10
37.8941340239
 20
36.2396990341
 30
0.0
 10
37.7922156565
 20
36.229233574
 30
0.0
 10
37.5702742146
 20
36.2119748411
 30
0.0
 10
37.0768628904
 20
36.1877334409
 30
0.0
 10
36.6852486473
 20
36.1815443851
 30
0.0
 10
36.4138170613
 20
36.1815641857
 30
0.0
  0
ENDSEC
  0
SECTION
  2
OBJECTS
  0
DICTIONARY
  5
C
100
AcDbDictionary
280
0
281
1
  3
ACAD_GROUP
350
D
  3
ACAD_MLINESTYLE
350
17
  3
ACAD_LAYOUT
350
1A
  3
ACAD_PLOTSETTINGS
350
19
  3
ACAD_PLOTSTYLENAME
350
E
  0
DICTIONARY
  5
D
102
{ACAD_REACTORS
330
C
102
}
100
AcDbDictionary
280
0
281
1
  0
ACDBDICTIONARYWDFLT
  5
E
102
{ACAD_REACTORS
330
C
102
}
100
AcDbDictionary
281
1
  3
Normal
350
F
100
AcDbDictionaryWithDefault
340
F
  0
DICTIONARY
  5
17
102
{ACAD_REACTORS
330
C
102
}
100
AcDbDictionary
280
0
281
1
  3
Standard
350
18
  0
DICTIONARY
  5
19
102
{ACAD_REACTORS
330
C
102
}
100
AcDbDictionary
281
1
  0
DICTIONARY
  5
1A
102
{ACAD_REACTORS
330
C
102
}
100
AcDbDictionary
281
1
  3
Model
350
4CE
  3
Layout1
350
4CF
  0
ACDBPLACEHOLDER
  5
F
102
{ACAD_REACTORS
330
E
102
}
  0
MLINESTYLE
  5
18
102
{ACAD_REACTORS
330
17
102
}
100
AcDbMlineStyle
  2
STANDARD
 70
0
  3

 62
256
 51
90.0
 52
90.0
 71
2
 49
0.5
 62
256
  6
BYLAYER
 49
-0.5
 62
256
  6
BYLAYER
  0
LAYOUT
  5
4CE
102
{ACAD_REACTORS
330
1A
102
}
100
AcDbPlotSettings
  1

  2
none_device
  4

  6

 40
0.0
 41
0.0
 42
0.0
 43
0.0
 44
210.0
 45
297.0
 46
0.0
 47
0.0
 48
0.0
 49
0.0
140
0.0
141
0.0
142
1.0
143
1.0
 70
1024
 72
1
 73
0
 74
0
  7

 75
0
147
1.0
148
0.0
149
0.0
100
AcDbLayout
  1
Model
 70
0
 71
0
 10
0.0
 20
0.0
 11
210.0
 21
297.0
 12
0.0
 22
0.0
 32
0.0
 14
0.0
 24
0.0
 34
0.0
 15
0.0
 25
0.0
 35
0.0
146
0.0
 13
0.0
 23
0.0
 33
0.0
 16
1.0
 26
0.0
 36
0.0
 17
0.0
 27
1.0
 37
0.0
 76
0
330
210
345
0
346
0
  0
LAYOUT
  5
4CF
102
{ACAD_REACTORS
330
1A
102
}
100
AcDbPlotSettings
  1

  2
none_device
  4

  6

 40
0.0
 41
0.0
 42
0.0
 43
0.0
 44
210.0
 45
297.0
 46
0.0
 47
0.0
 48
0.0
 49
0.0
140
0.0
141
0.0
142
1.0
143
1.0
 70
0
 72
1
 73
0
 74
0
  7

 75
0
147
1.0
148
0.0
149
0.0
100
AcDbLayout
  1
Layout1
 70
0
 71
1
 10
0.0
 20
0.0
 11
210.0
 21
297.0
 12
0.0
 22
0.0
 32
0.0
 14
0.0
 24
0.0
 34
0.0
 15
0.0
 25
0.0
 35
0.0
146
0.0
 13
0.0
 23
0.0
 33
0.0
 16
1.0
 26
0.0
 36
0.0
 17
0.0
 27
1.0
 37
0.0
 76
0
330
211
345
0
346
0
  0
ENDSEC
  0
EOF
