999
DXF file: C:\Users\sesa63760\Dev\_Creo\CAD\MCADID0004115_3D-CAD\drw0001_1.dxf
999
Pro/ENGINEER 2019471 by Parametric Technology Corporation
  0
SECTION
  2
HEADER
  9
$ACADVER
  1
AC1024
  9
$DWGCODEPAGE
  3
ANSI_1252
  9
$EXTMAX
 10
47.7575021927
 20
67.5427531012
 30
0.0
  9
$EXTMIN
 10
0.0
 20
0.0
 30
0.0
  9
$LIMMIN
 10
0.0
 20
0.0
  9
$LIMMAX
 10
47.7575021927
 20
67.5427531012
  9
$VIEWCTR
 10
23.8787510964
 20
33.7713765506
  9
$VIEWSIZE
 40
67.5427531012
  9
$CLAYER
  8
0
  9
$LTSCALE
 40
4.4027868688
  9
$CELTYPE
  6
BYLAYER
  9
$DIMSCALE
 40
1.0
  9
$DIMASZ
 40
0.5685416928
  9
$DIMEXO
 40
1.0
  9
$DIMDLI
 40
3.041925473
  9
$DIMEXE
 40
1.0
  9
$DIMCEN
 40
0.7204560331
  9
$DIMLFAC
 40
1.0
  9
$DIMBLK
  1
_FILLED
  9
$DIMALT
 70
0
  9
$DIMALTF
 40
0.0393700787
  9
$DIMTXT
 40
0.7959583699
  9
$DIMTOL
 70
1
  9
$DIMLIM
 70
0
  9
$DIMTFAC
 40
1.0
  9
$DIMTP
 40
0.01
  9
$DIMTM
 40
0.01
  9
$DIMGAP
 40
0.625
  9
$DIMDSEP
 70
46
  9
$AUNITS
 70
0
  9
$PDMODE
 70
3
  9
$PDSIZE
 40
0.3125
  9
$HANDSEED
  5
286
  9
$TILEMODE
 70
1
  9
$MEASUREMENT
 70
1
  9
$INSUNITS
 70
4
  0
ENDSEC
  0
SECTION
  2
CLASSES
  0
CLASS
  1
ACDBDICTIONARYWDFLT
  2
AcDbDictionaryWithDefault
  3
AutoCAD 2000
 90
0
 91
1
280
0
281
0
  0
CLASS
  1
ACDBPLACEHOLDER
  2
AcDbPlaceHolder
  3
AutoCAD 2000
 90
0
 91
1
280
0
281
0
  0
CLASS
  1
LAYOUT
  2
AcDbLayout
  3
AutoCAD 2000
 90
0
 91
0
280
0
281
0
  0
ENDSEC
  0
SECTION
  2
TABLES
  0
TABLE
  2
VPORT
  5
8
100
AcDbSymbolTable
 70
2
  0
VPORT
  5
1F4
100
AcDbSymbolTableRecord
100
AcDbViewportTableRecord
  2
*ACTIVE
 70
0
 10
0.0
 20
0.0
 11
1.0
 21
1.0
 12
23.8787510964
 22
33.7713765506
 13
0.0
 23
0.0
 14
1.0
 24
1.0
 15
0.0
 25
0.0
 16
0.0
 26
0.0
 36
1.0
 17
0.0
 27
0.0
 37
0.0
 40
67.5427531012
 41
0.7070707071
 42
50.0
 43
0.0
 44
0.0
 50
0.0
 51
0.0
 71
0
 72
100
 73
1
 74
1
 75
0
 76
0
 77
0
 78
0
  0
ENDTAB
  0
TABLE
  2
LTYPE
  5
5
100
AcDbSymbolTable
 70
6
  0
LTYPE
  5
14
100
AcDbSymbolTableRecord
100
AcDbLinetypeTableRecord
  2
BYBLOCK
 70
0
  3

 72
65
 73
0
 40
0.0
  0
LTYPE
  5
15
100
AcDbSymbolTableRecord
100
AcDbLinetypeTableRecord
  2
BYLAYER
 70
0
  3

 72
65
 73
0
 40
0.0
  0
LTYPE
  5
16
100
AcDbSymbolTableRecord
100
AcDbLinetypeTableRecord
  2
CONTINUOUS
 70
64
  3
Solid line
 72
65
 73
0
 40
0.0
  0
LTYPE
  5
1F5
100
AcDbSymbolTableRecord
100
AcDbLinetypeTableRecord
  2
CENTER
 70
64
  3
____ _ ____ _ ____ _ ____ _ ____ _ ____ _ ____
 72
65
 73
4
 40
0.6
 49
0.375
 74
0
 49
-0.075
 74
0
 49
0.075
 74
0
 49
-0.075
 74
0
  0
LTYPE
  5
1F6
100
AcDbSymbolTableRecord
100
AcDbLinetypeTableRecord
  2
HIDDEN
 70
64
  3
- - - - - - - - - - - - - - - - - - - -
 72
65
 73
2
 40
0.2
 49
0.1
 74
0
 49
-0.1
 74
0
  0
LTYPE
  5
1F7
100
AcDbSymbolTableRecord
100
AcDbLinetypeTableRecord
  2
PHANTOM
 70
64
  3
_____ _ _ _____ _ _ _____ _ _ _____
 72
65
 73
6
 40
0.8
 49
0.45
 74
0
 49
-0.05
 74
0
 49
0.1
 74
0
 49
-0.05
 74
0
 49
0.1
 74
0
 49
-0.05
 74
0
  0
LTYPE
  5
1F8
100
AcDbSymbolTableRecord
100
AcDbLinetypeTableRecord
  2
DOT
 70
64
  3
. . . . . . . . . . . . . . . . . . . .
 72
65
 73
2
 40
0.2
 49
0.1
 74
0
 49
-0.1
 74
0
  0
LTYPE
  5
1F9
100
AcDbSymbolTableRecord
100
AcDbLinetypeTableRecord
  2
DASHED
 70
64
  3
- - - - - - - - - - - - - - - - - - - -
 72
65
 73
2
 40
0.2
 49
0.1
 74
0
 49
-0.1
 74
0
  0
ENDTAB
  0
TABLE
  2
LAYER
  5
2
100
AcDbSymbolTable
 70
36
  0
LAYER
  5
10
100
AcDbSymbolTableRecord
100
AcDbLayerTableRecord
  2
0
 70
0
 62
7
  6
CONTINUOUS
370
-3
390
F
  0
LAYER
  5
1FA
100
AcDbSymbolTableRecord
100
AcDbLayerTableRecord
  2
DEFAULT_1
 70
0
 62
7
  6
CENTER
370
-3
390
F
  0
LAYER
  5
1FB
100
AcDbSymbolTableRecord
100
AcDbLayerTableRecord
  2
DEFAULT_2
 70
0
 62
7
  6
HIDDEN
370
-3
390
F
  0
LAYER
  5
1FC
100
AcDbSymbolTableRecord
100
AcDbLayerTableRecord
  2
DEFAULT_3
 70
0
 62
7
  6
PHANTOM
370
-3
390
F
  0
LAYER
  5
1FD
100
AcDbSymbolTableRecord
100
AcDbLayerTableRecord
  2
00_COMPONENTS
 70
0
 62
7
  6
CONTINUOUS
370
-3
390
F
  0
LAYER
  5
1FE
100
AcDbSymbolTableRecord
100
AcDbLayerTableRecord
  2
01_1_DEFAULT_DATUMS
 70
0
 62
7
  6
CONTINUOUS
370
-3
390
F
  0
LAYER
  5
1FF
100
AcDbSymbolTableRecord
100
AcDbLayerTableRecord
  2
01_PLANES
 70
0
 62
7
  6
CONTINUOUS
370
-3
390
F
  0
LAYER
  5
200
100
AcDbSymbolTableRecord
100
AcDbLayerTableRecord
  2
02_COORD_SYS
 70
0
 62
7
  6
CONTINUOUS
370
-3
390
F
  0
LAYER
  5
201
100
AcDbSymbolTableRecord
100
AcDbLayerTableRecord
  2
03_AXES
 70
0
 62
7
  6
CONTINUOUS
370
-3
390
F
  0
LAYER
  5
202
100
AcDbSymbolTableRecord
100
AcDbLayerTableRecord
  2
04_POINTS
 70
0
 62
7
  6
CONTINUOUS
370
-3
390
F
  0
LAYER
  5
203
100
AcDbSymbolTableRecord
100
AcDbLayerTableRecord
  2
05_CURVES
 70
0
 62
7
  6
CONTINUOUS
370
-3
390
F
  0
LAYER
  5
204
100
AcDbSymbolTableRecord
100
AcDbLayerTableRecord
  2
06_SURFS
 70
0
 62
7
  6
CONTINUOUS
370
-3
390
F
  0
LAYER
  5
205
100
AcDbSymbolTableRecord
100
AcDbLayerTableRecord
  2
07_COSMETICS
 70
0
 62
7
  6
CONTINUOUS
370
-3
390
F
  0
LAYER
  5
206
100
AcDbSymbolTableRecord
100
AcDbLayerTableRecord
  2
10_NOTES
 70
0
 62
7
  6
CONTINUOUS
370
-3
390
F
  0
LAYER
  5
207
100
AcDbSymbolTableRecord
100
AcDbLayerTableRecord
  2
11_NOTES_PUB
 70
0
 62
7
  6
CONTINUOUS
370
-3
390
F
  0
LAYER
  5
208
100
AcDbSymbolTableRecord
100
AcDbLayerTableRecord
  2
13_REF_GTOL
 70
0
 62
7
  6
CONTINUOUS
370
-3
390
F
  0
LAYER
  5
209
100
AcDbSymbolTableRecord
100
AcDbLayerTableRecord
  2
16_MISC
 70
0
 62
7
  6
CONTINUOUS
370
-3
390
F
  0
LAYER
  5
20A
100
AcDbSymbolTableRecord
100
AcDbLayerTableRecord
  2
17_NO_PRINT
 70
0
 62
7
  6
CONTINUOUS
370
-3
390
F
  0
LAYER
  5
20B
100
AcDbSymbolTableRecord
100
AcDbLayerTableRecord
  2
18_DATUM_CAMS_JOINTS
 70
0
 62
7
  6
CONTINUOUS
370
-3
390
F
  0
LAYER
  5
20C
100
AcDbSymbolTableRecord
100
AcDbLayerTableRecord
  2
19_DATUM_FUNCTIONAL
 70
0
 62
7
  6
CONTINUOUS
370
-3
390
F
  0
LAYER
  5
20D
100
AcDbSymbolTableRecord
100
AcDbLayerTableRecord
  2
20_DATUM_KINEMATIC_SCHEME
 70
0
 62
7
  6
CONTINUOUS
370
-3
390
F
  0
ENDTAB
  0
TABLE
  2
STYLE
  5
3
100
AcDbSymbolTable
 70
1
  0
STYLE
  5
11
100
AcDbSymbolTableRecord
100
AcDbTextStyleTableRecord
  2
STANDARD
 70
0
 40
0.0
 41
1.0
 50
0.0
 71
0
 42
0.2
  3
ARIAL.TTF
  4

  0
STYLE
  5
20E
100
AcDbSymbolTableRecord
100
AcDbTextStyleTableRecord
  2
TEXTSTYLE_1
 70
0
 40
0.0
 41
0.8
 50
0.0
 71
0
 42
0.2
  3
gdt
  4

  0
ENDTAB
  0
TABLE
  2
VIEW
  5
6
100
AcDbSymbolTable
 70
0
  0
ENDTAB
  0
TABLE
  2
UCS
  5
7
100
AcDbSymbolTable
 70
0
  0
ENDTAB
  0
TABLE
  2
APPID
  5
9
100
AcDbSymbolTable
 70
1
  0
APPID
  5
20F
100
AcDbSymbolTableRecord
100
AcDbRegAppTableRecord
  2
ACAD
 70
0
  0
ENDTAB
  0
TABLE
  2
BLOCK_RECORD
  5
1
100
AcDbSymbolTable
 70
0
  0
BLOCK_RECORD
  5
210
100
AcDbSymbolTableRecord
100
AcDbBlockTableRecord
  2
*Model_Space
  0
BLOCK_RECORD
  5
211
100
AcDbSymbolTableRecord
100
AcDbBlockTableRecord
  2
*Paper_Space
  0
BLOCK_RECORD
  5
212
100
AcDbSymbolTableRecord
100
AcDbBlockTableRecord
  2
_FILLED
  0
ENDTAB
  0
TABLE
  2
DIMSTYLE
  5
A
100
AcDbSymbolTable
 70
1
100
AcDbDimStyleTable
 71
0
  0
DIMSTYLE
105
213
100
AcDbSymbolTableRecord
100
AcDbDimStyleTableRecord
  2
STANDARD
 70
0
  3

  4

 40
1.0
 41
0.5685416928
 42
1.0
 43
0.38
 44
1.0
 45
0.0
 46
0.0
 47
0.01
 48
0.01
140
0.7959583699
141
0.09
142
0.0
143
25.4
144
1.0
145
0.0
146
1.0
147
0.625
 71
1
 72
0
 73
0
 74
0
 75
0
 76
0
 77
1
 78
8
 79
2
170
0
171
1
172
0
173
0
174
0
175
0
176
0
177
0
178
0
270
2
179
2
271
2
272
2
273
2
274
2
275
0
280
0
281
0
282
0
283
1
284
8
285
0
286
0
287
3
288
0
340
11
278
46
341
212
342
212
343
212
344
212
  0
ENDTAB
  0
ENDSEC
  0
SECTION
  2
BLOCKS
  0
BLOCK
  5
20
100
AcDbEntity
  8
0
100
AcDbBlockBegin
  2
*Model_Space
 70
0
 10
0.0
 20
0.0
 30
0.0
  3
*Model_Space
  1

  0
ENDBLK
  5
21
100
AcDbEntity
  8
0
100
AcDbBlockEnd
  0
BLOCK
  5
1C
100
AcDbEntity
  8
0
100
AcDbBlockBegin
  2
*Paper_Space
 70
0
 10
0.0
 20
0.0
 30
0.0
  3
*Paper_Space
  1

  0
ENDBLK
  5
1D
100
AcDbEntity
  8
0
100
AcDbBlockEnd
  0
BLOCK
  5
214
100
AcDbEntity
  8
0
100
AcDbBlockBegin
  2
_FILLED
 70
64
 10
0.0
 20
0.0
  3
_FILLED
  1

  0
SOLID
  5
215
100
AcDbEntity
  8
0
  6
BYBLOCK
 62
0
100
AcDbTrace
 10
0.0
 20
0.0
 11
-1.0
 21
0.25
 12
-1.0
 22
-0.25
 13
-1.0
 23
-0.25
  0
ENDBLK
  5
216
100
AcDbEntity
  8
0
  6
BYBLOCK
 62
0
100
AcDbBlockEnd
  0
ENDSEC
  0
SECTION
  2
ENTITIES
  0
LINE
  5
217
100
AcDbEntity
  8
0
100
AcDbLine
 62
7
  6
BYLAYER
 10
5.5404195265
 20
41.6953503319
 11
5.5404227134
 21
41.2534241953
  0
LINE
  5
218
100
AcDbEntity
  8
0
100
AcDbLine
 62
7
  6
BYLAYER
 10
8.3688380621
 20
46.1524376751
 11
7.9861149234
 21
45.9314660502
  0
LINE
  5
219
100
AcDbEntity
  8
0
100
AcDbLine
 62
7
  6
BYLAYER
 10
15.7643219
 20
44.7450425895
 11
11.1681469581
 21
39.0273043022
  0
LINE
  5
21A
100
AcDbEntity
  8
0
100
AcDbLine
 62
7
  6
BYLAYER
 10
11.1681469581
 20
32.899001728
 11
11.1681469581
 21
39.0273043022
  0
LINE
  5
21B
100
AcDbEntity
  8
0
100
AcDbLine
 62
7
  6
BYLAYER
 10
13.9965858587
 20
37.3943412841
 11
13.9965858587
 21
31.2660387099
  0
LINE
  5
21C
100
AcDbEntity
  8
0
100
AcDbLine
 62
7
  6
BYLAYER
 10
13.9965858587
 20
37.3943412841
 11
18.5927608006
 21
43.1120795714
  0
LINE
  5
21D
100
AcDbEntity
  8
0
100
AcDbLine
 62
7
  6
BYLAYER
 10
16.414507553
 20
29.8700825496
 11
13.9965858587
 21
31.2660387099
  0
LINE
  5
21E
100
AcDbEntity
  8
0
100
AcDbLine
 62
7
  6
BYLAYER
 10
8.7502252638
 20
34.2949578883
 11
11.1681469581
 21
32.899001728
  0
LINE
  5
21F
100
AcDbEntity
  8
0
100
AcDbLine
 62
7
  6
BYLAYER
 10
20.3604968419
 20
44.3344783025
 11
20.3604968419
 21
42.9541723341
  0
LINE
  5
220
100
AcDbEntity
  8
0
100
AcDbLine
 62
7
  6
BYLAYER
 10
6.3688719962
 20
39.4223067999
 11
8.3782772662
 21
38.2622023714
  0
LINE
  5
221
100
AcDbEntity
  8
0
100
AcDbLine
 62
7
  6
BYLAYER
 10
35.3603707272
 20
22.6844358645
 11
37.4233633503
 21
21.4933934632
  0
LINE
  5
222
100
AcDbEntity
  8
0
100
AcDbLine
 62
7
  6
BYLAYER
 10
24.6416221196
 20
29.4977463915
 11
34.688436175
 21
23.6973468147
  0
LINE
  5
223
100
AcDbEntity
  8
0
100
AcDbLine
 62
7
  6
BYLAYER
 10
38.0767068974
 20
21.7411720556
 11
38.7838166225
 21
21.3329313011
  0
LINE
  5
224
100
AcDbEntity
  8
0
100
AcDbLine
 62
7
  6
BYLAYER
 10
11.1681469581
 20
32.899001728
 11
13.9965858587
 21
32.6463446784
  0
LINE
  5
225
100
AcDbEntity
  8
0
100
AcDbLine
 62
7
  6
BYLAYER
 10
16.414507553
 20
35.9983851238
 11
13.9965858587
 21
37.3943412841
  0
LINE
  5
226
100
AcDbEntity
  8
0
100
AcDbLine
 62
7
  6
BYLAYER
 10
8.7502252638
 20
40.4232604626
 11
11.1681469581
 21
39.0273043022
  0
LINE
  5
227
100
AcDbEntity
  8
0
100
AcDbLine
 62
7
  6
BYLAYER
 10
28.1003134349
 20
35.4885110034
 11
38.1471372497
 21
29.6881057921
  0
LINE
  5
228
100
AcDbEntity
  8
0
100
AcDbLine
 62
7
  6
BYLAYER
 10
41.5353982127
 20
27.7319366675
 11
42.2425079378
 21
27.323695913
  0
LINE
  5
229
100
AcDbEntity
  8
0
100
AcDbLine
 62
7
  6
BYLAYER
 10
10.3688041281
 20
46.3505492134
 11
12.2883378852
 21
45.2423309532
  0
LINE
  5
22A
100
AcDbEntity
  8
0
100
AcDbLine
 62
7
  6
BYLAYER
 10
39.3603028591
 20
29.612678278
 11
41.4232954822
 21
28.4216358767
  0
LINE
  5
22B
100
AcDbEntity
  8
0
100
AcDbLine
 62
7
  6
BYLAYER
 10
21.0106824949
 20
41.716123411
 11
18.5927608006
 21
43.1120795714
  0
LINE
  5
22C
100
AcDbEntity
  8
0
100
AcDbLine
 62
7
  6
BYLAYER
 10
13.3464002057
 20
46.1409987498
 11
15.7643219
 21
44.7450425895
  0
LINE
  5
22D
100
AcDbEntity
  8
0
100
AcDbLine
 62
7
  6
BYLAYER
 10
25.6068574368
 20
41.3055591241
 11
23.1889357425
 21
42.7015152845
  0
LINE
  5
22E
100
AcDbEntity
  8
0
100
AcDbLine
 62
7
  6
BYLAYER
 10
17.9425751476
 20
45.7304344629
 11
20.3604968419
 21
44.3344783025
  0
LINE
  5
22F
100
AcDbEntity
  8
0
100
AcDbLine
 62
7
  6
BYLAYER
 10
18.5927608006
 20
43.1120795714
 11
23.1889357425
 21
42.7015152845
  0
LINE
  5
230
100
AcDbEntity
  8
0
100
AcDbLine
 62
7
  6
BYLAYER
 10
34.5319182575
 20
24.9574793966
 11
34.5319214444
 21
24.51555326
  0
LINE
  5
231
100
AcDbEntity
  8
0
100
AcDbLine
 62
7
  6
BYLAYER
 10
37.3603367932
 20
29.4145667398
 11
36.9776136544
 21
29.1935951149
  0
LINE
  5
232
100
AcDbEntity
  8
0
100
AcDbLine
 62
7
  6
BYLAYER
 10
20.3604968419
 20
44.3344783025
 11
15.7643219
 21
44.7450425895
  0
LINE
  5
233
100
AcDbEntity
  8
0
100
AcDbLine
 62
7
  6
BYLAYER
 10
42.958863565
 20
24.9238598828
 11
42.958857677
 21
25.7403515901
  0
LINE
  5
234
100
AcDbEntity
  8
0
100
AcDbLine
 62
7
  6
BYLAYER
 10
40.5131622801
 20
21.5042358718
 11
41.2202720053
 21
21.9124975344
  0
ARC
  5
235
100
AcDbEntity
  8
0
100
AcDbCircle
 62
7
  6
BYLAYER
 10
15.9639961265
 20
37.9965692501
 40
10.0533815671
100
AcDbArc
 50
356.1841504133
 51
0.0446342425
  0
ARC
  5
236
100
AcDbEntity
  8
0
100
AcDbCircle
 62
7
  6
BYLAYER
 10
39.7959244161
 20
26.7474901489
 40
2.4427824833
100
AcDbArc
 50
14.09092833
 51
16.6305018637
  0
ARC
  5
237
100
AcDbEntity
  8
0
100
AcDbCircle
 62
7
  6
BYLAYER
 10
38.0667490307
 20
23.711799499
 40
2.4138517595
100
AcDbArc
 50
283.3562919216
 51
285.9266690577
  0
ARC
  5
238
100
AcDbEntity
  8
0
100
AcDbCircle
 62
7
  6
BYLAYER
 10
33.8248026444
 20
26.1822285754
 40
0.75
100
AcDbArc
 50
160.3384324858
 51
260.2267332383
  0
ARC
  5
239
100
AcDbEntity
  8
0
100
AcDbCircle
 62
7
  6
BYLAYER
 10
35.5633942041
 20
29.1935742068
 40
0.75
100
AcDbArc
 50
44.4395515656
 51
139.9865776909
  0
SPLINE
  5
23A
100
AcDbEntity
  8
0
100
AcDbSpline
 62
7
  6
BYLAYER
 70
0
 71
3
 72
23
 73
19
 74
0
 42
0.0000001
 43
0.0000001
 44
0.0000000001
 40
0.0
 40
0.0
 40
0.0
 40
0.0
 40
0.0558388407
 40
0.1141794425
 40
0.1747830636
 40
0.2373533987
 40
0.3015483781
 40
0.3669923093
 40
0.4332823259
 40
0.5000000092
 40
0.5667180313
 40
0.6330075929
 40
0.6984504123
 40
0.7626461621
 40
0.8252148299
 40
0.8858162062
 40
0.9441723937
 40
1.0
 40
1.0
 40
1.0
 40
1.0
 10
12.9359088351
 20
36.983737523
 30
0.0
 10
12.9359075753
 20
37.093161846
 30
0.0
 10
12.9456279778
 20
37.3169948319
 30
0.0
 10
12.9868471664
 20
37.6573113063
 30
0.0
 10
13.0546493476
 20
38.0067836661
 30
0.0
 10
13.1483872699
 20
38.3620535229
 30
0.0
 10
13.2671414062
 20
38.7197528285
 30
0.0
 10
13.4097997933
 20
39.0764563896
 30
0.0
 10
13.57498716
 20
39.4287603857
 30
0.0
 10
13.7611164554
 20
39.7732995291
 30
0.0
 10
13.9664279312
 20
40.1067628701
 30
0.0
 10
14.1889316153
 20
40.4259731158
 30
0.0
 10
14.426512033
 20
40.7278725569
 30
0.0
 10
14.6769091983
 20
41.0095632213
 30
0.0
 10
14.9377023876
 20
41.2683790047
 30
0.0
 10
15.206463437
 20
41.5018575736
 30
0.0
 10
15.4805904251
 20
41.7077010372
 30
0.0
 10
15.6695765811
 20
41.8280487749
 30
0.0
 10
15.7643219
 20
41.8827496838
 30
0.0
  0
SPLINE
  5
23B
100
AcDbEntity
  8
0
100
AcDbSpline
 62
7
  6
BYLAYER
 70
0
 71
3
 72
11
 73
7
 74
0
 42
0.0000001
 43
0.0000001
 44
0.0000000001
 40
0.0
 40
0.0
 40
0.0
 40
0.0
 40
0.2238686444
 40
0.4673674335
 40
0.7272282874
 40
1.0
 40
1.0
 40
1.0
 40
1.0
 10
15.2339704704
 20
46.1727234641
 30
0.0
 10
15.4380674095
 20
46.1544920183
 30
0.0
 10
15.863248269
 20
46.1059537788
 30
0.0
 10
16.521420845
 20
46.0058313401
 30
0.0
 10
17.2205170078
 20
45.8791874814
 30
0.0
 10
17.6982991676
 20
45.7820574529
 30
0.0
 10
17.9425751476
 20
45.7304344629
 30
0.0
  0
SPLINE
  5
23C
100
AcDbEntity
  8
0
100
AcDbSpline
 62
7
  6
BYLAYER
 70
0
 71
3
 72
11
 73
7
 74
0
 42
0.0000001
 43
0.0000001
 44
0.0000000001
 40
0.0
 40
0.0
 40
0.0
 40
0.0
 40
0.247670327
 40
0.4973373623
 40
0.7483031512
 40
1.0
 40
1.0
 40
1.0
 40
1.0
 10
10.6377955285
 20
43.5191364639
 30
0.0
 10
10.8331751812
 20
43.7621928608
 30
0.0
 10
11.2428291197
 20
44.2365973018
 30
0.0
 10
11.9048714638
 20
44.9078226466
 30
0.0
 10
12.6079921485
 20
45.5432620726
 30
0.0
 10
13.0975600509
 20
45.9447438382
 30
0.0
 10
13.3464002057
 20
46.1409987498
 30
0.0
  0
SPLINE
  5
23D
100
AcDbEntity
  8
0
100
AcDbSpline
 62
7
  6
BYLAYER
 70
0
 71
3
 72
11
 73
7
 74
0
 42
0.0000001
 43
0.0000001
 44
0.0000000001
 40
0.0
 40
0.0
 40
0.0
 40
0.0
 40
0.2100625315
 40
0.444062914
 40
0.7063986533
 40
1.0
 40
1.0
 40
1.0
 40
1.0
 10
13.3464002057
 20
46.1409987498
 30
0.0
 10
13.4773398411
 20
46.1612525679
 30
0.0
 10
13.7556885657
 20
46.1945610177
 30
0.0
 10
14.2009423187
 20
46.2178942557
 30
0.0
 10
14.6994619639
 20
46.2126566745
 30
0.0
 10
15.0495160557
 20
46.1892002945
 30
0.0
 10
15.2339704704
 20
46.1727234641
 30
0.0
  0
SPLINE
  5
23E
100
AcDbEntity
  8
0
100
AcDbSpline
 62
7
  6
BYLAYER
 70
0
 71
3
 72
12
 73
8
 74
0
 42
0.0000001
 43
0.0000001
 44
0.0000000001
 40
0.0
 40
0.0
 40
0.0
 40
0.0
 40
0.2655357223
 40
0.3940494507
 40
0.5198581345
 40
0.7640946565
 40
1.0
 40
1.0
 40
1.0
 40
1.0
 10
8.3397080575
 20
37.5961160332
 30
0.0
 10
8.3397080575
 20
37.8498199524
 30
0.0
 10
8.3532662846
 20
38.2265425392
 30
0.0
 10
8.4001400893
 20
38.7211125367
 30
0.0
 10
8.4631076306
 20
39.1933819726
 30
0.0
 10
8.5711440605
 20
39.7626917923
 30
0.0
 10
8.6870148109
 20
40.2069116429
 30
0.0
 10
8.7502252638
 20
40.4232604626
 30
0.0
  0
SPLINE
  5
23F
100
AcDbEntity
  8
0
100
AcDbSpline
 62
7
  6
BYLAYER
 70
0
 71
3
 72
13
 73
9
 74
0
 42
0.0000001
 43
0.0000001
 44
0.0000000001
 40
0.0
 40
0.0
 40
0.0
 40
0.0
 40
0.2454488372
 40
0.4937870452
 40
0.6191482223
 40
0.745317738
 40
0.8722868338
 40
1.0
 40
1.0
 40
1.0
 40
1.0
 10
8.7502252638
 20
40.4232604626
 30
0.0
 10
8.8754162536
 20
40.6930109311
 30
0.0
 10
9.1393186623
 20
41.230224398
 30
0.0
 10
9.5061560825
 20
41.8851009073
 30
0.0
 10
9.8264747638
 20
42.3992099927
 30
0.0
 10
10.0817647177
 20
42.7802811927
 30
0.0
 10
10.3516872993
 20
43.1546468097
 30
0.0
 10
10.5408495568
 20
43.3985336364
 30
0.0
 10
10.6377955285
 20
43.5191364639
 30
0.0
  0
SPLINE
  5
240
100
AcDbEntity
  8
0
100
AcDbSpline
 62
7
  6
BYLAYER
 70
0
 71
3
 72
11
 73
7
 74
0
 42
0.0000001
 43
0.0000001
 44
0.0000000001
 40
0.0
 40
0.0
 40
0.0
 40
0.0
 40
0.2602536681
 40
0.5147427021
 40
0.7618353688
 40
1.0
 40
1.0
 40
1.0
 40
1.0
 10
8.7502252638
 20
34.2949578883
 30
0.0
 10
8.6885200891
 20
34.5774040171
 30
0.0
 10
8.5755668979
 20
35.1381043734
 30
0.0
 10
8.4440498416
 20
35.9744495003
 30
0.0
 10
8.3598940697
 20
36.7923423692
 30
0.0
 10
8.3397080575
 20
37.331546227
 30
0.0
 10
8.3397080575
 20
37.5961160332
 30
0.0
  0
SPLINE
  5
241
100
AcDbEntity
  8
0
100
AcDbSpline
 62
7
  6
BYLAYER
 70
0
 71
3
 72
18
 73
14
 74
0
 42
0.0000001
 43
0.0000001
 44
0.0000000001
 40
0.0
 40
0.0
 40
0.0
 40
0.0
 40
0.0550770458
 40
0.1098574498
 40
0.1646783376
 40
0.2198755589
 40
0.2757735277
 40
0.3326776075
 40
0.4504699857
 40
0.5751691972
 40
0.7079834008
 40
0.8495485618
 40
1.0
 40
1.0
 40
1.0
 40
1.0
 10
13.9840522631
 20
35.0510198766
 30
0.0
 10
13.9435073969
 20
35.0655360348
 30
0.0
 10
13.8639415421
 20
35.0983098792
 30
0.0
 10
13.7499676245
 20
35.158635223
 30
0.0
 10
13.6422662292
 20
35.2297460864
 30
0.0
 10
13.5411805155
 20
35.3113662686
 30
0.0
 10
13.4470331768
 20
35.4032497777
 30
0.0
 10
13.329854061
 20
35.5405629867
 30
0.0
 10
13.2021380561
 20
35.7381915415
 30
0.0
 10
13.0831997371
 20
36.007593218
 30
0.0
 10
12.9977406153
 20
36.3086395894
 30
0.0
 10
12.9465641928
 20
36.6375580146
 30
0.0
 10
12.9359101894
 20
36.8660984965
 30
0.0
 10
12.9359088351
 20
36.983737523
 30
0.0
  0
SPLINE
  5
242
100
AcDbEntity
  8
0
100
AcDbSpline
 62
7
  6
BYLAYER
 70
0
 71
3
 72
15
 73
11
 74
0
 42
0.0000001
 43
0.0000001
 44
0.0000000001
 40
0.0
 40
0.0
 40
0.0
 40
0.0
 40
0.1484948539
 40
0.2893937125
 40
0.4226111114
 40
0.5485560536
 40
0.6679655613
 40
0.7819478944
 40
0.8920164903
 40
1.0
 40
1.0
 40
1.0
 40
1.0
 10
15.7643219
 20
41.8827496838
 30
0.0
 10
15.85412996
 20
41.9346000819
 30
0.0
 10
16.0334382313
 20
42.0284994852
 30
0.0
 10
16.3069228451
 20
42.1406567481
 30
0.0
 10
16.5755912823
 20
42.2193384498
 30
0.0
 10
16.8369013998
 20
42.2636789218
 30
0.0
 10
17.0884544324
 20
42.2731499556
 30
0.0
 10
17.3278566127
 20
42.2473550891
 30
0.0
 10
17.5525790662
 20
42.1863684459
 30
0.0
 10
17.6916380656
 20
42.1222368845
 30
0.0
 10
17.7571766618
 20
42.0849355426
 30
0.0
  0
SPLINE
  5
243
100
AcDbEntity
  8
0
100
AcDbSpline
 62
7
  6
BYLAYER
 70
0
 71
3
 72
23
 73
19
 74
0
 42
0.0000001
 43
0.0000001
 44
0.0000000001
 40
0.0
 40
0.0
 40
0.0
 40
0.0
 40
0.0558388407
 40
0.1141794425
 40
0.1747830636
 40
0.2373533987
 40
0.3015483781
 40
0.3669923093
 40
0.4332823259
 40
0.5000000092
 40
0.5667180313
 40
0.6330075929
 40
0.6984504123
 40
0.7626461621
 40
0.8252148299
 40
0.8858162062
 40
0.9441723937
 40
1.0
 40
1.0
 40
1.0
 40
1.0
 10
18.5927866362
 20
33.7178114869
 30
0.0
 10
18.5927853764
 20
33.8272358098
 30
0.0
 10
18.6025057789
 20
34.0510687958
 30
0.0
 10
18.6437249676
 20
34.3913852701
 30
0.0
 10
18.7115271488
 20
34.7408576299
 30
0.0
 10
18.8052650711
 20
35.0961274868
 30
0.0
 10
18.9240192073
 20
35.4538267923
 30
0.0
 10
19.0666775945
 20
35.8105303534
 30
0.0
 10
19.2318649612
 20
36.1628343495
 30
0.0
 10
19.4179942566
 20
36.5073734929
 30
0.0
 10
19.6233057324
 20
36.840836834
 30
0.0
 10
19.8458094165
 20
37.1600470797
 30
0.0
 10
20.0833898342
 20
37.4619465207
 30
0.0
 10
20.3337869995
 20
37.7436371851
 30
0.0
 10
20.5945801887
 20
38.0024529685
 30
0.0
 10
20.8633412382
 20
38.2359315374
 30
0.0
 10
21.1374682263
 20
38.4417750011
 30
0.0
 10
21.3264543823
 20
38.5621227388
 30
0.0
 10
21.4211997012
 20
38.6168236476
 30
0.0
  0
SPLINE
  5
244
100
AcDbEntity
  8
0
100
AcDbSpline
 62
7
  6
BYLAYER
 70
0
 71
3
 72
11
 73
7
 74
0
 42
0.0000001
 43
0.0000001
 44
0.0000000001
 40
0.0
 40
0.0
 40
0.0
 40
0.0
 40
0.2727717609
 40
0.5326326878
 40
0.7761314729
 40
1.0
 40
1.0
 40
1.0
 40
1.0
 10
16.414507553
 20
29.8700825496
 30
0.0
 10
16.6587835762
 20
29.8184595504
 30
0.0
 10
17.1365658607
 20
29.7213295811
 30
0.0
 10
17.8356621171
 20
29.594685643
 30
0.0
 10
18.4938346476
 20
29.4945631962
 30
0.0
 10
18.9190153982
 20
29.4460249846
 30
0.0
 10
19.1231122302
 20
29.4277935484
 30
0.0
  0
SPLINE
  5
245
100
AcDbEntity
  8
0
100
AcDbSpline
 62
7
  6
BYLAYER
 70
0
 71
3
 72
11
 73
7
 74
0
 42
0.0000001
 43
0.0000001
 44
0.0000000001
 40
0.0
 40
0.0
 40
0.0
 40
0.0
 40
0.293601477
 40
0.5559372501
 40
0.7899376188
 40
1.0
 40
1.0
 40
1.0
 40
1.0
 10
19.1231122302
 20
29.4277935484
 30
0.0
 10
19.3075667275
 20
29.4113167105
 30
0.0
 10
19.657620926
 20
29.3878603355
 30
0.0
 10
20.1561406635
 20
29.3826227576
 30
0.0
 10
20.6013943482
 20
29.405955864
 30
0.0
 10
20.8797429526
 20
29.439264459
 30
0.0
 10
21.0106824949
 20
29.4595182626
 30
0.0
  0
SPLINE
  5
246
100
AcDbEntity
  8
0
100
AcDbSpline
 62
7
  6
BYLAYER
 70
0
 71
3
 72
9
 73
5
 74
0
 42
0.0000001
 43
0.0000001
 44
0.0000000001
 40
0.0
 40
0.0
 40
0.0
 40
0.0
 40
0.2503079757
 40
1.0
 40
1.0
 40
1.0
 40
1.0
 10
21.0106824949
 20
29.4595182626
 30
0.0
 10
21.1016822673
 20
29.5312878382
 30
0.0
 10
21.4632275575
 20
29.8205332171
 30
0.0
 10
21.8159819602
 20
30.1208781174
 30
0.0
 10
22.0736924016
 20
30.3534195034
 30
0.0
  0
SPLINE
  5
247
100
AcDbEntity
  8
0
100
AcDbSpline
 62
7
  6
BYLAYER
 70
0
 71
3
 72
11
 73
7
 74
0
 42
0.0000001
 43
0.0000001
 44
0.0000000001
 40
0.0
 40
0.0
 40
0.0
 40
0.0
 40
0.2381647508
 40
0.4852574274
 40
0.7397463998
 40
1.0
 40
1.0
 40
1.0
 40
1.0
 10
26.0173746431
 20
38.0044009793
 30
0.0
 10
26.0173746431
 20
38.2689709188
 30
0.0
 10
25.9971885941
 20
38.8081749211
 30
0.0
 10
25.913032841
 20
39.6260678656
 30
0.0
 10
25.7815159508
 20
40.4624128899
 30
0.0
 10
25.6685625955
 20
41.0231130685
 30
0.0
 10
25.6068574368
 20
41.3055591241
 30
0.0
  0
SPLINE
  5
248
100
AcDbEntity
  8
0
100
AcDbSpline
 62
7
  6
BYLAYER
 70
0
 71
3
 72
11
 73
7
 74
0
 42
0.0000001
 43
0.0000001
 44
0.0000000001
 40
0.0
 40
0.0
 40
0.0
 40
0.0
 40
0.2238686444
 40
0.4673674335
 40
0.7272282874
 40
1.0
 40
1.0
 40
1.0
 40
1.0
 10
23.7192871721
 20
41.2738344098
 30
0.0
 10
23.515190233
 20
41.2920658556
 30
0.0
 10
23.0900093735
 20
41.3406040951
 30
0.0
 10
22.4318367975
 20
41.4407265338
 30
0.0
 10
21.7327406347
 20
41.5673703926
 30
0.0
 10
21.2549584749
 20
41.664500421
 30
0.0
 10
21.0106824949
 20
41.716123411
 30
0.0
  0
SPLINE
  5
249
100
AcDbEntity
  8
0
100
AcDbSpline
 62
7
  6
BYLAYER
 70
0
 71
3
 72
13
 73
9
 74
0
 42
0.0000001
 43
0.0000001
 44
0.0000000001
 40
0.0
 40
0.0
 40
0.0
 40
0.0
 40
0.2454488372
 40
0.4937870452
 40
0.6191482223
 40
0.745317738
 40
0.8722868338
 40
1.0
 40
1.0
 40
1.0
 40
1.0
 10
21.0106824949
 20
41.716123411
 30
0.0
 10
20.8854915051
 20
41.4463729425
 30
0.0
 10
20.6215890964
 20
40.9091594757
 30
0.0
 10
20.2547516762
 20
40.2542829663
 30
0.0
 10
19.9344329949
 20
39.7401738809
 30
0.0
 10
19.679143041
 20
39.3591026809
 30
0.0
 10
19.4092204594
 20
38.9847370639
 30
0.0
 10
19.2200582019
 20
38.7408502372
 30
0.0
 10
19.1231122302
 20
38.6202474097
 30
0.0
  0
SPLINE
  5
24A
100
AcDbEntity
  8
0
100
AcDbSpline
 62
7
  6
BYLAYER
 70
0
 71
3
 72
14
 73
10
 74
0
 42
0.0000001
 43
0.0000001
 44
0.0000000001
 40
0.0
 40
0.0
 40
0.0
 40
0.0
 40
0.2232950509
 40
0.3410512073
 40
0.4632610271
 40
0.5901729241
 40
0.7219346128
 40
0.8585892444
 40
1.0
 40
1.0
 40
1.0
 40
1.0
 10
19.1231122302
 20
29.4277935484
 30
0.0
 10
19.3021408921
 20
29.4118013862
 30
0.0
 10
19.5787545749
 20
29.4156823237
 30
0.0
 10
19.9480451414
 20
29.4690352935
 30
0.0
 10
20.2362798703
 20
29.5349154266
 30
0.0
 10
20.5293978545
 20
29.6256774985
 30
0.0
 10
20.8262895663
 20
29.7409003891
 30
0.0
 10
21.1256026381
 20
29.8800969
 30
0.0
 10
21.3226210174
 20
29.9866341779
 30
0.0
 10
21.4211997012
 20
30.0435482678
 30
0.0
  0
SPLINE
  5
24B
100
AcDbEntity
  8
0
100
AcDbSpline
 62
7
  6
BYLAYER
 70
0
 71
3
 72
23
 73
19
 74
0
 42
0.0000001
 43
0.0000001
 44
0.0000000001
 40
0.0
 40
0.0
 40
0.0
 40
0.0
 40
0.0772103336
 40
0.1518235751
 40
0.2237646168
 40
0.2930593587
 40
0.3597892382
 40
0.4240805615
 40
0.4861128697
 40
0.5461338393
 40
0.6044503639
 40
0.6614293115
 40
0.7174850172
 40
0.7730676446
 40
0.828647703
 40
0.8847057637
 40
0.9416971716
 40
1.0
 40
1.0
 40
1.0
 40
1.0
 10
16.8250247593
 20
32.6972269789
 30
0.0
 10
16.8250247593
 20
32.5833965312
 30
0.0
 10
16.8312696643
 20
32.3595020914
 30
0.0
 10
16.8603773312
 20
32.0306866413
 30
0.0
 10
16.9090306847
 20
31.7159576564
 30
0.0
 10
16.9769951958
 20
31.4167074955
 30
0.0
 10
17.0640402006
 20
31.1341870278
 30
0.0
 10
17.1697854257
 20
30.8695786367
 30
0.0
 10
17.293873789
 20
30.6240506318
 30
0.0
 10
17.4357654233
 20
30.3986594282
 30
0.0
 10
17.5949350593
 20
30.1944379831
 30
0.0
 10
17.7706831198
 20
30.0122888151
 30
0.0
 10
17.9622960136
 20
29.8531077933
 30
0.0
 10
18.1688745456
 20
29.7175976349
 30
0.0
 10
18.3895128077
 20
29.606432849
 30
0.0
 10
18.6231981811
 20
29.5200776015
 30
0.0
 10
18.8688008971
 20
29.4589599622
 30
0.0
 10
19.0374978309
 20
29.4354412587
 30
0.0
 10
19.1231122302
 20
29.4277935484
 30
0.0
  0
SPLINE
  5
24C
100
AcDbEntity
  8
0
100
AcDbSpline
 62
7
  6
BYLAYER
 70
0
 71
3
 72
16
 73
12
 74
0
 42
0.0000001
 43
0.0000001
 44
0.0000000001
 40
0.0
 40
0.0
 40
0.0
 40
0.0
 40
0.1298423221
 40
0.2611764233
 40
0.392510665
 40
0.5223534161
 40
0.6492650599
 40
0.7719118863
 40
0.8891241034
 40
0.9454177928
 40
1.0
 40
1.0
 40
1.0
 40
1.0
 10
19.1231122302
 20
38.6202474097
 30
0.0
 10
18.9478152899
 20
38.4021743293
 30
0.0
 10
18.6125420006
 20
37.9493033095
 30
0.0
 10
18.161995576
 20
37.2325808374
 30
0.0
 10
17.7665486432
 20
36.4839801847
 30
0.0
 10
17.4329348241
 20
35.7162228095
 30
0.0
 10
17.1667745963
 20
34.9422436033
 30
0.0
 10
16.9725898911
 20
34.1751555173
 30
0.0
 10
16.8721022464
 20
33.5438527486
 30
0.0
 10
16.8319086353
 20
33.0538166223
 30
0.0
 10
16.8250247593
 20
32.8148449763
 30
0.0
 10
16.8250247593
 20
32.6972269789
 30
0.0
  0
SPLINE
  5
24D
100
AcDbEntity
  8
0
100
AcDbSpline
 62
7
  6
BYLAYER
 70
0
 71
3
 72
11
 73
7
 74
0
 42
0.0000001
 43
0.0000001
 44
0.0000000001
 40
0.0
 40
0.0
 40
0.0
 40
0.0
 40
0.232065918
 40
0.4774810713
 40
0.7342754496
 40
1.0
 40
1.0
 40
1.0
 40
1.0
 10
21.4211997012
 20
40.6580796904
 30
0.0
 10
21.2143606435
 20
40.5386618177
 30
0.0
 10
20.8028484086
 20
40.2680431702
 30
0.0
 10
20.215105575
 20
39.7913576567
 30
0.0
 10
19.647859887
 20
39.2396351271
 30
0.0
 10
19.2944515205
 20
38.8333970901
 30
0.0
 10
19.1231122302
 20
38.6202474097
 30
0.0
  0
SPLINE
  5
24E
100
AcDbEntity
  8
0
100
AcDbSpline
 62
7
  6
BYLAYER
 70
0
 71
3
 72
14
 73
10
 74
0
 42
0.0000001
 43
0.0000001
 44
0.0000000001
 40
0.0
 40
0.0
 40
0.0
 40
0.0
 40
0.2232950509
 40
0.3410512073
 40
0.4632610271
 40
0.5901729241
 40
0.7219346128
 40
0.8585892444
 40
1.0
 40
1.0
 40
1.0
 40
1.0
 10
23.7192871721
 20
41.2738344098
 30
0.0
 10
23.5402585103
 20
41.289826572
 30
0.0
 10
23.2636448274
 20
41.2859456345
 30
0.0
 10
22.894354261
 20
41.2325926647
 30
0.0
 10
22.606119532
 20
41.1667125316
 30
0.0
 10
22.3130015479
 20
41.0759504597
 30
0.0
 10
22.016109836
 20
40.9607275692
 30
0.0
 10
21.7167967642
 20
40.8215310582
 30
0.0
 10
21.5197783849
 20
40.7149937803
 30
0.0
 10
21.4211997012
 20
40.6580796904
 30
0.0
  0
SPLINE
  5
24F
100
AcDbEntity
  8
0
100
AcDbSpline
 62
7
  6
BYLAYER
 70
0
 71
3
 72
23
 73
19
 74
0
 42
0.0000001
 43
0.0000001
 44
0.0000000001
 40
0.0
 40
0.0
 40
0.0
 40
0.0
 40
0.0772103336
 40
0.1518235751
 40
0.2237646168
 40
0.2930593587
 40
0.3597892382
 40
0.4240805615
 40
0.4861128697
 40
0.5461338393
 40
0.6044503639
 40
0.6614293115
 40
0.7174850172
 40
0.7730676446
 40
0.828647703
 40
0.8847057637
 40
0.9416971716
 40
1.0
 40
1.0
 40
1.0
 40
1.0
 10
26.0173746431
 20
38.0044009793
 30
0.0
 10
26.0173746431
 20
38.118231427
 30
0.0
 10
26.0111297381
 20
38.3421258668
 30
0.0
 10
25.9820220712
 20
38.6709413169
 30
0.0
 10
25.9333687176
 20
38.9856703018
 30
0.0
 10
25.8654042066
 20
39.2849204627
 30
0.0
 10
25.7783592018
 20
39.5674409304
 30
0.0
 10
25.6726139767
 20
39.8320493215
 30
0.0
 10
25.5485256133
 20
40.0775773264
 30
0.0
 10
25.4066339791
 20
40.30296853
 30
0.0
 10
25.2474643431
 20
40.5071899751
 30
0.0
 10
25.0717162825
 20
40.6893391431
 30
0.0
 10
24.8801033888
 20
40.8485201649
 30
0.0
 10
24.6735248568
 20
40.9840303233
 30
0.0
 10
24.4528865947
 20
41.0951951093
 30
0.0
 10
24.2192012213
 20
41.1815503567
 30
0.0
 10
23.9735985052
 20
41.242667996
 30
0.0
 10
23.8049015715
 20
41.2661866995
 30
0.0
 10
23.7192871721
 20
41.2738344098
 30
0.0
  0
SPLINE
  5
250
100
AcDbEntity
  8
0
100
AcDbSpline
 62
7
  6
BYLAYER
 70
0
 71
3
 72
9
 73
5
 74
0
 42
0.0000001
 43
0.0000001
 44
0.0000000001
 40
0.0
 40
0.0
 40
0.0
 40
0.0
 40
0.2551639882
 40
1.0
 40
1.0
 40
1.0
 40
1.0
 10
25.9865653533
 20
37.3731607123
 30
0.0
 10
25.9916609753
 20
37.4266837053
 30
0.0
 10
26.0092829303
 20
37.6366559457
 30
0.0
 10
26.0173746431
 20
37.8474583213
 30
0.0
 10
26.0173746431
 20
38.0044009793
 30
0.0
  0
SPLINE
  5
251
100
AcDbEntity
  8
0
100
AcDbSpline
 62
7
  6
BYLAYER
 70
0
 71
3
 72
9
 73
5
 74
0
 42
0.0000001
 43
0.0000001
 44
0.0000000001
 40
0.0
 40
0.0
 40
0.0
 40
0.0
 40
0.244797398
 40
1.0
 40
1.0
 40
1.0
 40
1.0
 10
21.4211997012
 20
30.0435482678
 30
0.0
 10
21.4658796324
 20
30.0693440841
 30
0.0
 10
21.6470585118
 20
30.1770297852
 30
0.0
 10
21.8229010069
 20
30.2936378817
 30
0.0
 10
21.952574033
 20
30.3859269635
 30
0.0
  0
SPLINE
  5
252
100
AcDbEntity
  8
0
100
AcDbSpline
 62
7
  6
BYLAYER
 70
0
 71
3
 72
41
 73
37
 74
0
 42
0.0000001
 43
0.0000001
 44
0.0000000001
 40
0.0
 40
0.0
 40
0.0
 40
0.0
 40
0.0309829432
 40
0.0603733066
 40
0.0881539391
 40
0.1014711693
 40
0.1144245094
 40
0.1393158819
 40
0.1630759934
 40
0.1860254098
 40
0.2085507826
 40
0.2310761151
 40
0.2540259699
 40
0.2777868816
 40
0.302678297
 40
0.3156320039
 40
0.3289504419
 40
0.3567331536
 40
0.3861154324
 40
0.4171055089
 40
0.4496538259
 40
0.4836603765
 40
0.5189859971
 40
0.555457973
 40
0.5928769145
 40
0.6310238349
 40
0.6696639087
 40
0.7085532458
 40
0.7474427634
 40
0.7860825212
 40
0.8242287103
 40
0.8616479867
 40
0.8981188477
 40
0.9334429918
 40
0.9674584376
 40
1.0
 40
1.0
 40
1.0
 40
1.0
 10
21.4211997012
 20
38.6168236476
 30
0.0
 10
21.5114062895
 20
38.6689041348
 30
0.0
 10
21.6915114834
 20
38.7631780652
 30
0.0
 10
21.9661980007
 20
38.8756238476
 30
0.0
 10
22.194227028
 20
38.9420954417
 30
0.0
 10
22.3726284638
 20
38.977191955
 30
0.0
 10
22.543220987
 20
38.9998446971
 30
0.0
 10
22.7509104054
 20
39.0070843407
 30
0.0
 10
22.9910575373
 20
38.9802957797
 30
0.0
 10
23.2164007388
 20
38.917959724
 30
0.0
 10
23.4244504212
 20
38.8205644743
 30
0.0
 10
23.6128205341
 20
38.6890807623
 30
0.0
 10
23.7794731777
 20
38.5250862714
 30
0.0
 10
23.9227430734
 20
38.330499816
 30
0.0
 10
24.0203209132
 20
38.1470125065
 30
0.0
 10
24.0859970544
 20
37.9879418614
 30
0.0
 10
24.1447998314
 20
37.8158786408
 30
0.0
 10
24.2012332702
 20
37.5851817052
 30
0.0
 10
24.2412173989
 20
37.2910544927
 30
0.0
 10
24.2541394215
 20
36.9785141649
 30
0.0
 10
24.239890179
 20
36.6505332563
 30
0.0
 10
24.1986678341
 20
36.3101969445
 30
0.0
 10
24.130863281
 20
35.9607327591
 30
0.0
 10
24.0371234297
 20
35.6054637647
 30
0.0
 10
23.9183679128
 20
35.2477678925
 30
0.0
 10
23.775708663
 20
34.8910674582
 30
0.0
 10
23.6105209367
 20
34.5387669718
 30
0.0
 10
23.4243917666
 20
34.1942314148
 30
0.0
 10
23.2190808675
 20
33.8607717067
 30
0.0
 10
22.9965781712
 20
33.5415650368
 30
0.0
 10
22.7589991106
 20
33.2396690304
 30
0.0
 10
22.5086036171
 20
32.9579815796
 30
0.0
 10
22.2478123597
 20
32.6991687108
 30
0.0
 10
21.9790534415
 20
32.465692689
 30
0.0
 10
21.7049287201
 20
32.259851343
 30
0.0
 10
21.5159441966
 20
32.139504744
 30
0.0
 10
21.4211997012
 20
32.0848043106
 30
0.0
  0
SPLINE
  5
253
100
AcDbEntity
  8
0
100
AcDbSpline
 62
7
  6
BYLAYER
 70
0
 71
3
 72
25
 73
21
 74
0
 42
0.0000001
 43
0.0000001
 44
0.0000000001
 40
0.0
 40
0.0
 40
0.0
 40
0.0
 40
0.0742809835
 40
0.1447438232
 40
0.2113473974
 40
0.2432752314
 40
0.2743306512
 40
0.3340073195
 40
0.390971807
 40
0.4459926426
 40
0.4999967926
 40
0.5540007754
 40
0.6090224578
 40
0.6659885434
 40
0.7256649025
 40
0.7567209706
 40
0.7886514566
 40
0.8552595026
 40
0.9257024331
 40
1.0
 40
1.0
 40
1.0
 40
1.0
 10
21.4211997012
 20
32.0848043106
 30
0.0
 10
21.3309938595
 20
32.0327242545
 30
0.0
 10
21.1508901499
 20
31.9384510236
 30
0.0
 10
20.87620592
 20
31.8260057871
 30
0.0
 10
20.6481787511
 20
31.7595341662
 30
0.0
 10
20.4697786968
 20
31.7244373068
 30
0.0
 10
20.2991874111
 20
31.7017840254
 30
0.0
 10
20.0914994179
 20
31.69454334
 30
0.0
 10
19.8513537261
 20
31.7213300207
 30
0.0
 10
19.6260115911
 20
31.7836635885
 30
0.0
 10
19.4179625358
 20
31.8810557873
 30
0.0
 10
19.2295925574
 20
32.0125359476
 30
0.0
 10
19.0629395214
 20
32.1765264532
 30
0.0
 10
18.9196687094
 20
32.3711086028
 30
0.0
 10
18.8220896465
 20
32.5545921249
 30
0.0
 10
18.756412304
 20
32.7136597933
 30
0.0
 10
18.6976081224
 20
32.8857192202
 30
0.0
 10
18.64117263
 20
33.116416028
 30
0.0
 10
18.6011853263
 20
33.4105202405
 30
0.0
 10
18.5927878357
 20
33.6136276543
 30
0.0
 10
18.5927866362
 20
33.7178114869
 30
0.0
  0
SPLINE
  5
254
100
AcDbEntity
  8
0
100
AcDbSpline
 62
7
  6
BYLAYER
 70
0
 71
3
 72
12
 73
8
 74
0
 42
0.0000001
 43
0.0000001
 44
0.0000000001
 40
0.0
 40
0.0
 40
0.0
 40
0.0
 40
0.2655357223
 40
0.3940494507
 40
0.5198581345
 40
0.7640946565
 40
1.0
 40
1.0
 40
1.0
 40
1.0
 10
16.8250247593
 20
32.6972269789
 30
0.0
 10
16.8250247593
 20
32.4435230597
 30
0.0
 10
16.8114665322
 20
32.066800473
 30
0.0
 10
16.7645927275
 20
31.5722304755
 30
0.0
 10
16.7016251863
 20
31.0999610395
 30
0.0
 10
16.5935887563
 20
30.5306512198
 30
0.0
 10
16.4777180059
 20
30.0864313692
 30
0.0
 10
16.414507553
 20
29.8700825496
 30
0.0
  0
SPLINE
  5
255
100
AcDbEntity
  8
0
100
AcDbSpline
 62
7
  6
BYLAYER
 70
0
 71
3
 72
11
 73
7
 74
0
 42
0.0000001
 43
0.0000001
 44
0.0000000001
 40
0.0
 40
0.0
 40
0.0
 40
0.0
 40
0.2100625315
 40
0.444062914
 40
0.7063986533
 40
1.0
 40
1.0
 40
1.0
 40
1.0
 10
25.6068574368
 20
41.3055591241
 30
0.0
 10
25.4759178014
 20
41.285305306
 30
0.0
 10
25.1975690768
 20
41.2519968562
 30
0.0
 10
24.7523153238
 20
41.2286636182
 30
0.0
 10
24.2537956786
 20
41.2339011994
 30
0.0
 10
23.9037415868
 20
41.2573575794
 30
0.0
 10
23.7192871721
 20
41.2738344098
 30
0.0
  0
SPLINE
  5
256
100
AcDbEntity
  8
0
100
AcDbSpline
 62
7
  6
BYLAYER
 70
0
 71
3
 72
11
 73
7
 74
0
 42
0.0000001
 43
0.0000001
 44
0.0000000001
 40
0.0
 40
0.0
 40
0.0
 40
0.0
 40
0.2602536681
 40
0.5147427021
 40
0.7618353688
 40
1.0
 40
1.0
 40
1.0
 40
1.0
 10
16.414507553
 20
35.9983851238
 30
0.0
 10
16.4762127277
 20
35.715938995
 30
0.0
 10
16.5891659189
 20
35.1552386387
 30
0.0
 10
16.7206829752
 20
34.3188935119
 30
0.0
 10
16.8048387471
 20
33.501000643
 30
0.0
 10
16.8250247593
 20
32.9617967851
 30
0.0
 10
16.8250247593
 20
32.6972269789
 30
0.0
  0
SPLINE
  5
257
100
AcDbEntity
  8
0
100
AcDbSpline
 62
7
  6
BYLAYER
 70
0
 71
3
 72
11
 73
7
 74
0
 42
0.0000001
 43
0.0000001
 44
0.0000000001
 40
0.0
 40
0.0
 40
0.0
 40
0.0
 40
0.247670327
 40
0.4973373623
 40
0.7483031512
 40
1.0
 40
1.0
 40
1.0
 40
1.0
 10
19.1231122302
 20
38.6202474097
 30
0.0
 10
18.9277325775
 20
38.3771910128
 30
0.0
 10
18.518078639
 20
37.9027865718
 30
0.0
 10
17.8560362949
 20
37.231561227
 30
0.0
 10
17.1529156102
 20
36.596121801
 30
0.0
 10
16.6633477078
 20
36.1946400354
 30
0.0
 10
16.414507553
 20
35.9983851238
 30
0.0
  0
SPLINE
  5
258
100
AcDbEntity
  8
0
100
AcDbSpline
 62
7
  6
BYLAYER
 70
0
 71
3
 72
14
 73
10
 74
0
 42
0.0000001
 43
0.0000001
 44
0.0000000001
 40
0.0
 40
0.0
 40
0.0
 40
0.0
 40
0.1080439466
 40
0.2181338781
 40
0.3321073563
 40
0.4514836908
 40
0.5774328045
 40
0.7107568979
 40
1.0
 40
1.0
 40
1.0
 40
1.0
 10
40.2202963394
 20
22.1880250118
 30
0.0
 10
40.1875058141
 20
22.2069551417
 30
0.0
 10
40.1244458174
 20
22.250929979
 30
0.0
 10
40.0411699937
 20
22.3329412709
 30
0.0
 10
39.9695120264
 20
22.4302242522
 30
0.0
 10
39.9101909282
 20
22.5417382828
 30
0.0
 10
39.8636408459
 20
22.6663751921
 30
0.0
 10
39.817917712
 20
22.8534159169
 30
0.0
 10
39.8060643309
 20
23.0022233372
 30
0.0
 10
39.8060643309
 20
23.1035845448
 30
0.0
  0
SPLINE
  5
259
100
AcDbEntity
  8
0
100
AcDbSpline
 62
7
  6
BYLAYER
 70
0
 71
3
 72
15
 73
11
 74
0
 42
0.0000001
 43
0.0000001
 44
0.0000000001
 40
0.0
 40
0.0
 40
0.0
 40
0.0
 40
0.1485249489
 40
0.2894986408
 40
0.4227385198
 40
0.5486420198
 40
0.6679930974
 40
0.7819376971
 40
0.8919871115
 40
1.0
 40
1.0
 40
1.0
 40
1.0
 10
37.3603367932
 20
29.4145667398
 30
0.0
 10
37.4505132999
 20
29.4666298595
 30
0.0
 10
37.6306171288
 20
29.5608738651
 30
0.0
 10
37.905312024
 20
29.6733671572
 30
0.0
 10
38.1751727471
 20
29.7520213067
 30
0.0
 10
38.437539106
 20
29.7960530122
 30
0.0
 10
38.6900126968
 20
29.8047881973
 30
0.0
 10
38.9301871823
 20
29.7780563986
 30
0.0
 10
39.1554748653
 20
29.7157166689
 30
0.0
 10
39.2947232426
 20
29.6505407067
 30
0.0
 10
39.3603028592
 20
29.6126782783
 30
0.0
  0
SPLINE
  5
25A
100
AcDbEntity
  8
0
100
AcDbSpline
 62
7
  6
BYLAYER
 70
0
 71
3
 72
13
 73
9
 74
0
 42
0.0000001
 43
0.0000001
 44
0.0000000001
 40
0.0
 40
0.0
 40
0.0
 40
0.0
 40
0.3087272273
 40
0.5740844133
 40
0.6912699366
 40
0.7996900729
 40
0.9015973371
 40
1.0
 40
1.0
 40
1.0
 40
1.0
 10
36.093726498
 20
29.7038960581
 30
0.0
 10
36.1262954023
 20
29.7226996115
 30
0.0
 10
36.1848522118
 20
29.7613732715
 30
0.0
 10
36.2466455222
 20
29.8196205942
 30
0.0
 10
36.2815825846
 20
29.86838529
 30
0.0
 10
36.2998004348
 20
29.904078589
 30
0.0
 10
36.31088269
 20
29.9402300295
 30
0.0
 10
36.3133939198
 20
29.9646948962
 30
0.0
 10
36.313394195
 20
29.9766817108
 30
0.0
  0
SPLINE
  5
25B
100
AcDbEntity
  8
0
100
AcDbSpline
 62
7
  6
BYLAYER
 70
0
 71
3
 72
15
 73
11
 74
0
 42
0.0000001
 43
0.0000001
 44
0.0000000001
 40
0.0
 40
0.0
 40
0.0
 40
0.0
 40
0.1485249489
 40
0.2894986408
 40
0.4227385198
 40
0.5486420198
 40
0.6679930974
 40
0.7819376971
 40
0.8919871115
 40
1.0
 40
1.0
 40
1.0
 40
1.0
 10
8.3688380621
 20
46.1524376751
 30
0.0
 10
8.4590145689
 20
46.2045007948
 30
0.0
 10
8.6391183978
 20
46.2987448004
 30
0.0
 10
8.913813293
 20
46.4112380926
 30
0.0
 10
9.1836740161
 20
46.4898922421
 30
0.0
 10
9.446040375
 20
46.5339239476
 30
0.0
 10
9.6985139657
 20
46.5426591327
 30
0.0
 10
9.9386884513
 20
46.5159273339
 30
0.0
 10
10.1639761343
 20
46.4535876043
 30
0.0
 10
10.3032245116
 20
46.388411642
 30
0.0
 10
10.3688041282
 20
46.3505492136
 30
0.0
  0
SPLINE
  5
25C
100
AcDbEntity
  8
0
100
AcDbSpline
 62
7
  6
BYLAYER
 70
0
 71
3
 72
13
 73
9
 74
0
 42
0.0000001
 43
0.0000001
 44
0.0000000001
 40
0.0
 40
0.0
 40
0.0
 40
0.0
 40
0.0984224033
 40
0.2003391561
 40
0.3087730444
 40
0.4259334151
 40
0.691345042
 40
1.0
 40
1.0
 40
1.0
 40
1.0
 10
33.5216120356
 20
25.1411664255
 30
0.0
 10
33.5319933934
 20
25.1471648827
 30
0.0
 10
33.5519315196
 20
25.1615687195
 30
0.0
 10
33.5777144655
 20
25.1892380747
 30
0.0
 10
33.5995117257
 20
25.2228674505
 30
0.0
 10
33.6242787469
 20
25.2775131394
 30
0.0
 10
33.6437916971
 20
25.3601578424
 30
0.0
 10
33.648031101
 20
25.4302037227
 30
0.0
 10
33.648031101
 20
25.4678038556
 30
0.0
  0
SPLINE
  5
25D
100
AcDbEntity
  8
0
100
AcDbSpline
 62
7
  6
BYLAYER
 70
0
 71
3
 72
11
 73
7
 74
0
 42
0.0000001
 43
0.0000001
 44
0.0000000001
 40
0.0
 40
0.0
 40
0.0
 40
0.0
 40
0.2738133126
 40
0.5283327544
 40
0.7680102544
 40
1.0
 40
1.0
 40
1.0
 40
1.0
 10
33.1758895828
 20
26.4199574938
 30
0.0
 10
33.142447641
 20
26.4392647711
 30
0.0
 10
33.0738414731
 20
26.4701331542
 30
0.0
 10
32.9662282836
 20
26.4901602881
 30
0.0
 10
32.8628925637
 20
26.4813568888
 30
0.0
 10
32.7999550792
 20
26.456559862
 30
0.0
 10
32.7716211934
 20
26.4402017193
 30
0.0
  0
SPLINE
  5
25E
100
AcDbEntity
  8
0
100
AcDbSpline
 62
7
  6
BYLAYER
 70
0
 71
3
 72
14
 73
10
 74
0
 42
0.0000001
 43
0.0000001
 44
0.0000000001
 40
0.0
 40
0.0
 40
0.0
 40
0.0
 40
0.115351348
 40
0.2407085655
 40
0.372109457
 40
0.5057780237
 40
0.6381305862
 40
0.766147747
 40
1.0
 40
1.0
 40
1.0
 40
1.0
 10
33.648031101
 20
25.4678038556
 30
0.0
 10
33.648031101
 20
25.5102117505
 30
0.0
 10
33.641962871
 20
25.5987519927
 30
0.0
 10
33.6178164661
 20
25.7336307626
 30
0.0
 10
33.5783730825
 20
25.8719028534
 30
0.0
 10
33.5242884514
 20
26.0078875183
 30
0.0
 10
33.4560031159
 20
26.1361472324
 30
0.0
 10
33.3510675382
 20
26.2845727011
 30
0.0
 10
33.250345409
 20
26.376971375
 30
0.0
 10
33.1758895828
 20
26.4199574938
 30
0.0
  0
SPLINE
  5
25F
100
AcDbEntity
  8
0
100
AcDbSpline
 62
7
  6
BYLAYER
 70
0
 71
3
 72
15
 73
11
 74
0
 42
0.0000001
 43
0.0000001
 44
0.0000000001
 40
0.0
 40
0.0
 40
0.0
 40
0.0
 40
0.1141515802
 40
0.237329971
 40
0.3669773422
 40
0.4999994387
 40
0.6330216882
 40
0.762672533
 40
0.8858450537
 40
1.0
 40
1.0
 40
1.0
 40
1.0
 10
41.2202720053
 20
21.9124975344
 30
0.0
 10
41.3392898495
 20
21.9812121087
 30
0.0
 10
41.574378295
 20
22.1460134717
 30
0.0
 10
41.8978550254
 20
22.4486381211
 30
0.0
 10
42.1959401442
 20
22.806381582
 30
0.0
 10
42.4574311631
 20
23.2057859735
 30
0.0
 10
42.6725788305
 20
23.6319520607
 30
0.0
 10
42.8333339599
 20
24.0689761132
 30
0.0
 10
42.9336812938
 20
24.5004274077
 30
0.0
 10
42.9588511805
 20
24.7864185267
 30
0.0
 10
42.9588505114
 20
24.923852343
 30
0.0
  0
SPLINE
  5
260
100
AcDbEntity
  8
0
100
AcDbSpline
 62
7
  6
BYLAYER
 70
0
 71
3
 72
24
 73
20
 74
0
 42
0.0000001
 43
0.0000001
 44
0.0000000001
 40
0.0
 40
0.0
 40
0.0
 40
0.0
 40
0.0623681321
 40
0.1287425722
 40
0.1983329485
 40
0.2703139275
 40
0.3436968465
 40
0.4174313745
 40
0.4904600257
 40
0.5617523087
 40
0.6303563877
 40
0.6954484275
 40
0.7564013222
 40
0.8128440637
 40
0.8647476692
 40
0.9125268486
 40
0.9571052834
 40
0.9786667923
 40
1.0
 40
1.0
 40
1.0
 40
1.0
 10
39.8060643309
 20
23.1035845448
 30
0.0
 10
39.8060643309
 20
23.1865299496
 30
0.0
 10
39.8173357432
 20
23.3578602986
 30
0.0
 10
39.8635450947
 20
23.6179961137
 30
0.0
 10
39.9387644296
 20
23.8845673122
 30
0.0
 10
40.0413132347
 20
24.1518133418
 30
0.0
 10
40.168992256
 20
24.414131465
 30
0.0
 10
40.3191085086
 20
24.6659049707
 30
0.0
 10
40.488468828
 20
24.9017548264
 30
0.0
 10
40.6734379819
 20
25.1166809254
 30
0.0
 10
40.870104112
 20
25.3061027727
 30
0.0
 10
41.0743435599
 20
25.4659819715
 30
0.0
 10
41.2818878586
 20
25.592965135
 30
0.0
 10
41.4885278036
 20
25.6843093978
 30
0.0
 10
41.6901897411
 20
25.7378522935
 30
0.0
 10
41.8827833139
 20
25.752095186
 30
0.0
 10
42.0341955666
 20
25.7298050473
 30
0.0
 10
42.1443830421
 20
25.6916977707
 30
0.0
 10
42.1956765528
 20
25.6663057195
 30
0.0
 10
42.2202476711
 20
25.6521206933
 30
0.0
  0
SPLINE
  5
261
100
AcDbEntity
  8
0
100
AcDbSpline
 62
7
  6
BYLAYER
 70
0
 71
3
 72
15
 73
11
 74
0
 42
0.0000001
 43
0.0000001
 44
0.0000000001
 40
0.0
 40
0.0
 40
0.0
 40
0.0
 40
0.1486025951
 40
0.2895002398
 40
0.4227202897
 40
0.5486432157
 40
0.6679990592
 40
0.7819389153
 40
0.8919869537
 40
1.0
 40
1.0
 40
1.0
 40
1.0
 10
42.958857677
 20
25.7403515901
 30
0.0
 10
42.9588570253
 20
25.8304381456
 30
0.0
 10
42.9515808598
 20
26.0060601349
 30
0.0
 10
42.9170278006
 20
26.260391468
 30
0.0
 10
42.8592484618
 20
26.4964358048
 30
0.0
 10
42.7788042906
 20
26.7119582345
 30
0.0
 10
42.6761848601
 20
26.9048159986
 30
0.0
 10
42.5523163334
 20
27.0731080662
 30
0.0
 10
42.4082271004
 20
27.2148574632
 30
0.0
 10
42.299215422
 20
27.2909558155
 30
0.0
 10
42.2425079379
 20
27.3236959132
 30
0.0
  0
SPLINE
  5
262
100
AcDbEntity
  8
0
100
AcDbSpline
 62
7
  6
BYLAYER
 70
0
 71
3
 72
15
 73
11
 74
0
 42
0.0000001
 43
0.0000001
 44
0.0000000001
 40
0.0
 40
0.0
 40
0.0
 40
0.0
 40
0.1080128885
 40
0.2180623029
 40
0.3320069026
 40
0.4513579802
 40
0.5772614802
 40
0.7105013592
 40
0.8514750511
 40
1.0
 40
1.0
 40
1.0
 40
1.0
 10
38.7838166224
 20
21.3329313009
 30
0.0
 10
38.8405224971
 20
21.3001921323
 30
0.0
 10
38.9609288284
 20
21.2438352925
 30
0.0
 10
39.1557322718
 20
21.1899309075
 30
0.0
 10
39.3634081472
 20
21.1668162552
 30
0.0
 10
39.5817189052
 20
21.1743694606
 30
0.0
 10
39.8085838162
 20
21.2124431259
 30
0.0
 10
40.0419290102
 20
21.2804543859
 30
0.0
 10
40.2794542524
 20
21.3777259294
 30
0.0
 10
40.4351877819
 20
21.459217543
 30
0.0
 10
40.5131622801
 20
21.5042358718
 30
0.0
  0
SPLINE
  5
263
100
AcDbEntity
  8
0
100
AcDbSpline
 62
7
  6
BYLAYER
 70
0
 71
3
 72
16
 73
12
 74
0
 42
0.0000001
 43
0.0000001
 44
0.0000000001
 40
0.0
 40
0.0
 40
0.0
 40
0.0
 40
0.1141433782
 40
0.2373030166
 40
0.3669409854
 40
0.4999534927
 40
0.6329647147
 40
0.7626051456
 40
0.8857688081
 40
0.9441631915
 40
1.0
 40
1.0
 40
1.0
 40
1.0
 10
5.5404242311
 20
41.6953530487
 30
0.0
 10
5.5404230313
 20
41.8886801519
 30
0.0
 10
5.5758292313
 20
42.2909811729
 30
0.0
 10
5.7169863452
 20
42.8978995867
 30
0.0
 10
5.9431195113
 20
43.5126671471
 30
0.0
 10
6.2457680385
 20
44.1121526
 30
0.0
 10
6.6136320223
 20
44.6740422998
 30
0.0
 10
7.0328776376
 20
45.1771827888
 30
0.0
 10
7.4190306096
 20
45.5384977157
 30
0.0
 10
7.7408091612
 20
45.7801032078
 30
0.0
 10
7.90421304
 20
45.8841802581
 30
0.0
 10
7.9861149234
 20
45.9314660502
 30
0.0
  0
SPLINE
  5
264
100
AcDbEntity
  8
0
100
AcDbSpline
 62
7
  6
BYLAYER
 70
0
 71
3
 72
11
 73
7
 74
0
 42
0.0000001
 43
0.0000001
 44
0.0000000001
 40
0.0
 40
0.0
 40
0.0
 40
0.0
 40
0.2714076111
 40
0.5253185927
 40
0.7661698003
 40
1.0
 40
1.0
 40
1.0
 40
1.0
 10
42.1365261635
 20
27.4466108254
 30
0.0
 10
42.1044818312
 20
27.5537499457
 30
0.0
 10
42.0275361592
 20
27.7571845927
 30
0.0
 10
41.8664310715
 20
28.0306641099
 30
0.0
 10
41.6658683608
 20
28.2566990231
 30
0.0
 10
41.5067331102
 20
28.3734631158
 30
0.0
 10
41.4232954824
 20
28.421635877
 30
0.0
  0
SPLINE
  5
265
100
AcDbEntity
  8
0
100
AcDbSpline
 62
7
  6
BYLAYER
 70
0
 71
3
 72
15
 73
11
 74
0
 42
0.0000001
 43
0.0000001
 44
0.0000000001
 40
0.0
 40
0.0
 40
0.0
 40
0.0
 40
0.1080130463
 40
0.2180610847
 40
0.3320009408
 40
0.4513567843
 40
0.5772797103
 40
0.7104997602
 40
0.8513974049
 40
1.0
 40
1.0
 40
1.0
 40
1.0
 10
35.3603707271
 20
22.6844358643
 30
0.0
 10
35.2947892493
 20
22.7222993672
 30
0.0
 10
35.1687186417
 20
22.8103061354
 30
0.0
 10
35.0020812925
 20
22.9742374943
 30
0.0
 10
34.8588289305
 20
23.1688651114
 30
0.0
 10
34.7401508757
 20
23.3919026412
 30
0.0
 10
34.6471182239
 20
23.6411515661
 30
0.0
 10
34.5802971598
 20
23.9141338132
 30
0.0
 10
34.5403369901
 20
24.2082647369
 30
0.0
 10
34.5319221981
 20
24.4113693143
 30
0.0
 10
34.5319214444
 20
24.51555326
 30
0.0
  0
SPLINE
  5
266
100
AcDbEntity
  8
0
100
AcDbSpline
 62
7
  6
BYLAYER
 70
0
 71
3
 72
11
 73
7
 74
0
 42
0.0000001
 43
0.0000001
 44
0.0000000001
 40
0.0
 40
0.0
 40
0.0
 40
0.0
 40
0.2338364434
 40
0.4747017029
 40
0.7286209669
 40
1.0
 40
1.0
 40
1.0
 40
1.0
 10
37.4233633502
 20
21.493393463
 30
0.0
 10
37.5068019839
 20
21.445220121
 30
0.0
 10
37.6874959809
 20
21.365784391
 30
0.0
 10
37.9835415396
 20
21.3051277723
 30
0.0
 10
38.3009250022
 20
21.3023578383
 30
0.0
 10
38.5155686735
 20
21.337420101
 30
0.0
 10
38.6243626769
 20
21.363236675
 30
0.0
  0
SPLINE
  5
267
100
AcDbEntity
  8
0
100
AcDbSpline
 62
7
  6
BYLAYER
 70
0
 71
3
 72
11
 73
7
 74
0
 42
0.0000001
 43
0.0000001
 44
0.0000000001
 40
0.0
 40
0.0
 40
0.0
 40
0.0
 40
0.2338364434
 40
0.4747017029
 40
0.7286209669
 40
1.0
 40
1.0
 40
1.0
 40
1.0
 10
23.9882785724
 20
29.2499677988
 30
0.0
 10
24.0717172061
 20
29.2017944569
 30
0.0
 10
24.2524112031
 20
29.1223587269
 30
0.0
 10
24.5484567618
 20
29.0617021081
 30
0.0
 10
24.8658402244
 20
29.0589321742
 30
0.0
 10
25.0804838957
 20
29.0939944368
 30
0.0
 10
25.1892778991
 20
29.1198110108
 30
0.0
  0
SPLINE
  5
268
100
AcDbEntity
  8
0
100
AcDbSpline
 62
7
  6
BYLAYER
 70
0
 71
3
 72
15
 73
11
 74
0
 42
0.0000001
 43
0.0000001
 44
0.0000000001
 40
0.0
 40
0.0
 40
0.0
 40
0.0
 40
0.1080130463
 40
0.2180610847
 40
0.3320009408
 40
0.4513567843
 40
0.5772797103
 40
0.7104997602
 40
0.8513974049
 40
1.0
 40
1.0
 40
1.0
 40
1.0
 10
6.368871996
 20
39.4223067996
 30
0.0
 10
6.3032905182
 20
39.4601703026
 30
0.0
 10
6.1772199107
 20
39.5481770707
 30
0.0
 10
6.0105825615
 20
39.7121084297
 30
0.0
 10
5.8673301995
 20
39.9067360467
 30
0.0
 10
5.7486521447
 20
40.1297735766
 30
0.0
 10
5.6556194928
 20
40.3790225015
 30
0.0
 10
5.5887984288
 20
40.6520047485
 30
0.0
 10
5.5488382591
 20
40.9461356723
 30
0.0
 10
5.5404234671
 20
41.1492402497
 30
0.0
 10
5.5404227134
 20
41.2534241953
 30
0.0
  0
SPLINE
  5
269
100
AcDbEntity
  8
0
100
AcDbSpline
 62
7
  6
BYLAYER
 70
0
 71
3
 72
19
 73
15
 74
0
 42
0.0000001
 43
0.0000001
 44
0.0000000001
 40
0.0
 40
0.0
 40
0.0
 40
0.0
 40
0.0481649102
 40
0.0972631438
 40
0.1481219183
 40
0.2014754832
 40
0.2578704583
 40
0.3176245484
 40
0.4468209418
 40
0.5867196479
 40
0.7312574236
 40
0.8720989488
 40
0.9383069009
 40
1.0
 40
1.0
 40
1.0
 40
1.0
 10
34.8134008803
 20
29.9766844687
 30
0.0
 10
34.8133948134
 20
29.9521702442
 30
0.0
 10
34.8189281321
 20
29.9025008075
 30
0.0
 10
34.8434830506
 20
29.8306388683
 30
0.0
 10
34.8838342092
 20
29.7632141124
 30
0.0
 10
34.9389984535
 20
29.7022394572
 30
0.0
 10
35.0077585233
 20
29.649434367
 30
0.0
 10
35.1181302707
 20
29.5900559176
 30
0.0
 10
35.2812548899
 20
29.5442608483
 30
0.0
 10
35.49270421
 20
29.532989885
 30
0.0
 10
35.7084819618
 20
29.5590454755
 30
0.0
 10
35.8817080289
 20
29.6068128334
 30
0.0
 10
36.0084590822
 20
29.6585382397
 30
0.0
 10
36.066533613
 20
29.6881963323
 30
0.0
 10
36.093726498
 20
29.7038960581
 30
0.0
  0
SPLINE
  5
26A
100
AcDbEntity
  8
0
100
AcDbSpline
 62
7
  6
BYLAYER
 70
0
 71
3
 72
11
 73
7
 74
0
 42
0.0000001
 43
0.0000001
 44
0.0000000001
 40
0.0
 40
0.0
 40
0.0
 40
0.0
 40
0.2714076111
 40
0.5253185927
 40
0.7661698003
 40
1.0
 40
1.0
 40
1.0
 40
1.0
 10
28.7014413858
 20
35.2031851613
 30
0.0
 10
28.6693970534
 20
35.3103242816
 30
0.0
 10
28.5924513814
 20
35.5137589286
 30
0.0
 10
28.4313462937
 20
35.7872384458
 30
0.0
 10
28.230783583
 20
36.013273359
 30
0.0
 10
28.0716483324
 20
36.1300374516
 30
0.0
 10
27.9882107046
 20
36.1782102129
 30
0.0
  0
SPLINE
  5
26B
100
AcDbEntity
  8
0
100
AcDbSpline
 62
7
  6
BYLAYER
 70
0
 71
3
 72
11
 73
7
 74
0
 42
0.0000001
 43
0.0000001
 44
0.0000000001
 40
0.0
 40
0.0
 40
0.0
 40
0.0
 40
0.2320313943
 40
0.4716112801
 40
0.7260722869
 40
1.0
 40
1.0
 40
1.0
 40
1.0
 10
32.7716211934
 20
26.4402017193
 30
0.0
 10
32.7433037016
 20
26.4238530415
 30
0.0
 10
32.690402789
 20
26.3817823916
 30
0.0
 10
32.6312158146
 20
26.2967284324
 30
0.0
 10
32.5948860227
 20
26.1935662252
 30
0.0
 10
32.5873665133
 20
26.1187670484
 30
0.0
 10
32.5873665133
 20
26.0801649874
 30
0.0
  0
SPLINE
  5
26C
100
AcDbEntity
  8
0
100
AcDbSpline
 62
7
  6
BYLAYER
 70
0
 71
3
 72
15
 73
11
 74
0
 42
0.0000001
 43
0.0000001
 44
0.0000000001
 40
0.0
 40
0.0
 40
0.0
 40
0.0
 40
0.1140703753
 40
0.2369372637
 40
0.3661662337
 40
0.4987867011
 40
0.6315778486
 40
0.7612886343
 40
0.8849299035
 40
1.0
 40
1.0
 40
1.0
 40
1.0
 10
39.8143586412
 20
23.1083786516
 30
0.0
 10
39.9091447371
 20
23.163749376
 30
0.0
 10
40.0963444837
 20
23.2957478857
 30
0.0
 10
40.354340372
 20
23.537060221
 30
0.0
 10
40.5925825972
 20
23.821573532
 30
0.0
 10
40.802455499
 20
24.1390203933
 30
0.0
 10
40.976418481
 20
24.4779996592
 30
0.0
 10
41.1082462067
 20
24.8263413644
 30
0.0
 10
41.1931560682
 20
25.1714698654
 30
0.0
 10
41.2174075916
 20
25.4009275106
 30
0.0
 10
41.2198082073
 20
25.511637508
 30
0.0
  0
SPLINE
  5
26D
100
AcDbEntity
  8
0
100
AcDbSpline
 62
7
  6
BYLAYER
 70
0
 71
3
 72
25
 73
21
 74
0
 42
0.0000001
 43
0.0000001
 44
0.0000000001
 40
0.0
 40
0.0
 40
0.0
 40
0.0
 40
0.0623728096
 40
0.128727065
 40
0.1983123544
 40
0.2702900124
 40
0.3436675307
 40
0.417398636
 40
0.4904230738
 40
0.5617101404
 40
0.6303074765
 40
0.6953949057
 40
0.7563430928
 40
0.8127814593
 40
0.864682153
 40
0.9124569545
 40
0.9351022172
 40
0.9571073848
 40
0.9786679307
 40
1.0
 40
1.0
 40
1.0
 40
1.0
 10
40.5131622801
 20
27.1523913423
 30
0.0
 10
40.3889158465
 20
27.0806580586
 30
0.0
 10
40.1420546713
 20
26.9156588336
 30
0.0
 10
39.7924419217
 20
26.6214861955
 30
0.0
 10
39.4582684355
 20
26.2783433641
 30
0.0
 10
39.1466469247
 20
25.8936928064
 30
0.0
 10
38.8641977082
 20
25.4756127033
 30
0.0
 10
38.616935396
 20
25.0330593466
 30
0.0
 10
38.4101230665
 20
24.5754712831
 30
0.0
 10
38.2481778843
 20
24.1125920017
 30
0.0
 10
38.1345652743
 20
23.654248812
 30
0.0
 10
38.071706149
 20
23.2101151801
 30
0.0
 10
38.060991169
 20
22.7894784793
 30
0.0
 10
38.1029034751
 20
22.400985711
 30
0.0
 10
38.1969773967
 20
22.052728308
 30
0.0
 10
38.3203976671
 20
21.7974821966
 30
0.0
 10
38.4436513966
 20
21.6237589123
 30
0.0
 10
38.5458964769
 20
21.5103784447
 30
0.0
 10
38.6589592862
 20
21.4123509602
 30
0.0
 10
38.7413232786
 20
21.3574648567
 30
0.0
 10
38.7838166224
 20
21.3329313009
 30
0.0
  0
SPLINE
  5
26E
100
AcDbEntity
  8
0
100
AcDbSpline
 62
7
  6
BYLAYER
 70
0
 71
3
 72
30
 73
26
 74
0
 42
0.0000001
 43
0.0000001
 44
0.0000000001
 40
0.0
 40
0.0
 40
0.0
 40
0.0
 40
0.066529542
 40
0.1383200346
 40
0.2138807594
 40
0.2914083688
 40
0.3689361392
 40
0.4444990994
 40
0.516286502
 40
0.5828184286
 40
0.6431481353
 40
0.6709425718
 40
0.697211906
 40
0.7221135132
 40
0.7458833274
 40
0.7688423386
 40
0.7913756684
 40
0.8139091556
 40
0.8368682055
 40
0.8606395023
 40
0.8855375512
 40
0.9118043748
 40
0.9396053497
 40
0.9690183707
 40
1.0
 40
1.0
 40
1.0
 40
1.0
 10
41.2202720053
 20
25.9276481707
 30
0.0
 10
41.1012552819
 20
25.8589342435
 30
0.0
 10
40.8661689932
 20
25.6941346295
 30
0.0
 10
40.5426948588
 20
25.3915137542
 30
0.0
 10
40.2446116934
 20
25.0337737405
 30
0.0
 10
39.9831216166
 20
24.6343772896
 30
0.0
 10
39.7679740272
 20
24.208203527
 30
0.0
 10
39.6072166874
 20
23.7712272936
 30
0.0
 10
39.5068693137
 20
23.3396280429
 30
0.0
 10
39.4707082056
 20
22.929402992
 30
0.0
 10
39.4962506245
 20
22.6088163826
 30
0.0
 10
39.5524609533
 20
22.3788312213
 30
0.0
 10
39.609692089
 20
22.2256306994
 30
0.0
 10
39.6825977536
 20
22.0885103476
 30
0.0
 10
39.7706777565
 20
21.9689026296
 30
0.0
 10
39.8731019388
 20
21.8680911476
 30
0.0
 10
39.9888919171
 20
21.7872790587
 30
0.0
 10
40.1167673923
 20
21.7274002875
 30
0.0
 10
40.2552851824
 20
21.6890845627
 30
0.0
 10
40.4029053529
 20
21.6726363259
 30
0.0
 10
40.5581016601
 20
21.6779995716
 30
0.0
 10
40.7193842834
 20
21.7050622734
 30
0.0
 10
40.8852805993
 20
21.7534196169
 30
0.0
 10
41.0541382679
 20
21.8225740802
 30
0.0
 10
41.1648480252
 20
21.8804986756
 30
0.0
 10
41.2202720053
 20
21.9124975344
 30
0.0
  0
SPLINE
  5
26F
100
AcDbEntity
  8
0
100
AcDbSpline
 62
7
  6
BYLAYER
 70
0
 71
3
 72
25
 73
21
 74
0
 42
0.0000001
 43
0.0000001
 44
0.0000000001
 40
0.0
 40
0.0
 40
0.0
 40
0.0
 40
0.0623728096
 40
0.128727065
 40
0.1983123544
 40
0.2702900124
 40
0.3436675307
 40
0.417398636
 40
0.4904230738
 40
0.5617101404
 40
0.6303074765
 40
0.6953949057
 40
0.7563430928
 40
0.8127814593
 40
0.864682153
 40
0.9124569545
 40
0.9351022172
 40
0.9571073848
 40
0.9786679307
 40
1.0
 40
1.0
 40
1.0
 40
1.0
 10
39.4233294163
 20
28.2235243385
 30
0.0
 10
39.2796400098
 20
28.1405657162
 30
0.0
 10
38.9941482279
 20
27.9497462294
 30
0.0
 10
38.5898255684
 20
27.6095393475
 30
0.0
 10
38.203358219
 20
27.2126990655
 30
0.0
 10
37.8429719398
 20
26.7678556305
 30
0.0
 10
37.5163230447
 20
26.2843513552
 30
0.0
 10
37.230367353
 20
25.7725440761
 30
0.0
 10
36.9911915473
 20
25.2433493514
 30
0.0
 10
36.8039040217
 20
24.708035401
 30
0.0
 10
36.6725124958
 20
24.1779673826
 30
0.0
 10
36.599816724
 20
23.6643325354
 30
0.0
 10
36.587424987
 20
23.1778715876
 30
0.0
 10
36.6358960313
 20
22.7285846853
 30
0.0
 10
36.7446913147
 20
22.3258294669
 30
0.0
 10
36.887425274
 20
22.0306406138
 30
0.0
 10
37.0299666309
 20
21.8297318643
 30
0.0
 10
37.1482117544
 20
21.6986088082
 30
0.0
 10
37.2789674427
 20
21.58524128
 30
0.0
 10
37.3742203433
 20
21.5217662055
 30
0.0
 10
37.4233633502
 20
21.493393463
 30
0.0
  0
SPLINE
  5
270
100
AcDbEntity
  8
0
100
AcDbSpline
 62
7
  6
BYLAYER
 70
0
 71
3
 72
14
 73
10
 74
0
 42
0.0000001
 43
0.0000001
 44
0.0000000001
 40
0.0
 40
0.0
 40
0.0
 40
0.0
 40
0.1080439466
 40
0.2181338781
 40
0.3321073563
 40
0.4514836908
 40
0.5774328045
 40
0.7107568979
 40
1.0
 40
1.0
 40
1.0
 40
1.0
 10
42.2202476711
 20
25.6521206933
 30
0.0
 10
42.2530381965
 20
25.6331905634
 30
0.0
 10
42.3160981932
 20
25.589215726
 30
0.0
 10
42.3993740168
 20
25.5072044342
 30
0.0
 10
42.4710319842
 20
25.4099214528
 30
0.0
 10
42.5303530824
 20
25.2984074223
 30
0.0
 10
42.5769031647
 20
25.173770513
 30
0.0
 10
42.6226262986
 20
24.9867297882
 30
0.0
 10
42.6344796797
 20
24.8379223679
 30
0.0
 10
42.6344796797
 20
24.7365611603
 30
0.0
  0
SPLINE
  5
271
100
AcDbEntity
  8
0
100
AcDbSpline
 62
7
  6
BYLAYER
 70
0
 71
3
 72
24
 73
20
 74
0
 42
0.0000001
 43
0.0000001
 44
0.0000000001
 40
0.0
 40
0.0
 40
0.0
 40
0.0
 40
0.0623681321
 40
0.1287425722
 40
0.1983329485
 40
0.2703139275
 40
0.3436968465
 40
0.4174313745
 40
0.4904600257
 40
0.5617523087
 40
0.6303563877
 40
0.6954484275
 40
0.7564013222
 40
0.8128440637
 40
0.8647476692
 40
0.9125268486
 40
0.9571052834
 40
0.9786667923
 40
1.0
 40
1.0
 40
1.0
 40
1.0
 10
42.6344796797
 20
24.7365611603
 30
0.0
 10
42.6344796797
 20
24.6536157555
 30
0.0
 10
42.6232082674
 20
24.4822854065
 30
0.0
 10
42.5769989159
 20
24.2221495914
 30
0.0
 10
42.501779581
 20
23.9555783929
 30
0.0
 10
42.3992307759
 20
23.6883323632
 30
0.0
 10
42.2715517546
 20
23.4260142401
 30
0.0
 10
42.121435502
 20
23.1742407344
 30
0.0
 10
41.9520751826
 20
22.9383908786
 30
0.0
 10
41.7671060287
 20
22.7234647797
 30
0.0
 10
41.5704398986
 20
22.5340429324
 30
0.0
 10
41.3662004507
 20
22.3741637335
 30
0.0
 10
41.1586561519
 20
22.2471805701
 30
0.0
 10
40.952016207
 20
22.1558363073
 30
0.0
 10
40.7503542695
 20
22.1022934115
 30
0.0
 10
40.5577606967
 20
22.0880505191
 30
0.0
 10
40.406348444
 20
22.1103406578
 30
0.0
 10
40.2961609685
 20
22.1484479344
 30
0.0
 10
40.2448674578
 20
22.1738399856
 30
0.0
 10
40.2202963394
 20
22.1880250118
 30
0.0
  0
SPLINE
  5
272
100
AcDbEntity
  8
0
100
AcDbSpline
 62
7
  6
BYLAYER
 70
0
 71
3
 72
15
 73
11
 74
0
 42
0.0000001
 43
0.0000001
 44
0.0000000001
 40
0.0
 40
0.0
 40
0.0
 40
0.0
 40
0.1485249489
 40
0.2894986408
 40
0.4227385198
 40
0.5486420198
 40
0.6679930974
 40
0.7819376971
 40
0.8919871115
 40
1.0
 40
1.0
 40
1.0
 40
1.0
 10
39.806052555
 20
27.5606320968
 30
0.0
 10
39.8840270532
 20
27.6056504256
 30
0.0
 10
40.0397605827
 20
27.6871420393
 30
0.0
 10
40.2772858249
 20
27.7844135828
 30
0.0
 10
40.510631019
 20
27.8524248427
 30
0.0
 10
40.7374959299
 20
27.890498508
 30
0.0
 10
40.9558066879
 20
27.8980517134
 30
0.0
 10
41.1634825634
 20
27.8749370612
 30
0.0
 10
41.3582860068
 20
27.8210326762
 30
0.0
 10
41.478692338
 20
27.7646758363
 30
0.0
 10
41.5353982128
 20
27.7319366678
 30
0.0
  0
SPLINE
  5
273
100
AcDbEntity
  8
0
100
AcDbSpline
 62
7
  6
BYLAYER
 70
0
 71
3
 72
22
 73
18
 74
0
 42
0.0000001
 43
0.0000001
 44
0.0000000001
 40
0.0
 40
0.0
 40
0.0
 40
0.0
 40
0.1446118304
 40
0.2112358169
 40
0.2742041327
 40
0.3338940298
 40
0.3908710619
 40
0.4459046595
 40
0.4999179698
 40
0.5539317326
 40
0.6089656408
 40
0.6659465679
 40
0.7256283736
 40
0.7885911782
 40
0.8552313846
 40
0.9257356996
 40
1.0
 40
1.0
 40
1.0
 40
1.0
 10
42.9588505114
 20
24.923852343
 30
0.0
 10
42.9588499048
 20
25.0484719368
 30
0.0
 10
42.9442889654
 20
25.2313966092
 30
0.0
 10
42.8880773353
 20
25.4613260322
 30
0.0
 10
42.8308447357
 20
25.6145326317
 30
0.0
 10
42.757938169
 20
25.7516477005
 30
0.0
 10
42.6698575471
 20
25.8712531526
 30
0.0
 10
42.5674331183
 20
25.9720618925
 30
0.0
 10
42.4516432225
 20
26.0528716876
 30
0.0
 10
42.3237681602
 20
26.1127484578
 30
0.0
 10
42.1852510662
 20
26.1510625527
 30
0.0
 10
42.0376318394
 20
26.1675095622
 30
0.0
 10
41.8824366743
 20
26.1621454865
 30
0.0
 10
41.7211553509
 20
26.1350823621
 30
0.0
 10
41.555260454
 20
26.0867249897
 30
0.0
 10
41.3864042822
 20
26.0175708853
 30
0.0
 10
41.2756954969
 20
25.9596467474
 30
0.0
 10
41.2202720053
 20
25.9276481707
 30
0.0
  0
SPLINE
  5
274
100
AcDbEntity
  8
0
100
AcDbSpline
 62
7
  6
BYLAYER
 70
0
 71
3
 72
9
 73
5
 74
0
 42
0.0000001
 43
0.0000001
 44
0.0000000001
 40
0.0
 40
0.0
 40
0.0
 40
0.0
 40
0.2446335112
 40
1.0
 40
1.0
 40
1.0
 40
1.0
 10
5.5404227134
 20
41.2534241953
 30
0.0
 10
5.5404224704
 20
41.2870032104
 30
0.0
 10
5.5422611441
 20
41.4242623048
 30
0.0
 10
5.5512528514
 20
41.5614033509
 30
0.0
 10
5.5616066724
 20
41.6645686066
 30
0.0
  0
SPLINE
  5
275
100
AcDbEntity
  8
0
100
AcDbSpline
 62
7
  6
BYLAYER
 70
0
 71
3
 72
15
 73
11
 74
0
 42
0.0000001
 43
0.0000001
 44
0.0000000001
 40
0.0
 40
0.0
 40
0.0
 40
0.0
 40
0.1171703797
 40
0.2409115251
 40
0.3692625536
 40
0.4999858477
 40
0.6307089587
 40
0.7590631088
 40
0.8827942483
 40
1.0
 40
1.0
 40
1.0
 40
1.0
 10
5.5616066724
 20
41.6645686066
 30
0.0
 10
5.5813178928
 20
41.8609707957
 30
0.0
 10
5.6484382499
 20
42.2624040164
 30
0.0
 10
5.8190680693
 20
42.8617414682
 30
0.0
 10
6.0583141375
 20
43.4617845432
 30
0.0
 10
6.3597312961
 20
44.0463024507
 30
0.0
 10
6.7152104599
 20
44.5996167098
 30
0.0
 10
7.1152296902
 20
45.1068225068
 30
0.0
 10
7.548945381
 20
45.554339436
 30
0.0
 10
7.8630850528
 20
45.8131950553
 30
0.0
 10
8.0233679716
 20
45.9285001543
 30
0.0
  0
SPLINE
  5
276
100
AcDbEntity
  8
0
100
AcDbSpline
 62
7
  6
BYLAYER
 70
0
 71
3
 72
9
 73
5
 74
0
 42
0.0000001
 43
0.0000001
 44
0.0000000001
 40
0.0
 40
0.0
 40
0.0
 40
0.0
 40
0.255534425
 40
1.0
 40
1.0
 40
1.0
 40
1.0
 10
8.0233679716
 20
45.9285001543
 30
0.0
 10
8.051841645
 20
45.9489836827
 30
0.0
 10
8.1642029696
 20
46.0278324308
 30
0.0
 10
8.28033946
 20
46.1013432884
 30
0.0
 10
8.3688380621
 20
46.1524376751
 30
0.0
  0
SPLINE
  5
277
100
AcDbEntity
  8
0
100
AcDbSpline
 62
7
  6
BYLAYER
 70
0
 71
3
 72
15
 73
11
 74
0
 42
0.0000001
 43
0.0000001
 44
0.0000000001
 40
0.0
 40
0.0
 40
0.0
 40
0.0
 40
0.1080128885
 40
0.2180623029
 40
0.3320069026
 40
0.4513579802
 40
0.5772614802
 40
0.7105013592
 40
0.8514750511
 40
1.0
 40
1.0
 40
1.0
 40
1.0
 10
42.2425079379
 20
27.3236959132
 30
0.0
 10
42.1858020632
 20
27.3564350818
 30
0.0
 10
42.0653957319
 20
27.4127919217
 30
0.0
 10
41.8705922885
 20
27.4666963067
 30
0.0
 10
41.6629164131
 20
27.4898109589
 30
0.0
 10
41.4446056551
 20
27.4822577535
 30
0.0
 10
41.2177407441
 20
27.4441840882
 30
0.0
 10
40.9843955501
 20
27.3761728283
 30
0.0
 10
40.7468703079
 20
27.2789012847
 30
0.0
 10
40.5911367784
 20
27.1974096711
 30
0.0
 10
40.5131622801
 20
27.1523913423
 30
0.0
  0
SPLINE
  5
278
100
AcDbEntity
  8
0
100
AcDbSpline
 62
7
  6
BYLAYER
 70
0
 71
3
 72
25
 73
21
 74
0
 42
0.0000001
 43
0.0000001
 44
0.0000000001
 40
0.0
 40
0.0
 40
0.0
 40
0.0
 40
0.0213320693
 40
0.0428926152
 40
0.0648977828
 40
0.0875430455
 40
0.135317847
 40
0.1872185407
 40
0.2436569072
 40
0.3046050943
 40
0.3696925235
 40
0.4382898596
 40
0.5095769262
 40
0.582601364
 40
0.6563324693
 40
0.7297099876
 40
0.8016876456
 40
0.871272935
 40
0.9376271904
 40
1.0
 40
1.0
 40
1.0
 40
1.0
 10
38.0767068972
 20
21.7411720554
 30
0.0
 10
38.0342135535
 20
21.7657056112
 30
0.0
 10
37.951849561
 20
21.8205917147
 30
0.0
 10
37.8387867518
 20
21.9186191992
 30
0.0
 10
37.7365416715
 20
22.0319996668
 30
0.0
 10
37.613287942
 20
22.2057229511
 30
0.0
 10
37.4898676716
 20
22.4609690626
 30
0.0
 10
37.39579375
 20
22.8092264655
 30
0.0
 10
37.3538814438
 20
23.1977192338
 30
0.0
 10
37.3645964239
 20
23.6183559346
 30
0.0
 10
37.4274555491
 20
24.0624895666
 30
0.0
 10
37.5410681592
 20
24.5208327562
 30
0.0
 10
37.7030133414
 20
24.9837120376
 30
0.0
 10
37.9098256709
 20
25.4413001012
 30
0.0
 10
38.1570879831
 20
25.8838534579
 30
0.0
 10
38.4395371995
 20
26.3019335609
 30
0.0
 10
38.7511587103
 20
26.6865841186
 30
0.0
 10
39.0853321966
 20
27.02972695
 30
0.0
 10
39.4349449462
 20
27.3238995881
 30
0.0
 10
39.6818061214
 20
27.4888988131
 30
0.0
 10
39.806052555
 20
27.5606320968
 30
0.0
  0
SPLINE
  5
279
100
AcDbEntity
  8
0
100
AcDbSpline
 62
7
  6
BYLAYER
 70
0
 71
3
 72
25
 73
21
 74
0
 42
0.0000001
 43
0.0000001
 44
0.0000000001
 40
0.0
 40
0.0
 40
0.0
 40
0.0
 40
0.0623728096
 40
0.128727065
 40
0.1983123544
 40
0.2702900124
 40
0.3436675307
 40
0.417398636
 40
0.4904230738
 40
0.5617101404
 40
0.6303074765
 40
0.6953949057
 40
0.7563430928
 40
0.8127814593
 40
0.864682153
 40
0.9124569545
 40
0.9351022172
 40
0.9571073848
 40
0.9786679307
 40
1.0
 40
1.0
 40
1.0
 40
1.0
 10
25.9882446385
 20
35.9800986744
 30
0.0
 10
25.844555232
 20
35.8971400521
 30
0.0
 10
25.5590634501
 20
35.7063205653
 30
0.0
 10
25.1547407907
 20
35.3661136834
 30
0.0
 10
24.7682734412
 20
34.9692734014
 30
0.0
 10
24.407887162
 20
34.5244299664
 30
0.0
 10
24.0812382669
 20
34.0409256911
 30
0.0
 10
23.7952825752
 20
33.5291184119
 30
0.0
 10
23.5561067695
 20
32.9999236872
 30
0.0
 10
23.3688192439
 20
32.4646097369
 30
0.0
 10
23.2374277181
 20
31.9345417185
 30
0.0
 10
23.1647319462
 20
31.4209068713
 30
0.0
 10
23.1523402092
 20
30.9344459235
 30
0.0
 10
23.2008112535
 20
30.4851590212
 30
0.0
 10
23.309606537
 20
30.0824038028
 30
0.0
 10
23.4523404962
 20
29.7872149496
 30
0.0
 10
23.5948818531
 20
29.5863062002
 30
0.0
 10
23.7131269766
 20
29.4551831441
 30
0.0
 10
23.8438826649
 20
29.3418156159
 30
0.0
 10
23.9391355655
 20
29.2783405414
 30
0.0
 10
23.9882785724
 20
29.2499677988
 30
0.0
  0
SPLINE
  5
27A
100
AcDbEntity
  8
0
100
AcDbSpline
 62
7
  6
BYLAYER
 70
0
 71
3
 72
15
 73
11
 74
0
 42
0.0000001
 43
0.0000001
 44
0.0000000001
 40
0.0
 40
0.0
 40
0.0
 40
0.0
 40
0.1080128885
 40
0.2180623029
 40
0.3320069026
 40
0.4513579802
 40
0.5772614802
 40
0.7105013592
 40
0.8514750511
 40
1.0
 40
1.0
 40
1.0
 40
1.0
 10
41.4232954824
 20
28.421635877
 30
0.0
 10
41.3577158657
 20
28.4594983054
 30
0.0
 10
41.2184674884
 20
28.5246742676
 30
0.0
 10
40.9931798054
 20
28.5870139973
 30
0.0
 10
40.7530053199
 20
28.613745796
 30
0.0
 10
40.5005317291
 20
28.6050106109
 30
0.0
 10
40.2381653703
 20
28.5609789054
 30
0.0
 10
39.9683046471
 20
28.4823247559
 30
0.0
 10
39.6936097519
 20
28.3698314638
 30
0.0
 10
39.513505923
 20
28.2755874582
 30
0.0
 10
39.4233294163
 20
28.2235243385
 30
0.0
  0
SPLINE
  5
27B
100
AcDbEntity
  8
0
100
AcDbSpline
 62
7
  6
BYLAYER
 70
0
 71
3
 72
15
 73
11
 74
0
 42
0.0000001
 43
0.0000001
 44
0.0000000001
 40
0.0
 40
0.0
 40
0.0
 40
0.0
 40
0.1485249489
 40
0.2894986408
 40
0.4227385198
 40
0.5486420198
 40
0.6679930974
 40
0.7819376971
 40
0.8919871115
 40
1.0
 40
1.0
 40
1.0
 40
1.0
 10
26.3709677772
 20
35.3172064327
 30
0.0
 10
26.4489422754
 20
35.3622247615
 30
0.0
 10
26.604675805
 20
35.4437163751
 30
0.0
 10
26.8422010471
 20
35.5409879187
 30
0.0
 10
27.0755462412
 20
35.6089991786
 30
0.0
 10
27.3024111521
 20
35.6470728439
 30
0.0
 10
27.5207219101
 20
35.6546260493
 30
0.0
 10
27.7283977856
 20
35.6315113971
 30
0.0
 10
27.923201229
 20
35.5776070121
 30
0.0
 10
28.0436075602
 20
35.5212501722
 30
0.0
 10
28.100313435
 20
35.4885110036
 30
0.0
  0
SPLINE
  5
27C
100
AcDbEntity
  8
0
100
AcDbSpline
 62
7
  6
BYLAYER
 70
0
 71
3
 72
16
 73
12
 74
0
 42
0.0000001
 43
0.0000001
 44
0.0000000001
 40
0.0
 40
0.0
 40
0.0
 40
0.0
 40
0.0558364121
 40
0.114229488
 40
0.2373900251
 40
0.3670286046
 40
0.5000416482
 40
0.6330548423
 40
0.7626938611
 40
0.8858550911
 40
1.0
 40
1.0
 40
1.0
 40
1.0
 10
36.9776136544
 20
29.1935951149
 30
0.0
 10
36.8957122685
 20
29.14630961
 30
0.0
 10
36.7323102589
 20
29.0422346449
 30
0.0
 10
36.4105377791
 20
28.8006339762
 30
0.0
 10
36.0243909314
 20
28.4393275679
 30
0.0
 10
35.6051444565
 20
27.9361938893
 30
0.0
 10
35.2372769264
 20
27.3743042592
 30
0.0
 10
34.934622472
 20
26.7748142875
 30
0.0
 10
34.7084848307
 20
26.1600415846
 30
0.0
 10
34.5673243495
 20
25.5531160269
 30
0.0
 10
34.5319168589
 20
25.1508092907
 30
0.0
 10
34.5319182575
 20
24.9574793966
 30
0.0
  0
SPLINE
  5
27D
100
AcDbEntity
  8
0
100
AcDbSpline
 62
7
  6
BYLAYER
 70
0
 71
3
 72
19
 73
15
 74
0
 42
0.0000001
 43
0.0000001
 44
0.0000000001
 40
0.0
 40
0.0
 40
0.0
 40
0.0
 40
0.0558520699
 40
0.1142051787
 40
0.1748234849
 40
0.2374072084
 40
0.3670174466
 40
0.500001111
 40
0.6329846249
 40
0.7625944238
 40
0.8251706788
 40
0.8857958717
 40
0.944175984
 40
1.0
 40
1.0
 40
1.0
 40
1.0
 10
34.5319214444
 20
24.51555326
 30
0.0
 10
34.5319206527
 20
24.6249788725
 30
0.0
 10
34.5416549816
 20
24.8488113187
 30
0.0
 10
34.5828493538
 20
25.189130916
 30
0.0
 10
34.6506803082
 20
25.5386057929
 30
0.0
 10
34.7770990463
 20
26.017817616
 30
0.0
 10
34.9976666261
 20
26.6173053273
 30
0.0
 10
35.3476632943
 20
27.3105877669
 30
0.0
 10
35.7730566368
 20
27.9603409137
 30
0.0
 10
36.1819380297
 20
28.4510851274
 30
0.0
 10
36.5337161875
 20
28.8001921048
 30
0.0
 10
36.8024997475
 20
29.0337018115
 30
0.0
 10
37.0766542166
 20
29.2395199425
 30
0.0
 10
37.2656188912
 20
29.35988166
 30
0.0
 10
37.3603367932
 20
29.4145667398
 30
0.0
  0
SPLINE
  5
27E
100
AcDbEntity
  8
0
100
AcDbSpline
 62
7
  6
BYLAYER
 70
0
 71
3
 72
25
 73
21
 74
0
 42
0.0000001
 43
0.0000001
 44
0.0000000001
 40
0.0
 40
0.0
 40
0.0
 40
0.0
 40
0.0213320693
 40
0.0428926152
 40
0.0648977828
 40
0.0875430455
 40
0.135317847
 40
0.1872185407
 40
0.2436569072
 40
0.3046050943
 40
0.3696925235
 40
0.4382898596
 40
0.5095769262
 40
0.582601364
 40
0.6563324693
 40
0.7297099876
 40
0.8016876456
 40
0.871272935
 40
0.9376271904
 40
1.0
 40
1.0
 40
1.0
 40
1.0
 10
24.6416221194
 20
29.4977463913
 30
0.0
 10
24.5991287757
 20
29.5222799471
 30
0.0
 10
24.5167647832
 20
29.5771660506
 30
0.0
 10
24.403701974
 20
29.6751935351
 30
0.0
 10
24.3014568937
 20
29.7885740027
 30
0.0
 10
24.1782031642
 20
29.962297287
 30
0.0
 10
24.0547828938
 20
30.2175433984
 30
0.0
 10
23.9607089722
 20
30.5658008014
 30
0.0
 10
23.918796666
 20
30.9542935697
 30
0.0
 10
23.9295116461
 20
31.3749302705
 30
0.0
 10
23.9923707713
 20
31.8190639024
 30
0.0
 10
24.1059833814
 20
32.2774070921
 30
0.0
 10
24.2679285636
 20
32.7402863735
 30
0.0
 10
24.4747408931
 20
33.197874437
 30
0.0
 10
24.7220032053
 20
33.6404277938
 30
0.0
 10
25.0044524217
 20
34.0585078968
 30
0.0
 10
25.3160739325
 20
34.4431584545
 30
0.0
 10
25.6502474188
 20
34.7863012859
 30
0.0
 10
25.9998601684
 20
35.080473924
 30
0.0
 10
26.2467213436
 20
35.245473149
 30
0.0
 10
26.3709677772
 20
35.3172064327
 30
0.0
  0
SPLINE
  5
27F
100
AcDbEntity
  8
0
100
AcDbSpline
 62
7
  6
BYLAYER
 70
0
 71
3
 72
15
 73
11
 74
0
 42
0.0000001
 43
0.0000001
 44
0.0000000001
 40
0.0
 40
0.0
 40
0.0
 40
0.0
 40
0.1080128885
 40
0.2180623029
 40
0.3320069026
 40
0.4513579802
 40
0.5772614802
 40
0.7105013592
 40
0.8514750511
 40
1.0
 40
1.0
 40
1.0
 40
1.0
 10
27.9882107046
 20
36.1782102129
 30
0.0
 10
27.9226310879
 20
36.2160726413
 30
0.0
 10
27.7833827106
 20
36.2812486035
 30
0.0
 10
27.5580950276
 20
36.3435883332
 30
0.0
 10
27.3179205421
 20
36.3703201319
 30
0.0
 10
27.0654469514
 20
36.3615849468
 30
0.0
 10
26.8030805925
 20
36.3175532413
 30
0.0
 10
26.5332198693
 20
36.2388990918
 30
0.0
 10
26.2585249741
 20
36.1264057997
 30
0.0
 10
26.0784211453
 20
36.0321617941
 30
0.0
 10
25.9882446385
 20
35.9800986744
 30
0.0
  0
SPLINE
  5
280
100
AcDbEntity
  8
0
100
AcDbSpline
 62
7
  6
BYLAYER
 70
0
 71
3
 72
13
 73
9
 74
0
 42
0.0000001
 43
0.0000001
 44
0.0000000001
 40
0.0
 40
0.0
 40
0.0
 40
0.0
 40
0.0984441701
 40
0.200318908
 40
0.3086697853
 40
0.4257870634
 40
0.6910944522
 40
1.0
 40
1.0
 40
1.0
 40
1.0
 10
36.313394195
 20
29.9766817108
 30
0.0
 10
36.3133944701
 20
29.9886635375
 30
0.0
 10
36.3108859842
 20
30.0131096139
 30
0.0
 10
36.2998013374
 20
30.0492204957
 30
0.0
 10
36.2815809221
 20
30.0848522498
 30
0.0
 10
36.2466353588
 20
30.1335215563
 30
0.0
 10
36.1848230663
 20
30.1916544116
 30
0.0
 10
36.1262826394
 20
30.230267638
 30
0.0
 10
36.093722082
 20
30.2490660593
 30
0.0
  0
SPLINE
  5
281
100
AcDbEntity
  8
0
100
AcDbSpline
 62
7
  6
BYLAYER
 70
0
 71
3
 72
11
 73
7
 74
0
 42
0.0000001
 43
0.0000001
 44
0.0000000001
 40
0.0
 40
0.0
 40
0.0
 40
0.0
 40
0.2738480769
 40
0.5283956111
 40
0.7680020194
 40
1.0
 40
1.0
 40
1.0
 40
1.0
 10
35.0330619103
 20
30.3162571898
 30
0.0
 10
34.9996426922
 20
30.2969627105
 30
0.0
 10
34.9386285257
 20
30.2530498591
 30
0.0
 10
34.867447342
 20
30.1700128143
 30
0.0
 10
34.82336751
 20
30.0762228242
 30
0.0
 10
34.8134089711
 20
30.0093763189
 30
0.0
 10
34.8134008803
 20
29.9766844687
 30
0.0
  0
SPLINE
  5
282
100
AcDbEntity
  8
0
100
AcDbSpline
 62
7
  6
BYLAYER
 70
0
 71
3
 72
20
 73
16
 74
0
 42
0.0000001
 43
0.0000001
 44
0.0000000001
 40
0.0
 40
0.0
 40
0.0
 40
0.0
 40
0.1298037933
 40
0.1997910527
 40
0.2723422396
 40
0.421867276
 40
0.5706590963
 40
0.6418463052
 40
0.7092114726
 40
0.7716514633
 40
0.8283272081
 40
0.8788261141
 40
0.9233871999
 40
0.9630836121
 40
1.0
 40
1.0
 40
1.0
 40
1.0
 10
32.5873665133
 20
26.0801649874
 30
0.0
 10
32.5873665133
 20
26.0166185703
 30
0.0
 10
32.6034666056
 20
25.9184971277
 30
0.0
 10
32.6478203432
 20
25.7926636295
 30
0.0
 10
32.7095558594
 20
25.6633901841
 30
0.0
 10
32.8110602203
 20
25.5116823951
 30
0.0
 10
32.9342783039
 20
25.3782721076
 30
0.0
 10
33.0408846725
 20
25.286311318
 30
0.0
 10
33.1203494072
 20
25.2280840049
 30
0.0
 10
33.1985792928
 20
25.1807623146
 30
0.0
 10
33.2738829059
 20
25.1453349209
 30
0.0
 10
33.3448919351
 20
25.1226402673
 30
0.0
 10
33.4106339284
 20
25.1133840338
 30
0.0
 10
33.4703506654
 20
25.1184018552
 30
0.0
 10
33.505963743
 20
25.1321246783
 30
0.0
 10
33.5216120356
 20
25.1411664255
 30
0.0
  0
SPLINE
  5
283
100
AcDbEntity
  8
0
100
AcDbSpline
 62
7
  6
BYLAYER
 70
0
 71
3
 72
14
 73
10
 74
0
 42
0.0000001
 43
0.0000001
 44
0.0000000001
 40
0.0
 40
0.0
 40
0.0
 40
0.0
 40
0.1153545708
 40
0.2407231537
 40
0.3721170779
 40
0.505762481
 40
0.6380981114
 40
0.766118971
 40
1.0
 40
1.0
 40
1.0
 40
1.0
 10
36.093722082
 20
30.2490660593
 30
0.0
 10
36.0569880514
 20
30.270273982
 30
0.0
 10
35.9772815012
 20
30.3093403554
 30
0.0
 10
35.8484233257
 20
30.3560109414
 30
0.0
 10
35.7089713247
 20
30.3911344024
 30
0.0
 10
35.5641610199
 20
30.4123660449
 30
0.0
 10
35.4189235551
 20
30.4172917664
 30
0.0
 10
35.2378881221
 20
30.4004341199
 30
0.0
 10
35.1075397316
 20
30.3592567234
 30
0.0
 10
35.0330619103
 20
30.3162571898
 30
0.0
  0
ENDSEC
  0
SECTION
  2
OBJECTS
  0
DICTIONARY
  5
C
100
AcDbDictionary
280
0
281
1
  3
ACAD_GROUP
350
D
  3
ACAD_MLINESTYLE
350
17
  3
ACAD_LAYOUT
350
1A
  3
ACAD_PLOTSETTINGS
350
19
  3
ACAD_PLOTSTYLENAME
350
E
  0
DICTIONARY
  5
D
102
{ACAD_REACTORS
330
C
102
}
100
AcDbDictionary
280
0
281
1
  0
ACDBDICTIONARYWDFLT
  5
E
102
{ACAD_REACTORS
330
C
102
}
100
AcDbDictionary
281
1
  3
Normal
350
F
100
AcDbDictionaryWithDefault
340
F
  0
DICTIONARY
  5
17
102
{ACAD_REACTORS
330
C
102
}
100
AcDbDictionary
280
0
281
1
  3
Standard
350
18
  0
DICTIONARY
  5
19
102
{ACAD_REACTORS
330
C
102
}
100
AcDbDictionary
281
1
  0
DICTIONARY
  5
1A
102
{ACAD_REACTORS
330
C
102
}
100
AcDbDictionary
281
1
  3
Model
350
284
  3
Layout1
350
285
  0
ACDBPLACEHOLDER
  5
F
102
{ACAD_REACTORS
330
E
102
}
  0
MLINESTYLE
  5
18
102
{ACAD_REACTORS
330
17
102
}
100
AcDbMlineStyle
  2
STANDARD
 70
0
  3

 62
256
 51
90.0
 52
90.0
 71
2
 49
0.5
 62
256
  6
BYLAYER
 49
-0.5
 62
256
  6
BYLAYER
  0
LAYOUT
  5
284
102
{ACAD_REACTORS
330
1A
102
}
100
AcDbPlotSettings
  1

  2
none_device
  4

  6

 40
0.0
 41
0.0
 42
0.0
 43
0.0
 44
210.0
 45
297.0
 46
0.0
 47
0.0
 48
0.0
 49
0.0
140
0.0
141
0.0
142
1.0
143
1.0
 70
1024
 72
1
 73
0
 74
0
  7

 75
0
147
1.0
148
0.0
149
0.0
100
AcDbLayout
  1
Model
 70
0
 71
0
 10
0.0
 20
0.0
 11
210.0
 21
297.0
 12
0.0
 22
0.0
 32
0.0
 14
0.0
 24
0.0
 34
0.0
 15
0.0
 25
0.0
 35
0.0
146
0.0
 13
0.0
 23
0.0
 33
0.0
 16
1.0
 26
0.0
 36
0.0
 17
0.0
 27
1.0
 37
0.0
 76
0
330
210
345
0
346
0
  0
LAYOUT
  5
285
102
{ACAD_REACTORS
330
1A
102
}
100
AcDbPlotSettings
  1

  2
none_device
  4

  6

 40
0.0
 41
0.0
 42
0.0
 43
0.0
 44
210.0
 45
297.0
 46
0.0
 47
0.0
 48
0.0
 49
0.0
140
0.0
141
0.0
142
1.0
143
1.0
 70
0
 72
1
 73
0
 74
0
  7

 75
0
147
1.0
148
0.0
149
0.0
100
AcDbLayout
  1
Layout1
 70
0
 71
1
 10
0.0
 20
0.0
 11
210.0
 21
297.0
 12
0.0
 22
0.0
 32
0.0
 14
0.0
 24
0.0
 34
0.0
 15
0.0
 25
0.0
 35
0.0
146
0.0
 13
0.0
 23
0.0
 33
0.0
 16
1.0
 26
0.0
 36
0.0
 17
0.0
 27
1.0
 37
0.0
 76
0
330
211
345
0
346
0
  0
ENDSEC
  0
EOF
