999
DXF file: C:\Users\sesa63760\Dev\_Creo\CAD\MCADUE0001290_3D-CAD\drw0001_2.dxf
999
Pro/ENGINEER 2019471 by Parametric Technology Corporation
  0
SECTION
  2
HEADER
  9
$ACADVER
  1
AC1024
  9
$DWGCODEPAGE
  3
ANSI_1252
  9
$EXTMAX
 10
251.7110098872
 20
355.9912854119
 30
0.0
  9
$EXTMIN
 10
0.0
 20
0.0
 30
0.0
  9
$LIMMIN
 10
0.0
 20
0.0
  9
$LIMMAX
 10
251.7110098872
 20
355.9912854119
  9
$VIEWCTR
 10
125.8555049436
 20
177.9956427059
  9
$VIEWSIZE
 40
355.9912854119
  9
$CLAYER
  8
0
  9
$LTSCALE
 40
23.2053578639
  9
$CELTYPE
  6
BYLAYER
  9
$DIMSCALE
 40
1.0
  9
$DIMASZ
 40
2.9965596415
  9
$DIMEXO
 40
1.0
  9
$DIMDLI
 40
16.032792706
  9
$DIMEXE
 40
1.0
  9
$DIMCEN
 40
3.7972403777
  9
$DIMLFAC
 40
1.0
  9
$DIMBLK
  1
_FILLED
  9
$DIMALT
 70
0
  9
$DIMALTF
 40
0.0393700787
  9
$DIMTXT
 40
4.1951834981
  9
$DIMTOL
 70
1
  9
$DIMLIM
 70
0
  9
$DIMTFAC
 40
1.0
  9
$DIMTP
 40
0.01
  9
$DIMTM
 40
0.01
  9
$DIMGAP
 40
0.625
  9
$DIMDSEP
 70
46
  9
$AUNITS
 70
0
  9
$PDMODE
 70
3
  9
$PDSIZE
 40
0.3125
  9
$HANDSEED
  5
259
  9
$TILEMODE
 70
1
  9
$MEASUREMENT
 70
1
  9
$INSUNITS
 70
4
  0
ENDSEC
  0
SECTION
  2
CLASSES
  0
CLASS
  1
ACDBDICTIONARYWDFLT
  2
AcDbDictionaryWithDefault
  3
AutoCAD 2000
 90
0
 91
1
280
0
281
0
  0
CLASS
  1
ACDBPLACEHOLDER
  2
AcDbPlaceHolder
  3
AutoCAD 2000
 90
0
 91
1
280
0
281
0
  0
CLASS
  1
LAYOUT
  2
AcDbLayout
  3
AutoCAD 2000
 90
0
 91
0
280
0
281
0
  0
ENDSEC
  0
SECTION
  2
TABLES
  0
TABLE
  2
VPORT
  5
8
100
AcDbSymbolTable
 70
2
  0
VPORT
  5
1F4
100
AcDbSymbolTableRecord
100
AcDbViewportTableRecord
  2
*ACTIVE
 70
0
 10
0.0
 20
0.0
 11
1.0
 21
1.0
 12
125.8555049436
 22
177.9956427059
 13
0.0
 23
0.0
 14
1.0
 24
1.0
 15
0.0
 25
0.0
 16
0.0
 26
0.0
 36
1.0
 17
0.0
 27
0.0
 37
0.0
 40
355.9912854119
 41
0.7070707071
 42
50.0
 43
0.0
 44
0.0
 50
0.0
 51
0.0
 71
0
 72
100
 73
1
 74
1
 75
0
 76
0
 77
0
 78
0
  0
ENDTAB
  0
TABLE
  2
LTYPE
  5
5
100
AcDbSymbolTable
 70
6
  0
LTYPE
  5
14
100
AcDbSymbolTableRecord
100
AcDbLinetypeTableRecord
  2
BYBLOCK
 70
0
  3

 72
65
 73
0
 40
0.0
  0
LTYPE
  5
15
100
AcDbSymbolTableRecord
100
AcDbLinetypeTableRecord
  2
BYLAYER
 70
0
  3

 72
65
 73
0
 40
0.0
  0
LTYPE
  5
16
100
AcDbSymbolTableRecord
100
AcDbLinetypeTableRecord
  2
CONTINUOUS
 70
64
  3
Solid line
 72
65
 73
0
 40
0.0
  0
LTYPE
  5
1F5
100
AcDbSymbolTableRecord
100
AcDbLinetypeTableRecord
  2
CENTER
 70
64
  3
____ _ ____ _ ____ _ ____ _ ____ _ ____ _ ____
 72
65
 73
4
 40
0.6
 49
0.375
 74
0
 49
-0.075
 74
0
 49
0.075
 74
0
 49
-0.075
 74
0
  0
LTYPE
  5
1F6
100
AcDbSymbolTableRecord
100
AcDbLinetypeTableRecord
  2
HIDDEN
 70
64
  3
- - - - - - - - - - - - - - - - - - - -
 72
65
 73
2
 40
0.2
 49
0.1
 74
0
 49
-0.1
 74
0
  0
LTYPE
  5
1F7
100
AcDbSymbolTableRecord
100
AcDbLinetypeTableRecord
  2
PHANTOM
 70
64
  3
_____ _ _ _____ _ _ _____ _ _ _____
 72
65
 73
6
 40
0.8
 49
0.45
 74
0
 49
-0.05
 74
0
 49
0.1
 74
0
 49
-0.05
 74
0
 49
0.1
 74
0
 49
-0.05
 74
0
  0
LTYPE
  5
1F8
100
AcDbSymbolTableRecord
100
AcDbLinetypeTableRecord
  2
DOT
 70
64
  3
. . . . . . . . . . . . . . . . . . . .
 72
65
 73
2
 40
0.2
 49
0.1
 74
0
 49
-0.1
 74
0
  0
LTYPE
  5
1F9
100
AcDbSymbolTableRecord
100
AcDbLinetypeTableRecord
  2
DASHED
 70
64
  3
- - - - - - - - - - - - - - - - - - - -
 72
65
 73
2
 40
0.2
 49
0.1
 74
0
 49
-0.1
 74
0
  0
ENDTAB
  0
TABLE
  2
LAYER
  5
2
100
AcDbSymbolTable
 70
36
  0
LAYER
  5
10
100
AcDbSymbolTableRecord
100
AcDbLayerTableRecord
  2
0
 70
0
 62
7
  6
CONTINUOUS
370
-3
390
F
  0
LAYER
  5
1FA
100
AcDbSymbolTableRecord
100
AcDbLayerTableRecord
  2
DEFAULT_1
 70
0
 62
7
  6
CENTER
370
-3
390
F
  0
LAYER
  5
1FB
100
AcDbSymbolTableRecord
100
AcDbLayerTableRecord
  2
DEFAULT_2
 70
0
 62
8
  6
HIDDEN
370
-3
390
F
  0
LAYER
  5
1FC
100
AcDbSymbolTableRecord
100
AcDbLayerTableRecord
  2
DEFAULT_3
 70
0
 62
7
  6
PHANTOM
370
-3
390
F
  0
LAYER
  5
1FD
100
AcDbSymbolTableRecord
100
AcDbLayerTableRecord
  2
00_COMPONENTS
 70
0
 62
7
  6
CONTINUOUS
370
-3
390
F
  0
LAYER
  5
1FE
100
AcDbSymbolTableRecord
100
AcDbLayerTableRecord
  2
01_1_DEFAULT_DATUMS
 70
0
 62
7
  6
CONTINUOUS
370
-3
390
F
  0
LAYER
  5
1FF
100
AcDbSymbolTableRecord
100
AcDbLayerTableRecord
  2
01_PLANES
 70
0
 62
7
  6
CONTINUOUS
370
-3
390
F
  0
LAYER
  5
200
100
AcDbSymbolTableRecord
100
AcDbLayerTableRecord
  2
02_COORD_SYS
 70
0
 62
7
  6
CONTINUOUS
370
-3
390
F
  0
LAYER
  5
201
100
AcDbSymbolTableRecord
100
AcDbLayerTableRecord
  2
03_AXES
 70
0
 62
7
  6
CONTINUOUS
370
-3
390
F
  0
LAYER
  5
202
100
AcDbSymbolTableRecord
100
AcDbLayerTableRecord
  2
04_POINTS
 70
0
 62
7
  6
CONTINUOUS
370
-3
390
F
  0
LAYER
  5
203
100
AcDbSymbolTableRecord
100
AcDbLayerTableRecord
  2
05_CURVES
 70
0
 62
7
  6
CONTINUOUS
370
-3
390
F
  0
LAYER
  5
204
100
AcDbSymbolTableRecord
100
AcDbLayerTableRecord
  2
06_SURFS
 70
0
 62
7
  6
CONTINUOUS
370
-3
390
F
  0
LAYER
  5
205
100
AcDbSymbolTableRecord
100
AcDbLayerTableRecord
  2
07_COSMETICS
 70
0
 62
7
  6
CONTINUOUS
370
-3
390
F
  0
LAYER
  5
206
100
AcDbSymbolTableRecord
100
AcDbLayerTableRecord
  2
10_NOTES
 70
0
 62
7
  6
CONTINUOUS
370
-3
390
F
  0
LAYER
  5
207
100
AcDbSymbolTableRecord
100
AcDbLayerTableRecord
  2
11_NOTES_PUB
 70
0
 62
7
  6
CONTINUOUS
370
-3
390
F
  0
LAYER
  5
208
100
AcDbSymbolTableRecord
100
AcDbLayerTableRecord
  2
13_REF_GTOL
 70
0
 62
7
  6
CONTINUOUS
370
-3
390
F
  0
LAYER
  5
209
100
AcDbSymbolTableRecord
100
AcDbLayerTableRecord
  2
16_MISC
 70
0
 62
7
  6
CONTINUOUS
370
-3
390
F
  0
LAYER
  5
20A
100
AcDbSymbolTableRecord
100
AcDbLayerTableRecord
  2
17_NO_PRINT
 70
0
 62
7
  6
CONTINUOUS
370
-3
390
F
  0
LAYER
  5
20B
100
AcDbSymbolTableRecord
100
AcDbLayerTableRecord
  2
18_DATUM_CAMS_JOINTS
 70
0
 62
7
  6
CONTINUOUS
370
-3
390
F
  0
LAYER
  5
20C
100
AcDbSymbolTableRecord
100
AcDbLayerTableRecord
  2
19_DATUM_FUNCTIONAL
 70
0
 62
7
  6
CONTINUOUS
370
-3
390
F
  0
LAYER
  5
20D
100
AcDbSymbolTableRecord
100
AcDbLayerTableRecord
  2
20_DATUM_KINEMATIC_SCHEME
 70
0
 62
7
  6
CONTINUOUS
370
-3
390
F
  0
ENDTAB
  0
TABLE
  2
STYLE
  5
3
100
AcDbSymbolTable
 70
1
  0
STYLE
  5
11
100
AcDbSymbolTableRecord
100
AcDbTextStyleTableRecord
  2
STANDARD
 70
0
 40
0.0
 41
0.8
 50
0.0
 71
0
 42
0.2
  3
txt
  4

  0
STYLE
  5
20E
100
AcDbSymbolTableRecord
100
AcDbTextStyleTableRecord
  2
TEXTSTYLE_1
 70
0
 40
0.0
 41
0.8
 50
0.0
 71
0
 42
0.2
  3
gdt
  4

  0
ENDTAB
  0
TABLE
  2
VIEW
  5
6
100
AcDbSymbolTable
 70
0
  0
ENDTAB
  0
TABLE
  2
UCS
  5
7
100
AcDbSymbolTable
 70
0
  0
ENDTAB
  0
TABLE
  2
APPID
  5
9
100
AcDbSymbolTable
 70
1
  0
APPID
  5
20F
100
AcDbSymbolTableRecord
100
AcDbRegAppTableRecord
  2
ACAD
 70
0
  0
ENDTAB
  0
TABLE
  2
BLOCK_RECORD
  5
1
100
AcDbSymbolTable
 70
0
  0
BLOCK_RECORD
  5
210
100
AcDbSymbolTableRecord
100
AcDbBlockTableRecord
  2
*Model_Space
  0
BLOCK_RECORD
  5
211
100
AcDbSymbolTableRecord
100
AcDbBlockTableRecord
  2
*Paper_Space
  0
BLOCK_RECORD
  5
212
100
AcDbSymbolTableRecord
100
AcDbBlockTableRecord
  2
_FILLED
  0
ENDTAB
  0
TABLE
  2
DIMSTYLE
  5
A
100
AcDbSymbolTable
 70
1
100
AcDbDimStyleTable
 71
0
  0
DIMSTYLE
105
213
100
AcDbSymbolTableRecord
100
AcDbDimStyleTableRecord
  2
STANDARD
 70
0
  3

  4

 40
1.0
 41
2.9965596415
 42
1.0
 43
0.38
 44
1.0
 45
0.0
 46
0.0
 47
0.01
 48
0.01
140
4.1951834981
141
0.09
142
0.0
143
25.4
144
1.0
145
0.0
146
1.0
147
0.625
 71
1
 72
0
 73
0
 74
0
 75
0
 76
0
 77
1
 78
8
 79
2
170
0
171
1
172
0
173
0
174
0
175
0
176
0
177
0
178
0
270
2
179
2
271
2
272
2
273
2
274
2
275
0
280
0
281
0
282
0
283
1
284
8
285
0
286
0
287
3
288
0
340
11
278
46
341
212
342
212
343
212
344
212
  0
ENDTAB
  0
ENDSEC
  0
SECTION
  2
BLOCKS
  0
BLOCK
  5
20
100
AcDbEntity
  8
0
100
AcDbBlockBegin
  2
*Model_Space
 70
0
 10
0.0
 20
0.0
 30
0.0
  3
*Model_Space
  1

  0
ENDBLK
  5
21
100
AcDbEntity
  8
0
100
AcDbBlockEnd
  0
BLOCK
  5
1C
100
AcDbEntity
  8
0
100
AcDbBlockBegin
  2
*Paper_Space
 70
0
 10
0.0
 20
0.0
 30
0.0
  3
*Paper_Space
  1

  0
ENDBLK
  5
1D
100
AcDbEntity
  8
0
100
AcDbBlockEnd
  0
BLOCK
  5
214
100
AcDbEntity
  8
0
100
AcDbBlockBegin
  2
_FILLED
 70
64
 10
0.0
 20
0.0
  3
_FILLED
  1

  0
SOLID
  5
215
100
AcDbEntity
  8
0
  6
BYBLOCK
 62
0
100
AcDbTrace
 10
0.0
 20
0.0
 11
-1.0
 21
0.25
 12
-1.0
 22
-0.25
 13
-1.0
 23
-0.25
  0
ENDBLK
  5
216
100
AcDbEntity
  8
0
  6
BYBLOCK
 62
0
100
AcDbBlockEnd
  0
ENDSEC
  0
SECTION
  2
ENTITIES
  0
LINE
  5
217
100
AcDbEntity
  8
0
100
AcDbLine
 62
7
  6
CONTINUOUS
 10
27.5984243336
 20
27.3420479347
 11
227.5984243336
 21
27.3420479347
  0
LINE
  5
218
100
AcDbEntity
  8
0
100
AcDbLine
 62
7
  6
CONTINUOUS
 10
225.3984243336
 20
29.5420479347
 11
29.7984243336
 21
29.5420479347
  0
LINE
  5
219
100
AcDbEntity
  8
0
100
AcDbLine
 62
7
  6
CONTINUOUS
 10
27.5984243336
 20
327.3420479296
 11
27.5984243336
 21
27.3420479398
  0
LINE
  5
21A
100
AcDbEntity
  8
0
100
AcDbLine
 62
7
  6
CONTINUOUS
 10
29.7984243336
 20
29.5420479347
 11
29.7984243336
 21
325.1420479347
  0
LINE
  5
21B
100
AcDbEntity
  8
0
100
AcDbLine
 62
7
  6
CONTINUOUS
 10
225.3984243336
 20
325.1420479347
 11
225.3984243336
 21
29.5420479347
  0
LINE
  5
21C
100
AcDbEntity
  8
0
100
AcDbLine
 62
7
  6
CONTINUOUS
 10
227.5984243336
 20
27.3420479398
 11
227.5984243336
 21
327.3420479296
  0
LINE
  5
21D
100
AcDbEntity
  8
0
100
AcDbLine
 62
7
  6
CONTINUOUS
 10
29.7984243336
 20
325.1420479347
 11
225.3984243336
 21
325.1420479347
  0
LINE
  5
21E
100
AcDbEntity
  8
0
100
AcDbLine
 62
7
  6
CONTINUOUS
 10
227.5984243336
 20
327.3420479347
 11
27.5984243336
 21
327.3420479347
  0
CIRCLE
  5
21F
100
AcDbEntity
  8
0
100
AcDbCircle
 62
7
  6
CONTINUOUS
 10
205.5984243336
 20
49.3420479347
 40
6.5
  0
CIRCLE
  5
220
100
AcDbEntity
  8
0
100
AcDbCircle
 62
7
  6
CONTINUOUS
 10
49.5984243336
 20
49.3420479347
 40
6.5
  0
CIRCLE
  5
221
100
AcDbEntity
  8
0
100
AcDbCircle
 62
7
  6
CONTINUOUS
 10
205.5984243336
 20
305.3420479347
 40
6.5
  0
CIRCLE
  5
222
100
AcDbEntity
  8
0
100
AcDbCircle
 62
7
  6
CONTINUOUS
 10
49.5984243336
 20
305.3420479347
 40
6.5
  0
ARC
  5
223
100
AcDbEntity
  8
0
100
AcDbCircle
 62
7
  6
CONTINUOUS
 10
25.8164438863
 20
33.3128714933
 40
5.4459004376
100
AcDbArc
 50
304.3471420482
 51
306.6249087667
  0
ARC
  5
224
100
AcDbEntity
  8
0
100
AcDbCircle
 62
7
  6
CONTINUOUS
 10
229.380398708
 20
321.3712332951
 40
5.4458896338
100
AcDbArc
 50
124.3471386645
 51
126.6248750627
  0
ARC
  5
225
100
AcDbEntity
  8
0
100
AcDbCircle
 62
7
  6
CONTINUOUS
 10
25.8167735346
 20
321.3716802137
 40
5.4453379455
100
AcDbArc
 50
53.3750128915
 51
55.6548048339
  0
ARC
  5
226
100
AcDbEntity
  8
0
100
AcDbCircle
 62
7
  6
CONTINUOUS
 10
229.3800701786
 20
33.3124079513
 40
5.4453287803
100
AcDbArc
 50
233.3750454776
 51
235.6548074247
  0
ARC
  5
227
100
AcDbEntity
  8
0
100
AcDbCircle
 62
7
  6
CONTINUOUS
 10
25.1803519583
 20
31.1480393372
 40
4.7299806114
100
AcDbArc
 50
318.0580277072
 51
320.426659502
  0
ARC
  5
228
100
AcDbEntity
  8
0
100
AcDbCircle
 62
7
  6
CONTINUOUS
 10
230.016496708
 20
323.536056533
 40
4.7299806101
100
AcDbArc
 50
138.0580277069
 51
140.4266594958
  0
ARC
  5
229
100
AcDbEntity
  8
0
100
AcDbCircle
 62
7
  6
CONTINUOUS
 10
230.0149545052
 20
31.1467199781
 40
4.727951163
100
AcDbArc
 50
219.5742244849
 51
221.9495205349
  0
ARC
  5
22A
100
AcDbEntity
  8
0
100
AcDbCircle
 62
7
  6
CONTINUOUS
 10
25.181894162
 20
323.5373758913
 40
4.727951163
100
AcDbArc
 50
39.574224485
 51
41.949520535
  0
SPLINE
  5
22B
100
AcDbEntity
  8
0
100
AcDbSpline
 62
7
  6
CONTINUOUS
 70
0
 71
3
 72
9
 73
5
 74
0
 42
0.0000001
 43
0.0000001
 44
0.0000000001
 40
0.0
 40
0.0
 40
0.0
 40
0.0
 40
0.2429099555
 40
1.0
 40
1.0
 40
1.0
 40
1.0
 10
27.5984243336
 20
28.3420479347
 30
0.0
 10
27.6594387465
 20
28.3420479347
 30
0.0
 10
27.910639916
 20
28.3565446666
 30
0.0
 10
28.156663171
 20
28.4279773665
 30
0.0
 10
28.3315259573
 20
28.5027196642
 30
0.0
  0
SPLINE
  5
22C
100
AcDbEntity
  8
0
100
AcDbSpline
 62
7
  6
CONTINUOUS
 70
0
 71
3
 72
8
 73
4
 74
0
 42
0.0000001
 43
0.0000001
 44
0.0000000001
 40
0.0
 40
0.0
 40
0.0
 40
0.0
 40
1.0
 40
1.0
 40
1.0
 40
1.0
 10
28.3315259573
 20
28.5027196642
 30
0.0
 10
28.4225452336
 20
28.5416243963
 30
0.0
 10
28.5112226767
 20
28.5862501725
 30
0.0
 10
28.5975472121
 20
28.6346873631
 30
0.0
  0
SPLINE
  5
22D
100
AcDbEntity
  8
0
100
AcDbSpline
 62
7
  6
CONTINUOUS
 70
0
 71
3
 72
9
 73
5
 74
0
 42
0.0000001
 43
0.0000001
 44
0.0000000001
 40
0.0
 40
0.0
 40
0.0
 40
0.0
 40
0.2448929316
 40
1.0
 40
1.0
 40
1.0
 40
1.0
 10
28.5975472121
 20
28.6346873631
 30
0.0
 10
28.6220113325
 20
28.648414321
 30
0.0
 10
28.7211856062
 20
28.705754397
 30
0.0
 10
28.8175957179
 20
28.7678073111
 30
0.0
 10
28.8890511845
 20
28.8165489996
 30
0.0
  0
SPLINE
  5
22E
100
AcDbEntity
  8
0
100
AcDbSpline
 62
7
  6
CONTINUOUS
 70
0
 71
3
 72
9
 73
5
 74
0
 42
0.0000001
 43
0.0000001
 44
0.0000000001
 40
0.0
 40
0.0
 40
0.0
 40
0.0
 40
0.2443022134
 40
1.0
 40
1.0
 40
1.0
 40
1.0
 10
29.065325598
 20
28.9422194596
 30
0.0
 10
29.1272797324
 20
28.9881919819
 30
0.0
 10
29.3773761607
 20
29.1811100138
 30
0.0
 10
29.6172039528
 20
29.3867786755
 30
0.0
 10
29.7984243336
 20
29.5420479347
 30
0.0
  0
SPLINE
  5
22F
100
AcDbEntity
  8
0
100
AcDbSpline
 62
7
  6
CONTINUOUS
 70
0
 71
3
 72
9
 73
5
 74
0
 42
0.0000001
 43
0.0000001
 44
0.0000000001
 40
0.0
 40
0.0
 40
0.0
 40
0.0
 40
0.2537157407
 40
1.0
 40
1.0
 40
1.0
 40
1.0
 10
225.3984243336
 20
29.5420479347
 30
0.0
 10
225.4592623361
 20
29.4899220562
 30
0.0
 10
225.6990809795
 20
29.2845773433
 30
0.0
 10
225.9422846789
 20
29.0826420071
 30
0.0
 10
226.1315260127
 20
28.9422173001
 30
0.0
  0
SPLINE
  5
230
100
AcDbEntity
  8
0
100
AcDbSpline
 62
7
  6
CONTINUOUS
 70
0
 71
3
 72
9
 73
5
 74
0
 42
0.0000001
 43
0.0000001
 44
0.0000000001
 40
0.0
 40
0.0
 40
0.0
 40
0.0
 40
0.2551219442
 40
1.0
 40
1.0
 40
1.0
 40
1.0
 10
226.3079383845
 20
28.8164529064
 30
0.0
 10
226.3320686352
 20
28.7999942674
 30
0.0
 10
226.4272341589
 20
28.7363473477
 30
0.0
 10
226.5249284661
 20
28.6764184779
 30
0.0
 10
226.5993014383
 20
28.6346873747
 30
0.0
  0
SPLINE
  5
231
100
AcDbEntity
  8
0
100
AcDbSpline
 62
7
  6
CONTINUOUS
 70
0
 71
3
 72
8
 73
4
 74
0
 42
0.0000001
 43
0.0000001
 44
0.0000000001
 40
0.0
 40
0.0
 40
0.0
 40
0.0
 40
1.0
 40
1.0
 40
1.0
 40
1.0
 10
226.5993014383
 20
28.6346873747
 30
0.0
 10
226.6856259607
 20
28.5862501877
 30
0.0
 10
226.7743033909
 20
28.5416244149
 30
0.0
 10
226.8653226542
 20
28.5027196855
 30
0.0
  0
SPLINE
  5
232
100
AcDbEntity
  8
0
100
AcDbSpline
 62
7
  6
CONTINUOUS
 70
0
 71
3
 72
9
 73
5
 74
0
 42
0.0000001
 43
0.0000001
 44
0.0000000001
 40
0.0
 40
0.0
 40
0.0
 40
0.0
 40
0.2604045884
 40
1.0
 40
1.0
 40
1.0
 40
1.0
 10
226.8653226542
 20
28.5027196855
 30
0.0
 10
226.9254461924
 20
28.4770208401
 30
0.0
 10
227.1600706213
 20
28.3878139231
 30
0.0
 10
227.4127177182
 20
28.3420479347
 30
0.0
 10
227.5984243337
 20
28.3420479347
 30
0.0
  0
SPLINE
  5
233
100
AcDbEntity
  8
0
100
AcDbSpline
 62
7
  6
CONTINUOUS
 70
0
 71
3
 72
9
 73
5
 74
0
 42
0.0000001
 43
0.0000001
 44
0.0000000001
 40
0.0
 40
0.0
 40
0.0
 40
0.0
 40
0.4624667212
 40
1.0
 40
1.0
 40
1.0
 40
1.0
 10
226.35243584
 20
28.8399379966
 30
0.0
 10
226.2262960094
 20
28.972354949
 30
0.0
 10
225.9108431177
 20
29.2160013148
 30
0.0
 10
225.5777372574
 20
29.427893782
 30
0.0
 10
225.3984243336
 20
29.5420479347
 30
0.0
  0
SPLINE
  5
234
100
AcDbEntity
  8
0
100
AcDbSpline
 62
7
  6
CONTINUOUS
 70
0
 71
3
 72
9
 73
5
 74
0
 42
0.0000001
 43
0.0000001
 44
0.0000000001
 40
0.0
 40
0.0
 40
0.0
 40
0.0
 40
0.537522997
 40
1.0
 40
1.0
 40
1.0
 40
1.0
 10
225.3984243336
 20
325.1420479346
 30
0.0
 10
225.577715248
 20
325.256188076
 30
0.0
 10
225.9107870286
 20
325.4680589383
 30
0.0
 10
226.2262108036
 20
325.7116719919
 30
0.0
 10
226.3523506139
 20
325.8440684065
 30
0.0
  0
SPLINE
  5
235
100
AcDbEntity
  8
0
100
AcDbSpline
 62
7
  6
CONTINUOUS
 70
0
 71
3
 72
9
 73
5
 74
0
 42
0.0000001
 43
0.0000001
 44
0.0000000001
 40
0.0
 40
0.0
 40
0.0
 40
0.0
 40
0.4624667905
 40
1.0
 40
1.0
 40
1.0
 40
1.0
 10
28.8444134532
 20
325.8441572156
 30
0.0
 10
28.970553281
 20
325.7117404149
 30
0.0
 10
29.2860059595
 20
325.4680942942
 30
0.0
 10
29.6191115694
 20
325.2562019858
 30
0.0
 10
29.7984243336
 20
325.1420479346
 30
0.0
  0
SPLINE
  5
236
100
AcDbEntity
  8
0
100
AcDbSpline
 62
7
  6
CONTINUOUS
 70
0
 71
3
 72
9
 73
5
 74
0
 42
0.0000001
 43
0.0000001
 44
0.0000000001
 40
0.0
 40
0.0
 40
0.0
 40
0.0
 40
0.5375229482
 40
1.0
 40
1.0
 40
1.0
 40
1.0
 10
29.7984243336
 20
29.5420479347
 30
0.0
 10
29.6191335315
 20
29.4279078649
 30
0.0
 10
29.2860619273
 20
29.2160371143
 30
0.0
 10
28.9706383023
 20
28.9724242333
 30
0.0
 10
28.844498494
 20
28.8400279254
 30
0.0
  0
SPLINE
  5
237
100
AcDbEntity
  8
0
100
AcDbSpline
 62
7
  6
CONTINUOUS
 70
0
 71
3
 72
9
 73
5
 74
0
 42
0.0000001
 43
0.0000001
 44
0.0000000001
 40
0.0
 40
0.0
 40
0.0
 40
0.0
 40
0.2537157089
 40
1.0
 40
1.0
 40
1.0
 40
1.0
 10
29.7984243336
 20
325.1420479347
 30
0.0
 10
29.7375865772
 20
325.1941736023
 30
0.0
 10
29.4977688804
 20
325.3995175187
 30
0.0
 10
29.2545661766
 20
325.6014521066
 30
0.0
 10
29.0653256537
 20
325.7418763729
 30
0.0
  0
SPLINE
  5
238
100
AcDbEntity
  8
0
100
AcDbSpline
 62
7
  6
CONTINUOUS
 70
0
 71
3
 72
9
 73
5
 74
0
 42
0.0000001
 43
0.0000001
 44
0.0000000001
 40
0.0
 40
0.0
 40
0.0
 40
0.0
 40
0.2551219446
 40
1.0
 40
1.0
 40
1.0
 40
1.0
 10
28.8889107028
 20
325.8676426869
 30
0.0
 10
28.8647804164
 20
325.8841013511
 30
0.0
 10
28.7696147519
 20
325.947748367
 30
0.0
 10
28.6719202977
 20
326.0076773241
 30
0.0
 10
28.5975472129
 20
326.0494084861
 30
0.0
  0
SPLINE
  5
239
100
AcDbEntity
  8
0
100
AcDbSpline
 62
7
  6
CONTINUOUS
 70
0
 71
3
 72
8
 73
4
 74
0
 42
0.0000001
 43
0.0000001
 44
0.0000000001
 40
0.0
 40
0.0
 40
0.0
 40
0.0
 40
1.0
 40
1.0
 40
1.0
 40
1.0
 10
28.5975472129
 20
326.0494084861
 30
0.0
 10
28.5112217465
 20
326.0978461976
 30
0.0
 10
28.4225433208
 20
326.1424724169
 30
0.0
 10
28.3315230136
 20
326.1813774515
 30
0.0
  0
SPLINE
  5
23A
100
AcDbEntity
  8
0
100
AcDbSpline
 62
7
  6
CONTINUOUS
 70
0
 71
3
 72
9
 73
5
 74
0
 42
0.0000001
 43
0.0000001
 44
0.0000000001
 40
0.0
 40
0.0
 40
0.0
 40
0.0
 40
0.260404533
 40
1.0
 40
1.0
 40
1.0
 40
1.0
 10
28.3315230136
 20
326.1813774515
 30
0.0
 10
28.2713997124
 20
326.2070761026
 30
0.0
 10
28.0367761779
 20
326.2962823501
 30
0.0
 10
27.7841301666
 20
326.3420479347
 30
0.0
 10
27.5984243336
 20
326.3420479347
 30
0.0
  0
SPLINE
  5
23B
100
AcDbEntity
  8
0
100
AcDbSpline
 62
7
  6
CONTINUOUS
 70
0
 71
3
 72
9
 73
5
 74
0
 42
0.0000001
 43
0.0000001
 44
0.0000000001
 40
0.0
 40
0.0
 40
0.0
 40
0.0
 40
0.2429099566
 40
1.0
 40
1.0
 40
1.0
 40
1.0
 10
227.5984243336
 20
326.3420479347
 30
0.0
 10
227.5374099156
 20
326.3420479347
 30
0.0
 10
227.2862087264
 20
326.3275511996
 30
0.0
 10
227.040185452
 20
326.256118492
 30
0.0
 10
226.8653226541
 20
326.1813761838
 30
0.0
  0
SPLINE
  5
23C
100
AcDbEntity
  8
0
100
AcDbSpline
 62
7
  6
CONTINUOUS
 70
0
 71
3
 72
8
 73
4
 74
0
 42
0.0000001
 43
0.0000001
 44
0.0000000001
 40
0.0
 40
0.0
 40
0.0
 40
0.0
 40
1.0
 40
1.0
 40
1.0
 40
1.0
 10
226.8653226541
 20
326.1813761838
 30
0.0
 10
226.7743033909
 20
326.1424714544
 30
0.0
 10
226.6856259607
 20
326.0978456816
 30
0.0
 10
226.5993014383
 20
326.0494084946
 30
0.0
  0
SPLINE
  5
23D
100
AcDbEntity
  8
0
100
AcDbSpline
 62
7
  6
CONTINUOUS
 70
0
 71
3
 72
9
 73
5
 74
0
 42
0.0000001
 43
0.0000001
 44
0.0000000001
 40
0.0
 40
0.0
 40
0.0
 40
0.0
 40
0.2448929324
 40
1.0
 40
1.0
 40
1.0
 40
1.0
 10
226.5993014383
 20
326.0494084946
 30
0.0
 10
226.5748373439
 20
326.0356815503
 30
0.0
 10
226.4756631756
 20
325.9783415323
 30
0.0
 10
226.3792531642
 20
325.916288685
 30
0.0
 10
226.307797771
 20
325.8675470503
 30
0.0
  0
SPLINE
  5
23E
100
AcDbEntity
  8
0
100
AcDbSpline
 62
7
  6
CONTINUOUS
 70
0
 71
3
 72
9
 73
5
 74
0
 42
0.0000001
 43
0.0000001
 44
0.0000000001
 40
0.0
 40
0.0
 40
0.0
 40
0.0
 40
0.2443021657
 40
1.0
 40
1.0
 40
1.0
 40
1.0
 10
226.1315260126
 20
325.7418785693
 30
0.0
 10
226.0695716258
 20
325.6959059139
 30
0.0
 10
225.8194741516
 20
325.5029872448
 30
0.0
 10
225.5796454238
 20
325.2973178017
 30
0.0
 10
225.3984243336
 20
325.1420479347
 30
0.0
  0
SPLINE
  5
23F
100
AcDbEntity
  8
0
100
AcDbSpline
 62
7
  6
CONTINUOUS
 70
0
 71
3
 72
9
 73
5
 74
0
 42
0.0000001
 43
0.0000001
 44
0.0000000001
 40
0.0
 40
0.0
 40
0.0
 40
0.0
 40
0.2631033657
 40
1.0
 40
1.0
 40
1.0
 40
1.0
 10
225.3984243336
 20
325.1420479347
 30
0.0
 10
225.4790010073
 20
325.2686174777
 30
0.0
 10
225.7855072197
 20
325.7491643896
 30
0.0
 10
226.102581295
 20
326.2256773087
 30
0.0
 10
226.3705815356
 20
326.5493635415
 30
0.0
  0
SPLINE
  5
240
100
AcDbEntity
  8
0
100
AcDbSpline
 62
7
  6
CONTINUOUS
 70
0
 71
3
 72
9
 73
5
 74
0
 42
0.0000001
 43
0.0000001
 44
0.0000000001
 40
0.0
 40
0.0
 40
0.0
 40
0.0
 40
0.27958388
 40
1.0
 40
1.0
 40
1.0
 40
1.0
 10
226.4982324904
 20
326.6974697402
 30
0.0
 10
226.5519911615
 20
326.7571907506
 30
0.0
 10
226.7499560734
 20
326.9645987262
 30
0.0
 10
226.9795046147
 20
327.1491966483
 30
0.0
 10
227.1664931118
 20
327.2381042889
 30
0.0
  0
SPLINE
  5
241
100
AcDbEntity
  8
0
100
AcDbSpline
 62
7
  6
CONTINUOUS
 70
0
 71
3
 72
9
 73
5
 74
0
 42
0.0000001
 43
0.0000001
 44
0.0000000001
 40
0.0
 40
0.0
 40
0.0
 40
0.0
 40
0.2627301782
 40
1.0
 40
1.0
 40
1.0
 40
1.0
 10
227.1664931118
 20
327.2381042889
 30
0.0
 10
227.2017898221
 20
327.2548868573
 30
0.0
 10
227.3388300291
 20
327.3126651293
 30
0.0
 10
227.4887490252
 20
327.3420479347
 30
0.0
 10
227.5984243337
 20
327.3420479347
 30
0.0
  0
SPLINE
  5
242
100
AcDbEntity
  8
0
100
AcDbSpline
 62
7
  6
CONTINUOUS
 70
0
 71
3
 72
10
 73
6
 74
0
 42
0.0000001
 43
0.0000001
 44
0.0000000001
 40
0.0
 40
0.0
 40
0.0
 40
0.0
 40
0.3947282171
 40
0.6675162565
 40
1.0
 40
1.0
 40
1.0
 40
1.0
 10
27.5984243336
 20
28.3420479347
 30
0.0
 10
27.5984243336
 20
28.4348336671
 30
0.0
 10
27.6902964379
 20
28.5846632973
 30
0.0
 10
27.8704593407
 20
28.731361248
 30
0.0
 10
27.9920043416
 20
28.8074480855
 30
0.0
 10
28.0599989845
 20
28.8459816948
 30
0.0
  0
SPLINE
  5
243
100
AcDbEntity
  8
0
100
AcDbSpline
 62
7
  6
CONTINUOUS
 70
0
 71
3
 72
9
 73
5
 74
0
 42
0.0000001
 43
0.0000001
 44
0.0000000001
 40
0.0
 40
0.0
 40
0.0
 40
0.0
 40
0.2357424178
 40
1.0
 40
1.0
 40
1.0
 40
1.0
 10
28.0599989845
 20
28.8459816948
 30
0.0
 10
28.0802319588
 20
28.8574480323
 30
0.0
 10
28.1666637182
 20
28.9050197103
 30
0.0
 10
28.2551738419
 20
28.9487456257
 30
0.0
 10
28.3234643441
 20
28.9806949566
 30
0.0
  0
SPLINE
  5
244
100
AcDbEntity
  8
0
100
AcDbSpline
 62
7
  6
CONTINUOUS
 70
0
 71
3
 72
9
 73
5
 74
0
 42
0.0000001
 43
0.0000001
 44
0.0000000001
 40
0.0
 40
0.0
 40
0.0
 40
0.0
 40
0.4688691018
 40
1.0
 40
1.0
 40
1.0
 40
1.0
 10
28.3234643441
 20
28.9806949566
 30
0.0
 10
28.5469386268
 20
29.0852461545
 30
0.0
 10
29.0374483632
 20
29.2778189263
 30
0.0
 10
29.5344047447
 20
29.4503678853
 30
0.0
 10
29.7984243336
 20
29.5420479347
 30
0.0
  0
SPLINE
  5
245
100
AcDbEntity
  8
0
100
AcDbSpline
 62
7
  6
CONTINUOUS
 70
0
 71
3
 72
9
 73
5
 74
0
 42
0.0000001
 43
0.0000001
 44
0.0000000001
 40
0.0
 40
0.0
 40
0.0
 40
0.0
 40
0.2416782442
 40
1.0
 40
1.0
 40
1.0
 40
1.0
 10
227.5984243337
 20
27.3420479347
 30
0.0
 10
227.5624653118
 20
27.3420479347
 30
0.0
 10
227.4136583953
 20
27.3511934007
 30
0.0
 10
227.2684528005
 20
27.3975182701
 30
0.0
 10
227.166552366
 20
27.4459627309
 30
0.0
  0
SPLINE
  5
246
100
AcDbEntity
  8
0
100
AcDbSpline
 62
7
  6
CONTINUOUS
 70
0
 71
3
 72
9
 73
5
 74
0
 42
0.0000001
 43
0.0000001
 44
0.0000000001
 40
0.0
 40
0.0
 40
0.0
 40
0.0
 40
0.222517393
 40
1.0
 40
1.0
 40
1.0
 40
1.0
 10
227.166552366
 20
27.4459627309
 30
0.0
 10
227.1087766679
 20
27.4734298615
 30
0.0
 10
226.858514474
 20
27.6168640564
 30
0.0
 10
226.6481819733
 20
27.8200914503
 30
0.0
 10
226.4986161769
 20
27.9861999322
 30
0.0
  0
SPLINE
  5
247
100
AcDbEntity
  8
0
100
AcDbSpline
 62
7
  6
CONTINUOUS
 70
0
 71
3
 72
9
 73
5
 74
0
 42
0.0000001
 43
0.0000001
 44
0.0000000001
 40
0.0
 40
0.0
 40
0.0
 40
0.0
 40
0.2315595856
 40
1.0
 40
1.0
 40
1.0
 40
1.0
 10
226.3706501213
 20
28.1346496341
 30
0.0
 10
226.2864070451
 20
28.2363928747
 30
0.0
 10
225.9386586552
 20
28.6891122836
 30
0.0
 10
225.6338346403
 20
29.1722662897
 30
0.0
 10
225.3984243336
 20
29.5420479347
 30
0.0
  0
SPLINE
  5
248
100
AcDbEntity
  8
0
100
AcDbSpline
 62
7
  6
CONTINUOUS
 70
0
 71
3
 72
9
 73
5
 74
0
 42
0.0000001
 43
0.0000001
 44
0.0000000001
 40
0.0
 40
0.0
 40
0.0
 40
0.0
 40
0.5311251146
 40
1.0
 40
1.0
 40
1.0
 40
1.0
 10
29.7984243336
 20
325.1420479346
 30
0.0
 10
29.5344263296
 20
325.2337204887
 30
0.0
 10
29.0375050772
 20
325.4062572125
 30
0.0
 10
28.547029196
 20
325.5988131379
 30
0.0
 10
28.3235657541
 20
325.7033534288
 30
0.0
  0
SPLINE
  5
249
100
AcDbEntity
  8
0
100
AcDbSpline
 62
7
  6
CONTINUOUS
 70
0
 71
3
 72
9
 73
5
 74
0
 42
0.0000001
 43
0.0000001
 44
0.0000000001
 40
0.0
 40
0.0
 40
0.0
 40
0.0
 40
0.2640659551
 40
1.0
 40
1.0
 40
1.0
 40
1.0
 10
28.3235657541
 20
325.7033534288
 30
0.0
 10
28.299960956
 20
325.7143961857
 30
0.0
 10
28.2108943708
 20
325.7568903855
 30
0.0
 10
28.1231815875
 20
325.8023075246
 30
0.0
 10
28.0599951778
 20
325.8381162974
 30
0.0
  0
SPLINE
  5
24A
100
AcDbEntity
  8
0
100
AcDbSpline
 62
7
  6
CONTINUOUS
 70
0
 71
3
 72
10
 73
6
 74
0
 42
0.0000001
 43
0.0000001
 44
0.0000000001
 40
0.0
 40
0.0
 40
0.0
 40
0.0
 40
0.3324833698
 40
0.6052709824
 40
1.0
 40
1.0
 40
1.0
 40
1.0
 10
28.0599951778
 20
325.8381162974
 30
0.0
 10
27.99200107
 20
325.8766496714
 30
0.0
 10
27.8704568401
 20
325.9527358005
 30
0.0
 10
27.690296326
 20
326.0994342355
 30
0.0
 10
27.5984243336
 20
326.2492626002
 30
0.0
 10
27.5984243336
 20
326.3420479347
 30
0.0
  0
SPLINE
  5
24B
100
AcDbEntity
  8
0
100
AcDbSpline
 62
7
  6
CONTINUOUS
 70
0
 71
3
 72
9
 73
5
 74
0
 42
0.0000001
 43
0.0000001
 44
0.0000000001
 40
0.0
 40
0.0
 40
0.0
 40
0.0
 40
0.2631033657
 40
1.0
 40
1.0
 40
1.0
 40
1.0
 10
29.7984243336
 20
29.5420479347
 30
0.0
 10
29.71784766
 20
29.4154783917
 30
0.0
 10
29.4113414476
 20
28.93493148
 30
0.0
 10
29.0942673725
 20
28.458418561
 30
0.0
 10
28.826267132
 20
28.1347323283
 30
0.0
  0
SPLINE
  5
24C
100
AcDbEntity
  8
0
100
AcDbSpline
 62
7
  6
CONTINUOUS
 70
0
 71
3
 72
9
 73
5
 74
0
 42
0.0000001
 43
0.0000001
 44
0.0000000001
 40
0.0
 40
0.0
 40
0.0
 40
0.0
 40
0.27958388
 40
1.0
 40
1.0
 40
1.0
 40
1.0
 10
28.6986161769
 20
27.9866261291
 30
0.0
 10
28.6448575057
 20
27.9269051188
 30
0.0
 10
28.4468925936
 20
27.719497143
 30
0.0
 10
28.2173440522
 20
27.5348992208
 30
0.0
 10
28.030355555
 20
27.4459915802
 30
0.0
  0
SPLINE
  5
24D
100
AcDbEntity
  8
0
100
AcDbSpline
 62
7
  6
CONTINUOUS
 70
0
 71
3
 72
9
 73
5
 74
0
 42
0.0000001
 43
0.0000001
 44
0.0000000001
 40
0.0
 40
0.0
 40
0.0
 40
0.0
 40
0.2627301782
 40
1.0
 40
1.0
 40
1.0
 40
1.0
 10
28.030355555
 20
27.4459915802
 30
0.0
 10
27.9950588446
 20
27.4292090119
 30
0.0
 10
27.8580186378
 20
27.37143074
 30
0.0
 10
27.7080996419
 20
27.3420479347
 30
0.0
 10
27.5984243336
 20
27.3420479347
 30
0.0
  0
SPLINE
  5
24E
100
AcDbEntity
  8
0
100
AcDbSpline
 62
7
  6
CONTINUOUS
 70
0
 71
3
 72
10
 73
6
 74
0
 42
0.0000001
 43
0.0000001
 44
0.0000000001
 40
0.0
 40
0.0
 40
0.0
 40
0.0
 40
0.3947282172
 40
0.6675162566
 40
1.0
 40
1.0
 40
1.0
 40
1.0
 10
227.5984243336
 20
326.3420479347
 30
0.0
 10
227.5984243336
 20
326.2492622024
 30
0.0
 10
227.5065522296
 20
326.0994325723
 30
0.0
 10
227.3263893271
 20
325.9527346217
 30
0.0
 10
227.2048443265
 20
325.8766477843
 30
0.0
 10
227.1368496837
 20
325.8381141751
 30
0.0
  0
SPLINE
  5
24F
100
AcDbEntity
  8
0
100
AcDbSpline
 62
7
  6
CONTINUOUS
 70
0
 71
3
 72
9
 73
5
 74
0
 42
0.0000001
 43
0.0000001
 44
0.0000000001
 40
0.0
 40
0.0
 40
0.0
 40
0.0
 40
0.2357424177
 40
1.0
 40
1.0
 40
1.0
 40
1.0
 10
227.1368496837
 20
325.8381141751
 30
0.0
 10
227.1166167093
 20
325.8266478375
 30
0.0
 10
227.0301849496
 20
325.7790761593
 30
0.0
 10
226.9416748256
 20
325.7353502437
 30
0.0
 10
226.8733843231
 20
325.7034009127
 30
0.0
  0
SPLINE
  5
250
100
AcDbEntity
  8
0
100
AcDbSpline
 62
7
  6
CONTINUOUS
 70
0
 71
3
 72
9
 73
5
 74
0
 42
0.0000001
 43
0.0000001
 44
0.0000000001
 40
0.0
 40
0.0
 40
0.0
 40
0.0
 40
0.4688691018
 40
1.0
 40
1.0
 40
1.0
 40
1.0
 10
226.8733843231
 20
325.7034009127
 30
0.0
 10
226.6499100404
 20
325.5988497149
 30
0.0
 10
226.1594003041
 20
325.406276943
 30
0.0
 10
225.6624439226
 20
325.2337279841
 30
0.0
 10
225.3984243336
 20
325.1420479346
 30
0.0
  0
SPLINE
  5
251
100
AcDbEntity
  8
0
100
AcDbSpline
 62
7
  6
CONTINUOUS
 70
0
 71
3
 72
9
 73
5
 74
0
 42
0.0000001
 43
0.0000001
 44
0.0000000001
 40
0.0
 40
0.0
 40
0.0
 40
0.0
 40
0.531125135
 40
1.0
 40
1.0
 40
1.0
 40
1.0
 10
225.3984243336
 20
29.5420479347
 30
0.0
 10
225.6624224073
 20
29.4503753564
 30
0.0
 10
226.1593437711
 20
29.2778385937
 30
0.0
 10
226.6498197636
 20
29.0852826224
 30
0.0
 10
226.8732832369
 20
28.9807422928
 30
0.0
  0
SPLINE
  5
252
100
AcDbEntity
  8
0
100
AcDbSpline
 62
7
  6
CONTINUOUS
 70
0
 71
3
 72
9
 73
5
 74
0
 42
0.0000001
 43
0.0000001
 44
0.0000000001
 40
0.0
 40
0.0
 40
0.0
 40
0.0
 40
0.2640659379
 40
1.0
 40
1.0
 40
1.0
 40
1.0
 10
226.8732832369
 20
28.9807422928
 30
0.0
 10
226.896888003
 20
28.9696995483
 30
0.0
 10
226.9859544734
 20
28.9272053939
 30
0.0
 10
227.0736671431
 20
28.881788304
 30
0.0
 10
227.1368534738
 20
28.8459795724
 30
0.0
  0
SPLINE
  5
253
100
AcDbEntity
  8
0
100
AcDbSpline
 62
7
  6
CONTINUOUS
 70
0
 71
3
 72
10
 73
6
 74
0
 42
0.0000001
 43
0.0000001
 44
0.0000000001
 40
0.0
 40
0.0
 40
0.0
 40
0.0
 40
0.3324833929
 40
0.6052710176
 40
1.0
 40
1.0
 40
1.0
 40
1.0
 10
227.1368534738
 20
28.8459795724
 30
0.0
 10
227.2048475857
 20
28.8074461922
 30
0.0
 10
227.3263918183
 20
28.7313600496
 30
0.0
 10
227.50655235
 20
28.5846616294
 30
0.0
 10
227.5984243336
 20
28.4348332623
 30
0.0
 10
227.5984243336
 20
28.3420479347
 30
0.0
  0
SPLINE
  5
254
100
AcDbEntity
  8
0
100
AcDbSpline
 62
7
  6
CONTINUOUS
 70
0
 71
3
 72
9
 73
5
 74
0
 42
0.0000001
 43
0.0000001
 44
0.0000000001
 40
0.0
 40
0.0
 40
0.0
 40
0.0
 40
0.2416782442
 40
1.0
 40
1.0
 40
1.0
 40
1.0
 10
27.5984243336
 20
327.3420479347
 30
0.0
 10
27.6343833554
 20
327.3420479347
 30
0.0
 10
27.783190272
 20
327.3329024687
 30
0.0
 10
27.9283958667
 20
327.2865775993
 30
0.0
 10
28.0302963012
 20
327.2381331385
 30
0.0
  0
SPLINE
  5
255
100
AcDbEntity
  8
0
100
AcDbSpline
 62
7
  6
CONTINUOUS
 70
0
 71
3
 72
9
 73
5
 74
0
 42
0.0000001
 43
0.0000001
 44
0.0000000001
 40
0.0
 40
0.0
 40
0.0
 40
0.0
 40
0.222517393
 40
1.0
 40
1.0
 40
1.0
 40
1.0
 10
28.0302963012
 20
327.2381331385
 30
0.0
 10
28.0880719993
 20
327.2106660079
 30
0.0
 10
28.3383341932
 20
327.067231813
 30
0.0
 10
28.5486666939
 20
326.8640044191
 30
0.0
 10
28.6982324903
 20
326.6978959372
 30
0.0
  0
SPLINE
  5
256
100
AcDbEntity
  8
0
100
AcDbSpline
 62
7
  6
CONTINUOUS
 70
0
 71
3
 72
9
 73
5
 74
0
 42
0.0000001
 43
0.0000001
 44
0.0000000001
 40
0.0
 40
0.0
 40
0.0
 40
0.0
 40
0.2315595856
 40
1.0
 40
1.0
 40
1.0
 40
1.0
 10
28.8261985459
 20
326.5494462353
 30
0.0
 10
28.9104416221
 20
326.4477029947
 30
0.0
 10
29.2581900121
 20
325.9949835857
 30
0.0
 10
29.563014027
 20
325.5118295796
 30
0.0
 10
29.7984243336
 20
325.1420479347
 30
0.0
  0
ENDSEC
  0
SECTION
  2
OBJECTS
  0
DICTIONARY
  5
C
100
AcDbDictionary
280
0
281
1
  3
ACAD_GROUP
350
D
  3
ACAD_MLINESTYLE
350
17
  3
ACAD_LAYOUT
350
1A
  3
ACAD_PLOTSETTINGS
350
19
  3
ACAD_PLOTSTYLENAME
350
E
  0
DICTIONARY
  5
D
102
{ACAD_REACTORS
330
C
102
}
100
AcDbDictionary
280
0
281
1
  0
ACDBDICTIONARYWDFLT
  5
E
102
{ACAD_REACTORS
330
C
102
}
100
AcDbDictionary
281
1
  3
Normal
350
F
100
AcDbDictionaryWithDefault
340
F
  0
DICTIONARY
  5
17
102
{ACAD_REACTORS
330
C
102
}
100
AcDbDictionary
280
0
281
1
  3
Standard
350
18
  0
DICTIONARY
  5
19
102
{ACAD_REACTORS
330
C
102
}
100
AcDbDictionary
281
1
  0
DICTIONARY
  5
1A
102
{ACAD_REACTORS
330
C
102
}
100
AcDbDictionary
281
1
  3
Model
350
257
  3
Layout1
350
258
  0
ACDBPLACEHOLDER
  5
F
102
{ACAD_REACTORS
330
E
102
}
  0
MLINESTYLE
  5
18
102
{ACAD_REACTORS
330
17
102
}
100
AcDbMlineStyle
  2
STANDARD
 70
0
  3

 62
256
 51
90.0
 52
90.0
 71
2
 49
0.5
 62
256
  6
BYLAYER
 49
-0.5
 62
256
  6
BYLAYER
  0
LAYOUT
  5
257
102
{ACAD_REACTORS
330
1A
102
}
100
AcDbPlotSettings
  1

  2
none_device
  4

  6

 40
0.0
 41
0.0
 42
0.0
 43
0.0
 44
210.0
 45
297.0
 46
0.0
 47
0.0
 48
0.0
 49
0.0
140
0.0
141
0.0
142
1.0
143
1.0
 70
1024
 72
1
 73
0
 74
0
  7

 75
0
147
1.0
148
0.0
149
0.0
100
AcDbLayout
  1
Model
 70
0
 71
0
 10
0.0
 20
0.0
 11
210.0
 21
297.0
 12
0.0
 22
0.0
 32
0.0
 14
0.0
 24
0.0
 34
0.0
 15
0.0
 25
0.0
 35
0.0
146
0.0
 13
0.0
 23
0.0
 33
0.0
 16
1.0
 26
0.0
 36
0.0
 17
0.0
 27
1.0
 37
0.0
 76
0
330
210
345
0
346
0
  0
LAYOUT
  5
258
102
{ACAD_REACTORS
330
1A
102
}
100
AcDbPlotSettings
  1

  2
none_device
  4

  6

 40
0.0
 41
0.0
 42
0.0
 43
0.0
 44
210.0
 45
297.0
 46
0.0
 47
0.0
 48
0.0
 49
0.0
140
0.0
141
0.0
142
1.0
143
1.0
 70
0
 72
1
 73
0
 74
0
  7

 75
0
147
1.0
148
0.0
149
0.0
100
AcDbLayout
  1
Layout1
 70
0
 71
1
 10
0.0
 20
0.0
 11
210.0
 21
297.0
 12
0.0
 22
0.0
 32
0.0
 14
0.0
 24
0.0
 34
0.0
 15
0.0
 25
0.0
 35
0.0
146
0.0
 13
0.0
 23
0.0
 33
0.0
 16
1.0
 26
0.0
 36
0.0
 17
0.0
 27
1.0
 37
0.0
 76
0
330
211
345
0
346
0
  0
ENDSEC
  0
EOF
