  0
SECTION
  2
HEADER
  9
$ACADVER
  1
AC1009
  9
$DWGCODEPAGE
  3
ansi_1250
  9
$INSBASE
 10
0.0
 20
0.0
 30
0.0
  9
$EXTMIN
 10
-0.425197
 20
-0.425197
 30
0.0
  9
$EXTMAX
 10
0.425197
 20
0.425197
 30
0.0
  9
$LIMMIN
 10
0.0
 20
0.0
  9
$LIMMAX
 10
0.0
 20
0.0
  9
$ORTHOMODE
 70
     0
  9
$REGENMODE
 70
     1
  9
$FILLMODE
 70
     1
  9
$QTEXTMODE
 70
     0
  9
$MIRRTEXT
 70
     1
  9
$DRAGMODE
 70
     2
  9
$LTSCALE
 40
1.0
  9
$OSMODE
 70
     0
  9
$ATTMODE
 70
     1
  9
$TEXTSIZE
 40
0.2
  9
$TRACEWID
 40
0.05
  9
$TEXTSTYLE
  7
STANDARD
  9
$CLAYER
  8
0
  9
$CELTYPE
  6
CONTINUOUS
  9
$CECOLOR
 62
   256
  9
$DIMSCALE
 40
1.0
  9
$DIMASZ
 40
0.18
  9
$DIMEXO
 40
0.0625
  9
$DIMDLI
 40
0.38
  9
$DIMRND
 40
0.0
  9
$DIMDLE
 40
0.0
  9
$DIMEXE
 40
0.18
  9
$DIMTP
 40
0.0
  9
$DIMTM
 40
0.0
  9
$DIMTXT
 40
0.18
  9
$DIMCEN
 40
0.09
  9
$DIMTSZ
 40
0.0
  9
$DIMTOL
 70
     0
  9
$DIMLIM
 70
     0
  9
$DIMTIH
 70
     1
  9
$DIMTOH
 70
     1
  9
$DIMSE1
 70
     0
  9
$DIMSE2
 70
     0
  9
$DIMTAD
 70
     0
  9
$DIMZIN
 70
     0
  9
$DIMBLK
  1

  9
$DIMASO
 70
     1
  9
$DIMSHO
 70
     1
  9
$DIMPOST
  1

  9
$DIMAPOST
  1

  9
$DIMALT
 70
     0
  9
$DIMALTD
 70
     2
  9
$DIMALTF
 40
25.4
  9
$DIMLFAC
 40
1.0
  9
$DIMTOFL
 70
     0
  9
$DIMTVP
 40
0.0
  9
$DIMTIX
 70
     0
  9
$DIMSOXD
 70
     0
  9
$DIMSAH
 70
     0
  9
$DIMBLK1
  1

  9
$DIMBLK2
  1

  9
$DIMSTYLE
  2
STANDARD
  9
$DIMCLRD
 70
     0
  9
$DIMCLRE
 70
     0
  9
$DIMCLRT
 70
     0
  9
$DIMTFAC
 40
1.0
  9
$DIMGAP
 40
0.09
  9
$LUNITS
 70
     2
  9
$LUPREC
 70
     4
  9
$AXISMODE
 70
     0
  9
$AXISUNIT
 10
0.0
 20
0.0
  9
$SKETCHINC
 40
0.1
  9
$FILLETRAD
 40
0.0
  9
$AUNITS
 70
     0
  9
$AUPREC
 70
     0
  9
$MENU
  1
acad
  9
$ELEVATION
 40
0.0
  9
$PELEVATION
 40
0.0
  9
$THICKNESS
 40
0.0
  9
$LIMCHECK
 70
     0
  9
$BLIPMODE
 70
     1
  9
$CHAMFERA
 40
0.0
  9
$CHAMFERB
 40
0.0
  9
$SKPOLY
 70
     0
  9
$TDCREATE
 40
0.000000000
  9
$TDUPDATE
 40
0.000000000
  9
$TDINDWG
 40
0.0000000000
  9
$TDUSRTIMER
 40
0.0000000000
  9
$USRTIMER
 70
     1
  9
$ANGBASE
 50
0.0
  9
$ANGDIR
 70
     0
  9
$PDMODE
 70
     0
  9
$PDSIZE
 40
0.0
  9
$PLINEWID
 40
0.0
  9
$COORDS
 70
     0
  9
$SPLFRAME
 70
     0
  9
$SPLINETYPE
 70
     6
  9
$SPLINESEGS
 70
     8
  9
$ATTDIA
 70
     0
  9
$ATTREQ
 70
     1
  9
$HANDLING
 70
     1
  9
$HANDSEED
  5
4AE
  9
$SURFTAB1
 70
     6
  9
$SURFTAB2
 70
     6
  9
$SURFTYPE
 70
     6
  9
$SURFU
 70
     6
  9
$SURFV
 70
     6
  9
$UCSNAME
  2

  9
$UCSORG
 10
0.0
 20
0.0
 30
0.0
  9
$UCSXDIR
 10
1.0
 20
0.0
 30
0.0
  9
$UCSYDIR
 10
0.0
 20
1.0
 30
0.0
  9
$PUCSNAME
  2

  9
$PUCSORG
 10
0.0
 20
0.0
 30
0.0
  9
$PUCSXDIR
 10
1.0
 20
0.0
 30
0.0
  9
$PUCSYDIR
 10
0.0
 20
1.0
 30
0.0
  9
$USERI1
 70
     0
  9
$USERI2
 70
     0
  9
$USERI3
 70
     0
  9
$USERI4
 70
     0
  9
$USERI5
 70
     0
  9
$USERR1
 40
0.0
  9
$USERR2
 40
0.0
  9
$USERR3
 40
0.0
  9
$USERR4
 40
0.0
  9
$USERR5
 40
0.0
  9
$WORLDVIEW
 70
     1
  9
$SHADEDGE
 70
     3
  9
$SHADEDIF
 70
    70
  9
$TILEMODE
 70
     1
  9
$MAXACTVP
 70
    16
  9
$PINSBASE
 10
0.0
 20
0.0
 30
0.0
  9
$PLIMCHECK
 70
     0
  9
$PEXTMIN
 10
1.000000E+20
 20
1.000000E+20
 30
1.000000E+20
  9
$PEXTMAX
 10
-1.000000E+20
 20
-1.000000E+20
 30
-1.000000E+20
  9
$PLIMMIN
 10
0.0
 20
0.0
  9
$PLIMMAX
 10
12.0
 20
9.0
  9
$UNITMODE
 70
     0
  9
$VISRETAIN
 70
     0
  9
$PLINEGEN
 70
     1
  9
$PSLTSCALE
 70
     0
  9
$TREEDEPTH
 70
  3020
  0
ENDSEC
  0
SECTION
  2
TABLES
  0
TABLE
  2
VPORT
 70
     1
  0
VPORT
  2
*ACTIVE
 70
     0
 10
0.0
 20
0.0
 11
1.0
 21
1.0
 12
6.591288
 22
4.579184
 13
0.0
 23
0.0
 14
1.0
 24
1.0
 15
0.0
 25
0.0
 16
0.0
 26
0.0
 36
1.0
 17
0.0
 27
0.0
 37
0.0
 40
9.158369
 41
0.688564
 42
50.0
 43
0.0
 44
0.0
 50
0.0
 51
0.0
 71
     0
 72
   100
 73
     1
 74
     1
 75
     0
 76
     0
 77
     0
 78
     0
  0
ENDTAB
  0
TABLE
  2
LTYPE
 70
     5
  0
LTYPE
  2
CONTINUOUS
 70
    64
  3
Solid line
 72
    65
 73
     0
 40
0.0
  0
LTYPE
  2
CENTER
 70
    64
  3
Center ____ _ ____ _ ____ _ ____ _ ____ _ ____
 72
    65
 73
     4
 40
50.8
 49
31.75
 49
-6.35
 49
6.35
 49
-6.35
  0
LTYPE
  2
HIDDEN
 70
    64
  3
Hidden __ __ __ __ __ __ __ __ __ __ __ __ __ __
 72
    65
 73
     2
 40
9.525
 49
6.35
 49
-3.175
  0
LTYPE
  2
CENTER2
 70
    64
  3
Center (.5x) ___ _ ___ _ ___ _ ___ _ ___ _ ___
 72
    65
 73
     4
 40
28.575
 49
19.05
 49
-3.175
 49
3.175
 49
-3.175
  0
LTYPE
  2
HIDDEN2
 70
    64
  3
Hidden (.5x) _ _ _ _ _ _ _ _ _ _ _ _ _ _ _ _ _
 72
    65
 73
     2
 40
4.7625
 49
3.175
 49
-1.5875
  0
ENDTAB
  0
TABLE
  2
LAYER
 70
     1
  0
LAYER
  2
0
 70
     0
 62
     7
  6
CONTINUOUS
  0
ENDTAB
  0
TABLE
  2
STYLE
 70
     1
  0
STYLE
  2
STANDARD
 70
     0
 40
0.0
 41
1.0
 50
0.0
 71
     0
 42
0.0
  3
txt
  4

  0
ENDTAB
  0
TABLE
  2
VIEW
 70
     0
  0
ENDTAB
  0
TABLE
  2
UCS
 70
     0
  0
ENDTAB
  0
TABLE
  2
APPID
 70
     1
  0
APPID
  2
ACAD
 70
     0
  0
ENDTAB
  0
TABLE
  2
DIMSTYLE
 70
     1
  0
DIMSTYLE
  2
STANDARD
 70
     0
  3

  4

  5

  6

  7

 40
1.0
 41
0.18
 42
0.0625
 43
0.38
 44
0.18
 45
0.0
 46
0.0
 47
0.0
 48
0.0
 71
     0
 72
     0
 73
     1
 74
     1
 75
     0
 76
     0
 77
     0
 78
     0
140
0.18
141
0.09
142
0.0
143
25.4
144
1.0
145
0.0
146
1.0
147
0.09
170
     0
171
     2
172
     0
173
     0
174
     0
175
     0
176
     0
177
     0
178
     0
  0
ENDTAB
  0
ENDSEC
  0
SECTION
  2
BLOCKS
  0
ENDSEC
  0
SECTION
  2
ENTITIES
  0
LINE
  8
0
  6
CONTINUOUS
 62
     7
  5
276
 10
0.274591
 20
0.0
 30
0.0
 11
0.273536
 21
-0.02404
 31
0.0
  0
LINE
  8
0
  6
CONTINUOUS
 62
     7
  5
277
 10
0.273536
 20
-0.02404
 30
0.0
 11
0.270291
 21
-0.048402
 31
0.0
  0
LINE
  8
0
  6
CONTINUOUS
 62
     7
  5
278
 10
0.270291
 20
-0.048402
 30
0.0
 11
0.264793
 21
-0.072696
 31
0.0
  0
LINE
  8
0
  6
CONTINUOUS
 62
     7
  5
279
 10
0.264793
 20
-0.072696
 30
0.0
 11
0.25706
 21
-0.09654
 31
0.0
  0
LINE
  8
0
  6
CONTINUOUS
 62
     7
  5
27A
 10
0.25706
 20
-0.09654
 30
0.0
 11
0.247178
 21
-0.119595
 31
0.0
  0
LINE
  8
0
  6
CONTINUOUS
 62
     7
  5
27B
 10
0.247178
 20
-0.119595
 30
0.0
 11
0.235284
 21
-0.141568
 31
0.0
  0
LINE
  8
0
  6
CONTINUOUS
 62
     7
  5
27C
 10
0.235284
 20
-0.141568
 30
0.0
 11
0.221587
 21
-0.162171
 31
0.0
  0
LINE
  8
0
  6
CONTINUOUS
 62
     7
  5
27D
 10
0.221587
 20
-0.162171
 30
0.0
 11
0.206367
 21
-0.181142
 31
0.0
  0
LINE
  8
0
  6
CONTINUOUS
 62
     7
  5
27E
 10
0.206367
 20
-0.181142
 30
0.0
 11
0.189929
 21
-0.198311
 31
0.0
  0
LINE
  8
0
  6
CONTINUOUS
 62
     7
  5
27F
 10
0.189929
 20
-0.198311
 30
0.0
 11
0.171852
 21
-0.214165
 31
0.0
  0
LINE
  8
0
  6
CONTINUOUS
 62
     7
  5
280
 10
0.171852
 20
-0.214165
 30
0.0
 11
0.152037
 21
-0.228659
 31
0.0
  0
LINE
  8
0
  6
CONTINUOUS
 62
     7
  5
281
 10
0.152037
 20
-0.228659
 30
0.0
 11
0.130717
 21
-0.241481
 31
0.0
  0
LINE
  8
0
  6
CONTINUOUS
 62
     7
  5
282
 10
0.130717
 20
-0.241481
 30
0.0
 11
0.10817
 21
-0.252387
 31
0.0
  0
LINE
  8
0
  6
CONTINUOUS
 62
     7
  5
283
 10
0.10817
 20
-0.252387
 30
0.0
 11
0.084687
 21
-0.261205
 31
0.0
  0
LINE
  8
0
  6
CONTINUOUS
 62
     7
  5
284
 10
0.084687
 20
-0.261205
 30
0.0
 11
0.060577
 21
-0.267825
 31
0.0
  0
LINE
  8
0
  6
CONTINUOUS
 62
     7
  5
285
 10
0.060577
 20
-0.267825
 30
0.0
 11
0.036203
 21
-0.272194
 31
0.0
  0
LINE
  8
0
  6
CONTINUOUS
 62
     7
  5
286
 10
0.036203
 20
-0.272194
 30
0.0
 11
0.011955
 21
-0.27433
 31
0.0
  0
LINE
  8
0
  6
CONTINUOUS
 62
     7
  5
287
 10
0.011955
 20
-0.27433
 30
0.0
 11
-0.011955
 21
-0.27433
 31
0.0
  0
LINE
  8
0
  6
CONTINUOUS
 62
     7
  5
288
 10
-0.011955
 20
-0.27433
 30
0.0
 11
-0.036203
 21
-0.272194
 31
0.0
  0
LINE
  8
0
  6
CONTINUOUS
 62
     7
  5
289
 10
-0.036203
 20
-0.272194
 30
0.0
 11
-0.060577
 21
-0.267825
 31
0.0
  0
LINE
  8
0
  6
CONTINUOUS
 62
     7
  5
28A
 10
-0.060577
 20
-0.267825
 30
0.0
 11
-0.084687
 21
-0.261205
 31
0.0
  0
LINE
  8
0
  6
CONTINUOUS
 62
     7
  5
28B
 10
-0.084687
 20
-0.261205
 30
0.0
 11
-0.10817
 21
-0.252387
 31
0.0
  0
LINE
  8
0
  6
CONTINUOUS
 62
     7
  5
28C
 10
-0.10817
 20
-0.252387
 30
0.0
 11
-0.130717
 21
-0.241481
 31
0.0
  0
LINE
  8
0
  6
CONTINUOUS
 62
     7
  5
28D
 10
-0.130717
 20
-0.241481
 30
0.0
 11
-0.152037
 21
-0.228659
 31
0.0
  0
LINE
  8
0
  6
CONTINUOUS
 62
     7
  5
28E
 10
-0.152037
 20
-0.228659
 30
0.0
 11
-0.171852
 21
-0.214165
 31
0.0
  0
LINE
  8
0
  6
CONTINUOUS
 62
     7
  5
28F
 10
-0.171852
 20
-0.214165
 30
0.0
 11
-0.189929
 21
-0.198311
 31
0.0
  0
LINE
  8
0
  6
CONTINUOUS
 62
     7
  5
290
 10
-0.189929
 20
-0.198311
 30
0.0
 11
-0.206367
 21
-0.181142
 31
0.0
  0
LINE
  8
0
  6
CONTINUOUS
 62
     7
  5
291
 10
-0.206367
 20
-0.181142
 30
0.0
 11
-0.221587
 21
-0.162171
 31
0.0
  0
LINE
  8
0
  6
CONTINUOUS
 62
     7
  5
292
 10
-0.221587
 20
-0.162171
 30
0.0
 11
-0.235284
 21
-0.141568
 31
0.0
  0
LINE
  8
0
  6
CONTINUOUS
 62
     7
  5
293
 10
-0.235284
 20
-0.141568
 30
0.0
 11
-0.247178
 21
-0.119595
 31
0.0
  0
LINE
  8
0
  6
CONTINUOUS
 62
     7
  5
294
 10
-0.247178
 20
-0.119595
 30
0.0
 11
-0.25706
 21
-0.09654
 31
0.0
  0
LINE
  8
0
  6
CONTINUOUS
 62
     7
  5
295
 10
-0.25706
 20
-0.09654
 30
0.0
 11
-0.264793
 21
-0.072696
 31
0.0
  0
LINE
  8
0
  6
CONTINUOUS
 62
     7
  5
296
 10
-0.264793
 20
-0.072696
 30
0.0
 11
-0.270291
 21
-0.048402
 31
0.0
  0
LINE
  8
0
  6
CONTINUOUS
 62
     7
  5
297
 10
-0.270291
 20
-0.048402
 30
0.0
 11
-0.273536
 21
-0.02404
 31
0.0
  0
LINE
  8
0
  6
CONTINUOUS
 62
     7
  5
298
 10
-0.273536
 20
-0.02404
 30
0.0
 11
-0.274591
 21
0.0
 31
0.0
  0
LINE
  8
0
  6
CONTINUOUS
 62
     7
  5
299
 10
-0.274591
 20
0.0
 30
0.0
 11
-0.273536
 21
0.02404
 31
0.0
  0
LINE
  8
0
  6
CONTINUOUS
 62
     7
  5
29A
 10
-0.273536
 20
0.02404
 30
0.0
 11
-0.270291
 21
0.048402
 31
0.0
  0
LINE
  8
0
  6
CONTINUOUS
 62
     7
  5
29B
 10
-0.270291
 20
0.048402
 30
0.0
 11
-0.264793
 21
0.072696
 31
0.0
  0
LINE
  8
0
  6
CONTINUOUS
 62
     7
  5
29C
 10
-0.264793
 20
0.072696
 30
0.0
 11
-0.25706
 21
0.09654
 31
0.0
  0
LINE
  8
0
  6
CONTINUOUS
 62
     7
  5
29D
 10
-0.25706
 20
0.09654
 30
0.0
 11
-0.247178
 21
0.119595
 31
0.0
  0
LINE
  8
0
  6
CONTINUOUS
 62
     7
  5
29E
 10
-0.247178
 20
0.119595
 30
0.0
 11
-0.235284
 21
0.141568
 31
0.0
  0
LINE
  8
0
  6
CONTINUOUS
 62
     7
  5
29F
 10
-0.235284
 20
0.141568
 30
0.0
 11
-0.221587
 21
0.162171
 31
0.0
  0
LINE
  8
0
  6
CONTINUOUS
 62
     7
  5
2A0
 10
-0.221587
 20
0.162171
 30
0.0
 11
-0.206367
 21
0.181142
 31
0.0
  0
LINE
  8
0
  6
CONTINUOUS
 62
     7
  5
2A1
 10
-0.206367
 20
0.181142
 30
0.0
 11
-0.189929
 21
0.198311
 31
0.0
  0
LINE
  8
0
  6
CONTINUOUS
 62
     7
  5
2A2
 10
-0.189929
 20
0.198311
 30
0.0
 11
-0.171852
 21
0.214165
 31
0.0
  0
LINE
  8
0
  6
CONTINUOUS
 62
     7
  5
2A3
 10
-0.171852
 20
0.214165
 30
0.0
 11
-0.152037
 21
0.228659
 31
0.0
  0
LINE
  8
0
  6
CONTINUOUS
 62
     7
  5
2A4
 10
-0.152037
 20
0.228659
 30
0.0
 11
-0.130717
 21
0.241481
 31
0.0
  0
LINE
  8
0
  6
CONTINUOUS
 62
     7
  5
2A5
 10
-0.130717
 20
0.241481
 30
0.0
 11
-0.10817
 21
0.252387
 31
0.0
  0
LINE
  8
0
  6
CONTINUOUS
 62
     7
  5
2A6
 10
-0.10817
 20
0.252387
 30
0.0
 11
-0.084687
 21
0.261205
 31
0.0
  0
LINE
  8
0
  6
CONTINUOUS
 62
     7
  5
2A7
 10
-0.084687
 20
0.261205
 30
0.0
 11
-0.060577
 21
0.267825
 31
0.0
  0
LINE
  8
0
  6
CONTINUOUS
 62
     7
  5
2A8
 10
-0.060577
 20
0.267825
 30
0.0
 11
-0.036203
 21
0.272194
 31
0.0
  0
LINE
  8
0
  6
CONTINUOUS
 62
     7
  5
2A9
 10
-0.036203
 20
0.272194
 30
0.0
 11
-0.011955
 21
0.27433
 31
0.0
  0
LINE
  8
0
  6
CONTINUOUS
 62
     7
  5
2AA
 10
-0.011955
 20
0.27433
 30
0.0
 11
0.011955
 21
0.27433
 31
0.0
  0
LINE
  8
0
  6
CONTINUOUS
 62
     7
  5
2AB
 10
0.011955
 20
0.27433
 30
0.0
 11
0.036203
 21
0.272194
 31
0.0
  0
LINE
  8
0
  6
CONTINUOUS
 62
     7
  5
2AC
 10
0.036203
 20
0.272194
 30
0.0
 11
0.060577
 21
0.267825
 31
0.0
  0
LINE
  8
0
  6
CONTINUOUS
 62
     7
  5
2AD
 10
0.060577
 20
0.267825
 30
0.0
 11
0.084687
 21
0.261205
 31
0.0
  0
LINE
  8
0
  6
CONTINUOUS
 62
     7
  5
2AE
 10
0.084687
 20
0.261205
 30
0.0
 11
0.10817
 21
0.252387
 31
0.0
  0
LINE
  8
0
  6
CONTINUOUS
 62
     7
  5
2AF
 10
0.10817
 20
0.252387
 30
0.0
 11
0.130717
 21
0.241481
 31
0.0
  0
LINE
  8
0
  6
CONTINUOUS
 62
     7
  5
2B0
 10
0.130717
 20
0.241481
 30
0.0
 11
0.152037
 21
0.228659
 31
0.0
  0
LINE
  8
0
  6
CONTINUOUS
 62
     7
  5
2B1
 10
0.152037
 20
0.228659
 30
0.0
 11
0.171852
 21
0.214165
 31
0.0
  0
LINE
  8
0
  6
CONTINUOUS
 62
     7
  5
2B2
 10
0.171852
 20
0.214165
 30
0.0
 11
0.189929
 21
0.198311
 31
0.0
  0
LINE
  8
0
  6
CONTINUOUS
 62
     7
  5
2B3
 10
0.189929
 20
0.198311
 30
0.0
 11
0.206367
 21
0.181142
 31
0.0
  0
LINE
  8
0
  6
CONTINUOUS
 62
     7
  5
2B4
 10
0.206367
 20
0.181142
 30
0.0
 11
0.221587
 21
0.162171
 31
0.0
  0
LINE
  8
0
  6
CONTINUOUS
 62
     7
  5
2B5
 10
0.221587
 20
0.162171
 30
0.0
 11
0.235284
 21
0.141568
 31
0.0
  0
LINE
  8
0
  6
CONTINUOUS
 62
     7
  5
2B6
 10
0.235284
 20
0.141568
 30
0.0
 11
0.247178
 21
0.119595
 31
0.0
  0
LINE
  8
0
  6
CONTINUOUS
 62
     7
  5
2B7
 10
0.247178
 20
0.119595
 30
0.0
 11
0.25706
 21
0.09654
 31
0.0
  0
LINE
  8
0
  6
CONTINUOUS
 62
     7
  5
2B8
 10
0.25706
 20
0.09654
 30
0.0
 11
0.264793
 21
0.072696
 31
0.0
  0
LINE
  8
0
  6
CONTINUOUS
 62
     7
  5
2B9
 10
0.264793
 20
0.072696
 30
0.0
 11
0.270291
 21
0.048402
 31
0.0
  0
LINE
  8
0
  6
CONTINUOUS
 62
     7
  5
2BA
 10
0.270291
 20
0.048402
 30
0.0
 11
0.273536
 21
0.02404
 31
0.0
  0
LINE
  8
0
  6
CONTINUOUS
 62
     7
  5
2BB
 10
0.273536
 20
0.02404
 30
0.0
 11
0.274591
 21
0.0
 31
0.0
  0
LINE
  8
0
  6
CONTINUOUS
 62
     7
  5
2BC
 10
-0.275591
 20
0.0
 30
0.0
 11
-0.275544
 21
-0.005051
 31
0.0
  0
LINE
  8
0
  6
CONTINUOUS
 62
     7
  5
2BD
 10
-0.275544
 20
-0.005051
 30
0.0
 11
-0.275404
 21
-0.010131
 31
0.0
  0
LINE
  8
0
  6
CONTINUOUS
 62
     7
  5
2BE
 10
-0.275404
 20
-0.010131
 30
0.0
 11
-0.275169
 21
-0.015234
 31
0.0
  0
LINE
  8
0
  6
CONTINUOUS
 62
     7
  5
2BF
 10
-0.275169
 20
-0.015234
 30
0.0
 11
-0.274838
 21
-0.020358
 31
0.0
  0
LINE
  8
0
  6
CONTINUOUS
 62
     7
  5
2C0
 10
-0.274838
 20
-0.020358
 30
0.0
 11
-0.274408
 21
-0.0255
 31
0.0
  0
LINE
  8
0
  6
CONTINUOUS
 62
     7
  5
2C1
 10
-0.274408
 20
-0.0255
 30
0.0
 11
-0.27388
 21
-0.030655
 31
0.0
  0
LINE
  8
0
  6
CONTINUOUS
 62
     7
  5
2C2
 10
-0.27388
 20
-0.030655
 30
0.0
 11
-0.273253
 21
-0.03582
 31
0.0
  0
LINE
  8
0
  6
CONTINUOUS
 62
     7
  5
2C3
 10
-0.273253
 20
-0.03582
 30
0.0
 11
-0.272525
 21
-0.040992
 31
0.0
  0
LINE
  8
0
  6
CONTINUOUS
 62
     7
  5
2C4
 10
-0.272525
 20
-0.040992
 30
0.0
 11
-0.271696
 21
-0.046165
 31
0.0
  0
LINE
  8
0
  6
CONTINUOUS
 62
     7
  5
2C5
 10
-0.271696
 20
-0.046165
 30
0.0
 11
-0.270767
 21
-0.051337
 31
0.0
  0
LINE
  8
0
  6
CONTINUOUS
 62
     7
  5
2C6
 10
-0.270767
 20
-0.051337
 30
0.0
 11
-0.269736
 21
-0.056504
 31
0.0
  0
LINE
  8
0
  6
CONTINUOUS
 62
     7
  5
2C7
 10
-0.269736
 20
-0.056504
 30
0.0
 11
-0.268604
 21
-0.061663
 31
0.0
  0
LINE
  8
0
  6
CONTINUOUS
 62
     7
  5
2C8
 10
-0.268604
 20
-0.061663
 30
0.0
 11
-0.26737
 21
-0.066808
 31
0.0
  0
LINE
  8
0
  6
CONTINUOUS
 62
     7
  5
2C9
 10
-0.26737
 20
-0.066808
 30
0.0
 11
-0.266036
 21
-0.071938
 31
0.0
  0
LINE
  8
0
  6
CONTINUOUS
 62
     7
  5
2CA
 10
-0.266036
 20
-0.071938
 30
0.0
 11
-0.264601
 21
-0.077048
 31
0.0
  0
LINE
  8
0
  6
CONTINUOUS
 62
     7
  5
2CB
 10
-0.264601
 20
-0.077048
 30
0.0
 11
-0.263067
 21
-0.082135
 31
0.0
  0
LINE
  8
0
  6
CONTINUOUS
 62
     7
  5
2CC
 10
-0.263067
 20
-0.082135
 30
0.0
 11
-0.261433
 21
-0.087195
 31
0.0
  0
LINE
  8
0
  6
CONTINUOUS
 62
     7
  5
2CD
 10
-0.261433
 20
-0.087195
 30
0.0
 11
-0.259701
 21
-0.092226
 31
0.0
  0
LINE
  8
0
  6
CONTINUOUS
 62
     7
  5
2CE
 10
-0.259701
 20
-0.092226
 30
0.0
 11
-0.257871
 21
-0.097224
 31
0.0
  0
LINE
  8
0
  6
CONTINUOUS
 62
     7
  5
2CF
 10
-0.257871
 20
-0.097224
 30
0.0
 11
-0.255946
 21
-0.102186
 31
0.0
  0
LINE
  8
0
  6
CONTINUOUS
 62
     7
  5
2D0
 10
-0.255946
 20
-0.102186
 30
0.0
 11
-0.253924
 21
-0.10711
 31
0.0
  0
LINE
  8
0
  6
CONTINUOUS
 62
     7
  5
2D1
 10
-0.253924
 20
-0.10711
 30
0.0
 11
-0.251809
 21
-0.111993
 31
0.0
  0
LINE
  8
0
  6
CONTINUOUS
 62
     7
  5
2D2
 10
-0.251809
 20
-0.111993
 30
0.0
 11
-0.2496
 21
-0.116832
 31
0.0
  0
LINE
  8
0
  6
CONTINUOUS
 62
     7
  5
2D3
 10
-0.2496
 20
-0.116832
 30
0.0
 11
-0.2473
 21
-0.121625
 31
0.0
  0
LINE
  8
0
  6
CONTINUOUS
 62
     7
  5
2D4
 10
-0.2473
 20
-0.121625
 30
0.0
 11
-0.24491
 21
-0.126369
 31
0.0
  0
LINE
  8
0
  6
CONTINUOUS
 62
     7
  5
2D5
 10
-0.24491
 20
-0.126369
 30
0.0
 11
-0.242432
 21
-0.13106
 31
0.0
  0
LINE
  8
0
  6
CONTINUOUS
 62
     7
  5
2D6
 10
-0.242432
 20
-0.13106
 30
0.0
 11
-0.239868
 21
-0.135696
 31
0.0
  0
LINE
  8
0
  6
CONTINUOUS
 62
     7
  5
2D7
 10
-0.239868
 20
-0.135696
 30
0.0
 11
-0.23722
 21
-0.140274
 31
0.0
  0
LINE
  8
0
  6
CONTINUOUS
 62
     7
  5
2D8
 10
-0.23722
 20
-0.140274
 30
0.0
 11
-0.23449
 21
-0.144791
 31
0.0
  0
LINE
  8
0
  6
CONTINUOUS
 62
     7
  5
2D9
 10
-0.23449
 20
-0.144791
 30
0.0
 11
-0.231681
 21
-0.149245
 31
0.0
  0
LINE
  8
0
  6
CONTINUOUS
 62
     7
  5
2DA
 10
-0.231681
 20
-0.149245
 30
0.0
 11
-0.228795
 21
-0.153633
 31
0.0
  0
LINE
  8
0
  6
CONTINUOUS
 62
     7
  5
2DB
 10
-0.228795
 20
-0.153633
 30
0.0
 11
-0.225835
 21
-0.157952
 31
0.0
  0
LINE
  8
0
  6
CONTINUOUS
 62
     7
  5
2DC
 10
-0.225835
 20
-0.157952
 30
0.0
 11
-0.222803
 21
-0.162201
 31
0.0
  0
LINE
  8
0
  6
CONTINUOUS
 62
     7
  5
2DD
 10
-0.222803
 20
-0.162201
 30
0.0
 11
-0.219702
 21
-0.166377
 31
0.0
  0
LINE
  8
0
  6
CONTINUOUS
 62
     7
  5
2DE
 10
-0.219702
 20
-0.166377
 30
0.0
 11
-0.216535
 21
-0.170477
 31
0.0
  0
LINE
  8
0
  6
CONTINUOUS
 62
     7
  5
2DF
 10
-0.216535
 20
0.170477
 30
0.0
 11
-0.219702
 21
0.166377
 31
0.0
  0
LINE
  8
0
  6
CONTINUOUS
 62
     7
  5
2E0
 10
-0.219702
 20
0.166377
 30
0.0
 11
-0.222803
 21
0.162201
 31
0.0
  0
LINE
  8
0
  6
CONTINUOUS
 62
     7
  5
2E1
 10
-0.222803
 20
0.162201
 30
0.0
 11
-0.225835
 21
0.157952
 31
0.0
  0
LINE
  8
0
  6
CONTINUOUS
 62
     7
  5
2E2
 10
-0.225835
 20
0.157952
 30
0.0
 11
-0.228795
 21
0.153633
 31
0.0
  0
LINE
  8
0
  6
CONTINUOUS
 62
     7
  5
2E3
 10
-0.228795
 20
0.153633
 30
0.0
 11
-0.231681
 21
0.149245
 31
0.0
  0
LINE
  8
0
  6
CONTINUOUS
 62
     7
  5
2E4
 10
-0.231681
 20
0.149245
 30
0.0
 11
-0.23449
 21
0.144791
 31
0.0
  0
LINE
  8
0
  6
CONTINUOUS
 62
     7
  5
2E5
 10
-0.23449
 20
0.144791
 30
0.0
 11
-0.23722
 21
0.140274
 31
0.0
  0
LINE
  8
0
  6
CONTINUOUS
 62
     7
  5
2E6
 10
-0.23722
 20
0.140274
 30
0.0
 11
-0.239868
 21
0.135696
 31
0.0
  0
LINE
  8
0
  6
CONTINUOUS
 62
     7
  5
2E7
 10
-0.239868
 20
0.135696
 30
0.0
 11
-0.242432
 21
0.13106
 31
0.0
  0
LINE
  8
0
  6
CONTINUOUS
 62
     7
  5
2E8
 10
-0.242432
 20
0.13106
 30
0.0
 11
-0.24491
 21
0.126369
 31
0.0
  0
LINE
  8
0
  6
CONTINUOUS
 62
     7
  5
2E9
 10
-0.24491
 20
0.126369
 30
0.0
 11
-0.2473
 21
0.121625
 31
0.0
  0
LINE
  8
0
  6
CONTINUOUS
 62
     7
  5
2EA
 10
-0.2473
 20
0.121625
 30
0.0
 11
-0.2496
 21
0.116832
 31
0.0
  0
LINE
  8
0
  6
CONTINUOUS
 62
     7
  5
2EB
 10
-0.2496
 20
0.116832
 30
0.0
 11
-0.251809
 21
0.111993
 31
0.0
  0
LINE
  8
0
  6
CONTINUOUS
 62
     7
  5
2EC
 10
-0.251809
 20
0.111993
 30
0.0
 11
-0.253924
 21
0.10711
 31
0.0
  0
LINE
  8
0
  6
CONTINUOUS
 62
     7
  5
2ED
 10
-0.253924
 20
0.10711
 30
0.0
 11
-0.255946
 21
0.102186
 31
0.0
  0
LINE
  8
0
  6
CONTINUOUS
 62
     7
  5
2EE
 10
-0.255946
 20
0.102186
 30
0.0
 11
-0.257871
 21
0.097224
 31
0.0
  0
LINE
  8
0
  6
CONTINUOUS
 62
     7
  5
2EF
 10
-0.257871
 20
0.097224
 30
0.0
 11
-0.259701
 21
0.092226
 31
0.0
  0
LINE
  8
0
  6
CONTINUOUS
 62
     7
  5
2F0
 10
-0.259701
 20
0.092226
 30
0.0
 11
-0.261433
 21
0.087195
 31
0.0
  0
LINE
  8
0
  6
CONTINUOUS
 62
     7
  5
2F1
 10
-0.261433
 20
0.087195
 30
0.0
 11
-0.263067
 21
0.082135
 31
0.0
  0
LINE
  8
0
  6
CONTINUOUS
 62
     7
  5
2F2
 10
-0.263067
 20
0.082135
 30
0.0
 11
-0.264601
 21
0.077048
 31
0.0
  0
LINE
  8
0
  6
CONTINUOUS
 62
     7
  5
2F3
 10
-0.264601
 20
0.077048
 30
0.0
 11
-0.266036
 21
0.071938
 31
0.0
  0
LINE
  8
0
  6
CONTINUOUS
 62
     7
  5
2F4
 10
-0.266036
 20
0.071938
 30
0.0
 11
-0.26737
 21
0.066808
 31
0.0
  0
LINE
  8
0
  6
CONTINUOUS
 62
     7
  5
2F5
 10
-0.26737
 20
0.066808
 30
0.0
 11
-0.268604
 21
0.061663
 31
0.0
  0
LINE
  8
0
  6
CONTINUOUS
 62
     7
  5
2F6
 10
-0.268604
 20
0.061663
 30
0.0
 11
-0.269736
 21
0.056504
 31
0.0
  0
LINE
  8
0
  6
CONTINUOUS
 62
     7
  5
2F7
 10
-0.269736
 20
0.056504
 30
0.0
 11
-0.270767
 21
0.051337
 31
0.0
  0
LINE
  8
0
  6
CONTINUOUS
 62
     7
  5
2F8
 10
-0.270767
 20
0.051337
 30
0.0
 11
-0.271696
 21
0.046165
 31
0.0
  0
LINE
  8
0
  6
CONTINUOUS
 62
     7
  5
2F9
 10
-0.271696
 20
0.046165
 30
0.0
 11
-0.272525
 21
0.040992
 31
0.0
  0
LINE
  8
0
  6
CONTINUOUS
 62
     7
  5
2FA
 10
-0.272525
 20
0.040992
 30
0.0
 11
-0.273253
 21
0.03582
 31
0.0
  0
LINE
  8
0
  6
CONTINUOUS
 62
     7
  5
2FB
 10
-0.273253
 20
0.03582
 30
0.0
 11
-0.27388
 21
0.030655
 31
0.0
  0
LINE
  8
0
  6
CONTINUOUS
 62
     7
  5
2FC
 10
-0.27388
 20
0.030655
 30
0.0
 11
-0.274408
 21
0.0255
 31
0.0
  0
LINE
  8
0
  6
CONTINUOUS
 62
     7
  5
2FD
 10
-0.274408
 20
0.0255
 30
0.0
 11
-0.274838
 21
0.020358
 31
0.0
  0
LINE
  8
0
  6
CONTINUOUS
 62
     7
  5
2FE
 10
-0.274838
 20
0.020358
 30
0.0
 11
-0.275169
 21
0.015234
 31
0.0
  0
LINE
  8
0
  6
CONTINUOUS
 62
     7
  5
2FF
 10
-0.275169
 20
0.015234
 30
0.0
 11
-0.275404
 21
0.010131
 31
0.0
  0
LINE
  8
0
  6
CONTINUOUS
 62
     7
  5
300
 10
-0.275404
 20
0.010131
 30
0.0
 11
-0.275544
 21
0.005051
 31
0.0
  0
LINE
  8
0
  6
CONTINUOUS
 62
     7
  5
301
 10
-0.275544
 20
0.005051
 30
0.0
 11
-0.275591
 21
0.0
 31
0.0
  0
LINE
  8
0
  6
CONTINUOUS
 62
     7
  5
302
 10
-0.216535
 20
0.280469
 30
0.0
 11
-0.216535
 21
0.170477
 31
0.0
  0
LINE
  8
0
  6
CONTINUOUS
 62
     7
  5
303
 10
-0.354331
 20
0.0
 30
0.0
 11
-0.354216
 21
0.009008
 31
0.0
  0
LINE
  8
0
  6
CONTINUOUS
 62
     7
  5
304
 10
-0.354216
 20
0.009008
 30
0.0
 11
-0.353869
 21
0.018079
 31
0.0
  0
LINE
  8
0
  6
CONTINUOUS
 62
     7
  5
305
 10
-0.353869
 20
0.018079
 30
0.0
 11
-0.353285
 21
0.027201
 31
0.0
  0
LINE
  8
0
  6
CONTINUOUS
 62
     7
  5
306
 10
-0.353285
 20
0.027201
 30
0.0
 11
-0.35246
 21
0.036362
 31
0.0
  0
LINE
  8
0
  6
CONTINUOUS
 62
     7
  5
307
 10
-0.35246
 20
0.036362
 30
0.0
 11
-0.351391
 21
0.04555
 31
0.0
  0
LINE
  8
0
  6
CONTINUOUS
 62
     7
  5
308
 10
-0.351391
 20
0.04555
 30
0.0
 11
-0.350075
 21
0.054751
 31
0.0
  0
LINE
  8
0
  6
CONTINUOUS
 62
     7
  5
309
 10
-0.350075
 20
0.054751
 30
0.0
 11
-0.348511
 21
0.063954
 31
0.0
  0
LINE
  8
0
  6
CONTINUOUS
 62
     7
  5
30A
 10
-0.348511
 20
0.063954
 30
0.0
 11
-0.346699
 21
0.073145
 31
0.0
  0
LINE
  8
0
  6
CONTINUOUS
 62
     7
  5
30B
 10
-0.346699
 20
0.073145
 30
0.0
 11
-0.344638
 21
0.082311
 31
0.0
  0
LINE
  8
0
  6
CONTINUOUS
 62
     7
  5
30C
 10
-0.344638
 20
0.082311
 30
0.0
 11
-0.342329
 21
0.091441
 31
0.0
  0
LINE
  8
0
  6
CONTINUOUS
 62
     7
  5
30D
 10
-0.342329
 20
0.091441
 30
0.0
 11
-0.339773
 21
0.100522
 31
0.0
  0
LINE
  8
0
  6
CONTINUOUS
 62
     7
  5
30E
 10
-0.339773
 20
0.100522
 30
0.0
 11
-0.336973
 21
0.109542
 31
0.0
  0
LINE
  8
0
  6
CONTINUOUS
 62
     7
  5
30F
 10
-0.336973
 20
0.109542
 30
0.0
 11
-0.333931
 21
0.118491
 31
0.0
  0
LINE
  8
0
  6
CONTINUOUS
 62
     7
  5
310
 10
-0.333931
 20
0.118491
 30
0.0
 11
-0.330651
 21
0.127358
 31
0.0
  0
LINE
  8
0
  6
CONTINUOUS
 62
     7
  5
311
 10
-0.330651
 20
0.127358
 30
0.0
 11
-0.327136
 21
0.136133
 31
0.0
  0
LINE
  8
0
  6
CONTINUOUS
 62
     7
  5
312
 10
-0.327136
 20
0.136133
 30
0.0
 11
-0.32339
 21
0.144807
 31
0.0
  0
LINE
  8
0
  6
CONTINUOUS
 62
     7
  5
313
 10
-0.32339
 20
0.144807
 30
0.0
 11
-0.319418
 21
0.153371
 31
0.0
  0
LINE
  8
0
  6
CONTINUOUS
 62
     7
  5
314
 10
-0.319418
 20
0.153371
 30
0.0
 11
-0.315224
 21
0.161815
 31
0.0
  0
LINE
  8
0
  6
CONTINUOUS
 62
     7
  5
315
 10
-0.315224
 20
0.161815
 30
0.0
 11
-0.310815
 21
0.170131
 31
0.0
  0
LINE
  8
0
  6
CONTINUOUS
 62
     7
  5
316
 10
-0.310815
 20
0.170131
 30
0.0
 11
-0.306196
 21
0.178309
 31
0.0
  0
LINE
  8
0
  6
CONTINUOUS
 62
     7
  5
317
 10
-0.306196
 20
0.178309
 30
0.0
 11
-0.301376
 21
0.18634
 31
0.0
  0
LINE
  8
0
  6
CONTINUOUS
 62
     7
  5
318
 10
-0.301376
 20
0.18634
 30
0.0
 11
-0.296362
 21
0.194216
 31
0.0
  0
LINE
  8
0
  6
CONTINUOUS
 62
     7
  5
319
 10
-0.296362
 20
0.194216
 30
0.0
 11
-0.291163
 21
0.201927
 31
0.0
  0
LINE
  8
0
  6
CONTINUOUS
 62
     7
  5
31A
 10
-0.291163
 20
0.201927
 30
0.0
 11
-0.285788
 21
0.209465
 31
0.0
  0
LINE
  8
0
  6
CONTINUOUS
 62
     7
  5
31B
 10
-0.285788
 20
0.209465
 30
0.0
 11
-0.280246
 21
0.216823
 31
0.0
  0
LINE
  8
0
  6
CONTINUOUS
 62
     7
  5
31C
 10
-0.280246
 20
0.216823
 30
0.0
 11
-0.274549
 21
0.223993
 31
0.0
  0
LINE
  8
0
  6
CONTINUOUS
 62
     7
  5
31D
 10
-0.274549
 20
0.223993
 30
0.0
 11
-0.268707
 21
0.230969
 31
0.0
  0
LINE
  8
0
  6
CONTINUOUS
 62
     7
  5
31E
 10
-0.268707
 20
0.230969
 30
0.0
 11
-0.262731
 21
0.237745
 31
0.0
  0
LINE
  8
0
  6
CONTINUOUS
 62
     7
  5
31F
 10
-0.262731
 20
0.237745
 30
0.0
 11
-0.256632
 21
0.244316
 31
0.0
  0
LINE
  8
0
  6
CONTINUOUS
 62
     7
  5
320
 10
-0.256632
 20
0.244316
 30
0.0
 11
-0.250423
 21
0.250676
 31
0.0
  0
LINE
  8
0
  6
CONTINUOUS
 62
     7
  5
321
 10
-0.250423
 20
0.250676
 30
0.0
 11
-0.244054
 21
0.256881
 31
0.0
  0
LINE
  8
0
  6
CONTINUOUS
 62
     7
  5
322
 10
-0.244054
 20
0.256881
 30
0.0
 11
-0.237475
 21
0.262975
 31
0.0
  0
LINE
  8
0
  6
CONTINUOUS
 62
     7
  5
323
 10
-0.237475
 20
0.262975
 30
0.0
 11
-0.230692
 21
0.268945
 31
0.0
  0
LINE
  8
0
  6
CONTINUOUS
 62
     7
  5
324
 10
-0.230692
 20
0.268945
 30
0.0
 11
-0.22371
 21
0.27478
 31
0.0
  0
LINE
  8
0
  6
CONTINUOUS
 62
     7
  5
325
 10
-0.22371
 20
0.27478
 30
0.0
 11
-0.216535
 21
0.280469
 31
0.0
  0
LINE
  8
0
  6
CONTINUOUS
 62
     7
  5
326
 10
-0.216535
 20
-0.280469
 30
0.0
 11
-0.22371
 21
-0.27478
 31
0.0
  0
LINE
  8
0
  6
CONTINUOUS
 62
     7
  5
327
 10
-0.22371
 20
-0.27478
 30
0.0
 11
-0.230692
 21
-0.268945
 31
0.0
  0
LINE
  8
0
  6
CONTINUOUS
 62
     7
  5
328
 10
-0.230692
 20
-0.268945
 30
0.0
 11
-0.237475
 21
-0.262975
 31
0.0
  0
LINE
  8
0
  6
CONTINUOUS
 62
     7
  5
329
 10
-0.237475
 20
-0.262975
 30
0.0
 11
-0.244054
 21
-0.256881
 31
0.0
  0
LINE
  8
0
  6
CONTINUOUS
 62
     7
  5
32A
 10
-0.244054
 20
-0.256881
 30
0.0
 11
-0.250423
 21
-0.250676
 31
0.0
  0
LINE
  8
0
  6
CONTINUOUS
 62
     7
  5
32B
 10
-0.250423
 20
-0.250676
 30
0.0
 11
-0.256632
 21
-0.244316
 31
0.0
  0
LINE
  8
0
  6
CONTINUOUS
 62
     7
  5
32C
 10
-0.256632
 20
-0.244316
 30
0.0
 11
-0.262731
 21
-0.237745
 31
0.0
  0
LINE
  8
0
  6
CONTINUOUS
 62
     7
  5
32D
 10
-0.262731
 20
-0.237745
 30
0.0
 11
-0.268707
 21
-0.230969
 31
0.0
  0
LINE
  8
0
  6
CONTINUOUS
 62
     7
  5
32E
 10
-0.268707
 20
-0.230969
 30
0.0
 11
-0.274549
 21
-0.223993
 31
0.0
  0
LINE
  8
0
  6
CONTINUOUS
 62
     7
  5
32F
 10
-0.274549
 20
-0.223993
 30
0.0
 11
-0.280246
 21
-0.216823
 31
0.0
  0
LINE
  8
0
  6
CONTINUOUS
 62
     7
  5
330
 10
-0.280246
 20
-0.216823
 30
0.0
 11
-0.285788
 21
-0.209465
 31
0.0
  0
LINE
  8
0
  6
CONTINUOUS
 62
     7
  5
331
 10
-0.285788
 20
-0.209465
 30
0.0
 11
-0.291163
 21
-0.201927
 31
0.0
  0
LINE
  8
0
  6
CONTINUOUS
 62
     7
  5
332
 10
-0.291163
 20
-0.201927
 30
0.0
 11
-0.296362
 21
-0.194216
 31
0.0
  0
LINE
  8
0
  6
CONTINUOUS
 62
     7
  5
333
 10
-0.296362
 20
-0.194216
 30
0.0
 11
-0.301376
 21
-0.18634
 31
0.0
  0
LINE
  8
0
  6
CONTINUOUS
 62
     7
  5
334
 10
-0.301376
 20
-0.18634
 30
0.0
 11
-0.306196
 21
-0.178309
 31
0.0
  0
LINE
  8
0
  6
CONTINUOUS
 62
     7
  5
335
 10
-0.306196
 20
-0.178309
 30
0.0
 11
-0.310815
 21
-0.170131
 31
0.0
  0
LINE
  8
0
  6
CONTINUOUS
 62
     7
  5
336
 10
-0.310815
 20
-0.170131
 30
0.0
 11
-0.315224
 21
-0.161815
 31
0.0
  0
LINE
  8
0
  6
CONTINUOUS
 62
     7
  5
337
 10
-0.315224
 20
-0.161815
 30
0.0
 11
-0.319418
 21
-0.153371
 31
0.0
  0
LINE
  8
0
  6
CONTINUOUS
 62
     7
  5
338
 10
-0.319418
 20
-0.153371
 30
0.0
 11
-0.32339
 21
-0.144807
 31
0.0
  0
LINE
  8
0
  6
CONTINUOUS
 62
     7
  5
339
 10
-0.32339
 20
-0.144807
 30
0.0
 11
-0.327136
 21
-0.136133
 31
0.0
  0
LINE
  8
0
  6
CONTINUOUS
 62
     7
  5
33A
 10
-0.327136
 20
-0.136133
 30
0.0
 11
-0.330651
 21
-0.127358
 31
0.0
  0
LINE
  8
0
  6
CONTINUOUS
 62
     7
  5
33B
 10
-0.330651
 20
-0.127358
 30
0.0
 11
-0.333931
 21
-0.118491
 31
0.0
  0
LINE
  8
0
  6
CONTINUOUS
 62
     7
  5
33C
 10
-0.333931
 20
-0.118491
 30
0.0
 11
-0.336973
 21
-0.109542
 31
0.0
  0
LINE
  8
0
  6
CONTINUOUS
 62
     7
  5
33D
 10
-0.336973
 20
-0.109542
 30
0.0
 11
-0.339773
 21
-0.100522
 31
0.0
  0
LINE
  8
0
  6
CONTINUOUS
 62
     7
  5
33E
 10
-0.339773
 20
-0.100522
 30
0.0
 11
-0.342329
 21
-0.091441
 31
0.0
  0
LINE
  8
0
  6
CONTINUOUS
 62
     7
  5
33F
 10
-0.342329
 20
-0.091441
 30
0.0
 11
-0.344638
 21
-0.082311
 31
0.0
  0
LINE
  8
0
  6
CONTINUOUS
 62
     7
  5
340
 10
-0.344638
 20
-0.082311
 30
0.0
 11
-0.346699
 21
-0.073145
 31
0.0
  0
LINE
  8
0
  6
CONTINUOUS
 62
     7
  5
341
 10
-0.346699
 20
-0.073145
 30
0.0
 11
-0.348511
 21
-0.063954
 31
0.0
  0
LINE
  8
0
  6
CONTINUOUS
 62
     7
  5
342
 10
-0.348511
 20
-0.063954
 30
0.0
 11
-0.350075
 21
-0.054751
 31
0.0
  0
LINE
  8
0
  6
CONTINUOUS
 62
     7
  5
343
 10
-0.350075
 20
-0.054751
 30
0.0
 11
-0.351391
 21
-0.04555
 31
0.0
  0
LINE
  8
0
  6
CONTINUOUS
 62
     7
  5
344
 10
-0.351391
 20
-0.04555
 30
0.0
 11
-0.35246
 21
-0.036362
 31
0.0
  0
LINE
  8
0
  6
CONTINUOUS
 62
     7
  5
345
 10
-0.35246
 20
-0.036362
 30
0.0
 11
-0.353285
 21
-0.027201
 31
0.0
  0
LINE
  8
0
  6
CONTINUOUS
 62
     7
  5
346
 10
-0.353285
 20
-0.027201
 30
0.0
 11
-0.353869
 21
-0.018079
 31
0.0
  0
LINE
  8
0
  6
CONTINUOUS
 62
     7
  5
347
 10
-0.353869
 20
-0.018079
 30
0.0
 11
-0.354216
 21
-0.009008
 31
0.0
  0
LINE
  8
0
  6
CONTINUOUS
 62
     7
  5
348
 10
-0.354216
 20
-0.009008
 30
0.0
 11
-0.354331
 21
0.0
 31
0.0
  0
LINE
  8
0
  6
CONTINUOUS
 62
     7
  5
349
 10
-0.216535
 20
-0.170477
 30
0.0
 11
-0.216535
 21
-0.280469
 31
0.0
  0
LINE
  8
0
  6
CONTINUOUS
 62
     7
  5
34A
 10
0.354331
 20
0.0
 30
0.0
 11
0.354216
 21
-0.009008
 31
0.0
  0
LINE
  8
0
  6
CONTINUOUS
 62
     7
  5
34B
 10
0.354216
 20
-0.009008
 30
0.0
 11
0.353869
 21
-0.018079
 31
0.0
  0
LINE
  8
0
  6
CONTINUOUS
 62
     7
  5
34C
 10
0.353869
 20
-0.018079
 30
0.0
 11
0.353285
 21
-0.027201
 31
0.0
  0
LINE
  8
0
  6
CONTINUOUS
 62
     7
  5
34D
 10
0.353285
 20
-0.027201
 30
0.0
 11
0.35246
 21
-0.036362
 31
0.0
  0
LINE
  8
0
  6
CONTINUOUS
 62
     7
  5
34E
 10
0.35246
 20
-0.036362
 30
0.0
 11
0.351391
 21
-0.04555
 31
0.0
  0
LINE
  8
0
  6
CONTINUOUS
 62
     7
  5
34F
 10
0.351391
 20
-0.04555
 30
0.0
 11
0.350075
 21
-0.054751
 31
0.0
  0
LINE
  8
0
  6
CONTINUOUS
 62
     7
  5
350
 10
0.350075
 20
-0.054751
 30
0.0
 11
0.348511
 21
-0.063954
 31
0.0
  0
LINE
  8
0
  6
CONTINUOUS
 62
     7
  5
351
 10
0.348511
 20
-0.063954
 30
0.0
 11
0.346699
 21
-0.073145
 31
0.0
  0
LINE
  8
0
  6
CONTINUOUS
 62
     7
  5
352
 10
0.346699
 20
-0.073145
 30
0.0
 11
0.344638
 21
-0.082311
 31
0.0
  0
LINE
  8
0
  6
CONTINUOUS
 62
     7
  5
353
 10
0.344638
 20
-0.082311
 30
0.0
 11
0.342329
 21
-0.091441
 31
0.0
  0
LINE
  8
0
  6
CONTINUOUS
 62
     7
  5
354
 10
0.342329
 20
-0.091441
 30
0.0
 11
0.339773
 21
-0.100522
 31
0.0
  0
LINE
  8
0
  6
CONTINUOUS
 62
     7
  5
355
 10
0.339773
 20
-0.100522
 30
0.0
 11
0.336973
 21
-0.109542
 31
0.0
  0
LINE
  8
0
  6
CONTINUOUS
 62
     7
  5
356
 10
0.336973
 20
-0.109542
 30
0.0
 11
0.333931
 21
-0.118491
 31
0.0
  0
LINE
  8
0
  6
CONTINUOUS
 62
     7
  5
357
 10
0.333931
 20
-0.118491
 30
0.0
 11
0.330651
 21
-0.127358
 31
0.0
  0
LINE
  8
0
  6
CONTINUOUS
 62
     7
  5
358
 10
0.330651
 20
-0.127358
 30
0.0
 11
0.327136
 21
-0.136133
 31
0.0
  0
LINE
  8
0
  6
CONTINUOUS
 62
     7
  5
359
 10
0.327136
 20
-0.136133
 30
0.0
 11
0.32339
 21
-0.144807
 31
0.0
  0
LINE
  8
0
  6
CONTINUOUS
 62
     7
  5
35A
 10
0.32339
 20
-0.144807
 30
0.0
 11
0.319418
 21
-0.153371
 31
0.0
  0
LINE
  8
0
  6
CONTINUOUS
 62
     7
  5
35B
 10
0.319418
 20
-0.153371
 30
0.0
 11
0.315224
 21
-0.161815
 31
0.0
  0
LINE
  8
0
  6
CONTINUOUS
 62
     7
  5
35C
 10
0.315224
 20
-0.161815
 30
0.0
 11
0.310815
 21
-0.170131
 31
0.0
  0
LINE
  8
0
  6
CONTINUOUS
 62
     7
  5
35D
 10
0.310815
 20
-0.170131
 30
0.0
 11
0.306196
 21
-0.178309
 31
0.0
  0
LINE
  8
0
  6
CONTINUOUS
 62
     7
  5
35E
 10
0.306196
 20
-0.178309
 30
0.0
 11
0.301376
 21
-0.18634
 31
0.0
  0
LINE
  8
0
  6
CONTINUOUS
 62
     7
  5
35F
 10
0.301376
 20
-0.18634
 30
0.0
 11
0.296362
 21
-0.194216
 31
0.0
  0
LINE
  8
0
  6
CONTINUOUS
 62
     7
  5
360
 10
0.296362
 20
-0.194216
 30
0.0
 11
0.291163
 21
-0.201927
 31
0.0
  0
LINE
  8
0
  6
CONTINUOUS
 62
     7
  5
361
 10
0.291163
 20
-0.201927
 30
0.0
 11
0.285788
 21
-0.209465
 31
0.0
  0
LINE
  8
0
  6
CONTINUOUS
 62
     7
  5
362
 10
0.285788
 20
-0.209465
 30
0.0
 11
0.280246
 21
-0.216823
 31
0.0
  0
LINE
  8
0
  6
CONTINUOUS
 62
     7
  5
363
 10
0.280246
 20
-0.216823
 30
0.0
 11
0.274549
 21
-0.223993
 31
0.0
  0
LINE
  8
0
  6
CONTINUOUS
 62
     7
  5
364
 10
0.274549
 20
-0.223993
 30
0.0
 11
0.268707
 21
-0.230969
 31
0.0
  0
LINE
  8
0
  6
CONTINUOUS
 62
     7
  5
365
 10
0.268707
 20
-0.230969
 30
0.0
 11
0.262731
 21
-0.237745
 31
0.0
  0
LINE
  8
0
  6
CONTINUOUS
 62
     7
  5
366
 10
0.262731
 20
-0.237745
 30
0.0
 11
0.256632
 21
-0.244316
 31
0.0
  0
LINE
  8
0
  6
CONTINUOUS
 62
     7
  5
367
 10
0.256632
 20
-0.244316
 30
0.0
 11
0.250423
 21
-0.250676
 31
0.0
  0
LINE
  8
0
  6
CONTINUOUS
 62
     7
  5
368
 10
0.250423
 20
-0.250676
 30
0.0
 11
0.244054
 21
-0.256881
 31
0.0
  0
LINE
  8
0
  6
CONTINUOUS
 62
     7
  5
369
 10
0.244054
 20
-0.256881
 30
0.0
 11
0.237475
 21
-0.262975
 31
0.0
  0
LINE
  8
0
  6
CONTINUOUS
 62
     7
  5
36A
 10
0.237475
 20
-0.262975
 30
0.0
 11
0.230692
 21
-0.268945
 31
0.0
  0
LINE
  8
0
  6
CONTINUOUS
 62
     7
  5
36B
 10
0.230692
 20
-0.268945
 30
0.0
 11
0.22371
 21
-0.27478
 31
0.0
  0
LINE
  8
0
  6
CONTINUOUS
 62
     7
  5
36C
 10
0.22371
 20
-0.27478
 30
0.0
 11
0.216535
 21
-0.280469
 31
0.0
  0
LINE
  8
0
  6
CONTINUOUS
 62
     7
  5
36D
 10
0.216535
 20
0.280469
 30
0.0
 11
0.22371
 21
0.27478
 31
0.0
  0
LINE
  8
0
  6
CONTINUOUS
 62
     7
  5
36E
 10
0.22371
 20
0.27478
 30
0.0
 11
0.230692
 21
0.268945
 31
0.0
  0
LINE
  8
0
  6
CONTINUOUS
 62
     7
  5
36F
 10
0.230692
 20
0.268945
 30
0.0
 11
0.237475
 21
0.262975
 31
0.0
  0
LINE
  8
0
  6
CONTINUOUS
 62
     7
  5
370
 10
0.237475
 20
0.262975
 30
0.0
 11
0.244054
 21
0.256881
 31
0.0
  0
LINE
  8
0
  6
CONTINUOUS
 62
     7
  5
371
 10
0.244054
 20
0.256881
 30
0.0
 11
0.250423
 21
0.250676
 31
0.0
  0
LINE
  8
0
  6
CONTINUOUS
 62
     7
  5
372
 10
0.250423
 20
0.250676
 30
0.0
 11
0.256632
 21
0.244316
 31
0.0
  0
LINE
  8
0
  6
CONTINUOUS
 62
     7
  5
373
 10
0.256632
 20
0.244316
 30
0.0
 11
0.262731
 21
0.237745
 31
0.0
  0
LINE
  8
0
  6
CONTINUOUS
 62
     7
  5
374
 10
0.262731
 20
0.237745
 30
0.0
 11
0.268707
 21
0.230969
 31
0.0
  0
LINE
  8
0
  6
CONTINUOUS
 62
     7
  5
375
 10
0.268707
 20
0.230969
 30
0.0
 11
0.274549
 21
0.223993
 31
0.0
  0
LINE
  8
0
  6
CONTINUOUS
 62
     7
  5
376
 10
0.274549
 20
0.223993
 30
0.0
 11
0.280246
 21
0.216823
 31
0.0
  0
LINE
  8
0
  6
CONTINUOUS
 62
     7
  5
377
 10
0.280246
 20
0.216823
 30
0.0
 11
0.285788
 21
0.209465
 31
0.0
  0
LINE
  8
0
  6
CONTINUOUS
 62
     7
  5
378
 10
0.285788
 20
0.209465
 30
0.0
 11
0.291163
 21
0.201927
 31
0.0
  0
LINE
  8
0
  6
CONTINUOUS
 62
     7
  5
379
 10
0.291163
 20
0.201927
 30
0.0
 11
0.296362
 21
0.194216
 31
0.0
  0
LINE
  8
0
  6
CONTINUOUS
 62
     7
  5
37A
 10
0.296362
 20
0.194216
 30
0.0
 11
0.301376
 21
0.18634
 31
0.0
  0
LINE
  8
0
  6
CONTINUOUS
 62
     7
  5
37B
 10
0.301376
 20
0.18634
 30
0.0
 11
0.306196
 21
0.178309
 31
0.0
  0
LINE
  8
0
  6
CONTINUOUS
 62
     7
  5
37C
 10
0.306196
 20
0.178309
 30
0.0
 11
0.310815
 21
0.170131
 31
0.0
  0
LINE
  8
0
  6
CONTINUOUS
 62
     7
  5
37D
 10
0.310815
 20
0.170131
 30
0.0
 11
0.315224
 21
0.161815
 31
0.0
  0
LINE
  8
0
  6
CONTINUOUS
 62
     7
  5
37E
 10
0.315224
 20
0.161815
 30
0.0
 11
0.319418
 21
0.153371
 31
0.0
  0
LINE
  8
0
  6
CONTINUOUS
 62
     7
  5
37F
 10
0.319418
 20
0.153371
 30
0.0
 11
0.32339
 21
0.144807
 31
0.0
  0
LINE
  8
0
  6
CONTINUOUS
 62
     7
  5
380
 10
0.32339
 20
0.144807
 30
0.0
 11
0.327136
 21
0.136133
 31
0.0
  0
LINE
  8
0
  6
CONTINUOUS
 62
     7
  5
381
 10
0.327136
 20
0.136133
 30
0.0
 11
0.330651
 21
0.127358
 31
0.0
  0
LINE
  8
0
  6
CONTINUOUS
 62
     7
  5
382
 10
0.330651
 20
0.127358
 30
0.0
 11
0.333931
 21
0.118491
 31
0.0
  0
LINE
  8
0
  6
CONTINUOUS
 62
     7
  5
383
 10
0.333931
 20
0.118491
 30
0.0
 11
0.336973
 21
0.109542
 31
0.0
  0
LINE
  8
0
  6
CONTINUOUS
 62
     7
  5
384
 10
0.336973
 20
0.109542
 30
0.0
 11
0.339773
 21
0.100522
 31
0.0
  0
LINE
  8
0
  6
CONTINUOUS
 62
     7
  5
385
 10
0.339773
 20
0.100522
 30
0.0
 11
0.342329
 21
0.091441
 31
0.0
  0
LINE
  8
0
  6
CONTINUOUS
 62
     7
  5
386
 10
0.342329
 20
0.091441
 30
0.0
 11
0.344638
 21
0.082311
 31
0.0
  0
LINE
  8
0
  6
CONTINUOUS
 62
     7
  5
387
 10
0.344638
 20
0.082311
 30
0.0
 11
0.346699
 21
0.073145
 31
0.0
  0
LINE
  8
0
  6
CONTINUOUS
 62
     7
  5
388
 10
0.346699
 20
0.073145
 30
0.0
 11
0.348511
 21
0.063954
 31
0.0
  0
LINE
  8
0
  6
CONTINUOUS
 62
     7
  5
389
 10
0.348511
 20
0.063954
 30
0.0
 11
0.350075
 21
0.054751
 31
0.0
  0
LINE
  8
0
  6
CONTINUOUS
 62
     7
  5
38A
 10
0.350075
 20
0.054751
 30
0.0
 11
0.351391
 21
0.04555
 31
0.0
  0
LINE
  8
0
  6
CONTINUOUS
 62
     7
  5
38B
 10
0.351391
 20
0.04555
 30
0.0
 11
0.35246
 21
0.036362
 31
0.0
  0
LINE
  8
0
  6
CONTINUOUS
 62
     7
  5
38C
 10
0.35246
 20
0.036362
 30
0.0
 11
0.353285
 21
0.027201
 31
0.0
  0
LINE
  8
0
  6
CONTINUOUS
 62
     7
  5
38D
 10
0.353285
 20
0.027201
 30
0.0
 11
0.353869
 21
0.018079
 31
0.0
  0
LINE
  8
0
  6
CONTINUOUS
 62
     7
  5
38E
 10
0.353869
 20
0.018079
 30
0.0
 11
0.354216
 21
0.009008
 31
0.0
  0
LINE
  8
0
  6
CONTINUOUS
 62
     7
  5
38F
 10
0.354216
 20
0.009008
 30
0.0
 11
0.354331
 21
0.0
 31
0.0
  0
LINE
  8
0
  6
CONTINUOUS
 62
     7
  5
390
 10
0.216535
 20
0.170477
 30
0.0
 11
0.216535
 21
0.280469
 31
0.0
  0
LINE
  8
0
  6
CONTINUOUS
 62
     7
  5
391
 10
0.275591
 20
0.0
 30
0.0
 11
0.275544
 21
0.005051
 31
0.0
  0
LINE
  8
0
  6
CONTINUOUS
 62
     7
  5
392
 10
0.275544
 20
0.005051
 30
0.0
 11
0.275404
 21
0.010131
 31
0.0
  0
LINE
  8
0
  6
CONTINUOUS
 62
     7
  5
393
 10
0.275404
 20
0.010131
 30
0.0
 11
0.275169
 21
0.015234
 31
0.0
  0
LINE
  8
0
  6
CONTINUOUS
 62
     7
  5
394
 10
0.275169
 20
0.015234
 30
0.0
 11
0.274838
 21
0.020358
 31
0.0
  0
LINE
  8
0
  6
CONTINUOUS
 62
     7
  5
395
 10
0.274838
 20
0.020358
 30
0.0
 11
0.274408
 21
0.0255
 31
0.0
  0
LINE
  8
0
  6
CONTINUOUS
 62
     7
  5
396
 10
0.274408
 20
0.0255
 30
0.0
 11
0.27388
 21
0.030655
 31
0.0
  0
LINE
  8
0
  6
CONTINUOUS
 62
     7
  5
397
 10
0.27388
 20
0.030655
 30
0.0
 11
0.273253
 21
0.03582
 31
0.0
  0
LINE
  8
0
  6
CONTINUOUS
 62
     7
  5
398
 10
0.273253
 20
0.03582
 30
0.0
 11
0.272525
 21
0.040992
 31
0.0
  0
LINE
  8
0
  6
CONTINUOUS
 62
     7
  5
399
 10
0.272525
 20
0.040992
 30
0.0
 11
0.271696
 21
0.046165
 31
0.0
  0
LINE
  8
0
  6
CONTINUOUS
 62
     7
  5
39A
 10
0.271696
 20
0.046165
 30
0.0
 11
0.270767
 21
0.051337
 31
0.0
  0
LINE
  8
0
  6
CONTINUOUS
 62
     7
  5
39B
 10
0.270767
 20
0.051337
 30
0.0
 11
0.269736
 21
0.056504
 31
0.0
  0
LINE
  8
0
  6
CONTINUOUS
 62
     7
  5
39C
 10
0.269736
 20
0.056504
 30
0.0
 11
0.268604
 21
0.061663
 31
0.0
  0
LINE
  8
0
  6
CONTINUOUS
 62
     7
  5
39D
 10
0.268604
 20
0.061663
 30
0.0
 11
0.26737
 21
0.066808
 31
0.0
  0
LINE
  8
0
  6
CONTINUOUS
 62
     7
  5
39E
 10
0.26737
 20
0.066808
 30
0.0
 11
0.266036
 21
0.071938
 31
0.0
  0
LINE
  8
0
  6
CONTINUOUS
 62
     7
  5
39F
 10
0.266036
 20
0.071938
 30
0.0
 11
0.264601
 21
0.077048
 31
0.0
  0
LINE
  8
0
  6
CONTINUOUS
 62
     7
  5
3A0
 10
0.264601
 20
0.077048
 30
0.0
 11
0.263067
 21
0.082135
 31
0.0
  0
LINE
  8
0
  6
CONTINUOUS
 62
     7
  5
3A1
 10
0.263067
 20
0.082135
 30
0.0
 11
0.261433
 21
0.087195
 31
0.0
  0
LINE
  8
0
  6
CONTINUOUS
 62
     7
  5
3A2
 10
0.261433
 20
0.087195
 30
0.0
 11
0.259701
 21
0.092226
 31
0.0
  0
LINE
  8
0
  6
CONTINUOUS
 62
     7
  5
3A3
 10
0.259701
 20
0.092226
 30
0.0
 11
0.257871
 21
0.097224
 31
0.0
  0
LINE
  8
0
  6
CONTINUOUS
 62
     7
  5
3A4
 10
0.257871
 20
0.097224
 30
0.0
 11
0.255946
 21
0.102186
 31
0.0
  0
LINE
  8
0
  6
CONTINUOUS
 62
     7
  5
3A5
 10
0.255946
 20
0.102186
 30
0.0
 11
0.253924
 21
0.10711
 31
0.0
  0
LINE
  8
0
  6
CONTINUOUS
 62
     7
  5
3A6
 10
0.253924
 20
0.10711
 30
0.0
 11
0.251809
 21
0.111993
 31
0.0
  0
LINE
  8
0
  6
CONTINUOUS
 62
     7
  5
3A7
 10
0.251809
 20
0.111993
 30
0.0
 11
0.2496
 21
0.116832
 31
0.0
  0
LINE
  8
0
  6
CONTINUOUS
 62
     7
  5
3A8
 10
0.2496
 20
0.116832
 30
0.0
 11
0.2473
 21
0.121625
 31
0.0
  0
LINE
  8
0
  6
CONTINUOUS
 62
     7
  5
3A9
 10
0.2473
 20
0.121625
 30
0.0
 11
0.24491
 21
0.126369
 31
0.0
  0
LINE
  8
0
  6
CONTINUOUS
 62
     7
  5
3AA
 10
0.24491
 20
0.126369
 30
0.0
 11
0.242432
 21
0.13106
 31
0.0
  0
LINE
  8
0
  6
CONTINUOUS
 62
     7
  5
3AB
 10
0.242432
 20
0.13106
 30
0.0
 11
0.239868
 21
0.135696
 31
0.0
  0
LINE
  8
0
  6
CONTINUOUS
 62
     7
  5
3AC
 10
0.239868
 20
0.135696
 30
0.0
 11
0.23722
 21
0.140274
 31
0.0
  0
LINE
  8
0
  6
CONTINUOUS
 62
     7
  5
3AD
 10
0.23722
 20
0.140274
 30
0.0
 11
0.23449
 21
0.144791
 31
0.0
  0
LINE
  8
0
  6
CONTINUOUS
 62
     7
  5
3AE
 10
0.23449
 20
0.144791
 30
0.0
 11
0.231681
 21
0.149245
 31
0.0
  0
LINE
  8
0
  6
CONTINUOUS
 62
     7
  5
3AF
 10
0.231681
 20
0.149245
 30
0.0
 11
0.228795
 21
0.153633
 31
0.0
  0
LINE
  8
0
  6
CONTINUOUS
 62
     7
  5
3B0
 10
0.228795
 20
0.153633
 30
0.0
 11
0.225835
 21
0.157952
 31
0.0
  0
LINE
  8
0
  6
CONTINUOUS
 62
     7
  5
3B1
 10
0.225835
 20
0.157952
 30
0.0
 11
0.222803
 21
0.162201
 31
0.0
  0
LINE
  8
0
  6
CONTINUOUS
 62
     7
  5
3B2
 10
0.222803
 20
0.162201
 30
0.0
 11
0.219702
 21
0.166377
 31
0.0
  0
LINE
  8
0
  6
CONTINUOUS
 62
     7
  5
3B3
 10
0.219702
 20
0.166377
 30
0.0
 11
0.216535
 21
0.170477
 31
0.0
  0
LINE
  8
0
  6
CONTINUOUS
 62
     7
  5
3B4
 10
0.216535
 20
-0.170477
 30
0.0
 11
0.219702
 21
-0.166377
 31
0.0
  0
LINE
  8
0
  6
CONTINUOUS
 62
     7
  5
3B5
 10
0.219702
 20
-0.166377
 30
0.0
 11
0.222803
 21
-0.162201
 31
0.0
  0
LINE
  8
0
  6
CONTINUOUS
 62
     7
  5
3B6
 10
0.222803
 20
-0.162201
 30
0.0
 11
0.225835
 21
-0.157952
 31
0.0
  0
LINE
  8
0
  6
CONTINUOUS
 62
     7
  5
3B7
 10
0.225835
 20
-0.157952
 30
0.0
 11
0.228795
 21
-0.153633
 31
0.0
  0
LINE
  8
0
  6
CONTINUOUS
 62
     7
  5
3B8
 10
0.228795
 20
-0.153633
 30
0.0
 11
0.231681
 21
-0.149245
 31
0.0
  0
LINE
  8
0
  6
CONTINUOUS
 62
     7
  5
3B9
 10
0.231681
 20
-0.149245
 30
0.0
 11
0.23449
 21
-0.144791
 31
0.0
  0
LINE
  8
0
  6
CONTINUOUS
 62
     7
  5
3BA
 10
0.23449
 20
-0.144791
 30
0.0
 11
0.23722
 21
-0.140274
 31
0.0
  0
LINE
  8
0
  6
CONTINUOUS
 62
     7
  5
3BB
 10
0.23722
 20
-0.140274
 30
0.0
 11
0.239868
 21
-0.135696
 31
0.0
  0
LINE
  8
0
  6
CONTINUOUS
 62
     7
  5
3BC
 10
0.239868
 20
-0.135696
 30
0.0
 11
0.242432
 21
-0.13106
 31
0.0
  0
LINE
  8
0
  6
CONTINUOUS
 62
     7
  5
3BD
 10
0.242432
 20
-0.13106
 30
0.0
 11
0.24491
 21
-0.126369
 31
0.0
  0
LINE
  8
0
  6
CONTINUOUS
 62
     7
  5
3BE
 10
0.24491
 20
-0.126369
 30
0.0
 11
0.2473
 21
-0.121625
 31
0.0
  0
LINE
  8
0
  6
CONTINUOUS
 62
     7
  5
3BF
 10
0.2473
 20
-0.121625
 30
0.0
 11
0.2496
 21
-0.116832
 31
0.0
  0
LINE
  8
0
  6
CONTINUOUS
 62
     7
  5
3C0
 10
0.2496
 20
-0.116832
 30
0.0
 11
0.251809
 21
-0.111993
 31
0.0
  0
LINE
  8
0
  6
CONTINUOUS
 62
     7
  5
3C1
 10
0.251809
 20
-0.111993
 30
0.0
 11
0.253924
 21
-0.10711
 31
0.0
  0
LINE
  8
0
  6
CONTINUOUS
 62
     7
  5
3C2
 10
0.253924
 20
-0.10711
 30
0.0
 11
0.255946
 21
-0.102186
 31
0.0
  0
LINE
  8
0
  6
CONTINUOUS
 62
     7
  5
3C3
 10
0.255946
 20
-0.102186
 30
0.0
 11
0.257871
 21
-0.097224
 31
0.0
  0
LINE
  8
0
  6
CONTINUOUS
 62
     7
  5
3C4
 10
0.257871
 20
-0.097224
 30
0.0
 11
0.259701
 21
-0.092226
 31
0.0
  0
LINE
  8
0
  6
CONTINUOUS
 62
     7
  5
3C5
 10
0.259701
 20
-0.092226
 30
0.0
 11
0.261433
 21
-0.087195
 31
0.0
  0
LINE
  8
0
  6
CONTINUOUS
 62
     7
  5
3C6
 10
0.261433
 20
-0.087195
 30
0.0
 11
0.263067
 21
-0.082135
 31
0.0
  0
LINE
  8
0
  6
CONTINUOUS
 62
     7
  5
3C7
 10
0.263067
 20
-0.082135
 30
0.0
 11
0.264601
 21
-0.077048
 31
0.0
  0
LINE
  8
0
  6
CONTINUOUS
 62
     7
  5
3C8
 10
0.264601
 20
-0.077048
 30
0.0
 11
0.266036
 21
-0.071938
 31
0.0
  0
LINE
  8
0
  6
CONTINUOUS
 62
     7
  5
3C9
 10
0.266036
 20
-0.071938
 30
0.0
 11
0.26737
 21
-0.066808
 31
0.0
  0
LINE
  8
0
  6
CONTINUOUS
 62
     7
  5
3CA
 10
0.26737
 20
-0.066808
 30
0.0
 11
0.268604
 21
-0.061663
 31
0.0
  0
LINE
  8
0
  6
CONTINUOUS
 62
     7
  5
3CB
 10
0.268604
 20
-0.061663
 30
0.0
 11
0.269736
 21
-0.056504
 31
0.0
  0
LINE
  8
0
  6
CONTINUOUS
 62
     7
  5
3CC
 10
0.269736
 20
-0.056504
 30
0.0
 11
0.270767
 21
-0.051337
 31
0.0
  0
LINE
  8
0
  6
CONTINUOUS
 62
     7
  5
3CD
 10
0.270767
 20
-0.051337
 30
0.0
 11
0.271696
 21
-0.046165
 31
0.0
  0
LINE
  8
0
  6
CONTINUOUS
 62
     7
  5
3CE
 10
0.271696
 20
-0.046165
 30
0.0
 11
0.272525
 21
-0.040992
 31
0.0
  0
LINE
  8
0
  6
CONTINUOUS
 62
     7
  5
3CF
 10
0.272525
 20
-0.040992
 30
0.0
 11
0.273253
 21
-0.03582
 31
0.0
  0
LINE
  8
0
  6
CONTINUOUS
 62
     7
  5
3D0
 10
0.273253
 20
-0.03582
 30
0.0
 11
0.27388
 21
-0.030655
 31
0.0
  0
LINE
  8
0
  6
CONTINUOUS
 62
     7
  5
3D1
 10
0.27388
 20
-0.030655
 30
0.0
 11
0.274408
 21
-0.0255
 31
0.0
  0
LINE
  8
0
  6
CONTINUOUS
 62
     7
  5
3D2
 10
0.274408
 20
-0.0255
 30
0.0
 11
0.274838
 21
-0.020358
 31
0.0
  0
LINE
  8
0
  6
CONTINUOUS
 62
     7
  5
3D3
 10
0.274838
 20
-0.020358
 30
0.0
 11
0.275169
 21
-0.015234
 31
0.0
  0
LINE
  8
0
  6
CONTINUOUS
 62
     7
  5
3D4
 10
0.275169
 20
-0.015234
 30
0.0
 11
0.275404
 21
-0.010131
 31
0.0
  0
LINE
  8
0
  6
CONTINUOUS
 62
     7
  5
3D5
 10
0.275404
 20
-0.010131
 30
0.0
 11
0.275544
 21
-0.005051
 31
0.0
  0
LINE
  8
0
  6
CONTINUOUS
 62
     7
  5
3D6
 10
0.275544
 20
-0.005051
 30
0.0
 11
0.275591
 21
0.0
 31
0.0
  0
LINE
  8
0
  6
CONTINUOUS
 62
     7
  5
3D7
 10
0.216535
 20
-0.280469
 30
0.0
 11
0.216535
 21
-0.170477
 31
0.0
  0
LINE
  8
0
  6
CONTINUOUS
 62
     7
  5
3D8
 10
0.216535
 20
-0.280469
 30
0.0
 11
0.206114
 21
-0.288214
 31
0.0
  0
LINE
  8
0
  6
CONTINUOUS
 62
     7
  5
3D9
 10
0.206114
 20
-0.288214
 30
0.0
 11
0.195325
 21
-0.295632
 31
0.0
  0
LINE
  8
0
  6
CONTINUOUS
 62
     7
  5
3DA
 10
0.195325
 20
-0.295632
 30
0.0
 11
0.184191
 21
-0.302695
 31
0.0
  0
LINE
  8
0
  6
CONTINUOUS
 62
     7
  5
3DB
 10
0.184191
 20
-0.302695
 30
0.0
 11
0.172732
 21
-0.309377
 31
0.0
  0
LINE
  8
0
  6
CONTINUOUS
 62
     7
  5
3DC
 10
0.172732
 20
-0.309377
 30
0.0
 11
0.160973
 21
-0.315655
 31
0.0
  0
LINE
  8
0
  6
CONTINUOUS
 62
     7
  5
3DD
 10
0.160973
 20
-0.315655
 30
0.0
 11
0.148939
 21
-0.321508
 31
0.0
  0
LINE
  8
0
  6
CONTINUOUS
 62
     7
  5
3DE
 10
0.148939
 20
-0.321508
 30
0.0
 11
0.136658
 21
-0.326917
 31
0.0
  0
LINE
  8
0
  6
CONTINUOUS
 62
     7
  5
3DF
 10
0.136658
 20
-0.326917
 30
0.0
 11
0.124152
 21
-0.331868
 31
0.0
  0
LINE
  8
0
  6
CONTINUOUS
 62
     7
  5
3E0
 10
0.124152
 20
-0.331868
 30
0.0
 11
0.111447
 21
-0.336348
 31
0.0
  0
LINE
  8
0
  6
CONTINUOUS
 62
     7
  5
3E1
 10
0.111447
 20
-0.336348
 30
0.0
 11
0.098571
 21
-0.340344
 31
0.0
  0
LINE
  8
0
  6
CONTINUOUS
 62
     7
  5
3E2
 10
0.098571
 20
-0.340344
 30
0.0
 11
0.085555
 21
-0.343847
 31
0.0
  0
LINE
  8
0
  6
CONTINUOUS
 62
     7
  5
3E3
 10
0.085555
 20
-0.343847
 30
0.0
 11
0.072433
 21
-0.346848
 31
0.0
  0
LINE
  8
0
  6
CONTINUOUS
 62
     7
  5
3E4
 10
0.072433
 20
-0.346848
 30
0.0
 11
0.05924
 21
-0.349343
 31
0.0
  0
LINE
  8
0
  6
CONTINUOUS
 62
     7
  5
3E5
 10
0.05924
 20
-0.349343
 30
0.0
 11
0.046015
 21
-0.35133
 31
0.0
  0
LINE
  8
0
  6
CONTINUOUS
 62
     7
  5
3E6
 10
0.046015
 20
-0.35133
 30
0.0
 11
0.032794
 21
-0.35281
 31
0.0
  0
LINE
  8
0
  6
CONTINUOUS
 62
     7
  5
3E7
 10
0.032794
 20
-0.35281
 30
0.0
 11
0.019615
 21
-0.353787
 31
0.0
  0
LINE
  8
0
  6
CONTINUOUS
 62
     7
  5
3E8
 10
0.019615
 20
-0.353787
 30
0.0
 11
0.006512
 21
-0.354271
 31
0.0
  0
LINE
  8
0
  6
CONTINUOUS
 62
     7
  5
3E9
 10
0.006512
 20
-0.354271
 30
0.0
 11
-0.006512
 21
-0.354271
 31
0.0
  0
LINE
  8
0
  6
CONTINUOUS
 62
     7
  5
3EA
 10
-0.006512
 20
-0.354271
 30
0.0
 11
-0.019615
 21
-0.353787
 31
0.0
  0
LINE
  8
0
  6
CONTINUOUS
 62
     7
  5
3EB
 10
-0.019615
 20
-0.353787
 30
0.0
 11
-0.032794
 21
-0.35281
 31
0.0
  0
LINE
  8
0
  6
CONTINUOUS
 62
     7
  5
3EC
 10
-0.032794
 20
-0.35281
 30
0.0
 11
-0.046015
 21
-0.35133
 31
0.0
  0
LINE
  8
0
  6
CONTINUOUS
 62
     7
  5
3ED
 10
-0.046015
 20
-0.35133
 30
0.0
 11
-0.05924
 21
-0.349343
 31
0.0
  0
LINE
  8
0
  6
CONTINUOUS
 62
     7
  5
3EE
 10
-0.05924
 20
-0.349343
 30
0.0
 11
-0.072433
 21
-0.346848
 31
0.0
  0
LINE
  8
0
  6
CONTINUOUS
 62
     7
  5
3EF
 10
-0.072433
 20
-0.346848
 30
0.0
 11
-0.085555
 21
-0.343847
 31
0.0
  0
LINE
  8
0
  6
CONTINUOUS
 62
     7
  5
3F0
 10
-0.085555
 20
-0.343847
 30
0.0
 11
-0.098571
 21
-0.340344
 31
0.0
  0
LINE
  8
0
  6
CONTINUOUS
 62
     7
  5
3F1
 10
-0.098571
 20
-0.340344
 30
0.0
 11
-0.111447
 21
-0.336348
 31
0.0
  0
LINE
  8
0
  6
CONTINUOUS
 62
     7
  5
3F2
 10
-0.111447
 20
-0.336348
 30
0.0
 11
-0.124152
 21
-0.331868
 31
0.0
  0
LINE
  8
0
  6
CONTINUOUS
 62
     7
  5
3F3
 10
-0.124152
 20
-0.331868
 30
0.0
 11
-0.136658
 21
-0.326917
 31
0.0
  0
LINE
  8
0
  6
CONTINUOUS
 62
     7
  5
3F4
 10
-0.136658
 20
-0.326917
 30
0.0
 11
-0.148939
 21
-0.321508
 31
0.0
  0
LINE
  8
0
  6
CONTINUOUS
 62
     7
  5
3F5
 10
-0.148939
 20
-0.321508
 30
0.0
 11
-0.160973
 21
-0.315655
 31
0.0
  0
LINE
  8
0
  6
CONTINUOUS
 62
     7
  5
3F6
 10
-0.160973
 20
-0.315655
 30
0.0
 11
-0.172732
 21
-0.309377
 31
0.0
  0
LINE
  8
0
  6
CONTINUOUS
 62
     7
  5
3F7
 10
-0.172732
 20
-0.309377
 30
0.0
 11
-0.184191
 21
-0.302695
 31
0.0
  0
LINE
  8
0
  6
CONTINUOUS
 62
     7
  5
3F8
 10
-0.184191
 20
-0.302695
 30
0.0
 11
-0.195325
 21
-0.295632
 31
0.0
  0
LINE
  8
0
  6
CONTINUOUS
 62
     7
  5
3F9
 10
-0.195325
 20
-0.295632
 30
0.0
 11
-0.206114
 21
-0.288214
 31
0.0
  0
LINE
  8
0
  6
CONTINUOUS
 62
     7
  5
3FA
 10
-0.206114
 20
-0.288214
 30
0.0
 11
-0.216535
 21
-0.280469
 31
0.0
  0
LINE
  8
0
  6
CONTINUOUS
 62
     7
  5
3FB
 10
-0.216535
 20
0.280469
 30
0.0
 11
-0.206114
 21
0.288214
 31
0.0
  0
LINE
  8
0
  6
CONTINUOUS
 62
     7
  5
3FC
 10
-0.206114
 20
0.288214
 30
0.0
 11
-0.195325
 21
0.295632
 31
0.0
  0
LINE
  8
0
  6
CONTINUOUS
 62
     7
  5
3FD
 10
-0.195325
 20
0.295632
 30
0.0
 11
-0.184191
 21
0.302695
 31
0.0
  0
LINE
  8
0
  6
CONTINUOUS
 62
     7
  5
3FE
 10
-0.184191
 20
0.302695
 30
0.0
 11
-0.172732
 21
0.309377
 31
0.0
  0
LINE
  8
0
  6
CONTINUOUS
 62
     7
  5
3FF
 10
-0.172732
 20
0.309377
 30
0.0
 11
-0.160973
 21
0.315655
 31
0.0
  0
LINE
  8
0
  6
CONTINUOUS
 62
     7
  5
400
 10
-0.160973
 20
0.315655
 30
0.0
 11
-0.148939
 21
0.321508
 31
0.0
  0
LINE
  8
0
  6
CONTINUOUS
 62
     7
  5
401
 10
-0.148939
 20
0.321508
 30
0.0
 11
-0.136658
 21
0.326917
 31
0.0
  0
LINE
  8
0
  6
CONTINUOUS
 62
     7
  5
402
 10
-0.136658
 20
0.326917
 30
0.0
 11
-0.124152
 21
0.331868
 31
0.0
  0
LINE
  8
0
  6
CONTINUOUS
 62
     7
  5
403
 10
-0.124152
 20
0.331868
 30
0.0
 11
-0.111447
 21
0.336348
 31
0.0
  0
LINE
  8
0
  6
CONTINUOUS
 62
     7
  5
404
 10
-0.111447
 20
0.336348
 30
0.0
 11
-0.098571
 21
0.340344
 31
0.0
  0
LINE
  8
0
  6
CONTINUOUS
 62
     7
  5
405
 10
-0.098571
 20
0.340344
 30
0.0
 11
-0.085555
 21
0.343847
 31
0.0
  0
LINE
  8
0
  6
CONTINUOUS
 62
     7
  5
406
 10
-0.085555
 20
0.343847
 30
0.0
 11
-0.072433
 21
0.346848
 31
0.0
  0
LINE
  8
0
  6
CONTINUOUS
 62
     7
  5
407
 10
-0.072433
 20
0.346848
 30
0.0
 11
-0.05924
 21
0.349343
 31
0.0
  0
LINE
  8
0
  6
CONTINUOUS
 62
     7
  5
408
 10
-0.05924
 20
0.349343
 30
0.0
 11
-0.046015
 21
0.35133
 31
0.0
  0
LINE
  8
0
  6
CONTINUOUS
 62
     7
  5
409
 10
-0.046015
 20
0.35133
 30
0.0
 11
-0.032794
 21
0.35281
 31
0.0
  0
LINE
  8
0
  6
CONTINUOUS
 62
     7
  5
40A
 10
-0.032794
 20
0.35281
 30
0.0
 11
-0.019615
 21
0.353787
 31
0.0
  0
LINE
  8
0
  6
CONTINUOUS
 62
     7
  5
40B
 10
-0.019615
 20
0.353787
 30
0.0
 11
-0.006512
 21
0.354271
 31
0.0
  0
LINE
  8
0
  6
CONTINUOUS
 62
     7
  5
40C
 10
-0.006512
 20
0.354271
 30
0.0
 11
0.006512
 21
0.354271
 31
0.0
  0
LINE
  8
0
  6
CONTINUOUS
 62
     7
  5
40D
 10
0.006512
 20
0.354271
 30
0.0
 11
0.019615
 21
0.353787
 31
0.0
  0
LINE
  8
0
  6
CONTINUOUS
 62
     7
  5
40E
 10
0.019615
 20
0.353787
 30
0.0
 11
0.032794
 21
0.35281
 31
0.0
  0
LINE
  8
0
  6
CONTINUOUS
 62
     7
  5
40F
 10
0.032794
 20
0.35281
 30
0.0
 11
0.046015
 21
0.35133
 31
0.0
  0
LINE
  8
0
  6
CONTINUOUS
 62
     7
  5
410
 10
0.046015
 20
0.35133
 30
0.0
 11
0.05924
 21
0.349343
 31
0.0
  0
LINE
  8
0
  6
CONTINUOUS
 62
     7
  5
411
 10
0.05924
 20
0.349343
 30
0.0
 11
0.072433
 21
0.346848
 31
0.0
  0
LINE
  8
0
  6
CONTINUOUS
 62
     7
  5
412
 10
0.072433
 20
0.346848
 30
0.0
 11
0.085555
 21
0.343847
 31
0.0
  0
LINE
  8
0
  6
CONTINUOUS
 62
     7
  5
413
 10
0.085555
 20
0.343847
 30
0.0
 11
0.098571
 21
0.340344
 31
0.0
  0
LINE
  8
0
  6
CONTINUOUS
 62
     7
  5
414
 10
0.098571
 20
0.340344
 30
0.0
 11
0.111447
 21
0.336348
 31
0.0
  0
LINE
  8
0
  6
CONTINUOUS
 62
     7
  5
415
 10
0.111447
 20
0.336348
 30
0.0
 11
0.124152
 21
0.331868
 31
0.0
  0
LINE
  8
0
  6
CONTINUOUS
 62
     7
  5
416
 10
0.124152
 20
0.331868
 30
0.0
 11
0.136658
 21
0.326917
 31
0.0
  0
LINE
  8
0
  6
CONTINUOUS
 62
     7
  5
417
 10
0.136658
 20
0.326917
 30
0.0
 11
0.148939
 21
0.321508
 31
0.0
  0
LINE
  8
0
  6
CONTINUOUS
 62
     7
  5
418
 10
0.148939
 20
0.321508
 30
0.0
 11
0.160973
 21
0.315655
 31
0.0
  0
LINE
  8
0
  6
CONTINUOUS
 62
     7
  5
419
 10
0.160973
 20
0.315655
 30
0.0
 11
0.172732
 21
0.309377
 31
0.0
  0
LINE
  8
0
  6
CONTINUOUS
 62
     7
  5
41A
 10
0.172732
 20
0.309377
 30
0.0
 11
0.184191
 21
0.302695
 31
0.0
  0
LINE
  8
0
  6
CONTINUOUS
 62
     7
  5
41B
 10
0.184191
 20
0.302695
 30
0.0
 11
0.195325
 21
0.295632
 31
0.0
  0
LINE
  8
0
  6
CONTINUOUS
 62
     7
  5
41C
 10
0.195325
 20
0.295632
 30
0.0
 11
0.206114
 21
0.288214
 31
0.0
  0
LINE
  8
0
  6
CONTINUOUS
 62
     7
  5
41D
 10
0.206114
 20
0.288214
 30
0.0
 11
0.216535
 21
0.280469
 31
0.0
  0
LINE
  8
0
  6
CONTINUOUS
 62
     7
  5
41E
 10
0.0
 20
0.275591
 30
0.0
 11
0.006987
 21
0.275502
 31
0.0
  0
LINE
  8
0
  6
CONTINUOUS
 62
     7
  5
41F
 10
0.006987
 20
0.275502
 30
0.0
 11
0.014018
 21
0.275234
 31
0.0
  0
LINE
  8
0
  6
CONTINUOUS
 62
     7
  5
420
 10
0.014018
 20
0.275234
 30
0.0
 11
0.021085
 21
0.274783
 31
0.0
  0
LINE
  8
0
  6
CONTINUOUS
 62
     7
  5
421
 10
0.021085
 20
0.274783
 30
0.0
 11
0.028178
 21
0.274146
 31
0.0
  0
LINE
  8
0
  6
CONTINUOUS
 62
     7
  5
422
 10
0.028178
 20
0.274146
 30
0.0
 11
0.035289
 21
0.273322
 31
0.0
  0
LINE
  8
0
  6
CONTINUOUS
 62
     7
  5
423
 10
0.035289
 20
0.273322
 30
0.0
 11
0.042406
 21
0.272308
 31
0.0
  0
LINE
  8
0
  6
CONTINUOUS
 62
     7
  5
424
 10
0.042406
 20
0.272308
 30
0.0
 11
0.049522
 21
0.271105
 31
0.0
  0
LINE
  8
0
  6
CONTINUOUS
 62
     7
  5
425
 10
0.049522
 20
0.271105
 30
0.0
 11
0.056625
 21
0.269711
 31
0.0
  0
LINE
  8
0
  6
CONTINUOUS
 62
     7
  5
426
 10
0.056625
 20
0.269711
 30
0.0
 11
0.063706
 21
0.268126
 31
0.0
  0
LINE
  8
0
  6
CONTINUOUS
 62
     7
  5
427
 10
0.063706
 20
0.268126
 30
0.0
 11
0.070756
 21
0.266353
 31
0.0
  0
LINE
  8
0
  6
CONTINUOUS
 62
     7
  5
428
 10
0.070756
 20
0.266353
 30
0.0
 11
0.077766
 21
0.264391
 31
0.0
  0
LINE
  8
0
  6
CONTINUOUS
 62
     7
  5
429
 10
0.077766
 20
0.264391
 30
0.0
 11
0.084727
 21
0.262243
 31
0.0
  0
LINE
  8
0
  6
CONTINUOUS
 62
     7
  5
42A
 10
0.084727
 20
0.262243
 30
0.0
 11
0.09163
 21
0.259912
 31
0.0
  0
LINE
  8
0
  6
CONTINUOUS
 62
     7
  5
42B
 10
0.09163
 20
0.259912
 30
0.0
 11
0.098468
 21
0.257399
 31
0.0
  0
LINE
  8
0
  6
CONTINUOUS
 62
     7
  5
42C
 10
0.098468
 20
0.257399
 30
0.0
 11
0.105233
 21
0.254708
 31
0.0
  0
LINE
  8
0
  6
CONTINUOUS
 62
     7
  5
42D
 10
0.105233
 20
0.254708
 30
0.0
 11
0.111919
 21
0.251842
 31
0.0
  0
LINE
  8
0
  6
CONTINUOUS
 62
     7
  5
42E
 10
0.111919
 20
0.251842
 30
0.0
 11
0.118519
 21
0.248804
 31
0.0
  0
LINE
  8
0
  6
CONTINUOUS
 62
     7
  5
42F
 10
0.118519
 20
0.248804
 30
0.0
 11
0.125026
 21
0.245598
 31
0.0
  0
LINE
  8
0
  6
CONTINUOUS
 62
     7
  5
430
 10
0.125026
 20
0.245598
 30
0.0
 11
0.131434
 21
0.24223
 31
0.0
  0
LINE
  8
0
  6
CONTINUOUS
 62
     7
  5
431
 10
0.131434
 20
0.24223
 30
0.0
 11
0.137735
 21
0.238703
 31
0.0
  0
LINE
  8
0
  6
CONTINUOUS
 62
     7
  5
432
 10
0.137735
 20
0.238703
 30
0.0
 11
0.143924
 21
0.235024
 31
0.0
  0
LINE
  8
0
  6
CONTINUOUS
 62
     7
  5
433
 10
0.143924
 20
0.235024
 30
0.0
 11
0.149993
 21
0.231198
 31
0.0
  0
LINE
  8
0
  6
CONTINUOUS
 62
     7
  5
434
 10
0.149993
 20
0.231198
 30
0.0
 11
0.155936
 21
0.227232
 31
0.0
  0
LINE
  8
0
  6
CONTINUOUS
 62
     7
  5
435
 10
0.155936
 20
0.227232
 30
0.0
 11
0.161747
 21
0.223133
 31
0.0
  0
LINE
  8
0
  6
CONTINUOUS
 62
     7
  5
436
 10
0.161747
 20
0.223133
 30
0.0
 11
0.167421
 21
0.218908
 31
0.0
  0
LINE
  8
0
  6
CONTINUOUS
 62
     7
  5
437
 10
0.167421
 20
0.218908
 30
0.0
 11
0.172951
 21
0.214565
 31
0.0
  0
LINE
  8
0
  6
CONTINUOUS
 62
     7
  5
438
 10
0.172951
 20
0.214565
 30
0.0
 11
0.178335
 21
0.210112
 31
0.0
  0
LINE
  8
0
  6
CONTINUOUS
 62
     7
  5
439
 10
0.178335
 20
0.210112
 30
0.0
 11
0.183566
 21
0.205557
 31
0.0
  0
LINE
  8
0
  6
CONTINUOUS
 62
     7
  5
43A
 10
0.183566
 20
0.205557
 30
0.0
 11
0.188641
 21
0.200909
 31
0.0
  0
LINE
  8
0
  6
CONTINUOUS
 62
     7
  5
43B
 10
0.188641
 20
0.200909
 30
0.0
 11
0.193557
 21
0.196178
 31
0.0
  0
LINE
  8
0
  6
CONTINUOUS
 62
     7
  5
43C
 10
0.193557
 20
0.196178
 30
0.0
 11
0.198334
 21
0.191347
 31
0.0
  0
LINE
  8
0
  6
CONTINUOUS
 62
     7
  5
43D
 10
0.198334
 20
0.191347
 30
0.0
 11
0.203028
 21
0.18636
 31
0.0
  0
LINE
  8
0
  6
CONTINUOUS
 62
     7
  5
43E
 10
0.203028
 20
0.18636
 30
0.0
 11
0.207632
 21
0.181216
 31
0.0
  0
LINE
  8
0
  6
CONTINUOUS
 62
     7
  5
43F
 10
0.207632
 20
0.181216
 30
0.0
 11
0.212137
 21
0.175921
 31
0.0
  0
LINE
  8
0
  6
CONTINUOUS
 62
     7
  5
440
 10
0.212137
 20
0.175921
 30
0.0
 11
0.216535
 21
0.170477
 31
0.0
  0
LINE
  8
0
  6
CONTINUOUS
 62
     7
  5
441
 10
0.216535
 20
-0.170477
 30
0.0
 11
0.212137
 21
-0.175921
 31
0.0
  0
LINE
  8
0
  6
CONTINUOUS
 62
     7
  5
442
 10
0.212137
 20
-0.175921
 30
0.0
 11
0.207632
 21
-0.181216
 31
0.0
  0
LINE
  8
0
  6
CONTINUOUS
 62
     7
  5
443
 10
0.207632
 20
-0.181216
 30
0.0
 11
0.203028
 21
-0.18636
 31
0.0
  0
LINE
  8
0
  6
CONTINUOUS
 62
     7
  5
444
 10
0.203028
 20
-0.18636
 30
0.0
 11
0.198334
 21
-0.191347
 31
0.0
  0
LINE
  8
0
  6
CONTINUOUS
 62
     7
  5
445
 10
0.198334
 20
-0.191347
 30
0.0
 11
0.193557
 21
-0.196178
 31
0.0
  0
LINE
  8
0
  6
CONTINUOUS
 62
     7
  5
446
 10
0.193557
 20
-0.196178
 30
0.0
 11
0.188641
 21
-0.200909
 31
0.0
  0
LINE
  8
0
  6
CONTINUOUS
 62
     7
  5
447
 10
0.188641
 20
-0.200909
 30
0.0
 11
0.183566
 21
-0.205557
 31
0.0
  0
LINE
  8
0
  6
CONTINUOUS
 62
     7
  5
448
 10
0.183566
 20
-0.205557
 30
0.0
 11
0.178335
 21
-0.210112
 31
0.0
  0
LINE
  8
0
  6
CONTINUOUS
 62
     7
  5
449
 10
0.178335
 20
-0.210112
 30
0.0
 11
0.172951
 21
-0.214565
 31
0.0
  0
LINE
  8
0
  6
CONTINUOUS
 62
     7
  5
44A
 10
0.172951
 20
-0.214565
 30
0.0
 11
0.167421
 21
-0.218908
 31
0.0
  0
LINE
  8
0
  6
CONTINUOUS
 62
     7
  5
44B
 10
0.167421
 20
-0.218908
 30
0.0
 11
0.161747
 21
-0.223133
 31
0.0
  0
LINE
  8
0
  6
CONTINUOUS
 62
     7
  5
44C
 10
0.161747
 20
-0.223133
 30
0.0
 11
0.155936
 21
-0.227232
 31
0.0
  0
LINE
  8
0
  6
CONTINUOUS
 62
     7
  5
44D
 10
0.155936
 20
-0.227232
 30
0.0
 11
0.149993
 21
-0.231198
 31
0.0
  0
LINE
  8
0
  6
CONTINUOUS
 62
     7
  5
44E
 10
0.149993
 20
-0.231198
 30
0.0
 11
0.143924
 21
-0.235024
 31
0.0
  0
LINE
  8
0
  6
CONTINUOUS
 62
     7
  5
44F
 10
0.143924
 20
-0.235024
 30
0.0
 11
0.137735
 21
-0.238703
 31
0.0
  0
LINE
  8
0
  6
CONTINUOUS
 62
     7
  5
450
 10
0.137735
 20
-0.238703
 30
0.0
 11
0.131434
 21
-0.24223
 31
0.0
  0
LINE
  8
0
  6
CONTINUOUS
 62
     7
  5
451
 10
0.131434
 20
-0.24223
 30
0.0
 11
0.125026
 21
-0.245598
 31
0.0
  0
LINE
  8
0
  6
CONTINUOUS
 62
     7
  5
452
 10
0.125026
 20
-0.245598
 30
0.0
 11
0.118519
 21
-0.248804
 31
0.0
  0
LINE
  8
0
  6
CONTINUOUS
 62
     7
  5
453
 10
0.118519
 20
-0.248804
 30
0.0
 11
0.111919
 21
-0.251842
 31
0.0
  0
LINE
  8
0
  6
CONTINUOUS
 62
     7
  5
454
 10
0.111919
 20
-0.251842
 30
0.0
 11
0.105233
 21
-0.254708
 31
0.0
  0
LINE
  8
0
  6
CONTINUOUS
 62
     7
  5
455
 10
0.105233
 20
-0.254708
 30
0.0
 11
0.098468
 21
-0.257399
 31
0.0
  0
LINE
  8
0
  6
CONTINUOUS
 62
     7
  5
456
 10
0.098468
 20
-0.257399
 30
0.0
 11
0.09163
 21
-0.259912
 31
0.0
  0
LINE
  8
0
  6
CONTINUOUS
 62
     7
  5
457
 10
0.09163
 20
-0.259912
 30
0.0
 11
0.084727
 21
-0.262243
 31
0.0
  0
LINE
  8
0
  6
CONTINUOUS
 62
     7
  5
458
 10
0.084727
 20
-0.262243
 30
0.0
 11
0.077766
 21
-0.264391
 31
0.0
  0
LINE
  8
0
  6
CONTINUOUS
 62
     7
  5
459
 10
0.077766
 20
-0.264391
 30
0.0
 11
0.070756
 21
-0.266353
 31
0.0
  0
LINE
  8
0
  6
CONTINUOUS
 62
     7
  5
45A
 10
0.070756
 20
-0.266353
 30
0.0
 11
0.063706
 21
-0.268126
 31
0.0
  0
LINE
  8
0
  6
CONTINUOUS
 62
     7
  5
45B
 10
0.063706
 20
-0.268126
 30
0.0
 11
0.056625
 21
-0.269711
 31
0.0
  0
LINE
  8
0
  6
CONTINUOUS
 62
     7
  5
45C
 10
0.056625
 20
-0.269711
 30
0.0
 11
0.049522
 21
-0.271105
 31
0.0
  0
LINE
  8
0
  6
CONTINUOUS
 62
     7
  5
45D
 10
0.049522
 20
-0.271105
 30
0.0
 11
0.042406
 21
-0.272308
 31
0.0
  0
LINE
  8
0
  6
CONTINUOUS
 62
     7
  5
45E
 10
0.042406
 20
-0.272308
 30
0.0
 11
0.035289
 21
-0.273322
 31
0.0
  0
LINE
  8
0
  6
CONTINUOUS
 62
     7
  5
45F
 10
0.035289
 20
-0.273322
 30
0.0
 11
0.028178
 21
-0.274146
 31
0.0
  0
LINE
  8
0
  6
CONTINUOUS
 62
     7
  5
460
 10
0.028178
 20
-0.274146
 30
0.0
 11
0.021085
 21
-0.274783
 31
0.0
  0
LINE
  8
0
  6
CONTINUOUS
 62
     7
  5
461
 10
0.021085
 20
-0.274783
 30
0.0
 11
0.014018
 21
-0.275234
 31
0.0
  0
LINE
  8
0
  6
CONTINUOUS
 62
     7
  5
462
 10
0.014018
 20
-0.275234
 30
0.0
 11
0.006987
 21
-0.275502
 31
0.0
  0
LINE
  8
0
  6
CONTINUOUS
 62
     7
  5
463
 10
0.006987
 20
-0.275502
 30
0.0
 11
0.0
 21
-0.275591
 31
0.0
  0
LINE
  8
0
  6
CONTINUOUS
 62
     7
  5
464
 10
0.0
 20
-0.275591
 30
0.0
 11
-0.006987
 21
-0.275502
 31
0.0
  0
LINE
  8
0
  6
CONTINUOUS
 62
     7
  5
465
 10
-0.006987
 20
-0.275502
 30
0.0
 11
-0.014018
 21
-0.275234
 31
0.0
  0
LINE
  8
0
  6
CONTINUOUS
 62
     7
  5
466
 10
-0.014018
 20
-0.275234
 30
0.0
 11
-0.021085
 21
-0.274783
 31
0.0
  0
LINE
  8
0
  6
CONTINUOUS
 62
     7
  5
467
 10
-0.021085
 20
-0.274783
 30
0.0
 11
-0.028178
 21
-0.274146
 31
0.0
  0
LINE
  8
0
  6
CONTINUOUS
 62
     7
  5
468
 10
-0.028178
 20
-0.274146
 30
0.0
 11
-0.035289
 21
-0.273322
 31
0.0
  0
LINE
  8
0
  6
CONTINUOUS
 62
     7
  5
469
 10
-0.035289
 20
-0.273322
 30
0.0
 11
-0.042406
 21
-0.272308
 31
0.0
  0
LINE
  8
0
  6
CONTINUOUS
 62
     7
  5
46A
 10
-0.042406
 20
-0.272308
 30
0.0
 11
-0.049522
 21
-0.271105
 31
0.0
  0
LINE
  8
0
  6
CONTINUOUS
 62
     7
  5
46B
 10
-0.049522
 20
-0.271105
 30
0.0
 11
-0.056625
 21
-0.269711
 31
0.0
  0
LINE
  8
0
  6
CONTINUOUS
 62
     7
  5
46C
 10
-0.056625
 20
-0.269711
 30
0.0
 11
-0.063706
 21
-0.268126
 31
0.0
  0
LINE
  8
0
  6
CONTINUOUS
 62
     7
  5
46D
 10
-0.063706
 20
-0.268126
 30
0.0
 11
-0.070756
 21
-0.266353
 31
0.0
  0
LINE
  8
0
  6
CONTINUOUS
 62
     7
  5
46E
 10
-0.070756
 20
-0.266353
 30
0.0
 11
-0.077766
 21
-0.264391
 31
0.0
  0
LINE
  8
0
  6
CONTINUOUS
 62
     7
  5
46F
 10
-0.077766
 20
-0.264391
 30
0.0
 11
-0.084727
 21
-0.262243
 31
0.0
  0
LINE
  8
0
  6
CONTINUOUS
 62
     7
  5
470
 10
-0.084727
 20
-0.262243
 30
0.0
 11
-0.09163
 21
-0.259912
 31
0.0
  0
LINE
  8
0
  6
CONTINUOUS
 62
     7
  5
471
 10
-0.09163
 20
-0.259912
 30
0.0
 11
-0.098468
 21
-0.257399
 31
0.0
  0
LINE
  8
0
  6
CONTINUOUS
 62
     7
  5
472
 10
-0.098468
 20
-0.257399
 30
0.0
 11
-0.105233
 21
-0.254708
 31
0.0
  0
LINE
  8
0
  6
CONTINUOUS
 62
     7
  5
473
 10
-0.105233
 20
-0.254708
 30
0.0
 11
-0.111919
 21
-0.251842
 31
0.0
  0
LINE
  8
0
  6
CONTINUOUS
 62
     7
  5
474
 10
-0.111919
 20
-0.251842
 30
0.0
 11
-0.118519
 21
-0.248804
 31
0.0
  0
LINE
  8
0
  6
CONTINUOUS
 62
     7
  5
475
 10
-0.118519
 20
-0.248804
 30
0.0
 11
-0.125026
 21
-0.245598
 31
0.0
  0
LINE
  8
0
  6
CONTINUOUS
 62
     7
  5
476
 10
-0.125026
 20
-0.245598
 30
0.0
 11
-0.131434
 21
-0.24223
 31
0.0
  0
LINE
  8
0
  6
CONTINUOUS
 62
     7
  5
477
 10
-0.131434
 20
-0.24223
 30
0.0
 11
-0.137735
 21
-0.238703
 31
0.0
  0
LINE
  8
0
  6
CONTINUOUS
 62
     7
  5
478
 10
-0.137735
 20
-0.238703
 30
0.0
 11
-0.143924
 21
-0.235024
 31
0.0
  0
LINE
  8
0
  6
CONTINUOUS
 62
     7
  5
479
 10
-0.143924
 20
-0.235024
 30
0.0
 11
-0.149993
 21
-0.231198
 31
0.0
  0
LINE
  8
0
  6
CONTINUOUS
 62
     7
  5
47A
 10
-0.149993
 20
-0.231198
 30
0.0
 11
-0.155936
 21
-0.227232
 31
0.0
  0
LINE
  8
0
  6
CONTINUOUS
 62
     7
  5
47B
 10
-0.155936
 20
-0.227232
 30
0.0
 11
-0.161747
 21
-0.223133
 31
0.0
  0
LINE
  8
0
  6
CONTINUOUS
 62
     7
  5
47C
 10
-0.161747
 20
-0.223133
 30
0.0
 11
-0.167421
 21
-0.218908
 31
0.0
  0
LINE
  8
0
  6
CONTINUOUS
 62
     7
  5
47D
 10
-0.167421
 20
-0.218908
 30
0.0
 11
-0.172951
 21
-0.214565
 31
0.0
  0
LINE
  8
0
  6
CONTINUOUS
 62
     7
  5
47E
 10
-0.172951
 20
-0.214565
 30
0.0
 11
-0.178335
 21
-0.210112
 31
0.0
  0
LINE
  8
0
  6
CONTINUOUS
 62
     7
  5
47F
 10
-0.178335
 20
-0.210112
 30
0.0
 11
-0.183566
 21
-0.205557
 31
0.0
  0
LINE
  8
0
  6
CONTINUOUS
 62
     7
  5
480
 10
-0.183566
 20
-0.205557
 30
0.0
 11
-0.188641
 21
-0.200909
 31
0.0
  0
LINE
  8
0
  6
CONTINUOUS
 62
     7
  5
481
 10
-0.188641
 20
-0.200909
 30
0.0
 11
-0.193557
 21
-0.196178
 31
0.0
  0
LINE
  8
0
  6
CONTINUOUS
 62
     7
  5
482
 10
-0.193557
 20
-0.196178
 30
0.0
 11
-0.198334
 21
-0.191347
 31
0.0
  0
LINE
  8
0
  6
CONTINUOUS
 62
     7
  5
483
 10
-0.198334
 20
-0.191347
 30
0.0
 11
-0.203028
 21
-0.18636
 31
0.0
  0
LINE
  8
0
  6
CONTINUOUS
 62
     7
  5
484
 10
-0.203028
 20
-0.18636
 30
0.0
 11
-0.207632
 21
-0.181216
 31
0.0
  0
LINE
  8
0
  6
CONTINUOUS
 62
     7
  5
485
 10
-0.207632
 20
-0.181216
 30
0.0
 11
-0.212137
 21
-0.175921
 31
0.0
  0
LINE
  8
0
  6
CONTINUOUS
 62
     7
  5
486
 10
-0.212137
 20
-0.175921
 30
0.0
 11
-0.216535
 21
-0.170477
 31
0.0
  0
LINE
  8
0
  6
CONTINUOUS
 62
     7
  5
487
 10
-0.216535
 20
0.170477
 30
0.0
 11
-0.212137
 21
0.175921
 31
0.0
  0
LINE
  8
0
  6
CONTINUOUS
 62
     7
  5
488
 10
-0.212137
 20
0.175921
 30
0.0
 11
-0.207632
 21
0.181216
 31
0.0
  0
LINE
  8
0
  6
CONTINUOUS
 62
     7
  5
489
 10
-0.207632
 20
0.181216
 30
0.0
 11
-0.203028
 21
0.18636
 31
0.0
  0
LINE
  8
0
  6
CONTINUOUS
 62
     7
  5
48A
 10
-0.203028
 20
0.18636
 30
0.0
 11
-0.198334
 21
0.191347
 31
0.0
  0
LINE
  8
0
  6
CONTINUOUS
 62
     7
  5
48B
 10
-0.198334
 20
0.191347
 30
0.0
 11
-0.193557
 21
0.196178
 31
0.0
  0
LINE
  8
0
  6
CONTINUOUS
 62
     7
  5
48C
 10
-0.193557
 20
0.196178
 30
0.0
 11
-0.188641
 21
0.200909
 31
0.0
  0
LINE
  8
0
  6
CONTINUOUS
 62
     7
  5
48D
 10
-0.188641
 20
0.200909
 30
0.0
 11
-0.183566
 21
0.205557
 31
0.0
  0
LINE
  8
0
  6
CONTINUOUS
 62
     7
  5
48E
 10
-0.183566
 20
0.205557
 30
0.0
 11
-0.178335
 21
0.210112
 31
0.0
  0
LINE
  8
0
  6
CONTINUOUS
 62
     7
  5
48F
 10
-0.178335
 20
0.210112
 30
0.0
 11
-0.172951
 21
0.214565
 31
0.0
  0
LINE
  8
0
  6
CONTINUOUS
 62
     7
  5
490
 10
-0.172951
 20
0.214565
 30
0.0
 11
-0.167421
 21
0.218908
 31
0.0
  0
LINE
  8
0
  6
CONTINUOUS
 62
     7
  5
491
 10
-0.167421
 20
0.218908
 30
0.0
 11
-0.161747
 21
0.223133
 31
0.0
  0
LINE
  8
0
  6
CONTINUOUS
 62
     7
  5
492
 10
-0.161747
 20
0.223133
 30
0.0
 11
-0.155936
 21
0.227232
 31
0.0
  0
LINE
  8
0
  6
CONTINUOUS
 62
     7
  5
493
 10
-0.155936
 20
0.227232
 30
0.0
 11
-0.149993
 21
0.231198
 31
0.0
  0
LINE
  8
0
  6
CONTINUOUS
 62
     7
  5
494
 10
-0.149993
 20
0.231198
 30
0.0
 11
-0.143924
 21
0.235024
 31
0.0
  0
LINE
  8
0
  6
CONTINUOUS
 62
     7
  5
495
 10
-0.143924
 20
0.235024
 30
0.0
 11
-0.137735
 21
0.238703
 31
0.0
  0
LINE
  8
0
  6
CONTINUOUS
 62
     7
  5
496
 10
-0.137735
 20
0.238703
 30
0.0
 11
-0.131434
 21
0.24223
 31
0.0
  0
LINE
  8
0
  6
CONTINUOUS
 62
     7
  5
497
 10
-0.131434
 20
0.24223
 30
0.0
 11
-0.125026
 21
0.245598
 31
0.0
  0
LINE
  8
0
  6
CONTINUOUS
 62
     7
  5
498
 10
-0.125026
 20
0.245598
 30
0.0
 11
-0.118519
 21
0.248804
 31
0.0
  0
LINE
  8
0
  6
CONTINUOUS
 62
     7
  5
499
 10
-0.118519
 20
0.248804
 30
0.0
 11
-0.111919
 21
0.251842
 31
0.0
  0
LINE
  8
0
  6
CONTINUOUS
 62
     7
  5
49A
 10
-0.111919
 20
0.251842
 30
0.0
 11
-0.105233
 21
0.254708
 31
0.0
  0
LINE
  8
0
  6
CONTINUOUS
 62
     7
  5
49B
 10
-0.105233
 20
0.254708
 30
0.0
 11
-0.098468
 21
0.257399
 31
0.0
  0
LINE
  8
0
  6
CONTINUOUS
 62
     7
  5
49C
 10
-0.098468
 20
0.257399
 30
0.0
 11
-0.09163
 21
0.259912
 31
0.0
  0
LINE
  8
0
  6
CONTINUOUS
 62
     7
  5
49D
 10
-0.09163
 20
0.259912
 30
0.0
 11
-0.084727
 21
0.262243
 31
0.0
  0
LINE
  8
0
  6
CONTINUOUS
 62
     7
  5
49E
 10
-0.084727
 20
0.262243
 30
0.0
 11
-0.077766
 21
0.264391
 31
0.0
  0
LINE
  8
0
  6
CONTINUOUS
 62
     7
  5
49F
 10
-0.077766
 20
0.264391
 30
0.0
 11
-0.070756
 21
0.266353
 31
0.0
  0
LINE
  8
0
  6
CONTINUOUS
 62
     7
  5
4A0
 10
-0.070756
 20
0.266353
 30
0.0
 11
-0.063706
 21
0.268126
 31
0.0
  0
LINE
  8
0
  6
CONTINUOUS
 62
     7
  5
4A1
 10
-0.063706
 20
0.268126
 30
0.0
 11
-0.056625
 21
0.269711
 31
0.0
  0
LINE
  8
0
  6
CONTINUOUS
 62
     7
  5
4A2
 10
-0.056625
 20
0.269711
 30
0.0
 11
-0.049522
 21
0.271105
 31
0.0
  0
LINE
  8
0
  6
CONTINUOUS
 62
     7
  5
4A3
 10
-0.049522
 20
0.271105
 30
0.0
 11
-0.042406
 21
0.272308
 31
0.0
  0
LINE
  8
0
  6
CONTINUOUS
 62
     7
  5
4A4
 10
-0.042406
 20
0.272308
 30
0.0
 11
-0.035289
 21
0.273322
 31
0.0
  0
LINE
  8
0
  6
CONTINUOUS
 62
     7
  5
4A5
 10
-0.035289
 20
0.273322
 30
0.0
 11
-0.028178
 21
0.274146
 31
0.0
  0
LINE
  8
0
  6
CONTINUOUS
 62
     7
  5
4A6
 10
-0.028178
 20
0.274146
 30
0.0
 11
-0.021085
 21
0.274783
 31
0.0
  0
LINE
  8
0
  6
CONTINUOUS
 62
     7
  5
4A7
 10
-0.021085
 20
0.274783
 30
0.0
 11
-0.014018
 21
0.275234
 31
0.0
  0
LINE
  8
0
  6
CONTINUOUS
 62
     7
  5
4A8
 10
-0.014018
 20
0.275234
 30
0.0
 11
-0.006987
 21
0.275502
 31
0.0
  0
LINE
  8
0
  6
CONTINUOUS
 62
     7
  5
4A9
 10
-0.006987
 20
0.275502
 30
0.0
 11
0.0
 21
0.275591
 31
0.0
  0
LINE
  8
0
  6
CONTINUOUS
 62
     3
  5
4AA
 10
-0.425197
 20
0.0
 30
0.0
 11
0.425197
 21
0.0
 31
0.0
  0
LINE
  8
0
  6
CONTINUOUS
 62
     3
  5
4AB
 10
0.0
 20
-0.425197
 30
0.0
 11
0.0
 21
0.425197
 31
0.0
  0
ENDSEC
  0
EOF
