999
DXF file: C:\Users\sesa63760\Dev\_Creo\CAD\MCADUE0001293_3D-CAD\drw0001_5.dxf
999
Pro/ENGINEER 2019471 by Parametric Technology Corporation
  0
SECTION
  2
HEADER
  9
$ACADVER
  1
AC1024
  9
$DWGCODEPAGE
  3
ANSI_1252
  9
$EXTMAX
 10
336.8377654092
 20
476.3848396501
 30
0.0
  9
$EXTMIN
 10
0.0
 20
0.0
 30
0.0
  9
$LIMMIN
 10
0.0
 20
0.0
  9
$LIMMAX
 10
336.8377654092
 20
476.3848396501
  9
$VIEWCTR
 10
168.4188827046
 20
238.1924198251
  9
$VIEWSIZE
 40
476.3848396501
  9
$CLAYER
  8
0
  9
$LTSCALE
 40
31.053233992
  9
$CELTYPE
  6
BYLAYER
  9
$DIMSCALE
 40
1.0
  9
$DIMASZ
 40
4.0099733977
  9
$DIMEXO
 40
1.0
  9
$DIMDLI
 40
21.4549616672
  9
$DIMEXE
 40
1.0
  9
$DIMCEN
 40
5.0814382896
  9
$DIMLFAC
 40
1.0
  9
$DIMBLK
  1
_FILLED
  9
$DIMALT
 70
0
  9
$DIMALTF
 40
0.0393700787
  9
$DIMTXT
 40
5.6139627568
  9
$DIMTOL
 70
1
  9
$DIMLIM
 70
0
  9
$DIMTFAC
 40
1.0
  9
$DIMTP
 40
0.01
  9
$DIMTM
 40
0.01
  9
$DIMGAP
 40
0.625
  9
$DIMDSEP
 70
46
  9
$AUNITS
 70
0
  9
$PDMODE
 70
3
  9
$PDSIZE
 40
0.3125
  9
$HANDSEED
  5
358
  9
$TILEMODE
 70
1
  9
$MEASUREMENT
 70
1
  9
$INSUNITS
 70
4
  0
ENDSEC
  0
SECTION
  2
CLASSES
  0
CLASS
  1
ACDBDICTIONARYWDFLT
  2
AcDbDictionaryWithDefault
  3
AutoCAD 2000
 90
0
 91
1
280
0
281
0
  0
CLASS
  1
ACDBPLACEHOLDER
  2
AcDbPlaceHolder
  3
AutoCAD 2000
 90
0
 91
1
280
0
281
0
  0
CLASS
  1
LAYOUT
  2
AcDbLayout
  3
AutoCAD 2000
 90
0
 91
0
280
0
281
0
  0
ENDSEC
  0
SECTION
  2
TABLES
  0
TABLE
  2
VPORT
  5
8
100
AcDbSymbolTable
 70
2
  0
VPORT
  5
1F4
100
AcDbSymbolTableRecord
100
AcDbViewportTableRecord
  2
*ACTIVE
 70
0
 10
0.0
 20
0.0
 11
1.0
 21
1.0
 12
168.4188827046
 22
238.1924198251
 13
0.0
 23
0.0
 14
1.0
 24
1.0
 15
0.0
 25
0.0
 16
0.0
 26
0.0
 36
1.0
 17
0.0
 27
0.0
 37
0.0
 40
476.3848396501
 41
0.7070707071
 42
50.0
 43
0.0
 44
0.0
 50
0.0
 51
0.0
 71
0
 72
100
 73
1
 74
1
 75
0
 76
0
 77
0
 78
0
  0
ENDTAB
  0
TABLE
  2
LTYPE
  5
5
100
AcDbSymbolTable
 70
6
  0
LTYPE
  5
14
100
AcDbSymbolTableRecord
100
AcDbLinetypeTableRecord
  2
BYBLOCK
 70
0
  3

 72
65
 73
0
 40
0.0
  0
LTYPE
  5
15
100
AcDbSymbolTableRecord
100
AcDbLinetypeTableRecord
  2
BYLAYER
 70
0
  3

 72
65
 73
0
 40
0.0
  0
LTYPE
  5
16
100
AcDbSymbolTableRecord
100
AcDbLinetypeTableRecord
  2
CONTINUOUS
 70
64
  3
Solid line
 72
65
 73
0
 40
0.0
  0
LTYPE
  5
1F5
100
AcDbSymbolTableRecord
100
AcDbLinetypeTableRecord
  2
CENTER
 70
64
  3
____ _ ____ _ ____ _ ____ _ ____ _ ____ _ ____
 72
65
 73
4
 40
0.6
 49
0.375
 74
0
 49
-0.075
 74
0
 49
0.075
 74
0
 49
-0.075
 74
0
  0
LTYPE
  5
1F6
100
AcDbSymbolTableRecord
100
AcDbLinetypeTableRecord
  2
HIDDEN
 70
64
  3
- - - - - - - - - - - - - - - - - - - -
 72
65
 73
2
 40
0.2
 49
0.1
 74
0
 49
-0.1
 74
0
  0
LTYPE
  5
1F7
100
AcDbSymbolTableRecord
100
AcDbLinetypeTableRecord
  2
PHANTOM
 70
64
  3
_____ _ _ _____ _ _ _____ _ _ _____
 72
65
 73
6
 40
0.8
 49
0.45
 74
0
 49
-0.05
 74
0
 49
0.1
 74
0
 49
-0.05
 74
0
 49
0.1
 74
0
 49
-0.05
 74
0
  0
LTYPE
  5
1F8
100
AcDbSymbolTableRecord
100
AcDbLinetypeTableRecord
  2
DOT
 70
64
  3
. . . . . . . . . . . . . . . . . . . .
 72
65
 73
2
 40
0.2
 49
0.1
 74
0
 49
-0.1
 74
0
  0
LTYPE
  5
1F9
100
AcDbSymbolTableRecord
100
AcDbLinetypeTableRecord
  2
DASHED
 70
64
  3
- - - - - - - - - - - - - - - - - - - -
 72
65
 73
2
 40
0.2
 49
0.1
 74
0
 49
-0.1
 74
0
  0
ENDTAB
  0
TABLE
  2
LAYER
  5
2
100
AcDbSymbolTable
 70
36
  0
LAYER
  5
10
100
AcDbSymbolTableRecord
100
AcDbLayerTableRecord
  2
0
 70
0
 62
7
  6
CONTINUOUS
370
-3
390
F
  0
LAYER
  5
1FA
100
AcDbSymbolTableRecord
100
AcDbLayerTableRecord
  2
DEFAULT_1
 70
0
 62
7
  6
CENTER
370
-3
390
F
  0
LAYER
  5
1FB
100
AcDbSymbolTableRecord
100
AcDbLayerTableRecord
  2
DEFAULT_2
 70
0
 62
8
  6
HIDDEN
370
-3
390
F
  0
LAYER
  5
1FC
100
AcDbSymbolTableRecord
100
AcDbLayerTableRecord
  2
DEFAULT_3
 70
0
 62
7
  6
PHANTOM
370
-3
390
F
  0
LAYER
  5
1FD
100
AcDbSymbolTableRecord
100
AcDbLayerTableRecord
  2
00_COMPONENTS
 70
0
 62
7
  6
CONTINUOUS
370
-3
390
F
  0
LAYER
  5
1FE
100
AcDbSymbolTableRecord
100
AcDbLayerTableRecord
  2
01_1_DEFAULT_DATUMS
 70
0
 62
7
  6
CONTINUOUS
370
-3
390
F
  0
LAYER
  5
1FF
100
AcDbSymbolTableRecord
100
AcDbLayerTableRecord
  2
01_PLANES
 70
0
 62
7
  6
CONTINUOUS
370
-3
390
F
  0
LAYER
  5
200
100
AcDbSymbolTableRecord
100
AcDbLayerTableRecord
  2
02_COORD_SYS
 70
0
 62
7
  6
CONTINUOUS
370
-3
390
F
  0
LAYER
  5
201
100
AcDbSymbolTableRecord
100
AcDbLayerTableRecord
  2
03_AXES
 70
0
 62
7
  6
CONTINUOUS
370
-3
390
F
  0
LAYER
  5
202
100
AcDbSymbolTableRecord
100
AcDbLayerTableRecord
  2
04_POINTS
 70
0
 62
7
  6
CONTINUOUS
370
-3
390
F
  0
LAYER
  5
203
100
AcDbSymbolTableRecord
100
AcDbLayerTableRecord
  2
05_CURVES
 70
0
 62
7
  6
CONTINUOUS
370
-3
390
F
  0
LAYER
  5
204
100
AcDbSymbolTableRecord
100
AcDbLayerTableRecord
  2
06_SURFS
 70
0
 62
7
  6
CONTINUOUS
370
-3
390
F
  0
LAYER
  5
205
100
AcDbSymbolTableRecord
100
AcDbLayerTableRecord
  2
07_COSMETICS
 70
0
 62
7
  6
CONTINUOUS
370
-3
390
F
  0
LAYER
  5
206
100
AcDbSymbolTableRecord
100
AcDbLayerTableRecord
  2
10_NOTES
 70
0
 62
7
  6
CONTINUOUS
370
-3
390
F
  0
LAYER
  5
207
100
AcDbSymbolTableRecord
100
AcDbLayerTableRecord
  2
11_NOTES_PUB
 70
0
 62
7
  6
CONTINUOUS
370
-3
390
F
  0
LAYER
  5
208
100
AcDbSymbolTableRecord
100
AcDbLayerTableRecord
  2
13_REF_GTOL
 70
0
 62
7
  6
CONTINUOUS
370
-3
390
F
  0
LAYER
  5
209
100
AcDbSymbolTableRecord
100
AcDbLayerTableRecord
  2
16_MISC
 70
0
 62
7
  6
CONTINUOUS
370
-3
390
F
  0
LAYER
  5
20A
100
AcDbSymbolTableRecord
100
AcDbLayerTableRecord
  2
17_NO_PRINT
 70
0
 62
7
  6
CONTINUOUS
370
-3
390
F
  0
LAYER
  5
20B
100
AcDbSymbolTableRecord
100
AcDbLayerTableRecord
  2
18_DATUM_CAMS_JOINTS
 70
0
 62
7
  6
CONTINUOUS
370
-3
390
F
  0
LAYER
  5
20C
100
AcDbSymbolTableRecord
100
AcDbLayerTableRecord
  2
19_DATUM_FUNCTIONAL
 70
0
 62
7
  6
CONTINUOUS
370
-3
390
F
  0
LAYER
  5
20D
100
AcDbSymbolTableRecord
100
AcDbLayerTableRecord
  2
20_DATUM_KINEMATIC_SCHEME
 70
0
 62
7
  6
CONTINUOUS
370
-3
390
F
  0
ENDTAB
  0
TABLE
  2
STYLE
  5
3
100
AcDbSymbolTable
 70
1
  0
STYLE
  5
11
100
AcDbSymbolTableRecord
100
AcDbTextStyleTableRecord
  2
STANDARD
 70
0
 40
0.0
 41
0.8
 50
0.0
 71
0
 42
0.2
  3
txt
  4

  0
STYLE
  5
20E
100
AcDbSymbolTableRecord
100
AcDbTextStyleTableRecord
  2
TEXTSTYLE_1
 70
0
 40
0.0
 41
0.8
 50
0.0
 71
0
 42
0.2
  3
gdt
  4

  0
ENDTAB
  0
TABLE
  2
VIEW
  5
6
100
AcDbSymbolTable
 70
0
  0
ENDTAB
  0
TABLE
  2
UCS
  5
7
100
AcDbSymbolTable
 70
0
  0
ENDTAB
  0
TABLE
  2
APPID
  5
9
100
AcDbSymbolTable
 70
1
  0
APPID
  5
20F
100
AcDbSymbolTableRecord
100
AcDbRegAppTableRecord
  2
ACAD
 70
0
  0
ENDTAB
  0
TABLE
  2
BLOCK_RECORD
  5
1
100
AcDbSymbolTable
 70
0
  0
BLOCK_RECORD
  5
210
100
AcDbSymbolTableRecord
100
AcDbBlockTableRecord
  2
*Model_Space
  0
BLOCK_RECORD
  5
211
100
AcDbSymbolTableRecord
100
AcDbBlockTableRecord
  2
*Paper_Space
  0
BLOCK_RECORD
  5
212
100
AcDbSymbolTableRecord
100
AcDbBlockTableRecord
  2
_FILLED
  0
ENDTAB
  0
TABLE
  2
DIMSTYLE
  5
A
100
AcDbSymbolTable
 70
1
100
AcDbDimStyleTable
 71
0
  0
DIMSTYLE
105
213
100
AcDbSymbolTableRecord
100
AcDbDimStyleTableRecord
  2
STANDARD
 70
0
  3

  4

 40
1.0
 41
4.0099733977
 42
1.0
 43
0.38
 44
1.0
 45
0.0
 46
0.0
 47
0.01
 48
0.01
140
5.6139627568
141
0.09
142
0.0
143
25.4
144
1.0
145
0.0
146
1.0
147
0.625
 71
1
 72
0
 73
0
 74
0
 75
0
 76
0
 77
1
 78
8
 79
2
170
0
171
1
172
0
173
0
174
0
175
0
176
0
177
0
178
0
270
2
179
2
271
2
272
2
273
2
274
2
275
0
280
0
281
0
282
0
283
1
284
8
285
0
286
0
287
3
288
0
340
11
278
46
341
212
342
212
343
212
344
212
  0
ENDTAB
  0
ENDSEC
  0
SECTION
  2
BLOCKS
  0
BLOCK
  5
20
100
AcDbEntity
  8
0
100
AcDbBlockBegin
  2
*Model_Space
 70
0
 10
0.0
 20
0.0
 30
0.0
  3
*Model_Space
  1

  0
ENDBLK
  5
21
100
AcDbEntity
  8
0
100
AcDbBlockEnd
  0
BLOCK
  5
1C
100
AcDbEntity
  8
0
100
AcDbBlockBegin
  2
*Paper_Space
 70
0
 10
0.0
 20
0.0
 30
0.0
  3
*Paper_Space
  1

  0
ENDBLK
  5
1D
100
AcDbEntity
  8
0
100
AcDbBlockEnd
  0
BLOCK
  5
214
100
AcDbEntity
  8
0
100
AcDbBlockBegin
  2
_FILLED
 70
64
 10
0.0
 20
0.0
  3
_FILLED
  1

  0
SOLID
  5
215
100
AcDbEntity
  8
0
  6
BYBLOCK
 62
0
100
AcDbTrace
 10
0.0
 20
0.0
 11
-1.0
 21
0.25
 12
-1.0
 22
-0.25
 13
-1.0
 23
-0.25
  0
ENDBLK
  5
216
100
AcDbEntity
  8
0
  6
BYBLOCK
 62
0
100
AcDbBlockEnd
  0
ENDSEC
  0
SECTION
  2
ENTITIES
  0
LINE
  5
217
100
AcDbEntity
  8
0
100
AcDbLine
 62
7
  6
CONTINUOUS
 10
243.9938888449
 20
41.7755102041
 11
246.6151753868
 21
42.4999455106
  0
LINE
  5
218
100
AcDbEntity
  8
0
100
AcDbLine
 62
7
  6
CONTINUOUS
 10
217.9835922336
 20
38.7755102041
 11
96.3835922336
 21
38.7755102041
  0
LINE
  5
219
100
AcDbEntity
  8
0
100
AcDbLine
 62
7
  6
CONTINUOUS
 10
217.9835922336
 20
39.7755102041
 11
96.3835922336
 21
39.7755102041
  0
LINE
  5
21A
100
AcDbEntity
  8
0
100
AcDbLine
 62
7
  6
CONTINUOUS
 10
228.293888845
 20
40.7755102041
 11
243.993888845
 21
40.7755102041
  0
LINE
  5
21B
100
AcDbEntity
  8
0
100
AcDbLine
 62
7
  6
CONTINUOUS
 10
228.293888845
 20
41.7755102041
 11
243.993888845
 21
41.7755102041
  0
LINE
  5
21C
100
AcDbEntity
  8
0
100
AcDbLine
 62
7
  6
CONTINUOUS
 10
93.9835922336
 20
54.2755102041
 11
94.1835922336
 21
54.2755102041
  0
LINE
  5
21D
100
AcDbEntity
  8
0
100
AcDbLine
 62
7
  6
CONTINUOUS
 10
93.9835922336
 20
67.2755102041
 11
94.1835922336
 21
67.2755102041
  0
LINE
  5
21E
100
AcDbEntity
  8
0
100
AcDbLine
 62
7
  6
CONTINUOUS
 10
227.193888845
 20
57.6072268907
 11
223.5652102244
 21
58.3125705628
  0
LINE
  5
21F
100
AcDbEntity
  8
0
100
AcDbLine
 62
7
  6
CONTINUOUS
 10
223.5652102244
 20
59.2941977462
 11
227.193888845
 21
58.5888540742
  0
LINE
  5
220
100
AcDbEntity
  8
0
100
AcDbLine
 62
7
  6
CONTINUOUS
 10
222.9835922336
 20
102.9989390906
 11
222.6835922336
 21
102.9460409964
  0
LINE
  5
221
100
AcDbEntity
  8
0
100
AcDbLine
 62
7
  6
CONTINUOUS
 10
223.0401676544
 20
90.2755064474
 11
222.6835922336
 21
90.2245671015
  0
LINE
  5
222
100
AcDbEntity
  8
0
100
AcDbLine
 62
7
  6
CONTINUOUS
 10
222.6835921309
 20
90.5856261205
 11
222.8887456717
 21
90.614935663
  0
LINE
  5
223
100
AcDbEntity
  8
0
100
AcDbLine
 62
7
  6
CONTINUOUS
 10
222.8887456231
 20
90.6149341155
 11
223.3835922318
 21
90.6714830469
  0
LINE
  5
224
100
AcDbEntity
  8
0
100
AcDbLine
 62
7
  6
CONTINUOUS
 10
221.1835922336
 20
82.7755102041
 11
227.193888845
 21
82.7755102041
  0
LINE
  5
225
100
AcDbEntity
  8
0
100
AcDbLine
 62
7
  6
CONTINUOUS
 10
221.6835922336
 20
84.7755102041
 11
221.1835922336
 21
84.7755102041
  0
LINE
  5
226
100
AcDbEntity
  8
0
100
AcDbLine
 62
7
  6
CONTINUOUS
 10
223.3835922336
 20
97.6795302837
 11
222.8887456231
 21
97.7360802063
  0
LINE
  5
227
100
AcDbEntity
  8
0
100
AcDbLine
 62
7
  6
CONTINUOUS
 10
222.8887456634
 20
97.73608123
 11
222.6835921333
 21
97.7653943376
  0
LINE
  5
228
100
AcDbEntity
  8
0
100
AcDbLine
 62
7
  6
CONTINUOUS
 10
222.6835922336
 20
98.1264533066
 11
223.0401690634
 21
98.0755137595
  0
LINE
  5
229
100
AcDbEntity
  8
0
100
AcDbLine
 62
7
  6
CONTINUOUS
 10
246.2466626511
 20
435.152919405
 11
246.6151753868
 21
435.4109548004
  0
LINE
  5
22A
100
AcDbEntity
  8
0
100
AcDbLine
 62
7
  6
CONTINUOUS
 10
223.2118885195
 20
117.5000379995
 11
222.6835922336
 21
117.4245671015
  0
LINE
  5
22B
100
AcDbEntity
  8
0
100
AcDbLine
 62
7
  6
CONTINUOUS
 10
222.6835922447
 20
117.6050952349
 11
222.8887457445
 21
117.6343993296
  0
LINE
  5
22C
100
AcDbEntity
  8
0
100
AcDbLine
 62
7
  6
CONTINUOUS
 10
222.8887456231
 20
117.6343977545
 11
223.3835922308
 21
117.6980248932
  0
LINE
  5
22D
100
AcDbEntity
  8
0
100
AcDbLine
 62
7
  6
CONTINUOUS
 10
222.9835922336
 20
112.5520813176
 11
222.6835922336
 21
112.6049794118
  0
LINE
  5
22E
100
AcDbEntity
  8
0
100
AcDbLine
 62
7
  6
CONTINUOUS
 10
246.2466626511
 20
42.3981010032
 11
246.6151753866
 21
42.1400656079
  0
LINE
  5
22F
100
AcDbEntity
  8
0
100
AcDbLine
 62
7
  6
CONTINUOUS
 10
221.1835922336
 20
130.7755102041
 11
221.6835922336
 21
130.7755102041
  0
LINE
  5
230
100
AcDbEntity
  8
0
100
AcDbLine
 62
7
  6
CONTINUOUS
 10
221.1835922336
 20
132.7755102041
 11
227.193888845
 21
132.7755102041
  0
LINE
  5
231
100
AcDbEntity
  8
0
100
AcDbLine
 62
7
  6
CONTINUOUS
 10
222.8887456231
 20
125.1166211693
 11
223.3831157355
 21
125.0530746061
  0
LINE
  5
232
100
AcDbEntity
  8
0
100
AcDbLine
 62
7
  6
CONTINUOUS
 10
222.8887457409
 20
125.116621157
 11
222.6835922336
 21
125.145924989
  0
LINE
  5
233
100
AcDbEntity
  8
0
100
AcDbLine
 62
7
  6
CONTINUOUS
 10
222.6835922336
 20
125.3264533066
 11
223.2118925788
 21
125.2509818287
  0
LINE
  5
234
100
AcDbEntity
  8
0
100
AcDbLine
 62
7
  6
CONTINUOUS
 10
223.3831157355
 20
125.0530746061
 11
223.3835922336
 21
125.0529942157
  0
LINE
  5
235
100
AcDbEntity
  8
0
100
AcDbLine
 62
7
  6
CONTINUOUS
 10
93.9835922336
 20
54.2755102041
 11
93.9835922336
 21
67.2755102041
  0
LINE
  5
236
100
AcDbEntity
  8
0
100
AcDbLine
 62
7
  6
CONTINUOUS
 10
93.9835922336
 20
410.2755102041
 11
93.9835922336
 21
423.2755102041
  0
LINE
  5
237
100
AcDbEntity
  8
0
100
AcDbLine
 62
7
  6
CONTINUOUS
 10
94.1835922336
 20
436.5755102041
 11
94.1835922336
 21
40.9755102041
  0
LINE
  5
238
100
AcDbEntity
  8
0
100
AcDbLine
 62
7
  6
CONTINUOUS
 10
96.3835922336
 20
38.7755102092
 11
96.3835922336
 21
438.775510199
  0
LINE
  5
239
100
AcDbEntity
  8
0
100
AcDbLine
 62
7
  6
CONTINUOUS
 10
223.1835922336
 20
365.1667590168
 11
222.9835922336
 21
364.9989390906
  0
LINE
  5
23A
100
AcDbEntity
  8
0
100
AcDbLine
 62
7
  6
CONTINUOUS
 10
223.1835922336
 20
112.3842613913
 11
222.9835922336
 21
112.5520813176
  0
LINE
  5
23B
100
AcDbEntity
  8
0
100
AcDbLine
 62
7
  6
CONTINUOUS
 10
248.0325041289
 20
209.0047952951
 11
248.7749504212
 21
209.1759402287
  0
LINE
  5
23C
100
AcDbEntity
  8
0
100
AcDbLine
 62
7
  6
CONTINUOUS
 10
248.0325041289
 20
209.0047952951
 11
247.193888845
 21
208.9755102041
  0
LINE
  5
23D
100
AcDbEntity
  8
0
100
AcDbLine
 62
7
  6
CONTINUOUS
 10
253.1828358986
 20
217.1900462481
 11
253.1836555471
 21
217.1900633975
  0
LINE
  5
23E
100
AcDbEntity
  8
0
100
AcDbLine
 62
7
  6
CONTINUOUS
 10
253.1828358986
 20
217.1900462481
 11
253.1741642707
 21
217.1900208869
  0
LINE
  5
23F
100
AcDbEntity
  8
0
100
AcDbLine
 62
7
  6
CONTINUOUS
 10
253.1836555471
 20
215.7614713667
 11
253.1741594648
 21
215.7614713667
  0
LINE
  5
240
100
AcDbEntity
  8
0
100
AcDbLine
 62
7
  6
CONTINUOUS
 10
253.1741618144
 20
250.7609741601
 11
253.1836555471
 21
250.7609741601
  0
LINE
  5
241
100
AcDbEntity
  8
0
100
AcDbLine
 62
7
  6
CONTINUOUS
 10
253.1741611461
 20
252.1895652226
 11
253.1836555471
 21
252.1895652226
  0
LINE
  5
242
100
AcDbEntity
  8
0
100
AcDbLine
 62
7
  6
CONTINUOUS
 10
247.193888845
 20
258.9755102041
 11
248.0325041289
 21
258.9462251131
  0
LINE
  5
243
100
AcDbEntity
  8
0
100
AcDbLine
 62
7
  6
CONTINUOUS
 10
217.9835922336
 20
438.7755101967
 11
217.9835922336
 21
38.7755102115
  0
LINE
  5
244
100
AcDbEntity
  8
0
100
AcDbLine
 62
7
  6
CONTINUOUS
 10
248.0325041289
 20
258.9462251131
 11
248.7749504212
 21
258.7750801795
  0
LINE
  5
245
100
AcDbEntity
  8
0
100
AcDbLine
 62
7
  6
CONTINUOUS
 10
221.1835922336
 20
41.9755102041
 11
221.1835922336
 21
82.7755102041
  0
LINE
  5
246
100
AcDbEntity
  8
0
100
AcDbLine
 62
7
  6
CONTINUOUS
 10
221.1835922336
 20
84.7755102041
 11
221.1835922336
 21
344.7755102041
  0
LINE
  5
247
100
AcDbEntity
  8
0
100
AcDbLine
 62
7
  6
CONTINUOUS
 10
221.1835922336
 20
346.7755102041
 11
221.1835922336
 21
435.5755102041
  0
LINE
  5
248
100
AcDbEntity
  8
0
100
AcDbLine
 62
7
  6
CONTINUOUS
 10
221.6835922336
 20
392.7755102041
 11
221.6835922336
 21
346.7755102041
  0
LINE
  5
249
100
AcDbEntity
  8
0
100
AcDbLine
 62
7
  6
CONTINUOUS
 10
221.6835922336
 20
130.7755102041
 11
221.6835922336
 21
84.7755102041
  0
LINE
  5
24A
100
AcDbEntity
  8
0
100
AcDbLine
 62
7
  6
CONTINUOUS
 10
222.6835922336
 20
82.7755102041
 11
222.6835922336
 21
132.7755102041
  0
LINE
  5
24B
100
AcDbEntity
  8
0
100
AcDbLine
 62
7
  6
CONTINUOUS
 10
222.6835922336
 20
344.7755102041
 11
222.6835922336
 21
394.7755102041
  0
LINE
  5
24C
100
AcDbEntity
  8
0
100
AcDbLine
 62
7
  6
CONTINUOUS
 10
222.8887457409
 20
387.116621157
 11
222.8887457445
 21
379.6343993296
  0
LINE
  5
24D
100
AcDbEntity
  8
0
100
AcDbLine
 62
7
  6
CONTINUOUS
 10
222.8887456634
 20
359.73608123
 11
222.8887456717
 21
352.614935663
  0
LINE
  5
24E
100
AcDbEntity
  8
0
100
AcDbLine
 62
7
  6
CONTINUOUS
 10
222.8887457409
 20
125.116621157
 11
222.8887457445
 21
117.6343993296
  0
LINE
  5
24F
100
AcDbEntity
  8
0
100
AcDbLine
 62
7
  6
CONTINUOUS
 10
222.8887456634
 20
97.73608123
 11
222.8887456717
 21
90.614935663
  0
LINE
  5
250
100
AcDbEntity
  8
0
100
AcDbLine
 62
7
  6
CONTINUOUS
 10
222.9835922336
 20
374.5520813176
 11
222.9835922336
 21
364.9989390906
  0
LINE
  5
251
100
AcDbEntity
  8
0
100
AcDbLine
 62
7
  6
CONTINUOUS
 10
222.9835922336
 20
112.5520813176
 11
222.9835922336
 21
102.9989390906
  0
LINE
  5
252
100
AcDbEntity
  8
0
100
AcDbLine
 62
7
  6
CONTINUOUS
 10
223.1835922336
 20
374.3842027212
 11
223.1835922336
 21
365.166817687
  0
LINE
  5
253
100
AcDbEntity
  8
0
100
AcDbLine
 62
7
  6
CONTINUOUS
 10
223.1835922336
 20
112.3842027212
 11
223.1835922336
 21
103.166817687
  0
LINE
  5
254
100
AcDbEntity
  8
0
100
AcDbLine
 62
7
  6
CONTINUOUS
 10
223.3835922336
 20
90.6714843091
 11
223.3835922336
 21
97.6795317891
  0
LINE
  5
255
100
AcDbEntity
  8
0
100
AcDbLine
 62
7
  6
CONTINUOUS
 10
223.3835922336
 20
117.6980256461
 11
223.3835922336
 21
125.0529942157
  0
LINE
  5
256
100
AcDbEntity
  8
0
100
AcDbLine
 62
7
  6
CONTINUOUS
 10
223.3835922336
 20
352.6714843091
 11
223.3835922336
 21
359.6795317891
  0
LINE
  5
257
100
AcDbEntity
  8
0
100
AcDbLine
 62
7
  6
CONTINUOUS
 10
223.3835922336
 20
379.6980256461
 11
223.3835922336
 21
387.0529942157
  0
LINE
  5
258
100
AcDbEntity
  8
0
100
AcDbLine
 62
7
  6
CONTINUOUS
 10
223.5652102244
 20
59.2941977462
 11
223.5652102244
 21
82.7755102041
  0
LINE
  5
259
100
AcDbEntity
  8
0
100
AcDbLine
 62
7
  6
CONTINUOUS
 10
223.5652102244
 20
132.7755102041
 11
223.5652102244
 21
344.7755102041
  0
LINE
  5
25A
100
AcDbEntity
  8
0
100
AcDbLine
 62
7
  6
CONTINUOUS
 10
223.5652102244
 20
394.7755102041
 11
223.5652102244
 21
418.2568226619
  0
LINE
  5
25B
100
AcDbEntity
  8
0
100
AcDbLine
 62
7
  6
CONTINUOUS
 10
223.874401229
 20
82.7755102041
 11
223.874401229
 21
132.7755102041
  0
LINE
  5
25C
100
AcDbEntity
  8
0
100
AcDbLine
 62
7
  6
CONTINUOUS
 10
223.874401229
 20
344.7755102041
 11
223.874401229
 21
394.7755102041
  0
LINE
  5
25D
100
AcDbEntity
  8
0
100
AcDbLine
 62
7
  6
CONTINUOUS
 10
227.193888845
 20
42.667263488
 11
227.193888845
 21
434.8837569201
  0
LINE
  5
25E
100
AcDbEntity
  8
0
100
AcDbLine
 62
7
  6
CONTINUOUS
 10
228.293888845
 20
40.7755102041
 11
228.293888845
 21
436.7755102041
  0
LINE
  5
25F
100
AcDbEntity
  8
0
100
AcDbLine
 62
7
  6
CONTINUOUS
 10
238.5259989012
 20
436.7755102041
 11
238.5259989012
 21
40.7755102041
  0
LINE
  5
260
100
AcDbEntity
  8
0
100
AcDbLine
 62
7
  6
CONTINUOUS
 10
240.3281333986
 20
40.7755102041
 11
240.3281333986
 21
41.7755102041
  0
LINE
  5
261
100
AcDbEntity
  8
0
100
AcDbLine
 62
7
  6
CONTINUOUS
 10
240.3281333986
 20
435.7755102041
 11
240.3281333986
 21
436.7755102041
  0
LINE
  5
262
100
AcDbEntity
  8
0
100
AcDbLine
 62
7
  6
CONTINUOUS
 10
241.1472854429
 20
41.7755102041
 11
241.1472854429
 21
435.7755102041
  0
LINE
  5
263
100
AcDbEntity
  8
0
100
AcDbLine
 62
7
  6
CONTINUOUS
 10
243.993888845
 20
436.7755102026
 11
243.993888845
 21
435.7755102017
  0
LINE
  5
264
100
AcDbEntity
  8
0
100
AcDbLine
 62
7
  6
CONTINUOUS
 10
243.993888845
 20
41.7755102041
 11
243.993888845
 21
40.7755102056
  0
LINE
  5
265
100
AcDbEntity
  8
0
100
AcDbLine
 62
7
  6
CONTINUOUS
 10
246.6151753868
 20
435.0510748976
 11
246.6151753868
 21
42.4999455106
  0
LWPOLYLINE
  5
266
100
AcDbEntity
  8
0
100
AcDbPolyline
 62
7
  6
CONTINUOUS
 90
4
 70
0
 10
252.8527357793
 20
250.9364661287
 10
252.8335174964
 20
251.118328145
 10
252.7993571872
 20
251.5403994093
 10
252.7938890991
 20
251.7249283024
  0
LINE
  5
267
100
AcDbEntity
  8
0
100
AcDbLine
 62
7
  6
CONTINUOUS
 10
252.812387072
 20
251.2754146774
 11
252.8445543838
 21
250.9653173854
  0
LWPOLYLINE
  5
268
100
AcDbEntity
  8
0
100
AcDbPolyline
 62
7
  6
CONTINUOUS
 90
3
 70
0
 10
253.1834488946
 20
250.7700635759
 10
253.095946827
 20
251.7700033259
 10
252.984297843
 20
252.5280101121
  0
LWPOLYLINE
  5
269
100
AcDbEntity
  8
0
100
AcDbPolyline
 62
7
  6
CONTINUOUS
 90
3
 70
0
 10
253.1833852497
 20
252.1998342134
 10
253.1499011253
 20
252.6299874746
 10
252.9990333567
 20
253.5803692398
  0
LINE
  5
26A
100
AcDbEntity
  8
0
100
AcDbLine
 62
7
  6
CONTINUOUS
 10
253.1741618145
 20
250.7609610893
 11
253.1736254249
 21
250.7691607808
  0
LINE
  5
26B
100
AcDbEntity
  8
0
100
AcDbLine
 62
7
  6
CONTINUOUS
 10
253.1735795176
 20
252.1989877322
 11
253.1741611462
 21
252.189568741
  0
LWPOLYLINE
  5
26C
100
AcDbEntity
  8
0
100
AcDbPolyline
 62
7
  6
CONTINUOUS
 90
4
 70
0
 10
252.9978308967
 20
248.7168731388
 10
252.9547624196
 20
249.7236044091
 10
252.9207707223
 20
250.2091716401
 10
252.8527327428
 20
250.9365556561
  0
LINE
  5
26D
100
AcDbEntity
  8
0
100
AcDbLine
 62
7
  6
CONTINUOUS
 10
252.9877380837
 20
248.7166235536
 11
252.987555405
 21
248.7232557047
  0
LINE
  5
26E
100
AcDbEntity
  8
0
100
AcDbLine
 62
7
  6
CONTINUOUS
 10
252.7938895478
 20
214.2249696089
 11
252.793888845
 21
214.2259010345
  0
LINE
  5
26F
100
AcDbEntity
  8
0
100
AcDbLine
 62
7
  6
CONTINUOUS
 10
252.793888845
 20
251.726461642
 11
252.7938890822
 21
251.7252949416
  0
LINE
  5
270
100
AcDbEntity
  8
0
100
AcDbLine
 62
7
  6
CONTINUOUS
 10
252.7938889026
 20
253.7241510092
 11
252.793888845
 21
253.7244080298
  0
LINE
  5
271
100
AcDbEntity
  8
0
100
AcDbLine
 62
7
  6
CONTINUOUS
 10
247.193888845
 20
43.9755102041
 11
247.193888845
 21
433.5755102041
  0
LINE
  5
272
100
AcDbEntity
  8
0
100
AcDbLine
 62
7
  6
CONTINUOUS
 10
248.0325041289
 20
258.9462251131
 11
248.0325041289
 21
256.0773276388
  0
LINE
  5
273
100
AcDbEntity
  8
0
100
AcDbLine
 62
7
  6
CONTINUOUS
 10
248.0325041289
 20
211.8736873521
 11
248.0325041289
 21
209.0047952951
  0
LINE
  5
274
100
AcDbEntity
  8
0
100
AcDbLine
 62
7
  6
CONTINUOUS
 10
248.774956037
 20
258.7750776837
 11
248.774956037
 21
255.9258439716
  0
LINE
  5
275
100
AcDbEntity
  8
0
100
AcDbLine
 62
7
  6
CONTINUOUS
 10
248.774956037
 20
212.0251717757
 11
248.774956037
 21
209.1759427245
  0
LINE
  5
276
100
AcDbEntity
  8
0
100
AcDbLine
 62
7
  6
CONTINUOUS
 10
249.3334870099
 20
249.2059451191
 11
249.3334870099
 21
218.745073804
  0
LINE
  5
277
100
AcDbEntity
  8
0
100
AcDbLine
 62
7
  6
CONTINUOUS
 10
253.1741611461
 20
252.1895652226
 11
253.1741611461
 21
250.8762003702
  0
LINE
  5
278
100
AcDbEntity
  8
0
100
AcDbLine
 62
7
  6
CONTINUOUS
 10
253.1741618144
 20
250.7609741601
 11
253.1741618144
 21
242.336481704
  0
LINE
  5
279
100
AcDbEntity
  8
0
100
AcDbLine
 62
7
  6
CONTINUOUS
 10
253.1741642707
 20
235.2145222811
 11
253.1741642707
 21
217.1900208869
  0
LINE
  5
27A
100
AcDbEntity
  8
0
100
AcDbLine
 62
7
  6
CONTINUOUS
 10
253.1741594648
 20
217.0512379269
 11
253.1741594648
 21
215.7614713667
  0
LINE
  5
27B
100
AcDbEntity
  8
0
100
AcDbLine
 62
7
  6
CONTINUOUS
 10
253.1836555471
 20
215.7614713667
 11
253.1836555471
 21
235.0876494418
  0
LINE
  5
27C
100
AcDbEntity
  8
0
100
AcDbLine
 62
7
  6
CONTINUOUS
 10
253.1836555471
 20
242.4633709663
 11
253.1836555471
 21
250.7609741601
  0
LINE
  5
27D
100
AcDbEntity
  8
0
100
AcDbLine
 62
7
  6
CONTINUOUS
 10
253.1836555471
 20
250.7700820048
 11
253.1836555471
 21
252.1895652226
  0
LINE
  5
27E
100
AcDbEntity
  8
0
100
AcDbLine
 62
7
  6
CONTINUOUS
 10
252.793888845
 20
216.2243141182
 11
252.7938891819
 21
216.2256814498
  0
LWPOLYLINE
  5
27F
100
AcDbEntity
  8
0
100
AcDbPolyline
 62
7
  6
CONTINUOUS
 90
3
 70
0
 10
252.9978208481
 20
219.2341550381
 10
253.1610822891
 20
233.9695030362
 10
252.9978209742
 20
248.7168648196
  0
LINE
  5
280
100
AcDbEntity
  8
0
100
AcDbLine
 62
7
  6
CONTINUOUS
 10
252.9875553927
 20
219.2277630339
 11
252.9877172843
 21
219.2344014351
  0
LWPOLYLINE
  5
281
100
AcDbEntity
  8
0
100
AcDbPolyline
 62
7
  6
CONTINUOUS
 90
4
 70
0
 10
252.7938864098
 20
216.2261934905
 10
252.7992896874
 20
216.4092844115
 10
252.8330908241
 20
216.8284236655
 10
252.8527342782
 20
217.0145353126
  0
LWPOLYLINE
  5
282
100
AcDbEntity
  8
0
100
AcDbPolyline
 62
7
  6
CONTINUOUS
 90
9
 70
0
 10
252.7939013894
 20
214.2246819383
 10
252.8024933982
 20
214.3387308717
 10
252.8323216586
 20
214.5460863808
 10
252.8813062943
 20
214.8317291783
 10
252.9442538563
 20
215.1880787628
 10
253.0150220056
 20
215.6124191584
 10
253.0860156277
 20
216.1031755251
 10
253.1475274084
 20
216.6586306265
 10
253.1822938009
 20
217.171153554
  0
LWPOLYLINE
  5
283
100
AcDbEntity
  8
0
100
AcDbPolyline
 62
7
  6
CONTINUOUS
 90
4
 70
0
 10
252.8527305372
 20
217.014444807
 10
252.9201972956
 20
217.7345996737
 10
252.9542971985
 20
218.2198216727
 10
252.9978309238
 20
219.2341467185
  0
LINE
  5
284
100
AcDbEntity
  8
0
100
AcDbLine
 62
7
  6
CONTINUOUS
 10
253.1826067235
 20
217.1705960102
 11
253.1831685768
 21
217.1760980939
  0
LINE
  5
285
100
AcDbEntity
  8
0
100
AcDbLine
 62
7
  6
CONTINUOUS
 10
252.8527342782
 20
217.0145353126
 11
252.8527237921
 21
217.0144405886
  0
LINE
  5
286
100
AcDbEntity
  8
0
100
AcDbLine
 62
7
  6
CONTINUOUS
 10
223.5652102216
 20
58.3125705484
 11
223.7560192197
 21
59.2941977463
  0
LWPOLYLINE
  5
287
100
AcDbEntity
  8
0
100
AcDbPolyline
 62
7
  6
CONTINUOUS
 90
4
 70
0
 10
252.9151013886
 20
214.0101148526
 10
252.998636217
 20
214.3687810072
 10
253.1493334332
 20
215.315534332
 10
253.1833634568
 20
215.7511373211
  0
LINE
  5
288
100
AcDbEntity
  8
0
100
AcDbLine
 62
7
  6
CONTINUOUS
 10
252.800979985
 20
213.596181072
 11
252.9151013886
 21
214.0101148526
  0
LINE
  5
289
100
AcDbEntity
  8
0
100
AcDbLine
 62
7
  6
CONTINUOUS
 10
252.7876891205
 20
213.552561094
 11
252.8012397887
 21
213.6002368779
  0
LINE
  5
28A
100
AcDbEntity
  8
0
100
AcDbLine
 62
7
  6
CONTINUOUS
 10
252.7828485226
 20
213.5366263735
 11
252.7939569429
 21
213.5732665495
  0
LINE
  5
28B
100
AcDbEntity
  8
0
100
AcDbLine
 62
7
  6
CONTINUOUS
 10
252.7826484891
 20
254.414941135
 11
252.7946436348
 21
254.3754961068
  0
LINE
  5
28C
100
AcDbEntity
  8
0
100
AcDbLine
 62
7
  6
CONTINUOUS
 10
252.7886184314
 20
254.3954009559
 11
252.801243954
 21
254.3508039795
  0
LINE
  5
28D
100
AcDbEntity
  8
0
100
AcDbLine
 62
7
  6
CONTINUOUS
 10
252.9154259336
 20
253.9396402692
 11
252.8005846714
 21
254.3561173376
  0
LINE
  5
28E
100
AcDbEntity
  8
0
100
AcDbLine
 62
7
  6
CONTINUOUS
 10
252.9990333567
 20
253.5803692398
 11
252.9154259336
 21
253.9396402692
  0
LINE
  5
28F
100
AcDbEntity
  8
0
100
AcDbLine
 62
7
  6
CONTINUOUS
 10
223.5652102244
 20
419.2384498454
 11
223.7560192198
 21
418.2568226619
  0
LWPOLYLINE
  5
290
100
AcDbEntity
  8
0
100
AcDbPolyline
 62
7
  6
CONTINUOUS
 90
4
 70
0
 10
252.984297843
 20
252.5280101121
 10
252.8322070144
 20
253.4056502869
 10
252.8025373833
 20
253.6119172813
 10
252.7938984879
 20
253.7254015178
  0
LINE
  5
291
100
AcDbEntity
  8
0
100
AcDbLine
 62
7
  6
CONTINUOUS
 10
253.1741618145
 20
250.7609610893
 11
253.1731739598
 21
250.7687847448
  0
LINE
  5
292
100
AcDbEntity
  8
0
100
AcDbLine
 62
7
  6
CONTINUOUS
 10
253.1834479976
 20
250.770083317
 11
253.1833714289
 21
250.7707012805
  0
LINE
  5
293
100
AcDbEntity
  8
0
100
AcDbLine
 62
7
  6
CONTINUOUS
 10
253.1730725756
 20
252.1985897811
 11
253.1741611462
 21
252.189568741
  0
LINE
  5
294
100
AcDbEntity
  8
0
100
AcDbLine
 62
7
  6
CONTINUOUS
 10
252.8527259604
 20
250.9365548459
 11
252.8527357793
 21
250.9364661287
  0
LINE
  5
295
100
AcDbEntity
  8
0
100
AcDbLine
 62
7
  6
CONTINUOUS
 10
222.9835922336
 20
364.9989390906
 11
222.6835922336
 21
364.9460409964
  0
LINE
  5
296
100
AcDbEntity
  8
0
100
AcDbLine
 62
7
  6
CONTINUOUS
 10
223.0401676544
 20
352.2755064474
 11
222.6835922336
 21
352.2245671015
  0
LINE
  5
297
100
AcDbEntity
  8
0
100
AcDbLine
 62
7
  6
CONTINUOUS
 10
222.6835921309
 20
352.5856261205
 11
222.8887456717
 21
352.614935663
  0
LINE
  5
298
100
AcDbEntity
  8
0
100
AcDbLine
 62
7
  6
CONTINUOUS
 10
222.8887456231
 20
352.6149341155
 11
223.3835922318
 21
352.6714830469
  0
LINE
  5
299
100
AcDbEntity
  8
0
100
AcDbLine
 62
7
  6
CONTINUOUS
 10
221.1835922336
 20
344.7755102041
 11
227.193888845
 21
344.7755102041
  0
LINE
  5
29A
100
AcDbEntity
  8
0
100
AcDbLine
 62
7
  6
CONTINUOUS
 10
221.6835922336
 20
346.7755102041
 11
221.1835922336
 21
346.7755102041
  0
LINE
  5
29B
100
AcDbEntity
  8
0
100
AcDbLine
 62
7
  6
CONTINUOUS
 10
223.3835922336
 20
359.6795302837
 11
222.8887456231
 21
359.7360802063
  0
LINE
  5
29C
100
AcDbEntity
  8
0
100
AcDbLine
 62
7
  6
CONTINUOUS
 10
222.8887456634
 20
359.73608123
 11
222.6835921333
 21
359.7653943376
  0
LINE
  5
29D
100
AcDbEntity
  8
0
100
AcDbLine
 62
7
  6
CONTINUOUS
 10
222.6835922336
 20
360.1264533066
 11
223.0401690634
 21
360.0755137595
  0
LINE
  5
29E
100
AcDbEntity
  8
0
100
AcDbLine
 62
7
  6
CONTINUOUS
 10
223.1835922336
 20
103.1667590168
 11
222.9835922336
 21
102.9989390906
  0
LINE
  5
29F
100
AcDbEntity
  8
0
100
AcDbLine
 62
7
  6
CONTINUOUS
 10
223.2118885195
 20
379.5000379995
 11
222.6835922336
 21
379.4245671015
  0
LINE
  5
2A0
100
AcDbEntity
  8
0
100
AcDbLine
 62
7
  6
CONTINUOUS
 10
222.6835922447
 20
379.6050952349
 11
222.8887457445
 21
379.6343993296
  0
LINE
  5
2A1
100
AcDbEntity
  8
0
100
AcDbLine
 62
7
  6
CONTINUOUS
 10
222.8887456231
 20
379.6343977545
 11
223.3835922308
 21
379.6980248932
  0
LINE
  5
2A2
100
AcDbEntity
  8
0
100
AcDbLine
 62
7
  6
CONTINUOUS
 10
222.9835922336
 20
374.5520813176
 11
222.6835922336
 21
374.6049794118
  0
LINE
  5
2A3
100
AcDbEntity
  8
0
100
AcDbLine
 62
7
  6
CONTINUOUS
 10
223.1835922336
 20
374.3842613913
 11
222.9835922336
 21
374.5520813176
  0
LINE
  5
2A4
100
AcDbEntity
  8
0
100
AcDbLine
 62
7
  6
CONTINUOUS
 10
221.1835922336
 20
392.7755102041
 11
221.6835922336
 21
392.7755102041
  0
LINE
  5
2A5
100
AcDbEntity
  8
0
100
AcDbLine
 62
7
  6
CONTINUOUS
 10
221.1835922336
 20
394.7755102041
 11
227.193888845
 21
394.7755102041
  0
LINE
  5
2A6
100
AcDbEntity
  8
0
100
AcDbLine
 62
7
  6
CONTINUOUS
 10
222.8887456231
 20
387.1166211693
 11
223.3831157355
 21
387.0530746061
  0
LINE
  5
2A7
100
AcDbEntity
  8
0
100
AcDbLine
 62
7
  6
CONTINUOUS
 10
222.8887457409
 20
387.116621157
 11
222.6835922336
 21
387.145924989
  0
LINE
  5
2A8
100
AcDbEntity
  8
0
100
AcDbLine
 62
7
  6
CONTINUOUS
 10
222.6835922336
 20
387.3264533066
 11
223.2118925788
 21
387.2509818287
  0
LINE
  5
2A9
100
AcDbEntity
  8
0
100
AcDbLine
 62
7
  6
CONTINUOUS
 10
223.3831157355
 20
387.0530746061
 11
223.3835922336
 21
387.0529942157
  0
LINE
  5
2AA
100
AcDbEntity
  8
0
100
AcDbLine
 62
7
  6
CONTINUOUS
 10
223.1835922973
 20
58.9734852433
 11
223.5652102244
 21
59.2941977463
  0
LINE
  5
2AB
100
AcDbEntity
  8
0
100
AcDbLine
 62
7
  6
CONTINUOUS
 10
227.193888845
 20
418.962166334
 11
223.5652102244
 21
418.2568226619
  0
LINE
  5
2AC
100
AcDbEntity
  8
0
100
AcDbLine
 62
7
  6
CONTINUOUS
 10
223.5652102244
 20
419.2384498454
 11
227.193888845
 21
419.9437935175
  0
LINE
  5
2AD
100
AcDbEntity
  8
0
100
AcDbLine
 62
7
  6
CONTINUOUS
 10
93.9835922336
 20
410.2755102041
 11
94.1835922336
 21
410.2755102041
  0
LINE
  5
2AE
100
AcDbEntity
  8
0
100
AcDbLine
 62
7
  6
CONTINUOUS
 10
223.5652102244
 20
418.2568226619
 11
223.1835922825
 21
418.5775351472
  0
LINE
  5
2AF
100
AcDbEntity
  8
0
100
AcDbLine
 62
7
  6
CONTINUOUS
 10
93.9835922336
 20
423.2755102041
 11
94.1835922336
 21
423.2755102041
  0
LINE
  5
2B0
100
AcDbEntity
  8
0
100
AcDbLine
 62
7
  6
CONTINUOUS
 10
228.293888845
 20
435.7755102041
 11
243.993888845
 21
435.7755102041
  0
LINE
  5
2B1
100
AcDbEntity
  8
0
100
AcDbLine
 62
7
  6
CONTINUOUS
 10
228.293888845
 20
436.7755102041
 11
243.993888845
 21
436.7755102041
  0
LINE
  5
2B2
100
AcDbEntity
  8
0
100
AcDbLine
 62
7
  6
CONTINUOUS
 10
217.9835922336
 20
437.7755102041
 11
96.3835922336
 21
437.7755102041
  0
LINE
  5
2B3
100
AcDbEntity
  8
0
100
AcDbLine
 62
7
  6
CONTINUOUS
 10
217.9835922336
 20
438.7755101967
 11
96.3835922336
 21
438.775510199
  0
LINE
  5
2B4
100
AcDbEntity
  8
0
100
AcDbLine
 62
7
  6
CONTINUOUS
 10
246.6151753868
 20
435.0510748976
 11
243.993888845
 21
435.7755102041
  0
ARC
  5
2B5
100
AcDbEntity
  8
0
100
AcDbCircle
 62
7
  6
CONTINUOUS
 10
-22.5320163585
 20
226.5911693476
 40
275.6179507834
100
AcDbArc
 50
358.4704841479
 51
358.6283625996
  0
ARC
  5
2B6
100
AcDbEntity
  8
0
100
AcDbCircle
 62
7
  6
CONTINUOUS
 10
114.6085922336
 20
60.7755102041
 40
21.625
100
AcDbArc
 50
162.5076754749
 51
197.4923245251
  0
ARC
  5
2B7
100
AcDbEntity
  8
0
100
AcDbCircle
 62
7
  6
CONTINUOUS
 10
96.3835922336
 20
40.9755102041
 40
2.2
100
AcDbArc
 50
180.0
 51
269.9999999998
  0
ARC
  5
2B8
100
AcDbEntity
  8
0
100
AcDbCircle
 62
7
  6
CONTINUOUS
 10
36.4487089295
 20
242.870195005
 40
216.6179398707
100
AcDbArc
 50
1.3423797919
 51
1.5465771799
  0
ARC
  5
2B9
100
AcDbEntity
  8
0
100
AcDbCircle
 62
7
  6
CONTINUOUS
 10
114.6085922336
 20
416.7755102041
 40
21.625
100
AcDbArc
 50
162.5076754749
 51
197.4923245251
  0
ARC
  5
2BA
100
AcDbEntity
  8
0
100
AcDbCircle
 62
7
  6
CONTINUOUS
 10
96.3835922336
 20
436.5755102041
 40
2.2
100
AcDbArc
 50
90.0000000002
 51
180.0
  0
ARC
  5
2BB
100
AcDbEntity
  8
0
100
AcDbCircle
 62
7
  6
CONTINUOUS
 10
243.993888845
 20
43.9755102041
 40
3.2
100
AcDbArc
 50
269.9999999999
 51
360.0
  0
ARC
  5
2BC
100
AcDbEntity
  8
0
100
AcDbCircle
 62
7
  6
CONTINUOUS
 10
217.9835922336
 20
41.9755102041
 40
3.2
100
AcDbArc
 50
270.0
 51
352.9767365951
  0
ARC
  5
2BD
100
AcDbEntity
  8
0
100
AcDbCircle
 62
7
  6
CONTINUOUS
 10
243.993888845
 20
43.9755102041
 40
2.2
100
AcDbArc
 50
269.9999999998
 51
297.9415559626
  0
ARC
  5
2BE
100
AcDbEntity
  8
0
100
AcDbCircle
 62
7
  6
CONTINUOUS
 10
217.9835922336
 20
41.9755102041
 40
2.2
100
AcDbArc
 50
270.0
 51
319.049597478
  0
ARC
  5
2BF
100
AcDbEntity
  8
0
100
AcDbCircle
 62
7
  6
CONTINUOUS
 10
223.1835922336
 20
56.3493161959
 40
2.0
100
AcDbArc
 50
79.0
 51
180.0
  0
ARC
  5
2C0
100
AcDbEntity
  8
0
100
AcDbCircle
 62
7
  6
CONTINUOUS
 10
228.293888845
 20
41.8755102041
 40
1.1
100
AcDbArc
 50
149.9639774117
 51
270.0
  0
ARC
  5
2C1
100
AcDbEntity
  8
0
100
AcDbCircle
 62
7
  6
CONTINUOUS
 10
222.9835922336
 20
97.6795351459
 40
0.4
100
AcDbArc
 50
359.9997389563
 51
81.8698976458
  0
ARC
  5
2C2
100
AcDbEntity
  8
0
100
AcDbCircle
 62
7
  6
CONTINUOUS
 10
222.9836039883
 20
90.6714928718
 40
0.3999988099
100
AcDbArc
 50
278.1301023542
 51
359.9988695159
  0
ARC
  5
2C3
100
AcDbEntity
  8
0
100
AcDbCircle
 62
7
  6
CONTINUOUS
 10
223.1835922336
 20
117.6980261819
 40
0.2
100
AcDbArc
 50
278.1301023542
 51
0.00003205
  0
ARC
  5
2C4
100
AcDbEntity
  8
0
100
AcDbCircle
 62
7
  6
CONTINUOUS
 10
223.1835922336
 20
125.0529942263
 40
0.2
100
AcDbArc
 50
0.0
 51
81.8669414191
  0
ARC
  5
2C5
100
AcDbEntity
  8
0
100
AcDbCircle
 62
7
  6
CONTINUOUS
 10
230.4679850642
 20
219.2108563284
 40
22.832189855
100
AcDbArc
 50
349.7552419073
 51
350.2082844137
  0
ARC
  5
2C6
100
AcDbEntity
  8
0
100
AcDbCircle
 62
7
  6
CONTINUOUS
 10
232.8916511736
 20
218.7639475697
 40
20.3681587672
100
AcDbArc
 50
351.4678864328
 51
352.2244956242
  0
ARC
  5
2C7
100
AcDbEntity
  8
0
100
AcDbCircle
 62
7
  6
CONTINUOUS
 10
233.7157789618
 20
218.6493569922
 40
19.5362157061
100
AcDbArc
 50
350.2111499749
 51
350.8336871373
  0
ARC
  5
2C8
100
AcDbEntity
  8
0
100
AcDbCircle
 62
7
  6
CONTINUOUS
 10
234.7529317436
 20
218.4825513931
 40
18.4857350123
100
AcDbArc
 50
350.8320018657
 51
351.2984383015
  0
ARC
  5
2C9
100
AcDbEntity
  8
0
100
AcDbCircle
 62
7
  6
CONTINUOUS
 10
235.3973125665
 20
218.4214528573
 40
17.8391982092
100
AcDbArc
 50
352.2256192087
 51
352.6702942648
  0
ARC
  5
2CA
100
AcDbEntity
  8
0
100
AcDbCircle
 62
7
  6
CONTINUOUS
 10
235.6034099851
 20
218.3516435372
 40
17.625241235
100
AcDbArc
 50
351.3008247789
 51
351.4854874073
  0
ARC
  5
2CB
100
AcDbEntity
  8
0
100
AcDbCircle
 62
7
  6
CONTINUOUS
 10
237.862342721
 20
218.1076399916
 40
15.3542756748
100
AcDbArc
 50
352.6582143979
 51
353.4853130466
  0
ARC
  5
2CC
100
AcDbEntity
  8
0
100
AcDbCircle
 62
7
  6
CONTINUOUS
 10
240.3553034106
 20
217.8245240539
 40
12.8452908738
100
AcDbArc
 50
353.478362431
 51
354.7309903102
  0
ARC
  5
2CD
100
AcDbEntity
  8
0
100
AcDbCircle
 62
7
  6
CONTINUOUS
 10
240.9706637078
 20
217.7665207718
 40
12.227204279
100
AcDbArc
 50
354.7368403196
 51
354.9121772064
  0
ARC
  5
2CE
100
AcDbEntity
  8
0
100
AcDbCircle
 62
7
  6
CONTINUOUS
 10
241.8906790394
 20
217.6918607935
 40
11.3041951335
100
AcDbArc
 50
354.8755643829
 51
357.3569159521
  0
ARC
  5
2CF
100
AcDbEntity
  8
0
100
AcDbCircle
 62
7
  6
CONTINUOUS
 10
243.0710681583
 20
216.502615438
 40
10.1545855209
100
AcDbArc
 50
343.6578536707
 51
345.2960930351
  0
ARC
  5
2D0
100
AcDbEntity
  8
0
100
AcDbCircle
 62
7
  6
CONTINUOUS
 10
243.3050578101
 20
216.4404937129
 40
9.9124909713
100
AcDbArc
 50
345.3001108245
 51
346.6223487374
  0
ARC
  5
2D1
100
AcDbEntity
  8
0
100
AcDbCircle
 62
7
  6
CONTINUOUS
 10
243.57790331
 20
216.3750441703
 40
9.6319058633
100
AcDbArc
 50
346.6255955007
 51
348.5989165553
  0
ARC
  5
2D2
100
AcDbEntity
  8
0
100
AcDbCircle
 62
7
  6
CONTINUOUS
 10
243.7907603772
 20
216.2884057776
 40
9.4036976467
100
AcDbArc
 50
343.2180006176
 51
343.6764587788
  0
ARC
  5
2D3
100
AcDbEntity
  8
0
100
AcDbCircle
 62
7
  6
CONTINUOUS
 10
243.9463767602
 20
216.3008257713
 40
9.256032152
100
AcDbArc
 50
348.5983939092
 51
351.3701353547
  0
ARC
  5
2D4
100
AcDbEntity
  8
0
100
AcDbCircle
 62
7
  6
CONTINUOUS
 10
245.7530555117
 20
215.9755102041
 40
7.4408333333
100
AcDbArc
 50
293.9615779875
 51
340.8667596538
  0
ARC
  5
2D5
100
AcDbEntity
  8
0
100
AcDbCircle
 62
7
  6
CONTINUOUS
 10
246.3070140138
 20
216.1216671731
 40
6.8863461392
100
AcDbArc
 50
354.3502052303
 51
356.9137059444
  0
ARC
  5
2D6
100
AcDbEntity
  8
0
100
AcDbCircle
 62
7
  6
CONTINUOUS
 10
246.7361268113
 20
216.0779587679
 40
6.4550150037
100
AcDbArc
 50
352.2959209416
 51
354.3613081535
  0
ARC
  5
2D7
100
AcDbEntity
  8
0
100
AcDbCircle
 62
7
  6
CONTINUOUS
 10
256.1939119354
 20
216.160502124
 40
3.4111837624
100
AcDbArc
 50
178.0502006428
 51
179.3005892771
  0
ARC
  5
2D8
100
AcDbEntity
  8
0
100
AcDbCircle
 62
7
  6
CONTINUOUS
 10
253.7868358752
 20
216.9338482821
 40
0.9436999833
100
AcDbArc
 50
175.3650954619
 51
176.853942025
  0
ARC
  5
2D9
100
AcDbEntity
  8
0
100
AcDbCircle
 62
7
  6
CONTINUOUS
 10
252.3248441372
 20
235.0871805738
 40
0.8588134836
100
AcDbArc
 50
0.0312680569
 51
8.5270502727
  0
ARC
  5
2DA
100
AcDbEntity
  8
0
100
AcDbCircle
 62
7
  6
CONTINUOUS
 10
252.9836555471
 20
215.7614551856
 40
0.2
100
AcDbArc
 50
357.0415783425
 51
360.0
  0
ARC
  5
2DB
100
AcDbEntity
  8
0
100
AcDbCircle
 62
7
  6
CONTINUOUS
 10
252.9836555471
 20
217.1900462481
 40
0.2
100
AcDbArc
 50
356.0009019065
 51
360.0
  0
ARC
  5
2DC
100
AcDbEntity
  8
0
100
AcDbCircle
 62
7
  6
CONTINUOUS
 10
314.2110071503
 20
210.4932399619
 40
61.7089454909
100
AcDbArc
 50
173.9607293879
 51
174.121503028
  0
ARC
  5
2DD
100
AcDbEntity
  8
0
100
AcDbCircle
 62
7
  6
CONTINUOUS
 10
233.3913666735
 20
249.22344474
 40
19.8685361377
100
AcDbArc
 50
8.1978780158
 51
9.1582036961
  0
ARC
  5
2DE
100
AcDbEntity
  8
0
100
AcDbCircle
 62
7
  6
CONTINUOUS
 10
236.9641281018
 20
249.7429989806
 40
16.2581992129
100
AcDbArc
 50
6.8214651199
 51
8.1809728447
  0
ARC
  5
2DF
100
AcDbEntity
  8
0
100
AcDbCircle
 62
7
  6
CONTINUOUS
 10
243.1317125407
 20
251.4661565426
 40
10.0914123573
100
AcDbArc
 50
14.614135315
 51
16.2655220825
  0
ARC
  5
2E0
100
AcDbEntity
  8
0
100
AcDbCircle
 62
7
  6
CONTINUOUS
 10
243.2438782809
 20
251.4950062951
 40
9.9755965019
100
AcDbArc
 50
13.3649102367
 51
14.6163405614
  0
ARC
  5
2E1
100
AcDbEntity
  8
0
100
AcDbCircle
 62
7
  6
CONTINUOUS
 10
243.6166086782
 20
251.5841315301
 40
9.5923590595
100
AcDbArc
 50
11.3473776771
 51
13.361600576
  0
ARC
  5
2E2
100
AcDbEntity
  8
0
100
AcDbCircle
 62
7
  6
CONTINUOUS
 10
243.9427440896
 20
251.7060224102
 40
9.2456592721
100
AcDbArc
 50
16.2642480058
 51
16.7817731601
  0
ARC
  5
2E3
100
AcDbEntity
  8
0
100
AcDbCircle
 62
7
  6
CONTINUOUS
 10
243.9567244583
 20
251.6523079313
 40
9.2454775819
100
AcDbArc
 50
8.4626980634
 51
11.3478513412
  0
ARC
  5
2E4
100
AcDbEntity
  8
0
100
AcDbCircle
 62
7
  6
CONTINUOUS
 10
244.5895979625
 20
251.7453940319
 40
8.6057958822
100
AcDbArc
 50
3.0287241521
 51
8.4697857759
  0
ARC
  5
2E5
100
AcDbEntity
  8
0
100
AcDbCircle
 62
7
  6
CONTINUOUS
 10
245.7530555117
 20
251.9755102041
 40
7.4408333333
100
AcDbArc
 50
19.1334460693
 51
66.0384220125
  0
ARC
  5
2E6
100
AcDbEntity
  8
0
100
AcDbCircle
 62
7
  6
CONTINUOUS
 10
258.7139243257
 20
251.4481079782
 40
5.8892280839
100
AcDbArc
 50
184.9750934677
 51
185.6333927422
  0
ARC
  5
2E7
100
AcDbEntity
  8
0
100
AcDbCircle
 62
7
  6
CONTINUOUS
 10
256.8107306614
 20
251.2800756519
 40
3.9786331981
100
AcDbArc
 50
184.5374846452
 51
184.9412630399
  0
ARC
  5
2E8
100
AcDbEntity
  8
0
100
AcDbCircle
 62
7
  6
CONTINUOUS
 10
243.993888845
 20
433.5755102041
 40
3.2
100
AcDbArc
 50
0.0
 51
90.0000000001
  0
ARC
  5
2E9
100
AcDbEntity
  8
0
100
AcDbCircle
 62
7
  6
CONTINUOUS
 10
217.9835922336
 20
435.5755102041
 40
3.2
100
AcDbArc
 50
0.0
 51
90.0
  0
ARC
  5
2EA
100
AcDbEntity
  8
0
100
AcDbCircle
 62
7
  6
CONTINUOUS
 10
243.993888845
 20
433.5755102041
 40
2.2
100
AcDbArc
 50
62.0584693163
 51
90.0000000002
  0
ARC
  5
2EB
100
AcDbEntity
  8
0
100
AcDbCircle
 62
7
  6
CONTINUOUS
 10
217.9835922336
 20
435.5755102041
 40
2.2
100
AcDbArc
 50
40.9399462683
 51
90.0
  0
ARC
  5
2EC
100
AcDbEntity
  8
0
100
AcDbCircle
 62
7
  6
CONTINUOUS
 10
223.1835922336
 20
421.2017042123
 40
2.0
100
AcDbArc
 50
180.0
 51
281.0000000014
  0
ARC
  5
2ED
100
AcDbEntity
  8
0
100
AcDbCircle
 62
7
  6
CONTINUOUS
 10
228.293888845
 20
435.6755102041
 40
1.1
100
AcDbArc
 50
90.0
 51
210.1676994457
  0
ARC
  5
2EE
100
AcDbEntity
  8
0
100
AcDbCircle
 62
7
  6
CONTINUOUS
 10
252.3248126182
 20
242.4638436356
 40
0.8588452239
100
AcDbArc
 50
351.4719029142
 51
359.9685069888
  0
ARC
  5
2EF
100
AcDbEntity
  8
0
100
AcDbCircle
 62
7
  6
CONTINUOUS
 10
222.9835922336
 20
359.6795351459
 40
0.4
100
AcDbArc
 50
359.9997389563
 51
81.8698976458
  0
ARC
  5
2F0
100
AcDbEntity
  8
0
100
AcDbCircle
 62
7
  6
CONTINUOUS
 10
222.9836039883
 20
352.6714928718
 40
0.3999988099
100
AcDbArc
 50
278.1301023542
 51
359.998869516
  0
ARC
  5
2F1
100
AcDbEntity
  8
0
100
AcDbCircle
 62
7
  6
CONTINUOUS
 10
252.9836555472
 20
252.1895652226
 40
0.2
100
AcDbArc
 50
0.0
 51
2.9438009356
  0
ARC
  5
2F2
100
AcDbEntity
  8
0
100
AcDbCircle
 62
7
  6
CONTINUOUS
 10
252.9836555472
 20
250.7609741601
 40
0.2
100
AcDbArc
 50
0.0
 51
2.6051944203
  0
ARC
  5
2F3
100
AcDbEntity
  8
0
100
AcDbCircle
 62
7
  6
CONTINUOUS
 10
223.1835922336
 20
379.6980261819
 40
0.2
100
AcDbArc
 50
278.1301023542
 51
0.00003205
  0
ARC
  5
2F4
100
AcDbEntity
  8
0
100
AcDbCircle
 62
7
  6
CONTINUOUS
 10
223.1835922336
 20
387.0529942263
 40
0.2
100
AcDbArc
 50
0.0
 51
81.8669414191
  0
LINE
  5
2F5
100
AcDbEntity
  8
0
100
AcDbLine
 62
7
  6
CONTINUOUS
 10
253.1741594653
 20
215.7614850493
 11
253.1736021003
 21
215.7519901788
  0
SPLINE
  5
2F6
100
AcDbEntity
  8
0
100
AcDbSpline
 62
7
  6
CONTINUOUS
 70
0
 71
3
 72
25
 73
21
 74
0
 42
0.0000001
 43
0.0000001
 44
0.0000000001
 40
0.0
 40
0.0
 40
0.0
 40
0.0
 40
0.2271846775
 40
0.4386715611
 40
0.5350915713
 40
0.6236379821
 40
0.7033464203
 40
0.7732227295
 40
0.8320345893
 40
0.8786399677
 40
0.9132338792
 40
0.9367608096
 40
0.9446374023
 40
0.9501963014
 40
0.9543267988
 40
0.9589936131
 40
0.9656630527
 40
0.9747240691
 40
0.986199302
 40
1.0
 40
1.0
 40
1.0
 40
1.0
 10
253.1736021003
 20
215.7519901788
 30
0.0
 10
253.1657788939
 20
215.6198937654
 30
0.0
 10
253.1454190636
 20
215.365065646
 30
0.0
 10
253.1018905586
 20
215.056207893
 30
0.0
 10
253.0582368113
 20
214.8294137074
 30
0.0
 10
253.0241558698
 20
214.6790330351
 30
0.0
 10
252.9890439821
 20
214.5448233596
 30
0.0
 10
252.9542934473
 20
214.4284830121
 30
0.0
 10
252.9211136906
 20
214.3319079757
 30
0.0
 10
252.8903709767
 20
214.2562435484
 30
0.0
 10
252.8628770856
 20
214.2018445887
 30
0.0
 10
252.8421351345
 20
214.169091485
 30
0.0
 10
252.8272244907
 20
214.1535793543
 30
0.0
 10
252.8185139815
 20
214.1476793085
 30
0.0
 10
252.8093613527
 20
214.147845683
 30
0.0
 10
252.8030578725
 20
214.1552217938
 30
0.0
 10
252.7990103618
 20
214.166353294
 30
0.0
 10
252.7959909627
 20
214.1819978474
 30
0.0
 10
252.7942467432
 20
214.2019252562
 30
0.0
 10
252.7939017535
 20
214.2166561247
 30
0.0
 10
252.7938894959
 20
214.2246945843
 30
0.0
  0
SPLINE
  5
2F7
100
AcDbEntity
  8
0
100
AcDbSpline
 62
7
  6
CONTINUOUS
 70
0
 71
3
 72
9
 73
5
 74
0
 42
0.0000001
 43
0.0000001
 44
0.0000000001
 40
0.0
 40
0.0
 40
0.0
 40
0.0
 40
0.3055274562
 40
1.0
 40
1.0
 40
1.0
 40
1.0
 10
253.1741708691
 20
215.7614710504
 30
0.0
 10
253.1751300572
 20
215.7609128124
 30
0.0
 10
253.1781800056
 20
215.7589814756
 30
0.0
 10
253.1810945998
 20
215.7565467064
 30
0.0
 10
253.1823653437
 20
215.7543675244
 30
0.0
  0
SPLINE
  5
2F8
100
AcDbEntity
  8
0
100
AcDbSpline
 62
7
  6
CONTINUOUS
 70
0
 71
3
 72
8
 73
4
 74
0
 42
0.0000001
 43
0.0000001
 44
0.0000000001
 40
0.0
 40
0.0
 40
0.0
 40
0.0
 40
1.0
 40
1.0
 40
1.0
 40
1.0
 10
253.1823653437
 20
215.7543675244
 30
0.0
 10
253.1829713023
 20
215.7533283739
 30
0.0
 10
253.1833843933
 20
215.7521048035
 30
0.0
 10
253.1833718015
 20
215.7509019482
 30
0.0
  0
SPLINE
  5
2F9
100
AcDbEntity
  8
0
100
AcDbSpline
 62
7
  6
CONTINUOUS
 70
0
 71
3
 72
24
 73
20
 74
0
 42
0.0000001
 43
0.0000001
 44
0.0000000001
 40
0.0
 40
0.0
 40
0.0
 40
0.0
 40
0.0248603715
 40
0.0337194028
 40
0.0403161646
 40
0.0450819664
 40
0.0492458562
 40
0.0545826424
 40
0.06213659
 40
0.0853702354
 40
0.1204327002
 40
0.1674316652
 40
0.2261358509
 40
0.2958292477
 40
0.3755665888
 40
0.4642706428
 40
0.5607819119
 40
0.7724644
 40
1.0
 40
1.0
 40
1.0
 40
1.0
 10
252.7938920963
 20
253.7257085174
 30
0.0
 10
252.793885968
 20
253.7401792775
 30
0.0
 10
252.7944175052
 20
253.759885232
 30
0.0
 10
252.7988806382
 20
253.783031013
 30
0.0
 10
252.8030242294
 20
253.7940568647
 30
0.0
 10
252.8091408043
 20
253.801413496
 30
0.0
 10
252.8180614063
 20
253.8026153097
 30
0.0
 10
252.8270687476
 20
253.7976151027
 30
0.0
 10
252.8421951956
 20
253.7829910132
 30
0.0
 10
252.8628733371
 20
253.7502056798
 30
0.0
 10
252.8898994161
 20
253.6953010953
 30
0.0
 10
252.920608601
 20
253.6192064366
 30
0.0
 10
252.9539923015
 20
253.5227172522
 30
0.0
 10
252.9888623022
 20
253.4066511746
 30
0.0
 10
253.0239165286
 20
253.2725179014
 30
0.0
 10
253.0579317029
 20
253.1220626746
 30
0.0
 10
253.1017706634
 20
252.8951997851
 30
0.0
 10
253.1453916617
 20
252.5861709437
 30
0.0
 10
253.1653614684
 20
252.3311767794
 30
0.0
 10
253.1735795176
 20
252.1989877322
 30
0.0
  0
SPLINE
  5
2FA
100
AcDbEntity
  8
0
100
AcDbSpline
 62
7
  6
CONTINUOUS
 70
0
 71
3
 72
12
 73
8
 74
0
 42
0.0000001
 43
0.0000001
 44
0.0000000001
 40
0.0
 40
0.0
 40
0.0
 40
0.0
 40
0.2504394175
 40
0.3757882649
 40
0.5010449799
 40
0.7508452844
 40
1.0
 40
1.0
 40
1.0
 40
1.0
 10
248.774956037
 20
255.9258439716
 30
0.0
 10
249.271818679
 20
255.6878942302
 30
0.0
 10
249.9781835464
 20
255.240348934
 30
0.0
 10
250.7987533455
 20
254.5023438248
 30
0.0
 10
251.5346728107
 20
253.6810469601
 30
0.0
 10
252.2855204738
 20
252.5196125678
 30
0.0
 10
252.6918606511
 20
251.4916931713
 30
0.0
 10
252.8445543838
 20
250.9653173854
 30
0.0
  0
SPLINE
  5
2FB
100
AcDbEntity
  8
0
100
AcDbSpline
 62
7
  6
CONTINUOUS
 70
0
 71
3
 72
9
 73
5
 74
0
 42
0.0000001
 43
0.0000001
 44
0.0000000001
 40
0.0
 40
0.0
 40
0.0
 40
0.0
 40
0.2537039032
 40
1.0
 40
1.0
 40
1.0
 40
1.0
 10
253.183370903
 20
250.7707114022
 30
0.0
 10
253.1818115725
 20
250.8005287446
 30
0.0
 10
253.1749302341
 20
250.9180161889
 30
0.0
 10
253.1650214013
 20
251.0353348162
 30
0.0
 10
253.1556264533
 20
251.1226615309
 30
0.0
  0
SPLINE
  5
2FC
100
AcDbEntity
  8
0
100
AcDbSpline
 62
7
  6
CONTINUOUS
 70
0
 71
3
 72
22
 73
18
 74
0
 42
0.0000001
 43
0.0000001
 44
0.0000000001
 40
0.0
 40
0.0
 40
0.0
 40
0.0
 40
0.2390056752
 40
0.347193237
 40
0.4447431095
 40
0.5293690721
 40
0.5991728411
 40
0.653187752
 40
0.6915333468
 40
0.7054599196
 40
0.7165697912
 40
0.7258376906
 40
0.7347041274
 40
0.7561823685
 40
0.7867864031
 40
0.8766700608
 40
1.0
 40
1.0
 40
1.0
 40
1.0
 10
253.1556264533
 20
251.1226615309
 30
0.0
 10
253.1432597728
 20
251.2376107128
 30
0.0
 10
253.1203411493
 20
251.404179747
 30
0.0
 10
253.0781809835
 20
251.6151926173
 30
0.0
 10
253.0443739504
 20
251.7515861515
 30
0.0
 10
253.0086270278
 20
251.8681727637
 30
0.0
 10
252.9724281298
 20
251.9624484569
 30
0.0
 10
252.937395167
 20
252.0326797306
 30
0.0
 10
252.9077888365
 20
252.0753650782
 30
0.0
 10
252.8846553728
 20
252.0957431543
 30
0.0
 10
252.8698177448
 20
252.1036574131
 30
0.0
 10
252.8553775799
 20
252.1056004987
 30
0.0
 10
252.8366546774
 20
252.0991390078
 30
0.0
 10
252.8179293308
 20
252.074194229
 30
0.0
 10
252.7956468307
 20
252.0093443549
 30
0.0
 10
252.7830844972
 20
251.8907601351
 30
0.0
 10
252.782242629
 20
251.7878753186
 30
0.0
 10
252.7833797018
 20
251.7282286516
 30
0.0
  0
SPLINE
  5
2FD
100
AcDbEntity
  8
0
100
AcDbSpline
 62
7
  6
CONTINUOUS
 70
0
 71
3
 72
9
 73
5
 74
0
 42
0.0000001
 43
0.0000001
 44
0.0000000001
 40
0.0
 40
0.0
 40
0.0
 40
0.0
 40
0.2244318102
 40
1.0
 40
1.0
 40
1.0
 40
1.0
 10
252.7833797018
 20
251.7282286516
 30
0.0
 10
252.7840267785
 20
251.6942853815
 30
0.0
 10
252.7892918178
 20
251.5430893856
 30
0.0
 10
252.8014864774
 20
251.3922261167
 30
0.0
 10
252.812387072
 20
251.2754146774
 30
0.0
  0
SPLINE
  5
2FE
100
AcDbEntity
  8
0
100
AcDbSpline
 62
7
  6
CONTINUOUS
 70
0
 71
3
 72
8
 73
4
 74
0
 42
0.0000001
 43
0.0000001
 44
0.0000000001
 40
0.0
 40
0.0
 40
0.0
 40
0.0
 40
1.0
 40
1.0
 40
1.0
 40
1.0
 10
252.8445546955
 20
250.9653174685
 30
0.0
 10
252.8487818658
 20
250.9562913392
 30
0.0
 10
252.8516248145
 20
250.9464607672
 30
0.0
 10
252.8527260862
 20
250.9365548509
 30
0.0
  0
LINE
  5
2FF
100
AcDbEntity
  8
0
100
AcDbLine
 62
7
  6
CONTINUOUS
 10
252.8183942811
 20
254.2954333573
 11
252.8192061307
 21
254.2926510693
  0
SPLINE
  5
300
100
AcDbEntity
  8
0
100
AcDbSpline
 62
7
  6
CONTINUOUS
 70
0
 71
3
 72
9
 73
5
 74
0
 42
0.0000001
 43
0.0000001
 44
0.0000000001
 40
0.0
 40
0.0
 40
0.0
 40
0.0
 40
0.6927383381
 40
1.0
 40
1.0
 40
1.0
 40
1.0
 10
253.1833714289
 20
250.7707012805
 30
0.0
 10
253.1832192616
 20
250.7688953171
 30
0.0
 10
253.1816313082
 20
250.7664806092
 30
0.0
 10
253.1797075573
 20
250.7647539725
 30
0.0
 10
253.1790856918
 20
250.7642445752
 30
0.0
  0
SPLINE
  5
301
100
AcDbEntity
  8
0
100
AcDbSpline
 62
7
  6
CONTINUOUS
 70
0
 71
3
 72
8
 73
4
 74
0
 42
0.0000001
 43
0.0000001
 44
0.0000000001
 40
0.0
 40
0.0
 40
0.0
 40
0.0
 40
1.0
 40
1.0
 40
1.0
 40
1.0
 10
253.1790856918
 20
250.7642445752
 30
0.0
 10
253.1775689752
 20
250.7630021662
 30
0.0
 10
253.1759048268
 20
250.7619369066
 30
0.0
 10
253.1741967873
 20
250.7609743007
 30
0.0
  0
SPLINE
  5
302
100
AcDbEntity
  8
0
100
AcDbSpline
 62
7
  6
CONTINUOUS
 70
0
 71
3
 72
11
 73
7
 74
0
 42
0.0000001
 43
0.0000001
 44
0.0000000001
 40
0.0
 40
0.0
 40
0.0
 40
0.0
 40
0.3073958345
 40
0.5880335428
 40
0.8243636546
 40
1.0
 40
1.0
 40
1.0
 40
1.0
 10
253.1833730248
 20
252.2000949717
 30
0.0
 10
253.1750005534
 20
252.3553812564
 30
0.0
 10
253.1491898556
 20
252.652015112
 30
0.0
 10
253.0842906399
 20
253.0643572618
 30
0.0
 10
253.0048393246
 20
253.4058655459
 30
0.0
 10
252.9420970387
 20
253.6050352363
 30
0.0
 10
252.9097177602
 20
253.6877801422
 30
0.0
  0
SPLINE
  5
303
100
AcDbEntity
  8
0
100
AcDbSpline
 62
7
  6
CONTINUOUS
 70
0
 71
3
 72
19
 73
15
 74
0
 42
0.0000001
 43
0.0000001
 44
0.0000000001
 40
0.0
 40
0.0
 40
0.0
 40
0.0
 40
0.2349299067
 40
0.411872929
 40
0.5315228459
 40
0.5713120286
 40
0.5998076304
 40
0.621406115
 40
0.6443102133
 40
0.6753243089
 40
0.7171240504
 40
0.7704893413
 40
0.8355427862
 40
1.0
 40
1.0
 40
1.0
 40
1.0
 10
252.9097177602
 20
253.6877801422
 30
0.0
 10
252.8998864499
 20
253.7129039523
 30
0.0
 10
252.8816722319
 20
253.7566354215
 30
0.0
 10
252.8542003454
 20
253.8110744121
 30
0.0
 10
252.8332107217
 20
253.8439179283
 30
0.0
 10
252.8178367052
 20
253.8591333192
 30
0.0
 10
252.8088247356
 20
253.8646505384
 30
0.0
 10
252.799795497
 20
253.8646611471
 30
0.0
 10
252.7930593693
 20
253.8583314187
 30
0.0
 10
252.7886470714
 20
253.8481853596
 30
0.0
 10
252.7853926665
 20
253.8340045921
 30
0.0
 10
252.7834215511
 20
253.8156889106
 30
0.0
 10
252.7823133363
 20
253.7832042809
 30
0.0
 10
252.7835187527
 20
253.7568367195
 30
0.0
 10
252.7847794519
 20
253.7379929004
 30
0.0
  0
SPLINE
  5
304
100
AcDbEntity
  8
0
100
AcDbSpline
 62
7
  6
CONTINUOUS
 70
0
 71
3
 72
9
 73
5
 74
0
 42
0.0000001
 43
0.0000001
 44
0.0000000001
 40
0.0
 40
0.0
 40
0.0
 40
0.0
 40
0.2308578948
 40
1.0
 40
1.0
 40
1.0
 40
1.0
 10
252.7847794519
 20
253.7379929004
 30
0.0
 10
252.7851471853
 20
253.7324963452
 30
0.0
 10
252.7869141852
 20
253.7086987249
 30
0.0
 10
252.789286431
 20
253.6849489353
 30
0.0
 10
252.7913202318
 20
253.6667083273
 30
0.0
  0
SPLINE
  5
305
100
AcDbEntity
  8
0
100
AcDbSpline
 62
7
  6
CONTINUOUS
 70
0
 71
3
 72
12
 73
8
 74
0
 42
0.0000001
 43
0.0000001
 44
0.0000000001
 40
0.0
 40
0.0
 40
0.0
 40
0.0
 40
0.249154191
 40
0.4989548046
 40
0.6242116054
 40
0.7495604455
 40
1.0
 40
1.0
 40
1.0
 40
1.0
 10
252.8445452079
 20
216.9856433894
 30
0.0
 10
252.691850824
 20
216.459273889
 30
0.0
 10
252.2854952783
 20
215.4313711695
 30
0.0
 10
251.5346532615
 20
214.2699491592
 30
0.0
 10
250.7987370321
 20
213.4486605643
 30
0.0
 10
249.9781712987
 20
212.710664783
 30
0.0
 10
249.2718147263
 20
212.2631195282
 30
0.0
 10
248.774956037
 20
212.0251717757
 30
0.0
  0
SPLINE
  5
306
100
AcDbEntity
  8
0
100
AcDbSpline
 62
7
  6
CONTINUOUS
 70
0
 71
3
 72
9
 73
5
 74
0
 42
0.0000001
 43
0.0000001
 44
0.0000000001
 40
0.0
 40
0.0
 40
0.0
 40
0.0
 40
0.6930981167
 40
1.0
 40
1.0
 40
1.0
 40
1.0
 10
253.1833725859
 20
252.2000926804
 30
0.0
 10
253.1833919572
 20
252.1981956257
 30
0.0
 10
253.1818647744
 20
252.1955322085
 30
0.0
 10
253.1799087048
 20
252.1936695096
 30
0.0
 10
253.1792735861
 20
252.1931196775
 30
0.0
  0
SPLINE
  5
307
100
AcDbEntity
  8
0
100
AcDbSpline
 62
7
  6
CONTINUOUS
 70
0
 71
3
 72
8
 73
4
 74
0
 42
0.0000001
 43
0.0000001
 44
0.0000000001
 40
0.0
 40
0.0
 40
0.0
 40
0.0
 40
1.0
 40
1.0
 40
1.0
 40
1.0
 10
253.1792735861
 20
252.1931196775
 30
0.0
 10
253.177707773
 20
252.1917641286
 30
0.0
 10
253.175965461
 20
252.1906100991
 30
0.0
 10
253.1741759307
 20
252.1895675709
 30
0.0
  0
SPLINE
  5
308
100
AcDbEntity
  8
0
100
AcDbSpline
 62
7
  6
CONTINUOUS
 70
0
 71
3
 72
9
 73
5
 74
0
 42
0.0000001
 43
0.0000001
 44
0.0000000001
 40
0.0
 40
0.0
 40
0.0
 40
0.0
 40
0.2730028914
 40
1.0
 40
1.0
 40
1.0
 40
1.0
 10
252.8265689506
 20
216.8134219609
 30
0.0
 10
252.821584174
 20
216.7646692834
 30
0.0
 10
252.8038371166
 20
216.5860593413
 30
0.0
 10
252.7891134943
 20
216.4069927127
 30
0.0
 10
252.7847031762
 20
216.2765637309
 30
0.0
  0
SPLINE
  5
309
100
AcDbEntity
  8
0
100
AcDbSpline
 62
7
  6
CONTINUOUS
 70
0
 71
3
 72
25
 73
21
 74
0
 42
0.0000001
 43
0.0000001
 44
0.0000000001
 40
0.0
 40
0.0
 40
0.0
 40
0.0
 40
0.0573377554
 40
0.1071247348
 40
0.1483045935
 40
0.1800000304
 40
0.1922179137
 40
0.2022308121
 40
0.2106470301
 40
0.2186979289
 40
0.2280032105
 40
0.2398690157
 40
0.2738689928
 40
0.3233233862
 40
0.3884916824
 40
0.4680293159
 40
0.5597743448
 40
0.6610949095
 40
0.7696933237
 40
1.0
 40
1.0
 40
1.0
 40
1.0
 10
252.7829823224
 20
216.2021414781
 30
0.0
 10
252.7825961352
 20
216.1684682452
 30
0.0
 10
252.7829361602
 20
216.1055414531
 30
0.0
 10
252.7876382202
 20
216.0184864905
 30
0.0
 10
252.7969681798
 20
215.9470313844
 30
0.0
 10
252.8094300701
 20
215.8982446375
 30
0.0
 10
252.8235113876
 20
215.8697171848
 30
0.0
 10
252.8347833639
 20
215.8554384123
 30
0.0
 10
252.8483069217
 20
215.8468434231
 30
0.0
 10
252.8640049417
 20
215.8456558158
 30
0.0
 10
252.8803197701
 20
215.8522081105
 30
0.0
 10
252.905757898
 20
215.8726792901
 30
0.0
 10
252.9381997752
 20
215.919246236
 30
0.0
 10
252.9766318239
 20
215.9976122461
 30
0.0
 10
253.0162212925
 20
216.1047894522
 30
0.0
 10
253.0549595859
 20
216.2382071142
 30
0.0
 10
253.09089931
 20
216.3943087554
 30
0.0
 10
253.122468044
 20
216.5687016712
 30
0.0
 10
253.1581185773
 20
216.8248388877
 30
0.0
 10
253.1746527883
 20
217.0233850018
 30
0.0
 10
253.1821821263
 20
217.1584383428
 30
0.0
  0
LINE
  5
30A
100
AcDbEntity
  8
0
100
AcDbLine
 62
7
  6
CONTINUOUS
 10
253.1821821263
 20
217.1584383428
 11
253.182848502
 21
217.1705773345
  0
LINE
  5
30B
100
AcDbEntity
  8
0
100
AcDbLine
 62
7
  6
CONTINUOUS
 10
253.1741642707
 20
217.1900260017
 11
253.1733544696
 21
217.1768255238
  0
SPLINE
  5
30C
100
AcDbEntity
  8
0
100
AcDbSpline
 62
7
  6
CONTINUOUS
 70
0
 71
3
 72
23
 73
19
 74
0
 42
0.0000001
 43
0.0000001
 44
0.0000000001
 40
0.0
 40
0.0
 40
0.0
 40
0.0
 40
0.229216205
 40
0.4399916596
 40
0.6134895141
 40
0.6801549282
 40
0.7312597455
 40
0.7666018862
 40
0.7790401422
 40
0.7887522577
 40
0.7968380879
 40
0.8048897641
 40
0.814302841
 40
0.8258160462
 40
0.855975388
 40
0.8956713529
 40
0.9440373918
 40
1.0
 40
1.0
 40
1.0
 40
1.0
 10
253.1733544696
 20
217.1768255238
 30
0.0
 10
253.1653731759
 20
217.0478987908
 30
0.0
 10
253.1464051209
 20
216.8005291679
 30
0.0
 10
253.0961054104
 20
216.4581808964
 30
0.0
 10
253.0377295978
 20
216.2102961757
 30
0.0
 10
252.9834035303
 20
216.0551261165
 30
0.0
 10
252.9471386134
 20
215.9768222641
 30
0.0
 10
252.9163461317
 20
215.9295836179
 30
0.0
 10
252.8920783653
 20
215.9078155844
 30
0.0
 10
252.8766307967
 20
215.8999092967
 30
0.0
 10
252.8615258153
 20
215.8990601111
 30
0.0
 10
252.8481258389
 20
215.905596404
 30
0.0
 10
252.836983193
 20
215.9178489469
 30
0.0
 10
252.8229427119
 20
215.9431523562
 30
0.0
 10
252.8103255264
 20
215.9876741373
 30
0.0
 10
252.8004721475
 20
216.0535704932
 30
0.0
 10
252.7948965716
 20
216.1346315375
 30
0.0
 10
252.793881526
 20
216.1934269739
 30
0.0
 10
252.793882452
 20
216.2249643961
 30
0.0
  0
SPLINE
  5
30D
100
AcDbEntity
  8
0
100
AcDbSpline
 62
7
  6
CONTINUOUS
 70
0
 71
3
 72
9
 73
5
 74
0
 42
0.0000001
 43
0.0000001
 44
0.0000000001
 40
0.0
 40
0.0
 40
0.0
 40
0.0
 40
0.3761004884
 40
1.0
 40
1.0
 40
1.0
 40
1.0
 10
253.1826067235
 20
217.1705960102
 30
0.0
 10
253.1827373684
 20
217.1727023066
 30
0.0
 10
253.1829373539
 20
217.1781128706
 30
0.0
 10
253.1821420568
 20
217.1846075516
 30
0.0
 10
253.1795109528
 20
217.1869168174
 30
0.0
  0
SPLINE
  5
30E
100
AcDbEntity
  8
0
100
AcDbSpline
 62
7
  6
CONTINUOUS
 70
0
 71
3
 72
8
 73
4
 74
0
 42
0.0000001
 43
0.0000001
 44
0.0000000001
 40
0.0
 40
0.0
 40
0.0
 40
0.0
 40
1.0
 40
1.0
 40
1.0
 40
1.0
 10
253.1795109528
 20
217.1869168174
 30
0.0
 10
253.1779646505
 20
217.1882739752
 30
0.0
 10
253.1761870835
 20
217.1895864473
 30
0.0
 10
253.1741760714
 20
217.1900209105
 30
0.0
  0
SPLINE
  5
30F
100
AcDbEntity
  8
0
100
AcDbSpline
 62
7
  6
CONTINUOUS
 70
0
 71
3
 72
9
 73
5
 74
0
 42
0.0000001
 43
0.0000001
 44
0.0000000001
 40
0.0
 40
0.0
 40
0.0
 40
0.0
 40
0.2489601895
 40
1.0
 40
1.0
 40
1.0
 40
1.0
 10
252.9671545751
 20
218.6340322438
 30
0.0
 10
252.9696704293
 20
218.6832700305
 30
0.0
 10
252.9790701724
 20
218.8810777299
 30
0.0
 10
252.9853105366
 20
219.0790472962
 30
0.0
 10
252.987579717
 20
219.227759706
 30
0.0
  0
SPLINE
  5
310
100
AcDbEntity
  8
0
100
AcDbSpline
 62
7
  6
CONTINUOUS
 70
0
 71
3
 72
14
 73
10
 74
0
 42
0.0000001
 43
0.0000001
 44
0.0000000001
 40
0.0
 40
0.0
 40
0.0
 40
0.0
 40
0.0526176048
 40
0.1086476
 40
0.2252667698
 40
0.3473991342
 40
0.4725987154
 40
0.7313879151
 40
1.0
 40
1.0
 40
1.0
 40
1.0
 10
252.8462219453
 20
217.010105041
 30
0.0
 10
252.8484944728
 20
217.0385797586
 30
0.0
 10
252.8549124901
 20
217.0972237397
 30
0.0
 10
252.8674225651
 20
217.2188709428
 30
0.0
 10
252.8828724204
 20
217.3781589314
 30
0.0
 10
252.90080386
 20
217.5749303687
 30
0.0
 10
252.9214438124
 20
217.848929962
 30
0.0
 10
252.9428693148
 20
218.2025697975
 30
0.0
 10
252.9603099188
 20
218.4883677563
 30
0.0
 10
252.9671545751
 20
218.6340322438
 30
0.0
  0
SPLINE
  5
311
100
AcDbEntity
  8
0
100
AcDbSpline
 62
7
  6
CONTINUOUS
 70
0
 71
3
 72
13
 73
9
 74
0
 42
0.0000001
 43
0.0000001
 44
0.0000000001
 40
0.0
 40
0.0
 40
0.0
 40
0.0
 40
0.1610464825
 40
0.316252372
 40
0.5985117441
 40
0.8280507218
 40
0.9205029963
 40
1.0
 40
1.0
 40
1.0
 40
1.0
 10
247.1938888246
 20
213.0757051312
 30
0.0
 10
247.2943510232
 20
213.0438851689
 30
0.0
 10
247.4911371198
 20
212.9797199572
 30
0.0
 10
247.8564233579
 20
212.8375090082
 30
0.0
 10
248.2452013659
 20
212.6374835877
 30
0.0
 10
248.5643341645
 20
212.3941536729
 30
0.0
 10
248.7228685985
 20
212.1831345724
 30
0.0
 10
248.7669566731
 20
212.0765807552
 30
0.0
 10
248.7749662211
 20
212.0251820839
 30
0.0
  0
SPLINE
  5
312
100
AcDbEntity
  8
0
100
AcDbSpline
 62
7
  6
CONTINUOUS
 70
0
 71
3
 72
13
 73
9
 74
0
 42
0.0000001
 43
0.0000001
 44
0.0000000001
 40
0.0
 40
0.0
 40
0.0
 40
0.0
 40
0.0668747752
 40
0.1557425196
 40
0.266147979
 40
0.3950621754
 40
0.6906954112
 40
1.0
 40
1.0
 40
1.0
 40
1.0
 10
252.9875797444
 20
219.2277597205
 30
0.0
 10
252.9145525802
 20
219.1891265214
 30
0.0
 10
252.7349109113
 20
219.1177718266
 30
0.0
 10
252.4181972887
 20
219.0287346101
 30
0.0
 10
252.0205947165
 20
218.9477550975
 30
0.0
 10
251.3669089434
 20
218.8493152253
 30
0.0
 10
250.4628726747
 20
218.7708479773
 30
0.0
 10
249.7155919014
 20
218.7474467922
 30
0.0
 10
249.3334869261
 20
218.7450876095
 30
0.0
  0
SPLINE
  5
313
100
AcDbEntity
  8
0
100
AcDbSpline
 62
7
  6
CONTINUOUS
 70
0
 71
3
 72
8
 73
4
 74
0
 42
0.0000001
 43
0.0000001
 44
0.0000000001
 40
0.0
 40
0.0
 40
0.0
 40
0.0
 40
1.0
 40
1.0
 40
1.0
 40
1.0
 10
252.8527239175
 20
217.0144405795
 30
0.0
 10
252.8516207728
 20
217.0045230476
 30
0.0
 10
252.8487754554
 20
216.9946810826
 30
0.0
 10
252.8445453521
 20
216.985643351
 30
0.0
  0
SPLINE
  5
314
100
AcDbEntity
  8
0
100
AcDbSpline
 62
7
  6
CONTINUOUS
 70
0
 71
3
 72
9
 73
5
 74
0
 42
0.0000001
 43
0.0000001
 44
0.0000000001
 40
0.0
 40
0.0
 40
0.0
 40
0.0
 40
0.2492552743
 40
1.0
 40
1.0
 40
1.0
 40
1.0
 10
248.7749491614
 20
212.0251980334
 30
0.0
 10
248.7162015582
 20
212.002085093
 30
0.0
 10
248.4763753678
 20
211.9201960025
 30
0.0
 10
248.2225598308
 20
211.8795621558
 30
0.0
 10
248.0325041196
 20
211.8736812887
 30
0.0
  0
SPLINE
  5
315
100
AcDbEntity
  8
0
100
AcDbSpline
 62
7
  6
CONTINUOUS
 70
0
 71
3
 72
9
 73
5
 74
0
 42
0.0000001
 43
0.0000001
 44
0.0000000001
 40
0.0
 40
0.0
 40
0.0
 40
0.0
 40
0.2392928593
 40
1.0
 40
1.0
 40
1.0
 40
1.0
 10
253.0976149251
 20
214.9119516777
 30
0.0
 10
253.1076929878
 20
214.978474604
 30
0.0
 10
253.1466970763
 20
215.2569288328
 30
0.0
 10
253.172382593
 20
215.5373010591
 30
0.0
 10
253.1833720461
 20
215.7509066576
 30
0.0
  0
SPLINE
  5
316
100
AcDbEntity
  8
0
100
AcDbSpline
 62
7
  6
CONTINUOUS
 70
0
 71
3
 72
23
 73
19
 74
0
 42
0.0000001
 43
0.0000001
 44
0.0000000001
 40
0.0
 40
0.0
 40
0.0
 40
0.0
 40
0.2291056264
 40
0.4399433028
 40
0.6136028501
 40
0.6804747965
 40
0.7317205151
 40
0.7670552777
 40
0.7794932226
 40
0.78922356
 40
0.7973169307
 40
0.8053165246
 40
0.8146253896
 40
0.8260267546
 40
0.8560786137
 40
0.8957907952
 40
0.9441510798
 40
1.0
 40
1.0
 40
1.0
 40
1.0
 10
253.1736254249
 20
250.7691607808
 30
0.0
 10
253.1651434998
 20
250.8983576091
 30
0.0
 10
253.1466480731
 20
251.1464116499
 30
0.0
 10
253.096809356
 20
251.4899045748
 30
0.0
 10
253.0382187197
 20
251.7387186693
 30
0.0
 10
252.9839545673
 20
251.8946975701
 30
0.0
 10
252.9476923024
 20
251.9734879318
 30
0.0
 10
252.9167564103
 20
252.0209228946
 30
0.0
 10
252.8923805527
 20
252.0427235199
 30
0.0
 10
252.8768994104
 20
252.0506652451
 30
0.0
 10
252.861801891
 20
252.0517123267
 30
0.0
 10
252.8483224514
 20
252.0454450025
 30
0.0
 10
252.8371007892
 20
252.0333901393
 30
0.0
 10
252.8229684897
 20
252.00824773
 30
0.0
 10
252.8103505582
 20
251.9636929122
 30
0.0
 10
252.8004923427
 20
251.8976711258
 30
0.0
 10
252.7948995807
 20
251.8164378819
 30
0.0
 10
252.7938793128
 20
251.7575448625
 30
0.0
 10
252.7938844815
 20
251.7259828431
 30
0.0
  0
SPLINE
  5
317
100
AcDbEntity
  8
0
100
AcDbSpline
 62
7
  6
CONTINUOUS
 70
0
 71
3
 72
9
 73
5
 74
0
 42
0.0000001
 43
0.0000001
 44
0.0000000001
 40
0.0
 40
0.0
 40
0.0
 40
0.0
 40
0.2492553689
 40
1.0
 40
1.0
 40
1.0
 40
1.0
 10
248.7749491627
 20
255.9258167181
 30
0.0
 10
248.716201566
 20
255.9489298527
 30
0.0
 10
248.4763754679
 20
256.0308197177
 30
0.0
 10
248.222559911
 20
256.0714544446
 30
0.0
 10
248.0325041199
 20
256.0773359514
 30
0.0
  0
SPLINE
  5
318
100
AcDbEntity
  8
0
100
AcDbSpline
 62
7
  6
CONTINUOUS
 70
0
 71
3
 72
9
 73
5
 74
0
 42
0.0000001
 43
0.0000001
 44
0.0000000001
 40
0.0
 40
0.0
 40
0.0
 40
0.0
 40
0.2576679626
 40
1.0
 40
1.0
 40
1.0
 40
1.0
 10
252.8795656953
 20
250.605880016
 30
0.0
 10
252.8774369256
 20
250.6285791951
 30
0.0
 10
252.8690454256
 20
250.7166622495
 30
0.0
 10
252.8595727573
 20
250.8046375749
 30
0.0
 10
252.8531391031
 20
250.8700041829
 30
0.0
  0
SPLINE
  5
319
100
AcDbEntity
  8
0
100
AcDbSpline
 62
7
  6
CONTINUOUS
 70
0
 71
3
 72
11
 73
7
 74
0
 42
0.0000001
 43
0.0000001
 44
0.0000000001
 40
0.0
 40
0.0
 40
0.0
 40
0.0
 40
0.2606393035
 40
0.5175433468
 40
0.7648898009
 40
1.0
 40
1.0
 40
1.0
 40
1.0
 10
252.9875797269
 20
248.7232587219
 30
0.0
 10
252.9851804329
 20
248.8871000801
 30
0.0
 10
252.9741293858
 20
249.2123485072
 30
0.0
 10
252.9465210731
 20
249.6924364254
 30
0.0
 10
252.9182802524
 20
250.1563831568
 30
0.0
 10
252.8948378547
 20
250.4588618518
 30
0.0
 10
252.8795656953
 20
250.605880016
 30
0.0
  0
SPLINE
  5
31A
100
AcDbEntity
  8
0
100
AcDbSpline
 62
7
  6
CONTINUOUS
 70
0
 71
3
 72
13
 73
9
 74
0
 42
0.0000001
 43
0.0000001
 44
0.0000000001
 40
0.0
 40
0.0
 40
0.0
 40
0.0
 40
0.3093058709
 40
0.6049393357
 40
0.7338532627
 40
0.8442583064
 40
0.9331256013
 40
1.0
 40
1.0
 40
1.0
 40
1.0
 10
249.3334869261
 20
249.2059314504
 30
0.0
 10
249.7155934937
 20
249.20357219
 30
0.0
 10
250.4628761476
 20
249.1801707396
 30
0.0
 10
251.3669139351
 20
249.101702937
 30
0.0
 10
252.0205991033
 20
249.0032627186
 30
0.0
 10
252.4182002483
 20
248.9222831833
 30
0.0
 10
252.7349123366
 20
248.8332461416
 30
0.0
 10
252.9145530009
 20
248.7618917015
 30
0.0
 10
252.9875797505
 20
248.7232587094
 30
0.0
  0
SPLINE
  5
31B
100
AcDbEntity
  8
0
100
AcDbSpline
 62
7
  6
CONTINUOUS
 70
0
 71
3
 72
13
 73
9
 74
0
 42
0.0000001
 43
0.0000001
 44
0.0000000001
 40
0.0
 40
0.0
 40
0.0
 40
0.0
 40
0.0794923838
 40
0.172006983
 40
0.4014686225
 40
0.5372584424
 40
0.683960406
 40
1.0
 40
1.0
 40
1.0
 40
1.0
 10
248.7749661184
 20
255.9258337142
 30
0.0
 10
248.7667353587
 20
255.8744637468
 30
0.0
 10
248.7235641886
 20
255.7675293803
 30
0.0
 10
248.5635750338
 20
255.5573747186
 30
0.0
 10
248.3224337886
 20
255.3720069576
 30
0.0
 10
248.0326532905
 20
255.2043664878
 30
0.0
 10
247.6786489467
 20
255.035111542
 30
0.0
 10
247.3907261371
 20
254.9388704307
 30
0.0
 10
247.1938888289
 20
254.8753340185
 30
0.0
  0
SPLINE
  5
31C
100
AcDbEntity
  8
0
100
AcDbSpline
 62
7
  6
CONTINUOUS
 70
0
 71
3
 72
9
 73
5
 74
0
 42
0.0000001
 43
0.0000001
 44
0.0000000001
 40
0.0
 40
0.0
 40
0.0
 40
0.0
 40
0.3795131338
 40
1.0
 40
1.0
 40
1.0
 40
1.0
 10
252.9875817508
 20
248.7232590147
 30
0.0
 10
252.9890588988
 20
248.7228253204
 30
0.0
 10
252.9925817549
 20
248.7216081745
 30
0.0
 10
252.9976056453
 20
248.7193849246
 30
0.0
 10
252.9977056488
 20
248.7168699008
 30
0.0
  0
SPLINE
  5
31D
100
AcDbEntity
  8
0
100
AcDbSpline
 62
7
  6
CONTINUOUS
 70
0
 71
3
 72
9
 73
5
 74
0
 42
0.0000001
 43
0.0000001
 44
0.0000000001
 40
0.0
 40
0.0
 40
0.0
 40
0.0
 40
0.3794610186
 40
1.0
 40
1.0
 40
1.0
 40
1.0
 10
252.9875553529
 20
219.2277643609
 30
0.0
 10
252.9890340795
 20
219.2281979372
 30
0.0
 10
252.9925614535
 20
219.2294159776
 30
0.0
 10
252.9975919362
 20
219.2316337603
 30
0.0
 10
252.9976970329
 20
219.2341515591
 30
0.0
  0
SPLINE
  5
31E
100
AcDbEntity
  8
0
100
AcDbSpline
 62
7
  6
CONTINUOUS
 70
0
 71
3
 72
9
 73
5
 74
0
 42
0.0000001
 43
0.0000001
 44
0.0000000001
 40
0.0
 40
0.0
 40
0.0
 40
0.0
 40
0.4995601818
 40
1.0
 40
1.0
 40
1.0
 40
1.0
 10
253.006959334
 20
219.9936191678
 30
0.0
 10
253.0616609933
 20
222.2624476386
 30
0.0
 10
253.1401356491
 20
226.8049166641
 30
0.0
 10
253.1580417832
 20
231.3479432988
 30
0.0
 10
253.1589895092
 20
233.6214270702
 30
0.0
  0
LINE
  5
31F
100
AcDbEntity
  8
0
100
AcDbLine
 62
7
  6
CONTINUOUS
 10
253.1589895092
 20
233.6214270702
 11
253.1589824561
 21
234.3448819013
  0
SPLINE
  5
320
100
AcDbEntity
  8
0
100
AcDbSpline
 62
7
  6
CONTINUOUS
 70
0
 71
3
 72
9
 73
5
 74
0
 42
0.0000001
 43
0.0000001
 44
0.0000000001
 40
0.0
 40
0.0
 40
0.0
 40
0.0
 40
0.5004365401
 40
1.0
 40
1.0
 40
1.0
 40
1.0
 10
253.1589824561
 20
234.3448819013
 30
0.0
 10
253.1579983772
 20
236.6137082177
 30
0.0
 10
253.1402384484
 20
241.1474614144
 30
0.0
 10
253.0614224876
 20
245.6806419135
 30
0.0
 10
253.0071990401
 20
247.9448609863
 30
0.0
  0
SPLINE
  5
321
100
AcDbEntity
  8
0
100
AcDbSpline
 62
7
  6
CONTINUOUS
 70
0
 71
3
 72
12
 73
8
 74
0
 42
0.0000001
 43
0.0000001
 44
0.0000000001
 40
0.0
 40
0.0
 40
0.0
 40
0.0
 40
0.2657014157
 40
0.5220098005
 40
0.6462711242
 40
0.7674604744
 40
1.0
 40
1.0
 40
1.0
 40
1.0
 10
249.3334881342
 20
249.2059446872
 30
0.0
 10
249.3334866694
 20
249.6632125322
 30
0.0
 10
249.2539073821
 20
250.5641179302
 30
0.0
 10
248.9259248966
 20
251.6380844158
 30
0.0
 10
248.5175900595
 20
252.4022935859
 30
0.0
 10
248.0294563089
 20
253.0661692453
 30
0.0
 10
247.5477044278
 20
253.466824711
 30
0.0
 10
247.1938877161
 20
253.6538305593
 30
0.0
  0
SPLINE
  5
322
100
AcDbEntity
  8
0
100
AcDbSpline
 62
7
  6
CONTINUOUS
 70
0
 71
3
 72
12
 73
8
 74
0
 42
0.0000001
 43
0.0000001
 44
0.0000000001
 40
0.0
 40
0.0
 40
0.0
 40
0.0
 40
0.2325395296
 40
0.3537288809
 40
0.4779902054
 40
0.7342985904
 40
1.0
 40
1.0
 40
1.0
 40
1.0
 10
247.1938877076
 20
214.2971898445
 30
0.0
 10
247.5477043258
 20
214.4841956414
 30
0.0
 10
248.0294560937
 20
214.8848509665
 30
0.0
 10
248.5175897814
 20
215.5487263939
 30
0.0
 10
248.9259246008
 20
216.3129352974
 30
0.0
 10
249.2539071553
 20
217.3869014161
 30
0.0
 10
249.3334865821
 20
218.2878065314
 30
0.0
 10
249.3334881389
 20
218.7450742358
 30
0.0
  0
SPLINE
  5
323
100
AcDbEntity
  8
0
100
AcDbSpline
 62
7
  6
CONTINUOUS
 70
0
 71
3
 72
13
 73
9
 74
0
 42
0.0000001
 43
0.0000001
 44
0.0000000001
 40
0.0
 40
0.0
 40
0.0
 40
0.0
 40
0.3374077533
 40
0.6194138096
 40
0.7355800099
 40
0.8351071604
 40
0.9210547676
 40
1.0
 40
1.0
 40
1.0
 40
1.0
 10
247.1938884864
 20
255.6353414028
 30
0.0
 10
247.3071945089
 20
255.6490134091
 30
0.0
 10
247.5141450026
 20
255.6830150151
 30
0.0
 10
247.7532081283
 20
255.7603916496
 30
0.0
 10
247.8983034726
 20
255.8472840425
 30
0.0
 10
247.9743874647
 20
255.9167310211
 30
0.0
 10
248.0217274709
 20
255.9943793855
 30
0.0
 10
248.0324709501
 20
256.0506247912
 30
0.0
 10
248.03248556
 20
256.0773279492
 30
0.0
  0
SPLINE
  5
324
100
AcDbEntity
  8
0
100
AcDbSpline
 62
7
  6
CONTINUOUS
 70
0
 71
3
 72
9
 73
5
 74
0
 42
0.0000001
 43
0.0000001
 44
0.0000000001
 40
0.0
 40
0.0
 40
0.0
 40
0.0
 40
0.5823524056
 40
1.0
 40
1.0
 40
1.0
 40
1.0
 10
252.861891673
 20
214.7332154792
 30
0.0
 10
252.8440862963
 20
214.6327677224
 30
0.0
 10
252.8142321502
 20
214.4602383935
 30
0.0
 10
252.7896075024
 20
214.2865258003
 30
0.0
 10
252.7846872797
 20
214.2135299738
 30
0.0
  0
SPLINE
  5
325
100
AcDbEntity
  8
0
100
AcDbSpline
 62
7
  6
CONTINUOUS
 70
0
 71
3
 72
19
 73
15
 74
0
 42
0.0000001
 43
0.0000001
 44
0.0000000001
 40
0.0
 40
0.0
 40
0.0
 40
0.0
 40
0.1650401452
 40
0.2303786655
 40
0.2839896927
 40
0.3259640049
 40
0.3570687426
 40
0.3799947155
 40
0.4016647852
 40
0.4303429641
 40
0.4703500642
 40
0.5899396572
 40
0.7659217041
 40
1.0
 40
1.0
 40
1.0
 40
1.0
 10
252.7846872797
 20
214.2135299738
 30
0.0
 10
252.7834118756
 20
214.1946082347
 30
0.0
 10
252.7821834533
 20
214.168125755
 30
0.0
 10
252.7832609947
 20
214.1354919707
 30
0.0
 10
252.7852116333
 20
214.1170813225
 30
0.0
 10
252.7884556864
 20
214.1028281194
 30
0.0
 10
252.7928622049
 20
214.0926372991
 30
0.0
 10
252.7996296576
 20
214.0862828065
 30
0.0
 10
252.8087050498
 20
214.0863670231
 30
0.0
 10
252.8177349511
 20
214.091957956
 30
0.0
 10
252.8331167474
 20
214.1072395399
 30
0.0
 10
252.8541161781
 20
214.1399827108
 30
0.0
 10
252.8815939158
 20
214.1942274948
 30
0.0
 10
252.8997653951
 20
214.2377820228
 30
0.0
 10
252.9095785516
 20
214.2628258681
 30
0.0
  0
SPLINE
  5
326
100
AcDbEntity
  8
0
100
AcDbSpline
 62
7
  6
CONTINUOUS
 70
0
 71
3
 72
10
 73
6
 74
0
 42
0.0000001
 43
0.0000001
 44
0.0000000001
 40
0.0
 40
0.0
 40
0.0
 40
0.0
 40
0.182744104
 40
0.4160434389
 40
1.0
 40
1.0
 40
1.0
 40
1.0
 10
252.9095785516
 20
214.2628258681
 30
0.0
 10
252.931299296
 20
214.3182586906
 30
0.0
 10
252.9746101153
 20
214.446857023
 30
0.0
 10
253.0598385488
 20
214.7614108618
 30
0.0
 10
253.107310796
 20
215.0240981486
 30
0.0
 10
253.1328766441
 20
215.2126205248
 30
0.0
  0
SPLINE
  5
327
100
AcDbEntity
  8
0
100
AcDbSpline
 62
7
  6
CONTINUOUS
 70
0
 71
3
 72
13
 73
9
 74
0
 42
0.0000001
 43
0.0000001
 44
0.0000000001
 40
0.0
 40
0.0
 40
0.0
 40
0.0
 40
0.0789452992
 40
0.1648925956
 40
0.264419347
 40
0.3805852617
 40
0.6625913886
 40
1.0
 40
1.0
 40
1.0
 40
1.0
 10
248.0324856096
 20
211.8736870434
 30
0.0
 10
248.0324716531
 20
211.9003903662
 30
0.0
 10
248.0217294931
 20
211.9566362811
 30
0.0
 10
247.9743906832
 20
212.0342857657
 30
0.0
 10
247.8983072405
 20
212.1037337231
 30
0.0
 10
247.7532118287
 20
212.1906274034
 30
0.0
 10
247.5141472988
 20
212.2680050236
 30
0.0
 10
247.3071954106
 20
212.3020069153
 30
0.0
 10
247.1938884984
 20
212.3156790317
 30
0.0
  0
SPLINE
  5
328
100
AcDbEntity
  8
0
100
AcDbSpline
 62
7
  6
CONTINUOUS
 70
0
 71
3
 72
9
 73
5
 74
0
 42
0.0000001
 43
0.0000001
 44
0.0000000001
 40
0.0
 40
0.0
 40
0.0
 40
0.0
 40
0.5320302022
 40
1.0
 40
1.0
 40
1.0
 40
1.0
 10
252.9361607073
 20
215.1500710783
 30
0.0
 10
252.9231245537
 20
215.0761201558
 30
0.0
 10
252.8968653248
 20
214.9374360181
 30
0.0
 10
252.8733596414
 20
214.7982619008
 30
0.0
 10
252.861891673
 20
214.7332154792
 30
0.0
  0
SPLINE
  5
329
100
AcDbEntity
  8
0
100
AcDbSpline
 62
7
  6
CONTINUOUS
 70
0
 71
3
 72
10
 73
6
 74
0
 42
0.0000001
 43
0.0000001
 44
0.0000000001
 40
0.0
 40
0.0
 40
0.0
 40
0.0
 40
0.1796921437
 40
0.4129134492
 40
1.0
 40
1.0
 40
1.0
 40
1.0
 10
252.7913202318
 20
253.6667083273
 30
0.0
 10
252.7999422554
 20
253.5893797368
 30
0.0
 10
252.8272785953
 20
253.412586889
 30
0.0
 10
252.902868371
 20
252.9862788608
 30
0.0
 10
252.9662124051
 20
252.6367199314
 30
0.0
 10
253.0066312901
 20
252.3857417336
 30
0.0
  0
SPLINE
  5
32A
100
AcDbEntity
  8
0
100
AcDbSpline
 62
7
  6
CONTINUOUS
 70
0
 71
3
 72
9
 73
5
 74
0
 42
0.0000001
 43
0.0000001
 44
0.0000000001
 40
0.0
 40
0.0
 40
0.0
 40
0.0
 40
0.2435692327
 40
1.0
 40
1.0
 40
1.0
 40
1.0
 10
253.1072368217
 20
251.6740822263
 30
0.0
 10
253.1159418884
 20
251.600985805
 30
0.0
 10
253.1494322269
 20
251.3006245143
 30
0.0
 10
253.1729184528
 20
250.9990853282
 30
0.0
 10
253.183370903
 20
250.7707114022
 30
0.0
  0
SPLINE
  5
32B
100
AcDbEntity
  8
0
100
AcDbSpline
 62
7
  6
CONTINUOUS
 70
0
 71
3
 72
19
 73
15
 74
0
 42
0.0000001
 43
0.0000001
 44
0.0000000001
 40
0.0
 40
0.0
 40
0.0
 40
0.0
 40
0.1722111159
 40
0.3395711661
 40
0.4986894546
 40
0.6461897804
 40
0.7773770127
 40
0.8348677197
 40
0.8856374828
 40
0.928564864
 40
0.9625073597
 40
0.9864598427
 40
0.994507538
 40
1.0
 40
1.0
 40
1.0
 40
1.0
 10
221.6835922336
 20
84.7755102041
 30
0.0
 10
221.6835922336
 20
84.6458832927
 30
0.0
 10
221.7260368354
 20
84.3894640441
 30
0.0
 10
221.8729353501
 20
84.042338057
 30
0.0
 10
222.0508237855
 20
83.7325946023
 30
0.0
 10
222.2327931063
 20
83.457724548
 30
0.0
 10
222.3788729469
 20
83.2510898641
 30
0.0
 10
222.4836845179
 20
83.104456522
 30
0.0
 10
222.5494951399
 20
83.0116253223
 30
0.0
 10
222.6041249651
 20
82.9325469574
 30
0.0
 10
222.6453643834
 20
82.8689122046
 30
0.0
 10
222.6703168112
 20
82.8257745738
 30
0.0
 10
222.6811264915
 20
82.7997488132
 30
0.0
 10
222.6835922336
 20
82.789669621
 30
0.0
 10
222.6835922336
 20
82.7855353299
 30
0.0
  0
SPLINE
  5
32C
100
AcDbEntity
  8
0
100
AcDbSpline
 62
7
  6
CONTINUOUS
 70
0
 71
3
 72
11
 73
7
 74
0
 42
0.0000001
 43
0.0000001
 44
0.0000000001
 40
0.0
 40
0.0
 40
0.0
 40
0.0
 40
0.2180219403
 40
0.4550743036
 40
0.7178991619
 40
1.0
 40
1.0
 40
1.0
 40
1.0
 10
222.7665118218
 20
125.3146076511
 30
0.0
 10
222.7847430176
 20
125.3120036521
 30
0.0
 10
222.8218264832
 20
125.2965102709
 30
0.0
 10
222.8628700639
 20
125.2497221269
 30
0.0
 10
222.8869080119
 20
125.187024651
 30
0.0
 10
222.890218928
 20
125.1404007147
 30
0.0
 10
222.888745623
 20
125.1166173619
 30
0.0
  0
SPLINE
  5
32D
100
AcDbEntity
  8
0
100
AcDbSpline
 62
7
  6
CONTINUOUS
 70
0
 71
3
 72
9
 73
5
 74
0
 42
0.0000001
 43
0.0000001
 44
0.0000000001
 40
0.0
 40
0.0
 40
0.0
 40
0.0
 40
0.2354491186
 40
1.0
 40
1.0
 40
1.0
 40
1.0
 10
222.8177853278
 20
98.0180396151
 30
0.0
 10
222.8309586527
 20
97.9991083179
 30
0.0
 10
222.8786159823
 20
97.9129780213
 30
0.0
 10
222.8933868527
 20
97.8108314333
 30
0.0
 10
222.8887556754
 20
97.7360825298
 30
0.0
  0
SPLINE
  5
32E
100
AcDbEntity
  8
0
100
AcDbSpline
 62
7
  6
CONTINUOUS
 70
0
 71
3
 72
9
 73
5
 74
0
 42
0.0000001
 43
0.0000001
 44
0.0000000001
 40
0.0
 40
0.0
 40
0.0
 40
0.0
 40
0.4831876763
 40
1.0
 40
1.0
 40
1.0
 40
1.0
 10
222.6835953412
 20
98.1227984612
 30
0.0
 10
222.7099582082
 20
98.1140417673
 30
0.0
 10
222.7614459872
 20
98.0856220837
 30
0.0
 10
222.8008144731
 20
98.0424283171
 30
0.0
 10
222.8177853278
 20
98.0180396151
 30
0.0
  0
SPLINE
  5
32F
100
AcDbEntity
  8
0
100
AcDbSpline
 62
7
  6
CONTINUOUS
 70
0
 71
3
 72
11
 73
7
 74
0
 42
0.0000001
 43
0.0000001
 44
0.0000000001
 40
0.0
 40
0.0
 40
0.0
 40
0.0
 40
0.2787121698
 40
0.5410944586
 40
0.7806062683
 40
1.0
 40
1.0
 40
1.0
 40
1.0
 10
222.8887505939
 20
90.6149354193
 30
0.0
 10
222.8914346607
 20
90.5716113153
 30
0.0
 10
222.8863720357
 20
90.4864211277
 30
0.0
 10
222.8470147772
 20
90.369702721
 30
0.0
 10
222.7791216971
 20
90.2775260998
 30
0.0
 10
222.7160193308
 20
90.2389933063
 30
0.0
 10
222.6835926915
 20
90.228222049
 30
0.0
  0
SPLINE
  5
330
100
AcDbEntity
  8
0
100
AcDbSpline
 62
7
  6
CONTINUOUS
 70
0
 71
3
 72
19
 73
15
 74
0
 42
0.0000001
 43
0.0000001
 44
0.0000000001
 40
0.0
 40
0.0
 40
0.0
 40
0.0
 40
0.0054924622
 40
0.0135401725
 40
0.0374927539
 40
0.0714353778
 40
0.1143628123
 40
0.1651324505
 40
0.2226229455
 40
0.3538094732
 40
0.5013098205
 40
0.6604283127
 40
0.8277884906
 40
1.0
 40
1.0
 40
1.0
 40
1.0
 10
222.6835922336
 20
132.7654850783
 30
0.0
 10
222.6835922336
 20
132.7613507871
 30
0.0
 10
222.6811264896
 20
132.7512715834
 30
0.0
 10
222.6703167681
 20
132.7252457472
 30
0.0
 10
222.6453642449
 20
132.682107961
 30
0.0
 10
222.6041246916
 20
132.6184730446
 30
0.0
 10
222.5494948362
 20
132.5393946493
 30
0.0
 10
222.4836843301
 20
132.4465636292
 30
0.0
 10
222.3788732253
 20
132.299930918
 30
0.0
 10
222.2327937341
 20
132.0932968097
 30
0.0
 10
222.050824739
 20
131.8184269805
 30
0.0
 10
221.8729357937
 20
131.5086835135
 30
0.0
 10
221.7260369913
 20
131.1615570456
 30
0.0
 10
221.6835922336
 20
130.9051374116
 30
0.0
 10
221.6835922336
 20
130.7755102041
 30
0.0
  0
SPLINE
  5
331
100
AcDbEntity
  8
0
100
AcDbSpline
 62
7
  6
CONTINUOUS
 70
0
 71
3
 72
11
 73
7
 74
0
 42
0.0000001
 43
0.0000001
 44
0.0000000001
 40
0.0
 40
0.0
 40
0.0
 40
0.0
 40
0.2821004439
 40
0.5449250486
 40
0.7819776884
 40
1.0
 40
1.0
 40
1.0
 40
1.0
 10
222.8887457431
 20
117.6344011034
 30
0.0
 10
222.8902188445
 20
117.6106182066
 30
0.0
 10
222.886907761
 20
117.5639952166
 30
0.0
 10
222.8628702841
 20
117.5012989475
 30
0.0
 10
222.8218278455
 20
117.4545113787
 30
0.0
 10
222.7847453856
 20
117.4390175518
 30
0.0
 10
222.7665145551
 20
117.4364131475
 30
0.0
  0
SPLINE
  5
332
100
AcDbEntity
  8
0
100
AcDbSpline
 62
7
  6
CONTINUOUS
 70
0
 71
3
 72
19
 73
15
 74
0
 42
0.0000001
 43
0.0000001
 44
0.0000000001
 40
0.0
 40
0.0
 40
0.0
 40
0.0
 40
0.1722111159
 40
0.3395711661
 40
0.4986894546
 40
0.6461897804
 40
0.7773770127
 40
0.8348677197
 40
0.8856374828
 40
0.928564864
 40
0.9625073597
 40
0.9864598427
 40
0.994507538
 40
1.0
 40
1.0
 40
1.0
 40
1.0
 10
221.6835922336
 20
346.7755102041
 30
0.0
 10
221.6835922336
 20
346.6458832927
 30
0.0
 10
221.7260368354
 20
346.3894640441
 30
0.0
 10
221.8729353501
 20
346.042338057
 30
0.0
 10
222.0508237855
 20
345.7325946023
 30
0.0
 10
222.2327931063
 20
345.457724548
 30
0.0
 10
222.3788729469
 20
345.2510898641
 30
0.0
 10
222.4836845179
 20
345.104456522
 30
0.0
 10
222.5494951399
 20
345.0116253223
 30
0.0
 10
222.6041249651
 20
344.9325469574
 30
0.0
 10
222.6453643834
 20
344.8689122046
 30
0.0
 10
222.6703168112
 20
344.8257745738
 30
0.0
 10
222.6811264915
 20
344.7997488132
 30
0.0
 10
222.6835922336
 20
344.789669621
 30
0.0
 10
222.6835922336
 20
344.7855353299
 30
0.0
  0
SPLINE
  5
333
100
AcDbEntity
  8
0
100
AcDbSpline
 62
7
  6
CONTINUOUS
 70
0
 71
3
 72
11
 73
7
 74
0
 42
0.0000001
 43
0.0000001
 44
0.0000000001
 40
0.0
 40
0.0
 40
0.0
 40
0.0
 40
0.2180219403
 40
0.4550743036
 40
0.7178991619
 40
1.0
 40
1.0
 40
1.0
 40
1.0
 10
222.7665118218
 20
387.3146076511
 30
0.0
 10
222.7847430176
 20
387.3120036521
 30
0.0
 10
222.8218264832
 20
387.2965102709
 30
0.0
 10
222.8628700639
 20
387.2497221269
 30
0.0
 10
222.8869080119
 20
387.187024651
 30
0.0
 10
222.890218928
 20
387.1404007147
 30
0.0
 10
222.888745623
 20
387.1166173619
 30
0.0
  0
SPLINE
  5
334
100
AcDbEntity
  8
0
100
AcDbSpline
 62
7
  6
CONTINUOUS
 70
0
 71
3
 72
9
 73
5
 74
0
 42
0.0000001
 43
0.0000001
 44
0.0000000001
 40
0.0
 40
0.0
 40
0.0
 40
0.0
 40
0.2354491186
 40
1.0
 40
1.0
 40
1.0
 40
1.0
 10
222.8177853278
 20
360.0180396151
 30
0.0
 10
222.8309586527
 20
359.9991083178
 30
0.0
 10
222.8786159823
 20
359.9129780212
 30
0.0
 10
222.8933868527
 20
359.8108314333
 30
0.0
 10
222.8887556754
 20
359.7360825298
 30
0.0
  0
SPLINE
  5
335
100
AcDbEntity
  8
0
100
AcDbSpline
 62
7
  6
CONTINUOUS
 70
0
 71
3
 72
9
 73
5
 74
0
 42
0.0000001
 43
0.0000001
 44
0.0000000001
 40
0.0
 40
0.0
 40
0.0
 40
0.0
 40
0.4831876763
 40
1.0
 40
1.0
 40
1.0
 40
1.0
 10
222.6835953412
 20
360.1227984612
 30
0.0
 10
222.7099582082
 20
360.1140417673
 30
0.0
 10
222.7614459872
 20
360.0856220837
 30
0.0
 10
222.8008144731
 20
360.0424283171
 30
0.0
 10
222.8177853278
 20
360.0180396151
 30
0.0
  0
SPLINE
  5
336
100
AcDbEntity
  8
0
100
AcDbSpline
 62
7
  6
CONTINUOUS
 70
0
 71
3
 72
11
 73
7
 74
0
 42
0.0000001
 43
0.0000001
 44
0.0000000001
 40
0.0
 40
0.0
 40
0.0
 40
0.0
 40
0.2787121698
 40
0.5410944586
 40
0.7806062683
 40
1.0
 40
1.0
 40
1.0
 40
1.0
 10
222.8887505939
 20
352.6149354193
 30
0.0
 10
222.8914346607
 20
352.5716113153
 30
0.0
 10
222.8863720357
 20
352.4864211277
 30
0.0
 10
222.8470147772
 20
352.369702721
 30
0.0
 10
222.7791216971
 20
352.2775260998
 30
0.0
 10
222.7160193308
 20
352.2389933063
 30
0.0
 10
222.6835926915
 20
352.228222049
 30
0.0
  0
SPLINE
  5
337
100
AcDbEntity
  8
0
100
AcDbSpline
 62
7
  6
CONTINUOUS
 70
0
 71
3
 72
19
 73
15
 74
0
 42
0.0000001
 43
0.0000001
 44
0.0000000001
 40
0.0
 40
0.0
 40
0.0
 40
0.0
 40
0.0054924622
 40
0.0135401725
 40
0.0374927539
 40
0.0714353778
 40
0.1143628123
 40
0.1651324505
 40
0.2226229455
 40
0.3538094732
 40
0.5013098205
 40
0.6604283127
 40
0.8277884906
 40
1.0
 40
1.0
 40
1.0
 40
1.0
 10
222.6835922336
 20
394.7654850783
 30
0.0
 10
222.6835922336
 20
394.7613507871
 30
0.0
 10
222.6811264896
 20
394.7512715834
 30
0.0
 10
222.6703167681
 20
394.7252457472
 30
0.0
 10
222.6453642449
 20
394.682107961
 30
0.0
 10
222.6041246916
 20
394.6184730446
 30
0.0
 10
222.5494948362
 20
394.5393946493
 30
0.0
 10
222.4836843301
 20
394.4465636292
 30
0.0
 10
222.3788732253
 20
394.299930918
 30
0.0
 10
222.2327937341
 20
394.0932968097
 30
0.0
 10
222.050824739
 20
393.8184269805
 30
0.0
 10
221.8729357937
 20
393.5086835135
 30
0.0
 10
221.7260369913
 20
393.1615570456
 30
0.0
 10
221.6835922336
 20
392.9051374116
 30
0.0
 10
221.6835922336
 20
392.7755102041
 30
0.0
  0
SPLINE
  5
338
100
AcDbEntity
  8
0
100
AcDbSpline
 62
7
  6
CONTINUOUS
 70
0
 71
3
 72
11
 73
7
 74
0
 42
0.0000001
 43
0.0000001
 44
0.0000000001
 40
0.0
 40
0.0
 40
0.0
 40
0.0
 40
0.2821004439
 40
0.5449250486
 40
0.7819776884
 40
1.0
 40
1.0
 40
1.0
 40
1.0
 10
222.8887457431
 20
379.6344011034
 30
0.0
 10
222.8902188445
 20
379.6106182066
 30
0.0
 10
222.886907761
 20
379.5639952166
 30
0.0
 10
222.8628702841
 20
379.5012989475
 30
0.0
 10
222.8218278455
 20
379.4545113787
 30
0.0
 10
222.7847453856
 20
379.4390175518
 30
0.0
 10
222.7665145551
 20
379.4364131475
 30
0.0
  0
SPLINE
  5
339
100
AcDbEntity
  8
0
100
AcDbSpline
 62
7
  6
CONTINUOUS
 70
0
 71
3
 72
10
 73
6
 74
0
 42
0.0000001
 43
0.0000001
 44
0.0000000001
 40
0.0
 40
0.0
 40
0.0
 40
0.0
 40
0.3930187477
 40
0.6708366935
 40
1.0
 40
1.0
 40
1.0
 40
1.0
 10
227.1939641756
 20
434.8837338014
 30
0.0
 10
227.193971885
 20
435.0048517214
 30
0.0
 10
227.3330085482
 20
435.1953930736
 30
0.0
 10
227.5750919827
 20
435.3762946998
 30
0.0
 10
227.7360318281
 20
435.474901436
 30
0.0
 10
227.8241225654
 20
435.5252002259
 30
0.0
  0
SPLINE
  5
33A
100
AcDbEntity
  8
0
100
AcDbSpline
 62
7
  6
CONTINUOUS
 70
0
 71
3
 72
9
 73
5
 74
0
 42
0.0000001
 43
0.0000001
 44
0.0000000001
 40
0.0
 40
0.0
 40
0.0
 40
0.0
 40
0.2424936428
 40
1.0
 40
1.0
 40
1.0
 40
1.0
 10
227.8241225654
 20
435.5252002259
 30
0.0
 10
227.8548127279
 20
435.5427239529
 30
0.0
 10
227.9820844173
 20
435.6137465056
 30
0.0
 10
228.1113307228
 20
435.6811434776
 30
0.0
 10
228.2093852213
 20
435.7318686759
 30
0.0
  0
LINE
  5
33B
100
AcDbEntity
  8
0
100
AcDbLine
 62
7
  6
CONTINUOUS
 10
228.2093852213
 20
435.7318686759
 11
228.293888845
 21
435.7755102041
  0
SPLINE
  5
33C
100
AcDbEntity
  8
0
100
AcDbSpline
 62
7
  6
CONTINUOUS
 70
0
 71
3
 72
10
 73
6
 74
0
 42
0.0000001
 43
0.0000001
 44
0.0000000001
 40
0.0
 40
0.0
 40
0.0
 40
0.0
 40
0.39322557
 40
0.6709509089
 40
1.0
 40
1.0
 40
1.0
 40
1.0
 10
227.1939944023
 20
42.6672836506
 30
0.0
 10
227.1940000923
 20
42.5466797761
 30
0.0
 10
227.3318234959
 20
42.3567909678
 30
0.0
 10
227.5725097374
 20
42.1762942724
 30
0.0
 10
227.732611378
 20
42.0781847442
 30
0.0
 10
227.8202248837
 20
42.0280962323
 30
0.0
  0
SPLINE
  5
33D
100
AcDbEntity
  8
0
100
AcDbSpline
 62
7
  6
CONTINUOUS
 70
0
 71
3
 72
9
 73
5
 74
0
 42
0.0000001
 43
0.0000001
 44
0.0000000001
 40
0.0
 40
0.0
 40
0.0
 40
0.0
 40
0.2423467733
 40
1.0
 40
1.0
 40
1.0
 40
1.0
 10
227.8202248837
 20
42.0280962323
 30
0.0
 10
227.8511954223
 20
42.010390421
 30
0.0
 10
227.9797117033
 20
41.9385903851
 30
0.0
 10
228.110234454
 20
41.8704699615
 30
0.0
 10
228.2092869545
 20
41.8192107093
 30
0.0
  0
LINE
  5
33E
100
AcDbEntity
  8
0
100
AcDbLine
 62
7
  6
CONTINUOUS
 10
228.2092869545
 20
41.8192107093
 11
228.293888845
 21
41.7755102041
  0
SPLINE
  5
33F
100
AcDbEntity
  8
0
100
AcDbSpline
 62
7
  6
CONTINUOUS
 70
0
 71
3
 72
9
 73
5
 74
0
 42
0.0000001
 43
0.0000001
 44
0.0000000001
 40
0.0
 40
0.0
 40
0.0
 40
0.0
 40
0.2600646559
 40
1.0
 40
1.0
 40
1.0
 40
1.0
 10
246.6151753868
 20
42.4999455106
 30
0.0
 10
246.645884323
 20
42.5403599292
 30
0.0
 10
246.7612379122
 20
42.6977783132
 30
0.0
 10
246.8650702446
 20
42.8639246013
 30
0.0
 10
246.9321807967
 20
42.9918004228
 30
0.0
  0
SPLINE
  5
340
100
AcDbEntity
  8
0
100
AcDbSpline
 62
7
  6
CONTINUOUS
 70
0
 71
3
 72
9
 73
5
 74
0
 42
0.0000001
 43
0.0000001
 44
0.0000000001
 40
0.0
 40
0.0
 40
0.0
 40
0.0
 40
0.2647057265
 40
1.0
 40
1.0
 40
1.0
 40
1.0
 10
246.9321807967
 20
42.9918004228
 30
0.0
 10
246.9741433864
 20
43.0717580518
 30
0.0
 10
247.1186323776
 20
43.3805918844
 30
0.0
 10
247.193888845
 20
43.7246768028
 30
0.0
 10
247.193888845
 20
43.9755102041
 30
0.0
  0
SPLINE
  5
341
100
AcDbEntity
  8
0
100
AcDbSpline
 62
7
  6
CONTINUOUS
 70
0
 71
3
 72
9
 73
5
 74
0
 42
0.0000001
 43
0.0000001
 44
0.0000000001
 40
0.0
 40
0.0
 40
0.0
 40
0.0
 40
0.240649044
 40
1.0
 40
1.0
 40
1.0
 40
1.0
 10
247.193888845
 20
433.5755102041
 30
0.0
 10
247.193888845
 20
433.6576451778
 30
0.0
 10
247.1708859281
 20
433.9990894134
 30
0.0
 10
247.0526181736
 20
434.3297325499
 30
0.0
 10
246.9321807967
 20
434.5592199854
 30
0.0
  0
SPLINE
  5
342
100
AcDbEntity
  8
0
100
AcDbSpline
 62
7
  6
CONTINUOUS
 70
0
 71
3
 72
9
 73
5
 74
0
 42
0.0000001
 43
0.0000001
 44
0.0000000001
 40
0.0
 40
0.0
 40
0.0
 40
0.0
 40
0.2403080807
 40
1.0
 40
1.0
 40
1.0
 40
1.0
 10
246.9321807967
 20
434.5592199854
 30
0.0
 10
246.9103840848
 20
434.6007525366
 30
0.0
 10
246.8154117608
 20
434.7713390611
 30
0.0
 10
246.7048865559
 20
434.933010738
 30
0.0
 10
246.6151753868
 20
435.0510748976
 30
0.0
  0
SPLINE
  5
343
100
AcDbEntity
  8
0
100
AcDbSpline
 62
7
  6
CONTINUOUS
 70
0
 71
3
 72
9
 73
5
 74
0
 42
0.0000001
 43
0.0000001
 44
0.0000000001
 40
0.0
 40
0.0
 40
0.0
 40
0.0
 40
0.4514446793
 40
1.0
 40
1.0
 40
1.0
 40
1.0
 10
221.1835922336
 20
56.3493161958
 30
0.0
 10
221.1835922336
 20
56.6203642516
 30
0.0
 10
221.3776619226
 20
57.219751884
 30
0.0
 10
221.7725848234
 20
57.6800757861
 30
0.0
 10
222.0014139493
 20
57.9169532066
 30
0.0
  0
SPLINE
  5
344
100
AcDbEntity
  8
0
100
AcDbSpline
 62
7
  6
CONTINUOUS
 70
0
 71
3
 72
9
 73
5
 74
0
 42
0.0000001
 43
0.0000001
 44
0.0000000001
 40
0.0
 40
0.0
 40
0.0
 40
0.0
 40
0.2378160315
 40
1.0
 40
1.0
 40
1.0
 40
1.0
 10
222.0014139493
 20
57.9169532066
 30
0.0
 10
222.0798248579
 20
57.9981219551
 30
0.0
 10
222.4187020506
 20
58.3306194855
 30
0.0
 10
222.7815883018
 20
58.6372236001
 30
0.0
 10
223.0589686654
 20
58.869356205
 30
0.0
  0
LINE
  5
345
100
AcDbEntity
  8
0
100
AcDbLine
 62
7
  6
CONTINUOUS
 10
223.0589686654
 20
58.869356205
 11
223.183579257
 21
58.9735010347
  0
SPLINE
  5
346
100
AcDbEntity
  8
0
100
AcDbSpline
 62
7
  6
CONTINUOUS
 70
0
 71
3
 72
9
 73
5
 74
0
 42
0.0000001
 43
0.0000001
 44
0.0000000001
 40
0.0
 40
0.0
 40
0.0
 40
0.0
 40
0.2600327807
 40
1.0
 40
1.0
 40
1.0
 40
1.0
 10
217.9835922336
 20
39.7755102041
 30
0.0
 10
218.1337343282
 20
39.8412238095
 30
0.0
 10
218.7109492645
 20
40.094127988
 30
0.0
 10
219.2859747297
 20
40.3537446608
 30
0.0
 10
219.6999863453
 20
40.5684762414
 30
0.0
  0
SPLINE
  5
347
100
AcDbEntity
  8
0
100
AcDbSpline
 62
7
  6
CONTINUOUS
 70
0
 71
3
 72
9
 73
5
 74
0
 42
0.0000001
 43
0.0000001
 44
0.0000000001
 40
0.0
 40
0.0
 40
0.0
 40
0.0
 40
0.2623323511
 40
1.0
 40
1.0
 40
1.0
 40
1.0
 10
219.6999863453
 20
40.5684762414
 30
0.0
 10
219.7486123744
 20
40.5936966547
 30
0.0
 10
219.9332829546
 20
40.6911355166
 30
0.0
 10
220.1150486044
 20
40.7942652481
 30
0.0
 10
220.2460283913
 20
40.8753211087
 30
0.0
  0
SPLINE
  5
348
100
AcDbEntity
  8
0
100
AcDbSpline
 62
7
  6
CONTINUOUS
 70
0
 71
3
 72
10
 73
6
 74
0
 42
0.0000001
 43
0.0000001
 44
0.0000000001
 40
0.0
 40
0.0
 40
0.0
 40
0.0
 40
0.3246735712
 40
0.5960620798
 40
1.0
 40
1.0
 40
1.0
 40
1.0
 10
220.2460283913
 20
40.8753211087
 30
0.0
 10
220.383097181
 20
40.960145103
 30
0.0
 10
220.6294784379
 20
41.1277225312
 30
0.0
 10
220.9996603664
 20
41.4513624995
 30
0.0
 10
221.1835922336
 20
41.7749651178
 30
0.0
 10
221.1835922336
 20
41.9755102041
 30
0.0
  0
SPLINE
  5
349
100
AcDbEntity
  8
0
100
AcDbSpline
 62
7
  6
CONTINUOUS
 70
0
 71
3
 72
10
 73
6
 74
0
 42
0.0000001
 43
0.0000001
 44
0.0000000001
 40
0.0
 40
0.0
 40
0.0
 40
0.0
 40
0.4039678516
 40
0.6753461616
 40
1.0
 40
1.0
 40
1.0
 40
1.0
 10
221.1835922336
 20
435.5755102041
 30
0.0
 10
221.1835922336
 20
435.7759749489
 30
0.0
 10
220.9998115362
 20
436.0994529484
 30
0.0
 10
220.6298533782
 20
436.4230042124
 30
0.0
 10
220.3836245714
 20
436.5905259549
 30
0.0
 10
220.2466394326
 20
436.6753211098
 30
0.0
  0
SPLINE
  5
34A
100
AcDbEntity
  8
0
100
AcDbSpline
 62
7
  6
CONTINUOUS
 70
0
 71
3
 72
9
 73
5
 74
0
 42
0.0000001
 43
0.0000001
 44
0.0000000001
 40
0.0
 40
0.0
 40
0.0
 40
0.0
 40
0.237210411
 40
1.0
 40
1.0
 40
1.0
 40
1.0
 10
220.2466394326
 20
436.6753211098
 30
0.0
 10
220.2045064404
 20
436.7014018484
 30
0.0
 10
220.0254951644
 20
436.8091011751
 30
0.0
 10
219.8418545419
 20
436.9089554081
 30
0.0
 10
219.7004087358
 20
436.9823251112
 30
0.0
  0
SPLINE
  5
34B
100
AcDbEntity
  8
0
100
AcDbSpline
 62
7
  6
CONTINUOUS
 70
0
 71
3
 72
9
 73
5
 74
0
 42
0.0000001
 43
0.0000001
 44
0.0000000001
 40
0.0
 40
0.0
 40
0.0
 40
0.0
 40
0.2352280797
 40
1.0
 40
1.0
 40
1.0
 40
1.0
 10
219.7004087358
 20
436.9823251112
 30
0.0
 10
219.5687592852
 20
437.0506133224
 30
0.0
 10
219.0036132783
 20
437.3303896976
 30
0.0
 10
218.4253104647
 20
437.5821806938
 30
0.0
 10
217.9835922336
 20
437.7755102035
 30
0.0
  0
LINE
  5
34C
100
AcDbEntity
  8
0
100
AcDbLine
 62
7
  6
CONTINUOUS
 10
223.183579252
 20
418.5775193689
 11
223.0589959131
 21
418.681641393
  0
SPLINE
  5
34D
100
AcDbEntity
  8
0
100
AcDbSpline
 62
7
  6
CONTINUOUS
 70
0
 71
3
 72
9
 73
5
 74
0
 42
0.0000001
 43
0.0000001
 44
0.0000000001
 40
0.0
 40
0.0
 40
0.0
 40
0.0
 40
0.259686097
 40
1.0
 40
1.0
 40
1.0
 40
1.0
 10
223.0589959131
 20
418.681641393
 30
0.0
 10
222.9644590075
 20
418.7607568733
 30
0.0
 10
222.6013080925
 20
419.066259407
 30
0.0
 10
222.2451276029
 20
419.3817317144
 30
0.0
 10
222.0009850045
 20
419.634511089
 30
0.0
  0
SPLINE
  5
34E
100
AcDbEntity
  8
0
100
AcDbSpline
 62
7
  6
CONTINUOUS
 70
0
 71
3
 72
9
 73
5
 74
0
 42
0.0000001
 43
0.0000001
 44
0.0000000001
 40
0.0
 40
0.0
 40
0.0
 40
0.0
 40
0.5485384734
 40
1.0
 40
1.0
 40
1.0
 40
1.0
 10
222.0009850045
 20
419.634511089
 30
0.0
 10
221.7722637515
 20
419.8713235734
 30
0.0
 10
221.3775329619
 20
420.3315460288
 30
0.0
 10
221.1835922336
 20
420.9307378375
 30
0.0
 10
221.1835922336
 20
421.2017042122
 30
0.0
  0
SPLINE
  5
34F
100
AcDbEntity
  8
0
100
AcDbSpline
 62
7
  6
CONTINUOUS
 70
0
 71
3
 72
9
 73
5
 74
0
 42
0.0000001
 43
0.0000001
 44
0.0000000001
 40
0.0
 40
0.0
 40
0.0
 40
0.0
 40
0.253647648
 40
1.0
 40
1.0
 40
1.0
 40
1.0
 10
96.3835922336
 20
437.7755102041
 30
0.0
 10
96.3180304798
 20
437.752744072
 30
0.0
 10
96.059564002
 20
437.6629734184
 30
0.0
 10
95.801470521
 20
437.5720438432
 30
0.0
 10
95.610004236
 20
437.5010230374
 30
0.0
  0
SPLINE
  5
350
100
AcDbEntity
  8
0
100
AcDbSpline
 62
7
  6
CONTINUOUS
 70
0
 71
3
 72
9
 73
5
 74
0
 42
0.0000001
 43
0.0000001
 44
0.0000000001
 40
0.0
 40
0.0
 40
0.0
 40
0.0
 40
0.2806467919
 40
1.0
 40
1.0
 40
1.0
 40
1.0
 10
95.610004236
 20
437.5010230374
 30
0.0
 10
95.5176132538
 20
437.4667523458
 30
0.0
 10
95.1898238284
 20
437.3415319462
 30
0.0
 10
94.8649114365
 20
437.2039768377
 30
0.0
 10
94.6451630935
 20
437.0794418418
 30
0.0
  0
SPLINE
  5
351
100
AcDbEntity
  8
0
100
AcDbSpline
 62
7
  6
CONTINUOUS
 70
0
 71
3
 72
9
 73
5
 74
0
 42
0.0000001
 43
0.0000001
 44
0.0000000001
 40
0.0
 40
0.0
 40
0.0
 40
0.0
 40
0.6046223498
 40
1.0
 40
1.0
 40
1.0
 40
1.0
 10
94.6451630935
 20
437.0794418418
 30
0.0
 10
94.5217183948
 20
437.0094837032
 30
0.0
 10
94.3210607897
 20
436.8894022902
 30
0.0
 10
94.1835922336
 20
436.6682955317
 30
0.0
 10
94.1835922336
 20
436.575510204
 30
0.0
  0
SPLINE
  5
352
100
AcDbEntity
  8
0
100
AcDbSpline
 62
7
  6
CONTINUOUS
 70
0
 71
3
 72
9
 73
5
 74
0
 42
0.0000001
 43
0.0000001
 44
0.0000000001
 40
0.0
 40
0.0
 40
0.0
 40
0.0
 40
0.3953768515
 40
1.0
 40
1.0
 40
1.0
 40
1.0
 10
94.1835922336
 20
40.9755102041
 30
0.0
 10
94.1835922336
 20
40.8827244719
 30
0.0
 10
94.3210613636
 20
40.6616160085
 30
0.0
 10
94.5217211781
 20
40.5415350233
 30
0.0
 10
94.6451668835
 20
40.4715764445
 30
0.0
  0
SPLINE
  5
353
100
AcDbEntity
  8
0
100
AcDbSpline
 62
7
  6
CONTINUOUS
 70
0
 71
3
 72
9
 73
5
 74
0
 42
0.0000001
 43
0.0000001
 44
0.0000000001
 40
0.0
 40
0.0
 40
0.0
 40
0.0
 40
0.2357424177
 40
1.0
 40
1.0
 40
1.0
 40
1.0
 10
94.6451668835
 20
40.4715764445
 30
0.0
 10
94.6653998579
 20
40.4601101069
 30
0.0
 10
94.7518316178
 20
40.4125384286
 30
0.0
 10
94.8403417421
 20
40.3688125129
 30
0.0
 10
94.9086322447
 20
40.3368631819
 30
0.0
  0
SPLINE
  5
354
100
AcDbEntity
  8
0
100
AcDbSpline
 62
7
  6
CONTINUOUS
 70
0
 71
3
 72
9
 73
5
 74
0
 42
0.0000001
 43
0.0000001
 44
0.0000000001
 40
0.0
 40
0.0
 40
0.0
 40
0.0
 40
0.2306002591
 40
1.0
 40
1.0
 40
1.0
 40
1.0
 10
94.9086322447
 20
40.3368631819
 30
0.0
 10
94.9613952494
 20
40.3121783042
 30
0.0
 10
95.1920128133
 20
40.2089954748
 30
0.0
 10
95.4277103277
 20
40.1176166652
 30
0.0
 10
95.6099355438
 20
40.0500228652
 30
0.0
  0
SPLINE
  5
355
100
AcDbEntity
  8
0
100
AcDbSpline
 62
7
  6
CONTINUOUS
 70
0
 71
3
 72
9
 73
5
 74
0
 42
0.0000001
 43
0.0000001
 44
0.0000000001
 40
0.0
 40
0.0
 40
0.0
 40
0.0
 40
0.2442270671
 40
1.0
 40
1.0
 40
1.0
 40
1.0
 10
95.6099355438
 20
40.0500228652
 30
0.0
 10
95.672594527
 20
40.0267804245
 30
0.0
 10
95.9296921512
 20
39.9330584914
 30
0.0
 10
96.188224509
 20
39.8433510894
 30
0.0
 10
96.3835922336
 20
39.7755102041
 30
0.0
  0
ENDSEC
  0
SECTION
  2
OBJECTS
  0
DICTIONARY
  5
C
100
AcDbDictionary
280
0
281
1
  3
ACAD_GROUP
350
D
  3
ACAD_MLINESTYLE
350
17
  3
ACAD_LAYOUT
350
1A
  3
ACAD_PLOTSETTINGS
350
19
  3
ACAD_PLOTSTYLENAME
350
E
  0
DICTIONARY
  5
D
102
{ACAD_REACTORS
330
C
102
}
100
AcDbDictionary
280
0
281
1
  0
ACDBDICTIONARYWDFLT
  5
E
102
{ACAD_REACTORS
330
C
102
}
100
AcDbDictionary
281
1
  3
Normal
350
F
100
AcDbDictionaryWithDefault
340
F
  0
DICTIONARY
  5
17
102
{ACAD_REACTORS
330
C
102
}
100
AcDbDictionary
280
0
281
1
  3
Standard
350
18
  0
DICTIONARY
  5
19
102
{ACAD_REACTORS
330
C
102
}
100
AcDbDictionary
281
1
  0
DICTIONARY
  5
1A
102
{ACAD_REACTORS
330
C
102
}
100
AcDbDictionary
281
1
  3
Model
350
356
  3
Layout1
350
357
  0
ACDBPLACEHOLDER
  5
F
102
{ACAD_REACTORS
330
E
102
}
  0
MLINESTYLE
  5
18
102
{ACAD_REACTORS
330
17
102
}
100
AcDbMlineStyle
  2
STANDARD
 70
0
  3

 62
256
 51
90.0
 52
90.0
 71
2
 49
0.5
 62
256
  6
BYLAYER
 49
-0.5
 62
256
  6
BYLAYER
  0
LAYOUT
  5
356
102
{ACAD_REACTORS
330
1A
102
}
100
AcDbPlotSettings
  1

  2
none_device
  4

  6

 40
0.0
 41
0.0
 42
0.0
 43
0.0
 44
210.0
 45
297.0
 46
0.0
 47
0.0
 48
0.0
 49
0.0
140
0.0
141
0.0
142
1.0
143
1.0
 70
1024
 72
1
 73
0
 74
0
  7

 75
0
147
1.0
148
0.0
149
0.0
100
AcDbLayout
  1
Model
 70
0
 71
0
 10
0.0
 20
0.0
 11
210.0
 21
297.0
 12
0.0
 22
0.0
 32
0.0
 14
0.0
 24
0.0
 34
0.0
 15
0.0
 25
0.0
 35
0.0
146
0.0
 13
0.0
 23
0.0
 33
0.0
 16
1.0
 26
0.0
 36
0.0
 17
0.0
 27
1.0
 37
0.0
 76
0
330
210
345
0
346
0
  0
LAYOUT
  5
357
102
{ACAD_REACTORS
330
1A
102
}
100
AcDbPlotSettings
  1

  2
none_device
  4

  6

 40
0.0
 41
0.0
 42
0.0
 43
0.0
 44
210.0
 45
297.0
 46
0.0
 47
0.0
 48
0.0
 49
0.0
140
0.0
141
0.0
142
1.0
143
1.0
 70
0
 72
1
 73
0
 74
0
  7

 75
0
147
1.0
148
0.0
149
0.0
100
AcDbLayout
  1
Layout1
 70
0
 71
1
 10
0.0
 20
0.0
 11
210.0
 21
297.0
 12
0.0
 22
0.0
 32
0.0
 14
0.0
 24
0.0
 34
0.0
 15
0.0
 25
0.0
 35
0.0
146
0.0
 13
0.0
 23
0.0
 33
0.0
 16
1.0
 26
0.0
 36
0.0
 17
0.0
 27
1.0
 37
0.0
 76
0
330
211
345
0
346
0
  0
ENDSEC
  0
EOF
