999
DXF file: C:\Users\sesa63760\Dev\_Creo\CAD\MCADUE0001290_3D-CAD\drw0001_7.dxf
999
Pro/ENGINEER 2019471 by Parametric Technology Corporation
  0
SECTION
  2
HEADER
  9
$ACADVER
  1
AC1024
  9
$DWGCODEPAGE
  3
ANSI_1252
  9
$EXTMAX
 10
252.8125897992
 20
357.5492341445
 30
0.0
  9
$EXTMIN
 10
0.0
 20
0.0
 30
0.0
  9
$LIMMIN
 10
0.0
 20
0.0
  9
$LIMMAX
 10
252.8125897992
 20
357.5492341445
  9
$VIEWCTR
 10
126.4062948996
 20
178.7746170723
  9
$VIEWSIZE
 40
357.5492341445
  9
$CLAYER
  8
0
  9
$LTSCALE
 40
23.3069130405
  9
$CELTYPE
  6
BYLAYER
  9
$DIMSCALE
 40
1.0
  9
$DIMASZ
 40
3.0096736881
  9
$DIMEXO
 40
1.0
  9
$DIMDLI
 40
16.1029581007
  9
$DIMEXE
 40
1.0
  9
$DIMCEN
 40
3.8138584975
  9
$DIMLFAC
 40
1.0
  9
$DIMBLK
  1
_FILLED
  9
$DIMALT
 70
0
  9
$DIMALTF
 40
0.0393700787
  9
$DIMTXT
 40
4.2135431633
  9
$DIMTOL
 70
1
  9
$DIMLIM
 70
0
  9
$DIMTFAC
 40
1.0
  9
$DIMTP
 40
0.01
  9
$DIMTM
 40
0.01
  9
$DIMGAP
 40
0.625
  9
$DIMDSEP
 70
46
  9
$AUNITS
 70
0
  9
$PDMODE
 70
3
  9
$PDSIZE
 40
0.3125
  9
$HANDSEED
  5
2F8
  9
$TILEMODE
 70
1
  9
$MEASUREMENT
 70
1
  9
$INSUNITS
 70
4
  0
ENDSEC
  0
SECTION
  2
CLASSES
  0
CLASS
  1
ACDBDICTIONARYWDFLT
  2
AcDbDictionaryWithDefault
  3
AutoCAD 2000
 90
0
 91
1
280
0
281
0
  0
CLASS
  1
ACDBPLACEHOLDER
  2
AcDbPlaceHolder
  3
AutoCAD 2000
 90
0
 91
1
280
0
281
0
  0
CLASS
  1
LAYOUT
  2
AcDbLayout
  3
AutoCAD 2000
 90
0
 91
0
280
0
281
0
  0
ENDSEC
  0
SECTION
  2
TABLES
  0
TABLE
  2
VPORT
  5
8
100
AcDbSymbolTable
 70
2
  0
VPORT
  5
1F4
100
AcDbSymbolTableRecord
100
AcDbViewportTableRecord
  2
*ACTIVE
 70
0
 10
0.0
 20
0.0
 11
1.0
 21
1.0
 12
126.4062948996
 22
178.7746170723
 13
0.0
 23
0.0
 14
1.0
 24
1.0
 15
0.0
 25
0.0
 16
0.0
 26
0.0
 36
1.0
 17
0.0
 27
0.0
 37
0.0
 40
357.5492341445
 41
0.7070707071
 42
50.0
 43
0.0
 44
0.0
 50
0.0
 51
0.0
 71
0
 72
100
 73
1
 74
1
 75
0
 76
0
 77
0
 78
0
  0
ENDTAB
  0
TABLE
  2
LTYPE
  5
5
100
AcDbSymbolTable
 70
6
  0
LTYPE
  5
14
100
AcDbSymbolTableRecord
100
AcDbLinetypeTableRecord
  2
BYBLOCK
 70
0
  3

 72
65
 73
0
 40
0.0
  0
LTYPE
  5
15
100
AcDbSymbolTableRecord
100
AcDbLinetypeTableRecord
  2
BYLAYER
 70
0
  3

 72
65
 73
0
 40
0.0
  0
LTYPE
  5
16
100
AcDbSymbolTableRecord
100
AcDbLinetypeTableRecord
  2
CONTINUOUS
 70
64
  3
Solid line
 72
65
 73
0
 40
0.0
  0
LTYPE
  5
1F5
100
AcDbSymbolTableRecord
100
AcDbLinetypeTableRecord
  2
CENTER
 70
64
  3
____ _ ____ _ ____ _ ____ _ ____ _ ____ _ ____
 72
65
 73
4
 40
0.6
 49
0.375
 74
0
 49
-0.075
 74
0
 49
0.075
 74
0
 49
-0.075
 74
0
  0
LTYPE
  5
1F6
100
AcDbSymbolTableRecord
100
AcDbLinetypeTableRecord
  2
HIDDEN
 70
64
  3
- - - - - - - - - - - - - - - - - - - -
 72
65
 73
2
 40
0.2
 49
0.1
 74
0
 49
-0.1
 74
0
  0
LTYPE
  5
1F7
100
AcDbSymbolTableRecord
100
AcDbLinetypeTableRecord
  2
PHANTOM
 70
64
  3
_____ _ _ _____ _ _ _____ _ _ _____
 72
65
 73
6
 40
0.8
 49
0.45
 74
0
 49
-0.05
 74
0
 49
0.1
 74
0
 49
-0.05
 74
0
 49
0.1
 74
0
 49
-0.05
 74
0
  0
LTYPE
  5
1F8
100
AcDbSymbolTableRecord
100
AcDbLinetypeTableRecord
  2
DOT
 70
64
  3
. . . . . . . . . . . . . . . . . . . .
 72
65
 73
2
 40
0.2
 49
0.1
 74
0
 49
-0.1
 74
0
  0
LTYPE
  5
1F9
100
AcDbSymbolTableRecord
100
AcDbLinetypeTableRecord
  2
DASHED
 70
64
  3
- - - - - - - - - - - - - - - - - - - -
 72
65
 73
2
 40
0.2
 49
0.1
 74
0
 49
-0.1
 74
0
  0
ENDTAB
  0
TABLE
  2
LAYER
  5
2
100
AcDbSymbolTable
 70
36
  0
LAYER
  5
10
100
AcDbSymbolTableRecord
100
AcDbLayerTableRecord
  2
0
 70
0
 62
7
  6
CONTINUOUS
370
-3
390
F
  0
LAYER
  5
1FA
100
AcDbSymbolTableRecord
100
AcDbLayerTableRecord
  2
DEFAULT_1
 70
0
 62
7
  6
CENTER
370
-3
390
F
  0
LAYER
  5
1FB
100
AcDbSymbolTableRecord
100
AcDbLayerTableRecord
  2
DEFAULT_2
 70
0
 62
8
  6
HIDDEN
370
-3
390
F
  0
LAYER
  5
1FC
100
AcDbSymbolTableRecord
100
AcDbLayerTableRecord
  2
DEFAULT_3
 70
0
 62
7
  6
PHANTOM
370
-3
390
F
  0
LAYER
  5
1FD
100
AcDbSymbolTableRecord
100
AcDbLayerTableRecord
  2
00_COMPONENTS
 70
0
 62
7
  6
CONTINUOUS
370
-3
390
F
  0
LAYER
  5
1FE
100
AcDbSymbolTableRecord
100
AcDbLayerTableRecord
  2
01_1_DEFAULT_DATUMS
 70
0
 62
7
  6
CONTINUOUS
370
-3
390
F
  0
LAYER
  5
1FF
100
AcDbSymbolTableRecord
100
AcDbLayerTableRecord
  2
01_PLANES
 70
0
 62
7
  6
CONTINUOUS
370
-3
390
F
  0
LAYER
  5
200
100
AcDbSymbolTableRecord
100
AcDbLayerTableRecord
  2
02_COORD_SYS
 70
0
 62
7
  6
CONTINUOUS
370
-3
390
F
  0
LAYER
  5
201
100
AcDbSymbolTableRecord
100
AcDbLayerTableRecord
  2
03_AXES
 70
0
 62
7
  6
CONTINUOUS
370
-3
390
F
  0
LAYER
  5
202
100
AcDbSymbolTableRecord
100
AcDbLayerTableRecord
  2
04_POINTS
 70
0
 62
7
  6
CONTINUOUS
370
-3
390
F
  0
LAYER
  5
203
100
AcDbSymbolTableRecord
100
AcDbLayerTableRecord
  2
05_CURVES
 70
0
 62
7
  6
CONTINUOUS
370
-3
390
F
  0
LAYER
  5
204
100
AcDbSymbolTableRecord
100
AcDbLayerTableRecord
  2
06_SURFS
 70
0
 62
7
  6
CONTINUOUS
370
-3
390
F
  0
LAYER
  5
205
100
AcDbSymbolTableRecord
100
AcDbLayerTableRecord
  2
07_COSMETICS
 70
0
 62
7
  6
CONTINUOUS
370
-3
390
F
  0
LAYER
  5
206
100
AcDbSymbolTableRecord
100
AcDbLayerTableRecord
  2
10_NOTES
 70
0
 62
7
  6
CONTINUOUS
370
-3
390
F
  0
LAYER
  5
207
100
AcDbSymbolTableRecord
100
AcDbLayerTableRecord
  2
11_NOTES_PUB
 70
0
 62
7
  6
CONTINUOUS
370
-3
390
F
  0
LAYER
  5
208
100
AcDbSymbolTableRecord
100
AcDbLayerTableRecord
  2
13_REF_GTOL
 70
0
 62
7
  6
CONTINUOUS
370
-3
390
F
  0
LAYER
  5
209
100
AcDbSymbolTableRecord
100
AcDbLayerTableRecord
  2
16_MISC
 70
0
 62
7
  6
CONTINUOUS
370
-3
390
F
  0
LAYER
  5
20A
100
AcDbSymbolTableRecord
100
AcDbLayerTableRecord
  2
17_NO_PRINT
 70
0
 62
7
  6
CONTINUOUS
370
-3
390
F
  0
LAYER
  5
20B
100
AcDbSymbolTableRecord
100
AcDbLayerTableRecord
  2
18_DATUM_CAMS_JOINTS
 70
0
 62
7
  6
CONTINUOUS
370
-3
390
F
  0
LAYER
  5
20C
100
AcDbSymbolTableRecord
100
AcDbLayerTableRecord
  2
19_DATUM_FUNCTIONAL
 70
0
 62
7
  6
CONTINUOUS
370
-3
390
F
  0
LAYER
  5
20D
100
AcDbSymbolTableRecord
100
AcDbLayerTableRecord
  2
20_DATUM_KINEMATIC_SCHEME
 70
0
 62
7
  6
CONTINUOUS
370
-3
390
F
  0
ENDTAB
  0
TABLE
  2
STYLE
  5
3
100
AcDbSymbolTable
 70
1
  0
STYLE
  5
11
100
AcDbSymbolTableRecord
100
AcDbTextStyleTableRecord
  2
STANDARD
 70
0
 40
0.0
 41
0.8
 50
0.0
 71
0
 42
0.2
  3
txt
  4

  0
STYLE
  5
20E
100
AcDbSymbolTableRecord
100
AcDbTextStyleTableRecord
  2
TEXTSTYLE_1
 70
0
 40
0.0
 41
0.8
 50
0.0
 71
0
 42
0.2
  3
gdt
  4

  0
ENDTAB
  0
TABLE
  2
VIEW
  5
6
100
AcDbSymbolTable
 70
0
  0
ENDTAB
  0
TABLE
  2
UCS
  5
7
100
AcDbSymbolTable
 70
0
  0
ENDTAB
  0
TABLE
  2
APPID
  5
9
100
AcDbSymbolTable
 70
1
  0
APPID
  5
20F
100
AcDbSymbolTableRecord
100
AcDbRegAppTableRecord
  2
ACAD
 70
0
  0
ENDTAB
  0
TABLE
  2
BLOCK_RECORD
  5
1
100
AcDbSymbolTable
 70
0
  0
BLOCK_RECORD
  5
210
100
AcDbSymbolTableRecord
100
AcDbBlockTableRecord
  2
*Model_Space
  0
BLOCK_RECORD
  5
211
100
AcDbSymbolTableRecord
100
AcDbBlockTableRecord
  2
*Paper_Space
  0
BLOCK_RECORD
  5
212
100
AcDbSymbolTableRecord
100
AcDbBlockTableRecord
  2
_FILLED
  0
ENDTAB
  0
TABLE
  2
DIMSTYLE
  5
A
100
AcDbSymbolTable
 70
1
100
AcDbDimStyleTable
 71
0
  0
DIMSTYLE
105
213
100
AcDbSymbolTableRecord
100
AcDbDimStyleTableRecord
  2
STANDARD
 70
0
  3

  4

 40
1.0
 41
3.0096736881
 42
1.0
 43
0.38
 44
1.0
 45
0.0
 46
0.0
 47
0.01
 48
0.01
140
4.2135431633
141
0.09
142
0.0
143
25.4
144
1.0
145
0.0
146
1.0
147
0.625
 71
1
 72
0
 73
0
 74
0
 75
0
 76
0
 77
1
 78
8
 79
2
170
0
171
1
172
0
173
0
174
0
175
0
176
0
177
0
178
0
270
2
179
2
271
2
272
2
273
2
274
2
275
0
280
0
281
0
282
0
283
1
284
8
285
0
286
0
287
3
288
0
340
11
278
46
341
212
342
212
343
212
344
212
  0
ENDTAB
  0
ENDSEC
  0
SECTION
  2
BLOCKS
  0
BLOCK
  5
20
100
AcDbEntity
  8
0
100
AcDbBlockBegin
  2
*Model_Space
 70
0
 10
0.0
 20
0.0
 30
0.0
  3
*Model_Space
  1

  0
ENDBLK
  5
21
100
AcDbEntity
  8
0
100
AcDbBlockEnd
  0
BLOCK
  5
1C
100
AcDbEntity
  8
0
100
AcDbBlockBegin
  2
*Paper_Space
 70
0
 10
0.0
 20
0.0
 30
0.0
  3
*Paper_Space
  1

  0
ENDBLK
  5
1D
100
AcDbEntity
  8
0
100
AcDbBlockEnd
  0
BLOCK
  5
214
100
AcDbEntity
  8
0
100
AcDbBlockBegin
  2
_FILLED
 70
64
 10
0.0
 20
0.0
  3
_FILLED
  1

  0
SOLID
  5
215
100
AcDbEntity
  8
0
  6
BYBLOCK
 62
0
100
AcDbTrace
 10
0.0
 20
0.0
 11
-1.0
 21
0.25
 12
-1.0
 22
-0.25
 13
-1.0
 23
-0.25
  0
ENDBLK
  5
216
100
AcDbEntity
  8
0
  6
BYBLOCK
 62
0
100
AcDbBlockEnd
  0
ENDSEC
  0
SECTION
  2
ENTITIES
  0
LINE
  5
217
100
AcDbEntity
  8
0
100
AcDbLine
 62
7
  6
CONTINUOUS
 10
30.6830307796
 20
111.586210889
 11
38.491986904
 21
106.1183209452
  0
LINE
  5
218
100
AcDbEntity
  8
0
100
AcDbLine
 62
7
  6
CONTINUOUS
 10
31.2566072159
 20
112.4053629333
 11
36.4918485499
 21
108.7396074869
  0
LINE
  5
219
100
AcDbEntity
  8
0
100
AcDbLine
 62
7
  6
CONTINUOUS
 10
26.8439316611
 20
134.7499040983
 11
26.8439316611
 21
256.3499040983
  0
LINE
  5
21A
100
AcDbEntity
  8
0
100
AcDbLine
 62
7
  6
CONTINUOUS
 10
29.3184753759
 20
124.4396074869
 11
29.3184753759
 21
114.2074974307
  0
LINE
  5
21B
100
AcDbEntity
  8
0
100
AcDbLine
 62
7
  6
CONTINUOUS
 10
29.3439316611
 20
131.5499040983
 11
29.3439316611
 21
131.0499040983
  0
LINE
  5
21C
100
AcDbEntity
  8
0
100
AcDbLine
 62
7
  6
CONTINUOUS
 10
30.3184753759
 20
124.4396074869
 11
30.3184753759
 21
114.2074974307
  0
LINE
  5
21D
100
AcDbEntity
  8
0
100
AcDbLine
 62
7
  6
CONTINUOUS
 10
31.3439316611
 20
130.0499040983
 11
31.3439316611
 21
131.5499040983
  0
LINE
  5
21E
100
AcDbEntity
  8
0
100
AcDbLine
 62
7
  6
CONTINUOUS
 10
32.7317992185
 20
129.3499040983
 11
32.7317992185
 21
129.5216096116
  0
LINE
  5
21F
100
AcDbEntity
  8
0
100
AcDbLine
 62
7
  6
CONTINUOUS
 10
31.4517225573
 20
130.0499040983
 11
31.5447684151
 21
129.9684986441
  0
LINE
  5
220
100
AcDbEntity
  8
0
100
AcDbLine
 62
7
  6
CONTINUOUS
 10
31.4147901381
 20
129.844750591
 11
31.1803289869
 21
130.0499040983
  0
LINE
  5
221
100
AcDbEntity
  8
0
100
AcDbLine
 62
7
  6
CONTINUOUS
 10
38.6245234977
 20
129.5216096116
 11
38.6245234977
 21
129.3499040983
  0
LINE
  5
222
100
AcDbEntity
  8
0
100
AcDbLine
 62
7
  6
CONTINUOUS
 10
42.3439316611
 20
258.7499040983
 11
42.3439316611
 21
258.5499040983
  0
LINE
  5
223
100
AcDbEntity
  8
0
100
AcDbLine
 62
7
  6
CONTINUOUS
 10
191.2437589616
 20
103.400009322
 11
189.886383689
 21
103.400009322
  0
LINE
  5
224
100
AcDbEntity
  8
0
100
AcDbLine
 62
7
  6
CONTINUOUS
 10
160.750566796
 20
103.400009322
 11
159.3931917902
 21
103.400009322
  0
LWPOLYLINE
  5
225
100
AcDbEntity
  8
0
100
AcDbPolyline
 62
7
  6
CONTINUOUS
 90
3
 70
0
 10
162.8640225487
 20
99.5741430967
 10
162.884090196
 20
99.5725093528
 10
162.9488188599
 20
99.5811773872
  0
LINE
  5
226
100
AcDbEntity
  8
0
100
AcDbLine
 62
7
  6
CONTINUOUS
 10
55.3439316611
 20
258.5499040983
 11
55.3439316611
 21
258.7499040983
  0
LINE
  5
227
100
AcDbEntity
  8
0
100
AcDbLine
 62
7
  6
CONTINUOUS
 10
42.6734008688
 20
130.0499040983
 11
42.6205027746
 21
129.7499040983
  0
LINE
  5
228
100
AcDbEntity
  8
0
100
AcDbLine
 62
7
  6
CONTINUOUS
 10
44.6124618404
 20
128.8590951029
 11
43.9672188115
 21
125.5396074869
  0
LINE
  5
229
100
AcDbEntity
  8
0
100
AcDbLine
 62
7
  6
CONTINUOUS
 10
45.4952938539
 20
125.5396074869
 11
46.0849026156
 21
128.5728816098
  0
LINE
  5
22A
100
AcDbEntity
  8
0
100
AcDbLine
 62
7
  6
CONTINUOUS
 10
45.6756483477
 20
125.5396074869
 11
46.3809920198
 21
129.1682861075
  0
LINE
  5
22B
100
AcDbEntity
  8
0
100
AcDbLine
 62
7
  6
CONTINUOUS
 10
47.3626192032
 20
129.1682861075
 11
46.6572755312
 21
125.5396074869
  0
LINE
  5
22C
100
AcDbEntity
  8
0
100
AcDbLine
 62
7
  6
CONTINUOUS
 10
38.6245228751
 20
129.5216154694
 11
38.7754618609
 21
130.0499040983
  0
LINE
  5
22D
100
AcDbEntity
  8
0
100
AcDbLine
 62
7
  6
CONTINUOUS
 10
38.9753837802
 20
130.0499040983
 11
38.8168282872
 21
129.4949598727
  0
LINE
  5
22E
100
AcDbEntity
  8
0
100
AcDbLine
 62
7
  6
CONTINUOUS
 10
186.8597573695
 20
103.9585402949
 11
163.7771845179
 21
103.9585402949
  0
LINE
  5
22F
100
AcDbEntity
  8
0
100
AcDbLine
 62
7
  6
CONTINUOUS
 10
186.9394060475
 20
104.700992203
 11
163.6975344008
 21
104.700992203
  0
LINE
  5
230
100
AcDbEntity
  8
0
100
AcDbLine
 62
7
  6
CONTINUOUS
 10
40.3274315003
 20
105.5396074869
 11
214.3095192515
 21
105.5396074869
  0
LINE
  5
231
100
AcDbEntity
  8
0
100
AcDbLine
 62
7
  6
CONTINUOUS
 10
218.1451022018
 20
108.7396074869
 11
36.4918485499
 21
108.7396074869
  0
LWPOLYLINE
  5
232
100
AcDbEntity
  8
0
100
AcDbPolyline
 62
7
  6
CONTINUOUS
 90
3
 70
0
 10
187.6881318919
 20
99.5811773872
 10
187.7528381844
 20
99.572508663
 10
187.772928203
 20
99.5741430967
  0
LINE
  5
233
100
AcDbEntity
  8
0
100
AcDbLine
 62
7
  6
CONTINUOUS
 10
206.3252441189
 20
128.9774771122
 11
207.3068713168
 21
129.1682861103
  0
LINE
  5
234
100
AcDbEntity
  8
0
100
AcDbLine
 62
7
  6
CONTINUOUS
 10
46.3809920054
 20
129.1682861103
 11
47.3626192033
 21
128.9774771122
  0
LINE
  5
235
100
AcDbEntity
  8
0
100
AcDbLine
 62
7
  6
CONTINUOUS
 10
187.099047235
 20
99.7674185584
 11
187.1043111167
 21
99.7663417569
  0
LINE
  5
236
100
AcDbEntity
  8
0
100
AcDbLine
 62
7
  6
CONTINUOUS
 10
187.1003489672
 20
99.7672335289
 11
187.1043111167
 21
99.7663417569
  0
LINE
  5
237
100
AcDbEntity
  8
0
100
AcDbLine
 62
7
  6
CONTINUOUS
 10
182.5999088368
 20
99.6080339142
 11
182.7704696018
 21
99.5574749879
  0
LINE
  5
238
100
AcDbEntity
  8
0
100
AcDbLine
 62
7
  6
CONTINUOUS
 10
182.5997548583
 20
99.607987656
 11
182.7579578804
 21
99.5592160658
  0
LINE
  5
239
100
AcDbEntity
  8
0
100
AcDbLine
 62
7
  6
CONTINUOUS
 10
167.8116057066
 20
99.5509031696
 11
167.7598593287
 21
99.5668682234
  0
LINE
  5
23A
100
AcDbEntity
  8
0
100
AcDbLine
 62
7
  6
CONTINUOUS
 10
172.8170423175
 20
99.5501233071
 11
172.8145607114
 21
99.5509030986
  0
LINE
  5
23B
100
AcDbEntity
  8
0
100
AcDbLine
 62
7
  6
CONTINUOUS
 10
172.8170423175
 20
99.5501233071
 11
172.8155301239
 21
99.5506088828
  0
LINE
  5
23C
100
AcDbEntity
  8
0
100
AcDbLine
 62
7
  6
CONTINUOUS
 10
29.3184753759
 20
124.4396074869
 11
225.3184753759
 21
124.4396074869
  0
LINE
  5
23D
100
AcDbEntity
  8
0
100
AcDbLine
 62
7
  6
CONTINUOUS
 10
31.2102286598
 20
125.5396074869
 11
223.426722092
 21
125.5396074869
  0
LINE
  5
23E
100
AcDbEntity
  8
0
100
AcDbLine
 62
7
  6
CONTINUOUS
 10
47.3626192032
 20
129.1682861075
 11
206.3252441189
 21
129.1682861075
  0
LINE
  5
23F
100
AcDbEntity
  8
0
100
AcDbLine
 62
7
  6
CONTINUOUS
 10
32.7317992089
 20
129.3499040983
 11
38.6245234977
 21
129.3499040983
  0
LINE
  5
240
100
AcDbEntity
  8
0
100
AcDbLine
 62
7
  6
CONTINUOUS
 10
38.6245228751
 20
129.5216154694
 11
32.7310703924
 21
129.5216037531
  0
LWPOLYLINE
  5
241
100
AcDbEntity
  8
0
100
AcDbPolyline
 62
7
  6
CONTINUOUS
 90
4
 70
0
 10
187.5659398557
 20
99.6440650853
 10
187.6609665556
 20
99.6130635189
 10
187.732302473
 20
99.5890010906
 10
187.7691916074
 20
99.5757920689
  0
LINE
  5
242
100
AcDbEntity
  8
0
100
AcDbLine
 62
7
  6
CONTINUOUS
 10
187.5659398557
 20
99.6440650853
 11
187.7691916074
 21
99.5757920689
  0
LINE
  5
243
100
AcDbEntity
  8
0
100
AcDbLine
 62
7
  6
CONTINUOUS
 10
187.7691916074
 20
99.5757920689
 11
187.7728823474
 21
99.5744333939
  0
LINE
  5
244
100
AcDbEntity
  8
0
100
AcDbLine
 62
7
  6
CONTINUOUS
 10
42.4526828483
 20
129.5499040983
 11
38.8325266374
 21
129.5499040983
  0
LINE
  5
245
100
AcDbEntity
  8
0
100
AcDbLine
 62
7
  6
CONTINUOUS
 10
42.6205027746
 20
129.7499040983
 11
38.8896694945
 21
129.7499040983
  0
LINE
  5
246
100
AcDbEntity
  8
0
100
AcDbLine
 62
7
  6
CONTINUOUS
 10
31.1439316611
 20
130.0499040983
 11
43.630834657
 21
130.0499040983
  0
LINE
  5
247
100
AcDbEntity
  8
0
100
AcDbLine
 62
7
  6
CONTINUOUS
 10
216.5939316612
 20
130.3499040983
 11
215.093931661
 21
130.3499040983
  0
LINE
  5
248
100
AcDbEntity
  8
0
100
AcDbLine
 62
7
  6
CONTINUOUS
 10
220.8439316611
 20
131.3499040983
 11
210.8439316611
 21
131.3499040983
  0
LINE
  5
249
100
AcDbEntity
  8
0
100
AcDbLine
 62
7
  6
CONTINUOUS
 10
29.3439316611
 20
131.5499040983
 11
29.7808242374
 21
131.5499040983
  0
LINE
  5
24A
100
AcDbEntity
  8
0
100
AcDbLine
 62
7
  6
CONTINUOUS
 10
30.0439316611
 20
131.5499040983
 11
223.6439316611
 21
131.5499040983
  0
LINE
  5
24B
100
AcDbEntity
  8
0
100
AcDbLine
 62
7
  6
CONTINUOUS
 10
226.8439316611
 20
134.7499040983
 11
26.8439316611
 21
134.7499040983
  0
LINE
  5
24C
100
AcDbEntity
  8
0
100
AcDbLine
 62
7
  6
CONTINUOUS
 10
34.7484017543
 20
108.7396074869
 11
35.3219781906
 21
109.5587595312
  0
LINE
  5
24D
100
AcDbEntity
  8
0
100
AcDbLine
 62
7
  6
CONTINUOUS
 10
38.6963999405
 20
106.4102530158
 11
38.491986904
 21
106.1183209452
  0
LINE
  5
24E
100
AcDbEntity
  8
0
100
AcDbLine
 62
7
  6
CONTINUOUS
 10
42.6205027746
 20
129.7499040983
 11
42.4526828483
 21
129.5499040983
  0
LINE
  5
24F
100
AcDbEntity
  8
0
100
AcDbLine
 62
7
  6
CONTINUOUS
 10
159.393191784
 20
103.4000095001
 11
159.3184753759
 21
105.5396074869
  0
LINE
  5
250
100
AcDbEntity
  8
0
100
AcDbLine
 62
7
  6
CONTINUOUS
 10
215.9405508113
 20
106.4102530158
 11
216.1449638477
 21
106.1183209452
  0
LINE
  5
251
100
AcDbEntity
  8
0
100
AcDbLine
 62
7
  6
CONTINUOUS
 10
219.3149725611
 20
109.5587595312
 11
219.8885489975
 21
108.7396074869
  0
LINE
  5
252
100
AcDbEntity
  8
0
100
AcDbLine
 62
7
  6
CONTINUOUS
 10
191.2437589678
 20
103.4000095001
 11
191.3184753759
 21
105.5396074869
  0
LINE
  5
253
100
AcDbEntity
  8
0
100
AcDbLine
 62
7
  6
CONTINUOUS
 10
207.0305877909
 20
125.5396074869
 11
206.3252441189
 21
129.1682861075
  0
LINE
  5
254
100
AcDbEntity
  8
0
100
AcDbLine
 62
7
  6
CONTINUOUS
 10
207.3068713024
 20
129.1682861075
 11
208.0122149744
 21
125.5396074869
  0
LINE
  5
255
100
AcDbEntity
  8
0
100
AcDbLine
 62
7
  6
CONTINUOUS
 10
198.3439316611
 20
258.7499040983
 11
198.3439316611
 21
258.5499040983
  0
LINE
  5
256
100
AcDbEntity
  8
0
100
AcDbLine
 62
7
  6
CONTINUOUS
 10
26.8439316611
 20
256.3499040983
 11
226.8439316611
 21
256.3499040983
  0
LINE
  5
257
100
AcDbEntity
  8
0
100
AcDbLine
 62
7
  6
CONTINUOUS
 10
210.8439316611
 20
131.5499040983
 11
210.8439316611
 21
131.3499040983
  0
LINE
  5
258
100
AcDbEntity
  8
0
100
AcDbLine
 62
7
  6
CONTINUOUS
 10
211.3439316611
 20
258.5499040983
 11
211.3439316611
 21
258.7499040983
  0
LINE
  5
259
100
AcDbEntity
  8
0
100
AcDbLine
 62
7
  6
CONTINUOUS
 10
224.6439316611
 20
258.5499040983
 11
29.0439316611
 21
258.5499040983
  0
LINE
  5
25A
100
AcDbEntity
  8
0
100
AcDbLine
 62
7
  6
CONTINUOUS
 10
42.3439316611
 20
258.7499040983
 11
55.3439316611
 21
258.7499040983
  0
LINE
  5
25B
100
AcDbEntity
  8
0
100
AcDbLine
 62
7
  6
CONTINUOUS
 10
198.3439316611
 20
258.7499040983
 11
211.3439316611
 21
258.7499040983
  0
LINE
  5
25C
100
AcDbEntity
  8
0
100
AcDbLine
 62
7
  6
CONTINUOUS
 10
220.8439316611
 20
131.3499040983
 11
220.8439316611
 21
131.5499040983
  0
LWPOLYLINE
  5
25D
100
AcDbEntity
  8
0
100
AcDbPolyline
 62
7
  6
CONTINUOUS
 90
4
 70
0
 10
162.8640832639
 20
99.5744319819
 10
162.8719887721
 20
99.5773261164
 10
162.9277485221
 20
99.596954571
 10
163.0573789416
 20
99.6398039402
  0
LINE
  5
25E
100
AcDbEntity
  8
0
100
AcDbLine
 62
7
  6
CONTINUOUS
 10
162.8640684242
 20
99.5744333925
 11
163.0573789416
 21
99.6398039402
  0
LINE
  5
25F
100
AcDbEntity
  8
0
100
AcDbLine
 62
7
  6
CONTINUOUS
 10
224.3184753759
 20
124.4396074869
 11
224.3184753759
 21
114.2074974307
  0
LINE
  5
260
100
AcDbEntity
  8
0
100
AcDbLine
 62
7
  6
CONTINUOUS
 10
225.3184753759
 20
124.4396074869
 11
225.3184753759
 21
114.2074974307
  0
LINE
  5
261
100
AcDbEntity
  8
0
100
AcDbLine
 62
7
  6
CONTINUOUS
 10
226.8439316611
 20
134.7499040983
 11
226.8439316611
 21
256.3499040983
  0
LINE
  5
262
100
AcDbEntity
  8
0
100
AcDbLine
 62
7
  6
CONTINUOUS
 10
218.1451022018
 20
108.7396074869
 11
223.3803435358
 21
112.4053629333
  0
LINE
  5
263
100
AcDbEntity
  8
0
100
AcDbLine
 62
7
  6
CONTINUOUS
 10
216.1449638478
 20
106.1183209452
 11
223.9539199722
 21
111.586210889
  0
ARC
  5
264
100
AcDbEntity
  8
0
100
AcDbCircle
 62
7
  6
CONTINUOUS
 10
89.8385171312
 20
153.060390656
 40
48.8281610483
100
AcDbArc
 50
209.35848057
 51
209.486962154
  0
ARC
  5
265
100
AcDbEntity
  8
0
100
AcDbCircle
 62
7
  6
CONTINUOUS
 10
68.7818875231
 20
147.3936420828
 40
28.123809411
100
AcDbArc
 50
220.273775005
 51
220.3939955137
  0
ARC
  5
266
100
AcDbEntity
  8
0
100
AcDbCircle
 62
7
  6
CONTINUOUS
 10
43.0055317082
 20
111.7454924048
 40
6.8442418524
100
AcDbArc
 50
230.8419666181
 51
231.4426248377
  0
ARC
  5
267
100
AcDbEntity
  8
0
100
AcDbCircle
 62
7
  6
CONTINUOUS
 10
32.5184753759
 20
114.2074974307
 40
3.2
100
AcDbArc
 50
180.0
 51
235.0000000001
  0
ARC
  5
268
100
AcDbEntity
  8
0
100
AcDbCircle
 62
7
  6
CONTINUOUS
 10
40.3274315003
 20
108.7396074869
 40
3.2
100
AcDbArc
 50
235.0000000001
 51
270.0
  0
ARC
  5
269
100
AcDbEntity
  8
0
100
AcDbCircle
 62
7
  6
CONTINUOUS
 10
30.0439316611
 20
134.7499040983
 40
3.2
100
AcDbArc
 50
180.0
 51
270.0
  0
ARC
  5
26A
100
AcDbEntity
  8
0
100
AcDbCircle
 62
7
  6
CONTINUOUS
 10
43.630834657
 20
129.0499040983
 40
2.5
100
AcDbArc
 50
349.0
 51
90.0
  0
ARC
  5
26B
100
AcDbEntity
  8
0
100
AcDbCircle
 62
7
  6
CONTINUOUS
 10
31.1439316611
 20
132.1699040983
 40
2.12
100
AcDbArc
 50
211.8907918018
 51
270.0
  0
ARC
  5
26C
100
AcDbEntity
  8
0
100
AcDbCircle
 62
7
  6
CONTINUOUS
 10
32.4205943515
 20
114.1565437946
 40
2.0896507002
100
AcDbArc
 50
198.1305904379
 51
216.8694095598
  0
ARC
  5
26D
100
AcDbEntity
  8
0
100
AcDbCircle
 62
7
  6
CONTINUOUS
 10
32.7317992191
 20
131.3499040983
 40
2.0
100
AcDbArc
 50
228.8140748343
 51
269.9999997064
  0
ARC
  5
26E
100
AcDbEntity
  8
0
100
AcDbCircle
 62
7
  6
CONTINUOUS
 10
44.4177376529
 20
129.5499040983
 40
2.0
100
AcDbArc
 50
349.0
 51
90.0
  0
ARC
  5
26F
100
AcDbEntity
  8
0
100
AcDbCircle
 62
7
  6
CONTINUOUS
 10
32.7317487083
 20
131.3213969842
 40
1.7997933589
100
AcDbArc
 50
228.7375470409
 51
269.9784060546
  0
ARC
  5
270
100
AcDbEntity
  8
0
100
AcDbCircle
 62
7
  6
CONTINUOUS
 10
30.4184753759
 20
124.4396074869
 40
1.1
100
AcDbArc
 50
59.8344724561
 51
180.0
  0
ARC
  5
271
100
AcDbEntity
  8
0
100
AcDbCircle
 62
7
  6
CONTINUOUS
 10
43.630834657
 20
129.0499040983
 40
1.0
100
AcDbArc
 50
349.0
 51
90.0
  0
ARC
  5
272
100
AcDbEntity
  8
0
100
AcDbCircle
 62
7
  6
CONTINUOUS
 10
38.6245234977
 20
129.5499040983
 40
0.2
100
AcDbArc
 50
270.0
 51
344.0546040991
  0
ARC
  5
273
100
AcDbEntity
  8
0
100
AcDbCircle
 62
7
  6
CONTINUOUS
 10
118.5381725502
 20
193.0104408976
 40
108.6375807922
100
AcDbArc
 50
212.4309938694
 51
212.7353856295
  0
ARC
  5
274
100
AcDbEntity
  8
0
100
AcDbCircle
 62
7
  6
CONTINUOUS
 10
94.6082726475
 20
169.1789921071
 40
61.9113984266
100
AcDbArc
 50
219.7987814614
 51
220.2054950179
  0
ARC
  5
275
100
AcDbEntity
  8
0
100
AcDbCircle
 62
7
  6
CONTINUOUS
 10
48.8439316611
 20
238.1249040983
 40
21.625
100
AcDbArc
 50
72.5076754749
 51
107.4923245251
  0
ARC
  5
276
100
AcDbEntity
  8
0
100
AcDbCircle
 62
7
  6
CONTINUOUS
 10
29.0439316611
 20
256.3499040983
 40
2.2
100
AcDbArc
 50
90.0
 51
179.9999999999
  0
ARC
  5
277
100
AcDbEntity
  8
0
100
AcDbCircle
 62
7
  6
CONTINUOUS
 10
168.746674383
 20
86.8830083901
 40
13.3050249637
100
AcDbArc
 50
72.1928896093
 51
72.3831793802
  0
ARC
  5
278
100
AcDbEntity
  8
0
100
AcDbCircle
 62
7
  6
CONTINUOUS
 10
169.9204843317
 20
90.5788635955
 40
9.4272452597
100
AcDbArc
 50
72.3844613709
 51
72.9801577946
  0
ARC
  5
279
100
AcDbEntity
  8
0
100
AcDbCircle
 62
7
  6
CONTINUOUS
 10
165.3184753759
 20
91.9271074869
 40
8.0125
100
AcDbArc
 50
72.2771274623
 51
107.2022275492
  0
ARC
  5
27A
100
AcDbEntity
  8
0
100
AcDbCircle
 62
7
  6
CONTINUOUS
 10
170.3184753759
 20
91.9271074869
 40
8.0125
100
AcDbArc
 50
72.2771431598
 51
107.7229236181
  0
ARC
  5
27B
100
AcDbEntity
  8
0
100
AcDbCircle
 62
7
  6
CONTINUOUS
 10
165.274403198
 20
92.0639268813
 40
7.886177448
100
AcDbArc
 50
96.7492484647
 51
97.1404837662
  0
ARC
  5
27C
100
AcDbEntity
  8
0
100
AcDbCircle
 62
7
  6
CONTINUOUS
 10
169.7786715744
 20
93.8063776737
 40
6.0706040107
100
AcDbArc
 50
107.1560958458
 51
108.4380281721
  0
ARC
  5
27D
100
AcDbEntity
  8
0
100
AcDbCircle
 62
7
  6
CONTINUOUS
 10
174.5606553113
 20
94.3534584383
 40
5.4813786616
100
AcDbArc
 50
108.2129456092
 51
108.5479102973
  0
ARC
  5
27E
100
AcDbEntity
  8
0
100
AcDbCircle
 62
7
  6
CONTINUOUS
 10
163.3907550921
 20
103.5396074869
 40
4.0
100
AcDbArc
 50
182.0000025522
 51
262.434012146
  0
ARC
  5
27F
100
AcDbEntity
  8
0
100
AcDbCircle
 62
7
  6
CONTINUOUS
 10
167.8184753759
 20
99.7498407848
 40
0.2
100
AcDbArc
 50
252.2754902644
 51
287.7229124086
  0
ARC
  5
280
100
AcDbEntity
  8
0
100
AcDbCircle
 62
7
  6
CONTINUOUS
 10
172.8184753759
 20
99.7498407848
 40
0.2
100
AcDbArc
 50
252.2748613845
 51
287.7229124086
  0
ARC
  5
281
100
AcDbEntity
  8
0
100
AcDbCircle
 62
7
  6
CONTINUOUS
 10
167.8195587833
 20
99.7473026875
 40
0.1972527175
100
AcDbArc
 50
268.4206564701
 51
287.6497521179
  0
ARC
  5
282
100
AcDbEntity
  8
0
100
AcDbCircle
 62
7
  6
CONTINUOUS
 10
172.8199312554
 20
99.7460846422
 40
0.1959761813
100
AcDbArc
 50
269.1552789303
 51
287.6517563322
  0
ARC
  5
283
100
AcDbEntity
  8
0
100
AcDbCircle
 62
7
  6
CONTINUOUS
 10
167.8169266417
 20
99.7454722658
 40
0.1953674916
100
AcDbArc
 50
252.3518122134
 51
269.1775229988
  0
ARC
  5
284
100
AcDbEntity
  8
0
100
AcDbCircle
 62
7
  6
CONTINUOUS
 10
172.8168664866
 20
99.7454810283
 40
0.1953573612
100
AcDbArc
 50
252.3494514159
 51
270.0515132939
  0
ARC
  5
285
100
AcDbEntity
  8
0
100
AcDbCircle
 62
7
  6
CONTINUOUS
 10
184.0140321679
 20
79.3682702504
 40
20.6523948988
100
AcDbArc
 50
83.5256001588
 51
83.6626078613
  0
ARC
  5
286
100
AcDbEntity
  8
0
100
AcDbCircle
 62
7
  6
CONTINUOUS
 10
185.3965321108
 20
91.5835738721
 40
8.3708501582
100
AcDbArc
 50
100.8383511891
 51
101.0051385249
  0
ARC
  5
287
100
AcDbEntity
  8
0
100
AcDbCircle
 62
7
  6
CONTINUOUS
 10
180.3184753759
 20
91.9271074869
 40
8.0125
100
AcDbArc
 50
73.4581824104
 51
107.7230053173
  0
ARC
  5
288
100
AcDbEntity
  8
0
100
AcDbCircle
 62
7
  6
CONTINUOUS
 10
175.3184753759
 20
91.9271074869
 40
8.0125
100
AcDbArc
 50
72.2771256203
 51
107.7229088571
  0
ARC
  5
289
100
AcDbEntity
  8
0
100
AcDbCircle
 62
7
  6
CONTINUOUS
 10
185.3184753759
 20
91.9271074869
 40
8.0125
100
AcDbArc
 50
72.7977724507
 51
107.7229302363
  0
ARC
  5
28A
100
AcDbEntity
  8
0
100
AcDbCircle
 62
7
  6
CONTINUOUS
 10
175.9837940914
 20
94.0792128458
 40
5.7708237172
100
AcDbArc
 50
71.4469784609
 51
71.7602771142
  0
ARC
  5
28B
100
AcDbEntity
  8
0
100
AcDbCircle
 62
7
  6
CONTINUOUS
 10
187.2461956597
 20
103.5396074869
 40
4.0
100
AcDbArc
 50
277.5659878539
 51
357.9999974478
  0
ARC
  5
28C
100
AcDbEntity
  8
0
100
AcDbCircle
 62
7
  6
CONTINUOUS
 10
181.6294106971
 20
96.5829762575
 40
3.190729704
100
AcDbArc
 50
71.9113682716
 51
73.4843566197
  0
ARC
  5
28D
100
AcDbEntity
  8
0
100
AcDbCircle
 62
7
  6
CONTINUOUS
 10
182.5975912867
 20
100.3532277205
 40
0.8341256984
100
AcDbArc
 50
285.8077844052
 51
286.2020511281
  0
ARC
  5
28E
100
AcDbEntity
  8
0
100
AcDbCircle
 62
7
  6
CONTINUOUS
 10
177.6391336628
 20
100.2240632716
 40
0.6977778626
100
AcDbArc
 50
285.0199808643
 51
285.218917129
  0
ARC
  5
28F
100
AcDbEntity
  8
0
100
AcDbCircle
 62
7
  6
CONTINUOUS
 10
177.8184753759
 20
99.7498407848
 40
0.2
100
AcDbArc
 50
252.2770875914
 51
287.7191902168
  0
ARC
  5
290
100
AcDbEntity
  8
0
100
AcDbCircle
 62
7
  6
CONTINUOUS
 10
182.8184753759
 20
99.7498407848
 40
0.2
100
AcDbArc
 50
252.3870918975
 51
287.7221981833
  0
ARC
  5
291
100
AcDbEntity
  8
0
100
AcDbCircle
 62
7
  6
CONTINUOUS
 10
177.8170192514
 20
99.7460890595
 40
0.1959803306
100
AcDbArc
 50
252.3537993703
 51
270.8615594417
  0
ARC
  5
292
100
AcDbEntity
  8
0
100
AcDbCircle
 62
7
  6
CONTINUOUS
 10
177.8200936694
 20
99.7454375885
 40
0.1953132623
100
AcDbArc
 50
269.9625615928
 51
287.6610299844
  0
ARC
  5
293
100
AcDbEntity
  8
0
100
AcDbCircle
 62
7
  6
CONTINUOUS
 10
182.8201963608
 20
99.7441623663
 40
0.1940672937
100
AcDbArc
 50
281.4916285089
 51
287.8024618981
  0
ARC
  5
294
100
AcDbEntity
  8
0
100
AcDbCircle
 62
7
  6
CONTINUOUS
 10
182.8160219407
 20
99.7404357195
 40
0.1902816511
100
AcDbArc
 50
256.396095068
 51
262.6217562143
  0
ARC
  5
295
100
AcDbEntity
  8
0
100
AcDbCircle
 62
7
  6
CONTINUOUS
 10
163.8500222989
 20
153.0600129964
 40
48.8273866298
100
AcDbArc
 50
330.5130330861
 51
330.6415167272
  0
ARC
  5
296
100
AcDbEntity
  8
0
100
AcDbCircle
 62
7
  6
CONTINUOUS
 10
184.9081157393
 20
147.3918237052
 40
28.1210012375
100
AcDbArc
 50
319.6060006572
 51
319.7260650736
  0
ARC
  5
297
100
AcDbEntity
  8
0
100
AcDbCircle
 62
7
  6
CONTINUOUS
 10
211.6314190457
 20
111.745492402
 40
6.844241849
100
AcDbArc
 50
308.5573751627
 51
309.1580333826
  0
ARC
  5
298
100
AcDbEntity
  8
0
100
AcDbCircle
 62
7
  6
CONTINUOUS
 10
214.3095192515
 20
108.7396074869
 40
3.2
100
AcDbArc
 50
270.0
 51
304.9999999999
  0
ARC
  5
299
100
AcDbEntity
  8
0
100
AcDbCircle
 62
7
  6
CONTINUOUS
 10
222.1184753759
 20
114.2074974307
 40
3.2
100
AcDbArc
 50
304.9999999999
 51
360.0
  0
ARC
  5
29A
100
AcDbEntity
  8
0
100
AcDbCircle
 62
7
  6
CONTINUOUS
 10
222.2163564002
 20
114.1565437946
 40
2.0896507002
100
AcDbArc
 50
323.1305904382
 51
341.8694095598
  0
ARC
  5
29B
100
AcDbEntity
  8
0
100
AcDbCircle
 62
7
  6
CONTINUOUS
 10
215.8439316611
 20
143.0686540983
 40
12.7408438324
100
AcDbArc
 50
273.3747129721
 51
293.1063268583
  0
ARC
  5
29C
100
AcDbEntity
  8
0
100
AcDbCircle
 62
7
  6
CONTINUOUS
 10
215.8439316611
 20
143.0686540983
 40
12.7408438324
100
AcDbArc
 50
246.8936731417
 51
266.6252870275
  0
ARC
  5
29D
100
AcDbEntity
  8
0
100
AcDbCircle
 62
7
  6
CONTINUOUS
 10
223.6439316611
 20
134.7499040983
 40
3.2
100
AcDbArc
 50
270.0
 51
360.0
  0
ARC
  5
29E
100
AcDbEntity
  8
0
100
AcDbCircle
 62
7
  6
CONTINUOUS
 10
209.2701256693
 20
129.5499040983
 40
2.0
100
AcDbArc
 50
90.0
 51
191.0000000014
  0
ARC
  5
29F
100
AcDbEntity
  8
0
100
AcDbCircle
 62
7
  6
CONTINUOUS
 10
224.2184753759
 20
124.4396074869
 40
1.1
100
AcDbArc
 50
0.0
 51
120.0328205774
  0
ARC
  5
2A0
100
AcDbEntity
  8
0
100
AcDbCircle
 62
7
  6
CONTINUOUS
 10
135.1479716812
 20
193.0115359173
 40
108.6396190109
100
AcDbArc
 50
327.2646233444
 51
327.569004908
  0
ARC
  5
2A1
100
AcDbEntity
  8
0
100
AcDbCircle
 62
7
  6
CONTINUOUS
 10
159.0892620197
 20
169.1708911675
 40
61.8987825827
100
AcDbArc
 50
319.7943766044
 51
320.2012494235
  0
ARC
  5
2A2
100
AcDbEntity
  8
0
100
AcDbCircle
 62
7
  6
CONTINUOUS
 10
204.8439316611
 20
238.1249040983
 40
21.625
100
AcDbArc
 50
72.5076754749
 51
107.4923245251
  0
ARC
  5
2A3
100
AcDbEntity
  8
0
100
AcDbCircle
 62
7
  6
CONTINUOUS
 10
224.6439316611
 20
256.3499040983
 40
2.2
100
AcDbArc
 50
0.0000000001
 51
79.7826896478
  0
SPLINE
  5
2A4
100
AcDbEntity
  8
0
100
AcDbSpline
 62
7
  6
CONTINUOUS
 70
0
 71
3
 72
8
 73
4
 74
0
 42
0.0000001
 43
0.0000001
 44
0.0000000001
 40
0.0
 40
0.0
 40
0.0
 40
0.0
 40
1.0
 40
1.0
 40
1.0
 40
1.0
 10
163.4369956208
 20
99.7459145811
 30
0.0
 10
163.4706758614
 20
99.7346437644
 30
0.0
 10
163.5087621154
 20
99.7326958347
 30
0.0
 10
163.5434068469
 20
99.7405145619
 30
0.0
  0
SPLINE
  5
2A5
100
AcDbEntity
  8
0
100
AcDbSpline
 62
7
  6
CONTINUOUS
 70
0
 71
3
 72
13
 73
9
 74
0
 42
0.0000001
 43
0.0000001
 44
0.0000000001
 40
0.0
 40
0.0
 40
0.0
 40
0.0
 40
0.1224383227
 40
0.2450631806
 40
0.3677022732
 40
0.4912064431
 40
0.7419541609
 40
1.0
 40
1.0
 40
1.0
 40
1.0
 10
163.777186818
 20
103.9585302135
 30
0.0
 10
163.6768582926
 20
103.9663532658
 30
0.0
 10
163.4773323944
 20
104.0034616217
 30
0.0
 10
163.1935312598
 20
104.1111348529
 30
0.0
 10
162.930659506
 20
104.2649875393
 30
0.0
 10
162.6160885775
 20
104.5278153597
 30
0.0
 10
162.2976530285
 20
104.9484369248
 30
0.0
 10
162.1386659791
 20
105.338531559
 30
0.0
 10
162.0712076249
 20
105.539607503
 30
0.0
  0
SPLINE
  5
2A6
100
AcDbEntity
  8
0
100
AcDbSpline
 62
7
  6
CONTINUOUS
 70
0
 71
3
 72
13
 73
9
 74
0
 42
0.0000001
 43
0.0000001
 44
0.0000000001
 40
0.0
 40
0.0
 40
0.0
 40
0.0
 40
0.2419181141
 40
0.3688490603
 40
0.4976122665
 40
0.6266938208
 40
0.7545300837
 40
1.0
 40
1.0
 40
1.0
 40
1.0
 10
160.7505667784
 20
103.4000094058
 30
0.0
 10
160.7638964702
 20
103.0121774347
 30
0.0
 10
160.8702934882
 20
102.4191400318
 30
0.0
 10
161.1816108796
 20
101.6818151122
 30
0.0
 10
161.5051925449
 20
101.1531508045
 30
0.0
 10
161.9093366772
 20
100.6811885112
 30
0.0
 10
162.5220247795
 20
100.1542607095
 30
0.0
 10
163.0641543788
 20
99.8725440934
 30
0.0
 10
163.436996392
 20
99.7459165814
 30
0.0
  0
SPLINE
  5
2A7
100
AcDbEntity
  8
0
100
AcDbSpline
 62
7
  6
CONTINUOUS
 70
0
 71
3
 72
9
 73
5
 74
0
 42
0.0000001
 43
0.0000001
 44
0.0000000001
 40
0.0
 40
0.0
 40
0.0
 40
0.0
 40
0.2199289246
 40
1.0
 40
1.0
 40
1.0
 40
1.0
 10
163.4369963224
 20
99.7459166051
 30
0.0
 10
163.4429858052
 20
99.7465651552
 30
0.0
 10
163.470112591
 20
99.7505273444
 30
0.0
 10
163.4967145462
 20
99.7572825119
 30
0.0
 10
163.5174478002
 20
99.7624537266
 30
0.0
  0
SPLINE
  5
2A8
100
AcDbEntity
  8
0
100
AcDbSpline
 62
7
  6
CONTINUOUS
 70
0
 71
3
 72
9
 73
5
 74
0
 42
0.0000001
 43
0.0000001
 44
0.0000000001
 40
0.0
 40
0.0
 40
0.0
 40
0.0
 40
0.2101736906
 40
1.0
 40
1.0
 40
1.0
 40
1.0
 10
163.5174478002
 20
99.7624537266
 30
0.0
 10
163.5256447294
 20
99.7644981757
 30
0.0
 10
163.5646220679
 20
99.7743116981
 30
0.0
 10
163.6038075987
 20
99.7833639872
 30
0.0
 10
163.6349553158
 20
99.7895058549
 30
0.0
  0
SPLINE
  5
2A9
100
AcDbEntity
  8
0
100
AcDbSpline
 62
7
  6
CONTINUOUS
 70
0
 71
3
 72
9
 73
5
 74
0
 42
0.0000001
 43
0.0000001
 44
0.0000000001
 40
0.0
 40
0.0
 40
0.0
 40
0.0
 40
0.4370559571
 40
1.0
 40
1.0
 40
1.0
 40
1.0
 10
163.6349553158
 20
99.7895058549
 30
0.0
 10
163.6911936302
 20
99.8005952161
 30
0.0
 10
163.820859225
 20
99.8205958468
 30
0.0
 10
163.9505048197
 20
99.8404920497
 30
0.0
 10
164.0231033208
 20
99.8539306366
 30
0.0
  0
SPLINE
  5
2AA
100
AcDbEntity
  8
0
100
AcDbSpline
 62
7
  6
CONTINUOUS
 70
0
 71
3
 72
10
 73
6
 74
0
 42
0.0000001
 43
0.0000001
 44
0.0000000001
 40
0.0
 40
0.0
 40
0.0
 40
0.0
 40
0.2221142192
 40
0.5816276877
 40
1.0
 40
1.0
 40
1.0
 40
1.0
 10
164.0231033208
 20
99.8539306366
 30
0.0
 10
164.0431022217
 20
99.8570334228
 30
0.0
 10
164.0954861343
 20
99.8650548598
 30
0.0
 10
164.1855500844
 20
99.8789157098
 30
0.0
 10
164.2561098368
 20
99.8861465264
 30
0.0
 10
164.2941285751
 20
99.8889289969
 30
0.0
  0
SPLINE
  5
2AB
100
AcDbEntity
  8
0
100
AcDbSpline
 62
7
  6
CONTINUOUS
 70
0
 71
3
 72
9
 73
5
 74
0
 42
0.0000001
 43
0.0000001
 44
0.0000000001
 40
0.0
 40
0.0
 40
0.0
 40
0.0
 40
0.4932505551
 40
1.0
 40
1.0
 40
1.0
 40
1.0
 10
163.7771659111
 20
103.9585471692
 30
0.0
 10
163.7522776197
 20
104.0789017878
 30
0.0
 10
163.7148783974
 20
104.325691529
 30
0.0
 10
163.699596232
 20
104.5747442999
 30
0.0
 10
163.6975508543
 20
104.7009922121
 30
0.0
  0
SPLINE
  5
2AC
100
AcDbEntity
  8
0
100
AcDbSpline
 62
7
  6
CONTINUOUS
 70
0
 71
3
 72
9
 73
5
 74
0
 42
0.0000001
 43
0.0000001
 44
0.0000000001
 40
0.0
 40
0.0
 40
0.0
 40
0.0
 40
0.4932506908
 40
1.0
 40
1.0
 40
1.0
 40
1.0
 10
186.8597741092
 20
103.9585472027
 30
0.0
 10
186.8846631485
 20
104.0789017785
 30
0.0
 10
186.9220639119
 20
104.3256914401
 30
0.0
 10
186.9373476402
 20
104.5747442691
 30
0.0
 10
186.9393938039
 20
104.7009922125
 30
0.0
  0
SPLINE
  5
2AD
100
AcDbEntity
  8
0
100
AcDbSpline
 62
7
  6
CONTINUOUS
 70
0
 71
3
 72
11
 73
7
 74
0
 42
0.0000001
 43
0.0000001
 44
0.0000000001
 40
0.0
 40
0.0
 40
0.0
 40
0.0
 40
0.4116031455
 40
0.6833851678
 40
0.8371375942
 40
1.0
 40
1.0
 40
1.0
 40
1.0
 10
163.0573789416
 20
99.6398039402
 30
0.0
 10
163.1089040647
 20
99.6562591508
 30
0.0
 10
163.1950067246
 20
99.6818556438
 30
0.0
 10
163.3012043983
 20
99.7105797763
 30
0.0
 10
163.3760594167
 20
99.7299374163
 30
0.0
 10
163.4164363658
 20
99.7400244229
 30
0.0
 10
163.4370041206
 20
99.7459409269
 30
0.0
  0
SPLINE
  5
2AE
100
AcDbEntity
  8
0
100
AcDbSpline
 62
7
  6
CONTINUOUS
 70
0
 71
3
 72
9
 73
5
 74
0
 42
0.0000001
 43
0.0000001
 44
0.0000000001
 40
0.0
 40
0.0
 40
0.0
 40
0.0
 40
0.2120708232
 40
1.0
 40
1.0
 40
1.0
 40
1.0
 10
182.8248092224
 20
99.5508896062
 30
0.0
 10
182.822479776
 20
99.550557552
 30
0.0
 10
182.8113909914
 20
99.5497976914
 30
0.0
 10
182.800255201
 20
99.5506000287
 30
0.0
 10
182.7915861552
 20
99.5517296011
 30
0.0
  0
SPLINE
  5
2AF
100
AcDbEntity
  8
0
100
AcDbSpline
 62
7
  6
CONTINUOUS
 70
0
 71
3
 72
9
 73
5
 74
0
 42
0.0000001
 43
0.0000001
 44
0.0000000001
 40
0.0
 40
0.0
 40
0.0
 40
0.0
 40
0.2166709316
 40
1.0
 40
1.0
 40
1.0
 40
1.0
 10
182.8248092224
 20
99.5508896062
 30
0.0
 10
182.8272789248
 20
99.550753144
 30
0.0
 10
182.8387040072
 20
99.5505405691
 30
0.0
 10
182.8500953023
 20
99.5522088118
 30
0.0
 10
182.8588593699
 20
99.5539853797
 30
0.0
  0
SPLINE
  5
2B0
100
AcDbEntity
  8
0
100
AcDbSpline
 62
7
  6
CONTINUOUS
 70
0
 71
3
 72
9
 73
5
 74
0
 42
0.0000001
 43
0.0000001
 44
0.0000000001
 40
0.0
 40
0.0
 40
0.0
 40
0.0
 40
0.7427863007
 40
1.0
 40
1.0
 40
1.0
 40
1.0
 10
186.2856215336
 20
99.8810246773
 30
0.0
 10
186.2998894526
 20
99.8792913538
 30
0.0
 10
186.3198204094
 20
99.8809007314
 30
0.0
 10
186.3381631044
 20
99.8870949027
 30
0.0
 10
186.342781115
 20
99.8889509799
 30
0.0
  0
SPLINE
  5
2B1
100
AcDbEntity
  8
0
100
AcDbSpline
 62
7
  6
CONTINUOUS
 70
0
 71
3
 72
11
 73
7
 74
0
 42
0.0000001
 43
0.0000001
 44
0.0000000001
 40
0.0
 40
0.0
 40
0.0
 40
0.0
 40
0.2083060568
 40
0.4484538822
 40
0.7180621923
 40
1.0
 40
1.0
 40
1.0
 40
1.0
 10
186.2937046982
 20
99.8944610371
 30
0.0
 10
186.1224161995
 20
99.9134747951
 30
0.0
 10
185.7527499136
 20
99.9480062241
 30
0.0
 10
185.1580719424
 20
99.9563052082
 30
0.0
 10
184.5036623997
 20
99.9158965981
 30
0.0
 10
184.0515860564
 20
99.8489632896
 30
0.0
 10
183.822487735
 20
99.8051015084
 30
0.0
  0
SPLINE
  5
2B2
100
AcDbEntity
  8
0
100
AcDbSpline
 62
7
  6
CONTINUOUS
 70
0
 71
3
 72
10
 73
6
 74
0
 42
0.0000001
 43
0.0000001
 44
0.0000000001
 40
0.0
 40
0.0
 40
0.0
 40
0.0
 40
0.6526801362
 40
0.8674921675
 40
1.0
 40
1.0
 40
1.0
 40
1.0
 10
183.7985616683
 20
99.8004846564
 30
0.0
 10
183.5903652799
 20
99.7599960086
 30
0.0
 10
183.3157506031
 20
99.6948388707
 30
0.0
 10
183.0031153341
 20
99.6060966613
 30
0.0
 10
182.8954698422
 20
99.5721435941
 30
0.0
 10
182.8543227244
 20
99.5594514898
 30
0.0
  0
LINE
  5
2B3
100
AcDbEntity
  8
0
100
AcDbLine
 62
7
  6
CONTINUOUS
 10
182.8543227244
 20
99.5594514898
 11
182.8303336129
 21
99.5522304106
  0
SPLINE
  5
2B4
100
AcDbEntity
  8
0
100
AcDbSpline
 62
7
  6
CONTINUOUS
 70
0
 71
3
 72
15
 73
11
 74
0
 42
0.0000001
 43
0.0000001
 44
0.0000000001
 40
0.0
 40
0.0
 40
0.0
 40
0.0
 40
0.2070581756
 40
0.3920123269
 40
0.5518542533
 40
0.6859433666
 40
0.7946954602
 40
0.8801491571
 40
0.9461473517
 40
1.0
 40
1.0
 40
1.0
 40
1.0
 10
189.0422723662
 20
105.5396086243
 30
0.0
 10
189.0568829254
 20
105.3736979345
 30
0.0
 10
189.0934023675
 20
105.0602667395
 30
0.0
 10
189.1724505227
 20
104.6231360782
 30
0.0
 10
189.2687882605
 20
104.2497360127
 30
0.0
 10
189.3775571899
 20
103.9440859859
 30
0.0
 10
189.4946604311
 20
103.7064540351
 30
0.0
 10
189.6175949571
 20
103.5355187444
 30
0.0
 10
189.7461697669
 20
103.4274779573
 30
0.0
 10
189.8430634707
 20
103.4000090139
 30
0.0
 10
189.8863812858
 20
103.4000081931
 30
0.0
  0
SPLINE
  5
2B5
100
AcDbEntity
  8
0
100
AcDbSpline
 62
7
  6
CONTINUOUS
 70
0
 71
3
 72
9
 73
5
 74
0
 42
0.0000001
 43
0.0000001
 44
0.0000000001
 40
0.0
 40
0.0
 40
0.0
 40
0.0
 40
0.5834956017
 40
1.0
 40
1.0
 40
1.0
 40
1.0
 10
187.1999463685
 20
99.7459409392
 30
0.0
 10
187.2712054019
 20
99.7263620301
 30
0.0
 10
187.3943292541
 20
99.6964916859
 30
0.0
 10
187.5156097938
 20
99.6598601757
 30
0.0
 10
187.5659398557
 20
99.6440650853
 30
0.0
  0
SPLINE
  5
2B6
100
AcDbEntity
  8
0
100
AcDbSpline
 62
7
  6
CONTINUOUS
 70
0
 71
3
 72
8
 73
4
 74
0
 42
0.0000001
 43
0.0000001
 44
0.0000000001
 40
0.0
 40
0.0
 40
0.0
 40
0.0
 40
1.0
 40
1.0
 40
1.0
 40
1.0
 10
187.199946475
 20
99.745940979
 30
0.0
 10
187.1663543373
 20
99.7346899646
 30
0.0
 10
187.1283797505
 20
99.73271099
 30
0.0
 10
187.093809649
 20
99.7404521222
 30
0.0
  0
SPLINE
  5
2B7
100
AcDbEntity
  8
0
100
AcDbSpline
 62
7
  6
CONTINUOUS
 70
0
 71
3
 72
13
 73
9
 74
0
 42
0.0000001
 43
0.0000001
 44
0.0000000001
 40
0.0
 40
0.0
 40
0.0
 40
0.0
 40
0.2454709574
 40
0.3733075018
 40
0.5023891534
 40
0.6311522572
 40
0.7580829185
 40
1.0
 40
1.0
 40
1.0
 40
1.0
 10
187.1999540437
 20
99.7459165875
 30
0.0
 10
187.5727976384
 20
99.8725446398
 30
0.0
 10
188.1149290699
 20
100.1542626568
 30
0.0
 10
188.7276181384
 20
100.6811928511
 30
0.0
 10
189.1317617849
 20
101.1531561543
 30
0.0
 10
189.4553423475
 20
101.6818205855
 30
0.0
 10
189.7666578076
 20
102.4191438365
 30
0.0
 10
189.8730540849
 20
103.0121790893
 30
0.0
 10
189.8863837317
 20
103.4000094058
 30
0.0
  0
SPLINE
  5
2B8
100
AcDbEntity
  8
0
100
AcDbSpline
 62
7
  6
CONTINUOUS
 70
0
 71
3
 72
13
 73
9
 74
0
 42
0.0000001
 43
0.0000001
 44
0.0000000001
 40
0.0
 40
0.0
 40
0.0
 40
0.0
 40
0.2580813403
 40
0.5088019697
 40
0.6323863914
 40
0.7550039484
 40
0.8775044854
 40
1.0
 40
1.0
 40
1.0
 40
1.0
 10
188.5657537771
 20
105.5396075073
 30
0.0
 10
188.4989129521
 20
105.338299111
 30
0.0
 10
188.338772259
 20
104.9486054129
 30
0.0
 10
188.0206908912
 20
104.5278295905
 30
0.0
 10
187.7062669404
 20
104.2647962998
 30
0.0
 10
187.4434709814
 20
104.1108008795
 30
0.0
 10
187.159460667
 20
104.0041085589
 30
0.0
 10
186.9601436434
 20
103.9661596509
 30
0.0
 10
186.8597550678
 20
103.9585301108
 30
0.0
  0
SPLINE
  5
2B9
100
AcDbEntity
  8
0
100
AcDbSpline
 62
7
  6
CONTINUOUS
 70
0
 71
3
 72
12
 73
8
 74
0
 42
0.0000001
 43
0.0000001
 44
0.0000000001
 40
0.0
 40
0.0
 40
0.0
 40
0.0
 40
0.1938307039
 40
0.3579347685
 40
0.6326986516
 40
0.8498011439
 40
1.0
 40
1.0
 40
1.0
 40
1.0
 10
186.3427833311
 20
99.8889381668
 30
0.0
 10
186.3923351453
 20
99.8867748459
 30
0.0
 10
186.4831817448
 20
99.8733992068
 30
0.0
 10
186.6433235503
 20
99.8501504005
 30
0.0
 10
186.8086247341
 20
99.8208571036
 30
0.0
 10
186.971432521
 20
99.7977926633
 30
0.0
 10
187.0628662347
 20
99.7757322011
 30
0.0
 10
187.1003489672
 20
99.7672335289
 30
0.0
  0
LINE
  5
2BA
100
AcDbEntity
  8
0
100
AcDbLine
 62
7
  6
CONTINUOUS
 10
187.1043111167
 20
99.7663417569
 11
187.138421076
 21
99.757749589
  0
SPLINE
  5
2BB
100
AcDbEntity
  8
0
100
AcDbSpline
 62
7
  6
CONTINUOUS
 70
0
 71
3
 72
9
 73
5
 74
0
 42
0.0000001
 43
0.0000001
 44
0.0000000001
 40
0.0
 40
0.0
 40
0.0
 40
0.0
 40
0.2634241113
 40
1.0
 40
1.0
 40
1.0
 40
1.0
 10
187.138421076
 20
99.757749589
 30
0.0
 10
187.1411916137
 20
99.7570765022
 30
0.0
 10
187.1517157018
 20
99.7545503753
 30
0.0
 10
187.1622802926
 20
99.752182157
 30
0.0
 10
187.1701018453
 20
99.7506396316
 30
0.0
  0
SPLINE
  5
2BC
100
AcDbEntity
  8
0
100
AcDbSpline
 62
7
  6
CONTINUOUS
 70
0
 71
3
 72
9
 73
5
 74
0
 42
0.0000001
 43
0.0000001
 44
0.0000000001
 40
0.0
 40
0.0
 40
0.0
 40
0.0
 40
0.2621629109
 40
1.0
 40
1.0
 40
1.0
 40
1.0
 10
187.1701018453
 20
99.7506396316
 30
0.0
 10
187.1726934841
 20
99.7501285222
 30
0.0
 10
187.1825956551
 20
99.7482655926
 30
0.0
 10
187.1925678504
 20
99.7467616655
 30
0.0
 10
187.1999541242
 20
99.7459166149
 30
0.0
  0
LINE
  5
2BD
100
AcDbEntity
  8
0
100
AcDbLine
 62
7
  6
CONTINUOUS
 10
177.9813664936
 20
99.600608932
 11
177.8649502495
 21
99.563377462
  0
SPLINE
  5
2BE
100
AcDbEntity
  8
0
100
AcDbSpline
 62
7
  6
CONTINUOUS
 70
0
 71
3
 72
9
 73
5
 74
0
 42
0.0000001
 43
0.0000001
 44
0.0000000001
 40
0.0
 40
0.0
 40
0.0
 40
0.0
 40
0.2730734834
 40
1.0
 40
1.0
 40
1.0
 40
1.0
 10
177.8649502495
 20
99.563377462
 30
0.0
 10
177.8610868664
 20
99.5621681193
 30
0.0
 10
177.8469260568
 20
99.5577822614
 30
0.0
 10
177.8327043835
 20
99.5535852893
 30
0.0
 10
177.8223057806
 20
99.5507565653
 30
0.0
  0
SPLINE
  5
2BF
100
AcDbEntity
  8
0
100
AcDbSpline
 62
7
  6
CONTINUOUS
 70
0
 71
3
 72
11
 73
7
 74
0
 42
0.0000001
 43
0.0000001
 44
0.0000000001
 40
0.0
 40
0.0
 40
0.0
 40
0.0
 40
0.2538888211
 40
0.5415254229
 40
0.8141591637
 40
1.0
 40
1.0
 40
1.0
 40
1.0
 10
181.4573931987
 20
99.8716051928
 30
0.0
 10
181.1630935369
 20
99.913401685
 30
0.0
 10
180.5298538572
 20
99.9674254918
 30
0.0
 10
179.5746940433
 20
99.9347500726
 30
0.0
 10
178.7097536885
 20
99.7987842932
 30
0.0
 10
178.1894520506
 20
99.6641892422
 30
0.0
 10
177.9813664936
 20
99.600608932
 30
0.0
  0
SPLINE
  5
2C0
100
AcDbEntity
  8
0
100
AcDbSpline
 62
7
  6
CONTINUOUS
 70
0
 71
3
 72
9
 73
5
 74
0
 42
0.0000001
 43
0.0000001
 44
0.0000000001
 40
0.0
 40
0.0
 40
0.0
 40
0.0
 40
0.4721190545
 40
1.0
 40
1.0
 40
1.0
 40
1.0
 10
181.8959080899
 20
99.7973247098
 30
0.0
 10
181.8272452619
 20
99.8110067741
 30
0.0
 10
181.6821278805
 20
99.841973715
 30
0.0
 10
181.5349178079
 20
99.8607426618
 30
0.0
 10
181.4573931987
 20
99.8716051928
 30
0.0
  0
SPLINE
  5
2C1
100
AcDbEntity
  8
0
100
AcDbSpline
 62
7
  6
CONTINUOUS
 70
0
 71
3
 72
9
 73
5
 74
0
 42
0.0000001
 43
0.0000001
 44
0.0000000001
 40
0.0
 40
0.0
 40
0.0
 40
0.0
 40
0.2322401279
 40
1.0
 40
1.0
 40
1.0
 40
1.0
 10
182.3224055136
 20
99.6990872853
 30
0.0
 10
182.289471905
 20
99.7070455936
 30
0.0
 10
182.1476002763
 20
99.7410458802
 30
0.0
 10
182.005411399
 20
99.7737677428
 30
0.0
 10
181.8959080899
 20
99.7973247098
 30
0.0
  0
SPLINE
  5
2C2
100
AcDbEntity
  8
0
100
AcDbSpline
 62
7
  6
CONTINUOUS
 70
0
 71
3
 72
9
 73
5
 74
0
 42
0.0000001
 43
0.0000001
 44
0.0000000001
 40
0.0
 40
0.0
 40
0.0
 40
0.0
 40
0.2246164636
 40
1.0
 40
1.0
 40
1.0
 40
1.0
 10
182.5364621455
 20
99.6420633294
 30
0.0
 10
182.5205606672
 20
99.6467821731
 30
0.0
 10
182.4496111179
 20
99.6672676411
 30
0.0
 10
182.3780511341
 20
99.6855930061
 30
0.0
 10
182.3224055136
 20
99.6990872853
 30
0.0
  0
SPLINE
  5
2C3
100
AcDbEntity
  8
0
100
AcDbSpline
 62
7
  6
CONTINUOUS
 70
0
 71
3
 72
9
 73
5
 74
0
 42
0.0000001
 43
0.0000001
 44
0.0000000001
 40
0.0
 40
0.0
 40
0.0
 40
0.0
 40
0.224687603
 40
1.0
 40
1.0
 40
1.0
 40
1.0
 10
182.8248162814
 20
99.5506478288
 30
0.0
 10
182.8205280563
 20
99.551788706
 30
0.0
 10
182.8014905832
 20
99.5570463334
 30
0.0
 10
182.7826119562
 20
99.5628611528
 30
0.0
 10
182.7680145527
 20
99.5674835396
 30
0.0
  0
SPLINE
  5
2C4
100
AcDbEntity
  8
0
100
AcDbSpline
 62
7
  6
CONTINUOUS
 70
0
 71
3
 72
9
 73
5
 74
0
 42
0.0000001
 43
0.0000001
 44
0.0000000001
 40
0.0
 40
0.0
 40
0.0
 40
0.0
 40
0.2295793194
 40
1.0
 40
1.0
 40
1.0
 40
1.0
 10
182.7680145527
 20
99.5674835396
 30
0.0
 10
182.7627265982
 20
99.5691580135
 30
0.0
 10
182.7397175473
 20
99.5765281124
 30
0.0
 10
182.7167779647
 20
99.5841125608
 30
0.0
 10
182.6991094601
 20
99.5899686866
 30
0.0
  0
LINE
  5
2C5
100
AcDbEntity
  8
0
100
AcDbLine
 62
7
  6
CONTINUOUS
 10
182.6991094601
 20
99.5899686866
 11
182.6200934329
 21
99.6160116613
  0
SPLINE
  5
2C6
100
AcDbEntity
  8
0
100
AcDbSpline
 62
7
  6
CONTINUOUS
 70
0
 71
3
 72
13
 73
9
 74
0
 42
0.0000001
 43
0.0000001
 44
0.0000000001
 40
0.0
 40
0.0
 40
0.0
 40
0.0
 40
0.3399735922
 40
0.6246003093
 40
0.7432656555
 40
0.8453563944
 40
0.9308204452
 40
1.0
 40
1.0
 40
1.0
 40
1.0
 10
163.7771845179
 20
103.9585402949
 30
0.0
 10
163.7978218223
 20
103.4922980361
 30
0.0
 10
163.8423598714
 20
102.6360224114
 30
0.0
 10
163.9273046961
 20
101.6187560946
 30
0.0
 10
164.0196596456
 20
100.9310173957
 30
0.0
 10
164.0948528238
 20
100.5171745924
 30
0.0
 10
164.1810879929
 20
100.1752005436
 30
0.0
 10
164.2537127921
 20
99.9748777952
 30
0.0
 10
164.2941308152
 20
99.8889419482
 30
0.0
  0
SPLINE
  5
2C7
100
AcDbEntity
  8
0
100
AcDbSpline
 62
7
  6
CONTINUOUS
 70
0
 71
3
 72
13
 73
9
 74
0
 42
0.0000001
 43
0.0000001
 44
0.0000000001
 40
0.0
 40
0.0
 40
0.0
 40
0.0
 40
0.0691823748
 40
0.1546491362
 40
0.2567401167
 40
0.3754049118
 40
0.6600298206
 40
1.0
 40
1.0
 40
1.0
 40
1.0
 10
186.3427810901
 20
99.888951124
 30
0.0
 10
186.3832004933
 20
99.9748906728
 30
0.0
 10
186.4558475374
 20
100.1752124598
 30
0.0
 10
186.5421097685
 20
100.5171893822
 30
0.0
 10
186.6172982831
 20
100.9310368972
 30
0.0
 10
186.7096471259
 20
101.6187737723
 30
0.0
 10
186.7945963866
 20
102.6360325468
 30
0.0
 10
186.8391201518
 20
103.4923023976
 30
0.0
 10
186.8597573695
 20
103.9585402949
 30
0.0
  0
LINE
  5
2C8
100
AcDbEntity
  8
0
100
AcDbLine
 62
7
  6
CONTINUOUS
 10
167.814120592
 20
99.550125429
 11
167.8121458498
 21
99.5507331385
  0
SPLINE
  5
2C9
100
AcDbEntity
  8
0
100
AcDbSpline
 62
7
  6
CONTINUOUS
 70
0
 71
3
 72
10
 73
6
 74
0
 42
0.0000001
 43
0.0000001
 44
0.0000000001
 40
0.0
 40
0.0
 40
0.0
 40
0.0
 40
0.1751291739
 40
0.4732791165
 40
1.0
 40
1.0
 40
1.0
 40
1.0
 10
167.7612171176
 20
99.5664848957
 30
0.0
 10
167.5687603765
 20
99.6259197291
 30
0.0
 10
167.0439146899
 20
99.7721162157
 30
0.0
 10
165.9083971834
 20
99.9694004238
 30
0.0
 10
164.9491959061
 20
99.9666508201
 30
0.0
 10
164.347585149
 20
99.8954531084
 30
0.0
  0
SPLINE
  5
2CA
100
AcDbEntity
  8
0
100
AcDbSpline
 62
7
  6
CONTINUOUS
 70
0
 71
3
 72
9
 73
5
 74
0
 42
0.0000001
 43
0.0000001
 44
0.0000000001
 40
0.0
 40
0.0
 40
0.0
 40
0.0
 40
0.2572031415
 40
1.0
 40
1.0
 40
1.0
 40
1.0
 10
164.2941307612
 20
99.8889416364
 30
0.0
 10
164.2987523367
 20
99.8870867645
 30
0.0
 10
164.3171090645
 20
99.8808969725
 30
0.0
 10
164.3370514121
 20
99.8792909528
 30
0.0
 10
164.3513282837
 20
99.8810256287
 30
0.0
  0
SPLINE
  5
2CB
100
AcDbEntity
  8
0
100
AcDbSpline
 62
7
  6
CONTINUOUS
 70
0
 71
3
 72
11
 73
7
 74
0
 42
0.0000001
 43
0.0000001
 44
0.0000000001
 40
0.0
 40
0.0
 40
0.0
 40
0.0
 40
0.2330730645
 40
0.5573680231
 40
0.8288871141
 40
1.0
 40
1.0
 40
1.0
 40
1.0
 10
172.6798660454
 20
99.5932280071
 30
0.0
 10
172.3264739898
 20
99.7012667637
 30
0.0
 10
171.4633279648
 20
99.9037914219
 30
0.0
 10
170.143487408
 20
99.991124286
 30
0.0
 10
168.9297719585
 20
99.8562050645
 30
0.0
 10
168.2471955412
 20
99.6869668711
 30
0.0
 10
167.9879893274
 20
99.6068681827
 30
0.0
  0
LINE
  5
2CC
100
AcDbEntity
  8
0
100
AcDbLine
 62
7
  6
CONTINUOUS
 10
167.858668512
 20
99.5653551259
 11
167.8154620076
 21
99.550596357
  0
LINE
  5
2CD
100
AcDbEntity
  8
0
100
AcDbLine
 62
7
  6
CONTINUOUS
 10
167.8154620076
 20
99.550596357
 11
167.814120592
 21
99.550125429
  0
SPLINE
  5
2CE
100
AcDbEntity
  8
0
100
AcDbSpline
 62
7
  6
CONTINUOUS
 70
0
 71
3
 72
15
 73
11
 74
0
 42
0.0000001
 43
0.0000001
 44
0.0000000001
 40
0.0
 40
0.0
 40
0.0
 40
0.0
 40
0.0660148077
 40
0.1795255808
 40
0.3294981881
 40
0.4998613741
 40
0.6702765528
 40
0.8202566268
 40
0.9339149634
 40
1.0
 40
1.0
 40
1.0
 40
1.0
 10
177.7900241415
 20
99.5600831581
 30
0.0
 10
177.685047585
 20
99.5946745441
 30
0.0
 10
177.3970663305
 20
99.6811553565
 30
0.0
 10
176.8604381746
 20
99.8111403218
 30
0.0
 10
176.1413527961
 20
99.921326671
 30
0.0
 10
175.3193638301
 20
99.9663579049
 30
0.0
 10
174.4973023935
 20
99.9217458959
 30
0.0
 10
173.7779432392
 20
99.8111867287
 30
0.0
 10
173.2408128491
 20
99.6816441623
 30
0.0
 10
172.9525552493
 20
99.5948132586
 30
0.0
 10
172.8474528742
 20
99.5602280165
 30
0.0
  0
SPLINE
  5
2CF
100
AcDbEntity
  8
0
100
AcDbSpline
 62
7
  6
CONTINUOUS
 70
0
 71
3
 72
11
 73
7
 74
0
 42
0.0000001
 43
0.0000001
 44
0.0000000001
 40
0.0
 40
0.0
 40
0.0
 40
0.0
 40
0.2305685044
 40
0.4666363369
 40
0.7214090069
 40
1.0
 40
1.0
 40
1.0
 40
1.0
 10
186.9394062036
 20
104.7010107563
 30
0.0
 10
187.0389202558
 20
104.7010381383
 30
0.0
 10
187.2433149346
 20
104.7403920229
 30
0.0
 10
187.5038252383
 20
104.9257363023
 30
0.0
 10
187.6917925553
 20
105.2056930015
 30
0.0
 10
187.7701894968
 20
105.4237991987
 30
0.0
 10
187.8025338818
 20
105.5396079551
 30
0.0
  0
SPLINE
  5
2D0
100
AcDbEntity
  8
0
100
AcDbSpline
 62
7
  6
CONTINUOUS
 70
0
 71
3
 72
11
 73
7
 74
0
 42
0.0000001
 43
0.0000001
 44
0.0000000001
 40
0.0
 40
0.0
 40
0.0
 40
0.0
 40
0.2785908891
 40
0.5333637018
 40
0.7694316758
 40
1.0
 40
1.0
 40
1.0
 40
1.0
 10
162.8344169776
 20
105.5396078456
 30
0.0
 10
162.8667610892
 20
105.4238000588
 30
0.0
 10
162.9451573612
 20
105.2056956017
 30
0.0
 10
163.1331221644
 20
104.9257405639
 30
0.0
 10
163.3936286076
 20
104.7403955687
 30
0.0
 10
163.5980210655
 20
104.7010393997
 30
0.0
 10
163.6975342429
 20
104.7010107719
 30
0.0
  0
SPLINE
  5
2D1
100
AcDbEntity
  8
0
100
AcDbSpline
 62
7
  6
CONTINUOUS
 70
0
 71
3
 72
15
 73
11
 74
0
 42
0.0000001
 43
0.0000001
 44
0.0000000001
 40
0.0
 40
0.0
 40
0.0
 40
0.0
 40
0.0538526437
 40
0.1198508209
 40
0.2053044996
 40
0.3140565805
 40
0.4481456904
 40
0.6079876242
 40
0.7929417944
 40
1.0
 40
1.0
 40
1.0
 40
1.0
 10
160.7505691995
 20
103.4000081978
 30
0.0
 10
160.7938870155
 20
103.4000089701
 30
0.0
 10
160.8907807462
 20
103.4274778144
 30
0.0
 10
161.0193556066
 20
103.5355185295
 30
0.0
 10
161.1422901706
 20
103.7064537735
 30
0.0
 10
161.2593934488
 20
103.9440857075
 30
0.0
 10
161.3681624145
 20
104.2497357504
 30
0.0
 10
161.464500186
 20
104.6231358683
 30
0.0
 10
161.5435483689
 20
105.060266618
 30
0.0
 10
161.5800678219
 20
105.3736978847
 30
0.0
 10
161.5946783848
 20
105.5396086159
 30
0.0
  0
SPLINE
  5
2D2
100
AcDbEntity
  8
0
100
AcDbSpline
 62
7
  6
CONTINUOUS
 70
0
 71
3
 72
13
 73
9
 74
0
 42
0.0000001
 43
0.0000001
 44
0.0000000001
 40
0.0
 40
0.0
 40
0.0
 40
0.0
 40
0.384938141
 40
0.7040148195
 40
0.8253802357
 40
0.9161052585
 40
0.9736669852
 40
1.0
 40
1.0
 40
1.0
 40
1.0
 10
31.5464933654
 20
129.9669845101
 30
0.0
 10
31.5309983508
 20
129.9496300327
 30
0.0
 10
31.5021913962
 20
129.9183758444
 30
0.0
 10
31.4668041244
 20
129.8829439471
 30
0.0
 10
31.4431808512
 20
129.861554004
 30
0.0
 10
31.430011217
 20
129.8511843084
 30
0.0
 10
31.422015675
 20
129.8457224264
 30
0.0
 10
31.4159877603
 20
129.8437026715
 30
0.0
 10
31.4147900033
 20
129.844750709
 30
0.0
  0
SPLINE
  5
2D3
100
AcDbEntity
  8
0
100
AcDbSpline
 62
7
  6
CONTINUOUS
 70
0
 71
3
 72
12
 73
8
 74
0
 42
0.0000001
 43
0.0000001
 44
0.0000000001
 40
0.0
 40
0.0
 40
0.0
 40
0.0
 40
0.0321341104
 40
0.0925849467
 40
0.3069191049
 40
0.6240065741
 40
1.0
 40
1.0
 40
1.0
 40
1.0
 10
38.8168282872
 20
129.4949598727
 30
0.0
 10
38.8162479178
 20
129.4929285799
 30
0.0
 10
38.8098756354
 20
129.4896390059
 30
0.0
 10
38.7903593123
 20
129.4883949905
 30
0.0
 10
38.7508574134
 20
129.4923352534
 30
0.0
 10
38.6926205124
 20
129.5037549737
 30
0.0
 10
38.6483270475
 20
129.514954836
 30
0.0
 10
38.6245237859
 20
129.5216197463
 30
0.0
  0
SPLINE
  5
2D4
100
AcDbEntity
  8
0
100
AcDbSpline
 62
7
  6
CONTINUOUS
 70
0
 71
3
 72
9
 73
5
 74
0
 42
0.0000001
 43
0.0000001
 44
0.0000000001
 40
0.0
 40
0.0
 40
0.0
 40
0.0
 40
0.5436094629
 40
1.0
 40
1.0
 40
1.0
 40
1.0
 10
39.1133221452
 20
106.1183209452
 30
0.0
 10
39.2955835086
 20
105.9500056818
 30
0.0
 10
39.6612080754
 20
105.6658024401
 30
0.0
 10
40.1191450858
 20
105.5396074869
 30
0.0
 10
40.3274315003
 20
105.5396074869
 30
0.0
  0
SPLINE
  5
2D5
100
AcDbEntity
  8
0
100
AcDbSpline
 62
7
  6
CONTINUOUS
 70
0
 71
3
 72
9
 73
5
 74
0
 42
0.0000001
 43
0.0000001
 44
0.0000000001
 40
0.0
 40
0.0
 40
0.0
 40
0.0
 40
0.2590262336
 40
1.0
 40
1.0
 40
1.0
 40
1.0
 10
36.4918485499
 20
108.7396074869
 30
0.0
 10
36.6370215923
 20
108.5694972199
 30
0.0
 10
37.1975980295
 20
107.9133049724
 30
0.0
 10
37.7733384306
 20
107.2667196287
 30
0.0
 10
38.239556453
 20
106.8286556011
 30
0.0
  0
SPLINE
  5
2D6
100
AcDbEntity
  8
0
100
AcDbSpline
 62
7
  6
CONTINUOUS
 70
0
 71
3
 72
9
 73
5
 74
0
 42
0.0000001
 43
0.0000001
 44
0.0000000001
 40
0.0
 40
0.0
 40
0.0
 40
0.0
 40
0.2557772793
 40
1.0
 40
1.0
 40
1.0
 40
1.0
 10
38.239556453
 20
106.8286556011
 30
0.0
 10
38.27629391
 20
106.7941366472
 30
0.0
 10
38.4209425421
 20
106.6602739124
 30
0.0
 10
38.5699187046
 20
106.5310338866
 30
0.0
 10
38.68365634
 20
106.4384178965
 30
0.0
  0
SPLINE
  5
2D7
100
AcDbEntity
  8
0
100
AcDbSpline
 62
7
  6
CONTINUOUS
 70
0
 71
3
 72
9
 73
5
 74
0
 42
0.0000001
 43
0.0000001
 44
0.0000000001
 40
0.0
 40
0.0
 40
0.0
 40
0.0
 40
0.2558406223
 40
1.0
 40
1.0
 40
1.0
 40
1.0
 10
38.7395293348
 20
106.3934021323
 30
0.0
 10
38.7704848515
 20
106.3687303673
 30
0.0
 10
38.8923313602
 20
106.2733757262
 30
0.0
 10
39.0177611113
 20
106.182547805
 30
0.0
 10
39.1133221452
 20
106.1183209452
 30
0.0
  0
SPLINE
  5
2D8
100
AcDbEntity
  8
0
100
AcDbSpline
 62
7
  6
CONTINUOUS
 70
0
 71
3
 72
9
 73
5
 74
0
 42
0.0000001
 43
0.0000001
 44
0.0000000001
 40
0.0
 40
0.0
 40
0.0
 40
0.0
 40
0.2441654025
 40
1.0
 40
1.0
 40
1.0
 40
1.0
 10
215.5236286066
 20
106.1183209452
 30
0.0
 10
215.5549833915
 20
106.1393945909
 30
0.0
 10
215.6824011959
 20
106.2271863895
 30
0.0
 10
215.8059679569
 20
106.32051308
 30
0.0
 10
215.897421417
 20
106.3934021323
 30
0.0
  0
SPLINE
  5
2D9
100
AcDbEntity
  8
0
100
AcDbSpline
 62
7
  6
CONTINUOUS
 70
0
 71
3
 72
9
 73
5
 74
0
 42
0.0000001
 43
0.0000001
 44
0.0000000001
 40
0.0
 40
0.0
 40
0.0
 40
0.0
 40
0.244129329
 40
1.0
 40
1.0
 40
1.0
 40
1.0
 10
215.9532944118
 20
106.4384178965
 30
0.0
 10
215.9906044481
 20
106.4687992733
 30
0.0
 10
216.142148584
 20
106.5948233587
 30
0.0
 10
216.2888269916
 20
106.7266444613
 30
0.0
 10
216.3973942988
 20
106.8286556011
 30
0.0
  0
SPLINE
  5
2DA
100
AcDbEntity
  8
0
100
AcDbSpline
 62
7
  6
CONTINUOUS
 70
0
 71
3
 72
9
 73
5
 74
0
 42
0.0000001
 43
0.0000001
 44
0.0000000001
 40
0.0
 40
0.0
 40
0.0
 40
0.0
 40
0.2375367191
 40
1.0
 40
1.0
 40
1.0
 40
1.0
 10
216.3973942988
 20
106.8286556011
 30
0.0
 10
216.5468797387
 20
106.9691139076
 30
0.0
 10
217.1580590732
 20
107.5798248906
 30
0.0
 10
217.7176937795
 20
108.2387806141
 30
0.0
 10
218.1451022018
 20
108.7396074869
 30
0.0
  0
SPLINE
  5
2DB
100
AcDbEntity
  8
0
100
AcDbSpline
 62
7
  6
CONTINUOUS
 70
0
 71
3
 72
9
 73
5
 74
0
 42
0.0000001
 43
0.0000001
 44
0.0000000001
 40
0.0
 40
0.0
 40
0.0
 40
0.0
 40
0.4563905371
 40
1.0
 40
1.0
 40
1.0
 40
1.0
 10
214.3095192515
 20
105.5396074869
 30
0.0
 10
214.5178056659
 20
105.5396074869
 30
0.0
 10
214.9757426764
 20
105.6658024401
 30
0.0
 10
215.3413672431
 20
105.9500056819
 30
0.0
 10
215.5236286066
 20
106.1183209452
 30
0.0
  0
LINE
  5
2DC
100
AcDbEntity
  8
0
100
AcDbLine
 62
7
  6
CONTINUOUS
 10
30.3184753759
 20
124.4396074869
 11
30.3621176438
 21
124.5241125606
  0
SPLINE
  5
2DD
100
AcDbEntity
  8
0
100
AcDbSpline
 62
7
  6
CONTINUOUS
 70
0
 71
3
 72
9
 73
5
 74
0
 42
0.0000001
 43
0.0000001
 44
0.0000000001
 40
0.0
 40
0.0
 40
0.0
 40
0.0
 40
0.2669263269
 40
1.0
 40
1.0
 40
1.0
 40
1.0
 10
30.3621176438
 20
124.5241125606
 30
0.0
 10
30.3925629571
 20
124.5829649862
 30
0.0
 10
30.5072410811
 20
124.8029865224
 30
0.0
 10
30.627735778
 20
125.0210201275
 30
0.0
 10
30.731249366
 20
125.1706872647
 30
0.0
  0
SPLINE
  5
2DE
100
AcDbEntity
  8
0
100
AcDbSpline
 62
7
  6
CONTINUOUS
 70
0
 71
3
 72
9
 73
5
 74
0
 42
0.0000001
 43
0.0000001
 44
0.0000000001
 40
0.0
 40
0.0
 40
0.0
 40
0.0
 40
0.3199336838
 40
1.0
 40
1.0
 40
1.0
 40
1.0
 10
30.731249366
 20
125.1706872647
 30
0.0
 10
30.7685062878
 20
125.2245559108
 30
0.0
 10
30.8869513215
 20
125.3846536514
 30
0.0
 10
31.0710292689
 20
125.5395219022
 30
0.0
 10
31.2102536673
 20
125.5395284835
 30
0.0
  0
LINE
  5
2DF
100
AcDbEntity
  8
0
100
AcDbLine
 62
7
  6
CONTINUOUS
 10
224.3184753759
 20
124.4396074869
 11
224.2747731416
 21
124.5242136384
  0
SPLINE
  5
2E0
100
AcDbEntity
  8
0
100
AcDbSpline
 62
7
  6
CONTINUOUS
 70
0
 71
3
 72
9
 73
5
 74
0
 42
0.0000001
 43
0.0000001
 44
0.0000000001
 40
0.0
 40
0.0
 40
0.0
 40
0.0
 40
0.2671025392
 40
1.0
 40
1.0
 40
1.0
 40
1.0
 10
224.2747731416
 20
124.5242136384
 30
0.0
 10
224.2441729356
 20
124.5833461241
 30
0.0
 10
224.1289437742
 20
124.8042426608
 30
0.0
 10
224.0080143513
 20
125.0232381964
 30
0.0
 10
223.9039556195
 20
125.1733963932
 30
0.0
  0
SPLINE
  5
2E1
100
AcDbEntity
  8
0
100
AcDbSpline
 62
7
  6
CONTINUOUS
 70
0
 71
3
 72
9
 73
5
 74
0
 42
0.0000001
 43
0.0000001
 44
0.0000000001
 40
0.0
 40
0.0
 40
0.0
 40
0.0
 40
0.3197203922
 40
1.0
 40
1.0
 40
1.0
 40
1.0
 10
223.9039556195
 20
125.1733963932
 30
0.0
 10
223.866861452
 20
125.2269237928
 30
0.0
 10
223.7487345638
 20
125.3860826913
 30
0.0
 10
223.5652738969
 20
125.5394973648
 30
0.0
 10
223.426707019
 20
125.5394985348
 30
0.0
  0
SPLINE
  5
2E2
100
AcDbEntity
  8
0
100
AcDbSpline
 62
7
  6
CONTINUOUS
 70
0
 71
3
 72
8
 73
4
 74
0
 42
0.0000001
 43
0.0000001
 44
0.0000000001
 40
0.0
 40
0.0
 40
0.0
 40
0.0
 40
1.0
 40
1.0
 40
1.0
 40
1.0
 10
30.3184753759
 20
114.2074974307
 30
0.0
 10
30.3247022599
 20
113.9568324303
 30
0.0
 10
30.3634422625
 20
113.7230926881
 30
0.0
 10
30.4346953836
 20
113.5062782041
 30
0.0
  0
SPLINE
  5
2E3
100
AcDbEntity
  8
0
100
AcDbSpline
 62
7
  6
CONTINUOUS
 70
0
 71
3
 72
8
 73
4
 74
0
 42
0.0000001
 43
0.0000001
 44
0.0000000001
 40
0.0
 40
0.0
 40
0.0
 40
0.0
 40
1.0
 40
1.0
 40
1.0
 40
1.0
 10
30.7488631108
 20
112.9027676154
 30
0.0
 10
30.8855980272
 20
112.7200407964
 30
0.0
 10
31.0548460623
 20
112.5542392357
 30
0.0
 10
31.2566072159
 20
112.4053629333
 30
0.0
  0
SPLINE
  5
2E4
100
AcDbEntity
  8
0
100
AcDbSpline
 62
7
  6
CONTINUOUS
 70
0
 71
3
 72
8
 73
4
 74
0
 42
0.0000001
 43
0.0000001
 44
0.0000000001
 40
0.0
 40
0.0
 40
0.0
 40
0.0
 40
1.0
 40
1.0
 40
1.0
 40
1.0
 10
223.3803435359
 20
112.4053629333
 30
0.0
 10
223.5821046895
 20
112.5542392357
 30
0.0
 10
223.7513527245
 20
112.7200407964
 30
0.0
 10
223.888087641
 20
112.9027676154
 30
0.0
  0
SPLINE
  5
2E5
100
AcDbEntity
  8
0
100
AcDbSpline
 62
7
  6
CONTINUOUS
 70
0
 71
3
 72
8
 73
4
 74
0
 42
0.0000001
 43
0.0000001
 44
0.0000000001
 40
0.0
 40
0.0
 40
0.0
 40
0.0
 40
1.0
 40
1.0
 40
1.0
 40
1.0
 10
224.2022553681
 20
113.5062782041
 30
0.0
 10
224.2735084893
 20
113.723092688
 30
0.0
 10
224.3122484919
 20
113.9568324303
 30
0.0
 10
224.3184753759
 20
114.2074974307
 30
0.0
  0
LINE
  5
2E6
100
AcDbEntity
  8
0
100
AcDbLine
 62
7
  6
CONTINUOUS
 10
206.6459408167
 20
129.5499170878
 11
206.7500627664
 21
129.674500348
  0
SPLINE
  5
2E7
100
AcDbEntity
  8
0
100
AcDbSpline
 62
7
  6
CONTINUOUS
 70
0
 71
3
 72
9
 73
5
 74
0
 42
0.0000001
 43
0.0000001
 44
0.0000000001
 40
0.0
 40
0.0
 40
0.0
 40
0.0
 40
0.2596860892
 40
1.0
 40
1.0
 40
1.0
 40
1.0
 10
206.7500627664
 20
129.674500348
 30
0.0
 10
206.8291782511
 20
129.7690372668
 30
0.0
 10
207.1346808112
 20
130.1321882429
 30
0.0
 10
207.4501531728
 20
130.4883687727
 30
0.0
 10
207.7029326003
 20
130.7325113898
 30
0.0
  0
SPLINE
  5
2E8
100
AcDbEntity
  8
0
100
AcDbSpline
 62
7
  6
CONTINUOUS
 70
0
 71
3
 72
10
 73
6
 74
0
 42
0.0000001
 43
0.0000001
 44
0.0000000001
 40
0.0
 40
0.0
 40
0.0
 40
0.0
 40
0.2884690034
 40
0.549093195
 40
1.0
 40
1.0
 40
1.0
 40
1.0
 10
207.7029326003
 20
130.7325113898
 30
0.0
 10
207.8276223069
 20
130.852940776
 30
0.0
 10
208.075289695
 20
131.072752213
 30
0.0
 10
208.5704180562
 20
131.4125216799
 30
0.0
 10
208.9991593167
 20
131.5499040983
 30
0.0
 10
209.2701256693
 20
131.5499040983
 30
0.0
  0
SPLINE
  5
2E9
100
AcDbEntity
  8
0
100
AcDbSpline
 62
7
  6
CONTINUOUS
 70
0
 71
3
 72
10
 73
6
 74
0
 42
0.0000001
 43
0.0000001
 44
0.0000000001
 40
0.0
 40
0.0
 40
0.0
 40
0.0
 40
0.4508900867
 40
0.7115190939
 40
1.0
 40
1.0
 40
1.0
 40
1.0
 10
44.4177376529
 20
131.5499040983
 30
0.0
 10
44.6887855626
 20
131.5499040983
 30
0.0
 10
45.1176606553
 20
131.4124331183
 30
0.0
 10
45.6129135961
 20
131.0724897345
 30
0.0
 10
45.8606486603
 20
130.8525705687
 30
0.0
 10
45.9853737995
 20
130.7320832101
 30
0.0
  0
SPLINE
  5
2EA
100
AcDbEntity
  8
0
100
AcDbSpline
 62
7
  6
CONTINUOUS
 70
0
 71
3
 72
9
 73
5
 74
0
 42
0.0000001
 43
0.0000001
 44
0.0000000001
 40
0.0
 40
0.0
 40
0.0
 40
0.0
 40
0.2378160183
 40
1.0
 40
1.0
 40
1.0
 40
1.0
 10
45.9853737995
 20
130.7320832101
 30
0.0
 10
46.0665426354
 20
130.6536722442
 30
0.0
 10
46.3990405275
 20
130.3147947634
 30
0.0
 10
46.7056449424
 20
129.9519081636
 30
0.0
 10
46.9377777761
 20
129.6745275281
 30
0.0
  0
LINE
  5
2EB
100
AcDbEntity
  8
0
100
AcDbLine
 62
7
  6
CONTINUOUS
 10
46.9377777761
 20
129.6745275281
 11
47.0419224912
 21
129.5499170745
  0
SPLINE
  5
2EC
100
AcDbEntity
  8
0
100
AcDbSpline
 62
7
  6
CONTINUOUS
 70
0
 71
3
 72
9
 73
5
 74
0
 42
0.0000001
 43
0.0000001
 44
0.0000000001
 40
0.0
 40
0.0
 40
0.0
 40
0.0
 40
0.7447737286
 40
1.0
 40
1.0
 40
1.0
 40
1.0
 10
223.6439316611
 20
131.5499040983
 30
0.0
 10
223.7404206687
 20
131.5499040983
 30
0.0
 10
223.8705171241
 20
131.5648826657
 30
0.0
 10
223.9959592329
 20
131.5973391402
 30
0.0
 10
224.0276832566
 20
131.6066629058
 30
0.0
  0
SPLINE
  5
2ED
100
AcDbEntity
  8
0
100
AcDbSpline
 62
7
  6
CONTINUOUS
 70
0
 71
3
 72
11
 73
7
 74
0
 42
0.0000001
 43
0.0000001
 44
0.0000000001
 40
0.0
 40
0.0
 40
0.0
 40
0.0
 40
0.1906353952
 40
0.4229298332
 40
0.6968063272
 40
1.0
 40
1.0
 40
1.0
 40
1.0
 10
224.0276832566
 20
131.6066629058
 30
0.0
 10
224.2539639877
 20
131.6731673473
 30
0.0
 10
224.7192043628
 20
131.9405188813
 30
0.0
 10
225.3303603013
 20
132.5532501126
 30
0.0
 10
225.937701629
 20
133.3516124353
 30
0.0
 10
226.3300051625
 20
133.9482456608
 30
0.0
 10
226.5331265717
 20
134.2635973621
 30
0.0
  0
SPLINE
  5
2EE
100
AcDbEntity
  8
0
100
AcDbSpline
 62
7
  6
CONTINUOUS
 70
0
 71
3
 72
11
 73
7
 74
0
 42
0.0000001
 43
0.0000001
 44
0.0000000001
 40
0.0
 40
0.0
 40
0.0
 40
0.0
 40
0.303194761
 40
0.5770714638
 40
0.8093654053
 40
1.0
 40
1.0
 40
1.0
 40
1.0
 10
27.1547413638
 20
134.2635902163
 30
0.0
 10
27.3578644793
 20
133.9482359891
 30
0.0
 10
27.750170901
 20
133.3515988579
 30
0.0
 10
28.3575170281
 20
132.5532331454
 30
0.0
 10
28.9686778932
 20
131.9405029059
 30
0.0
 10
29.4339226516
 20
131.673156158
 30
0.0
 10
29.6602046004
 20
131.606655579
 30
0.0
  0
SPLINE
  5
2EF
100
AcDbEntity
  8
0
100
AcDbSpline
 62
7
  6
CONTINUOUS
 70
0
 71
3
 72
9
 73
5
 74
0
 42
0.0000001
 43
0.0000001
 44
0.0000000001
 40
0.0
 40
0.0
 40
0.0
 40
0.0
 40
0.255225576
 40
1.0
 40
1.0
 40
1.0
 40
1.0
 10
29.6602046004
 20
131.606655579
 30
0.0
 10
29.6919266181
 20
131.5973329947
 30
0.0
 10
29.8173610132
 20
131.56488061
 30
0.0
 10
29.9474488886
 20
131.5499040983
 30
0.0
 10
30.0439316611
 20
131.5499040983
 30
0.0
  0
SPLINE
  5
2F0
100
AcDbEntity
  8
0
100
AcDbSpline
 62
7
  6
CONTINUOUS
 70
0
 71
3
 72
8
 73
4
 74
0
 42
0.0000001
 43
0.0000001
 44
0.0000000001
 40
0.0
 40
0.0
 40
0.0
 40
0.0
 40
1.0
 40
1.0
 40
1.0
 40
1.0
 10
226.8439316611
 20
256.3499040983
 30
0.0
 10
226.7358346847
 20
256.5197024317
 30
0.0
 10
226.6277498238
 20
256.6895209126
 30
0.0
 10
226.5175470671
 20
256.857960168
 30
0.0
  0
SPLINE
  5
2F1
100
AcDbEntity
  8
0
100
AcDbSpline
 62
7
  6
CONTINUOUS
 70
0
 71
3
 72
10
 73
6
 74
0
 42
0.0000001
 43
0.0000001
 44
0.0000000001
 40
0.0
 40
0.0
 40
0.0
 40
0.0
 40
0.5647707905
 40
0.800223145
 40
1.0
 40
1.0
 40
1.0
 40
1.0
 10
226.5175470671
 20
256.857960168
 30
0.0
 10
226.2943408267
 20
257.1991194465
 30
0.0
 10
225.9682490172
 20
257.67961434
 30
0.0
 10
225.4667742864
 20
258.201277376
 30
0.0
 10
225.2061028475
 20
258.3840351035
 30
0.0
 10
225.0758628825
 20
258.4459604527
 30
0.0
  0
SPLINE
  5
2F2
100
AcDbEntity
  8
0
100
AcDbSpline
 62
7
  6
CONTINUOUS
 70
0
 71
3
 72
9
 73
5
 74
0
 42
0.0000001
 43
0.0000001
 44
0.0000000001
 40
0.0
 40
0.0
 40
0.0
 40
0.0
 40
0.2627301782
 40
1.0
 40
1.0
 40
1.0
 40
1.0
 10
225.0758628825
 20
258.4459604527
 30
0.0
 10
225.0405661721
 20
258.4627430211
 30
0.0
 10
224.9035259653
 20
258.5205212929
 30
0.0
 10
224.7536069694
 20
258.5499040983
 30
0.0
 10
224.6439316611
 20
258.5499040983
 30
0.0
  0
SPLINE
  5
2F3
100
AcDbEntity
  8
0
100
AcDbSpline
 62
7
  6
CONTINUOUS
 70
0
 71
3
 72
9
 73
5
 74
0
 42
0.0000001
 43
0.0000001
 44
0.0000000001
 40
0.0
 40
0.0
 40
0.0
 40
0.0
 40
0.2416782442
 40
1.0
 40
1.0
 40
1.0
 40
1.0
 10
29.0439316611
 20
258.5499040983
 30
0.0
 10
29.0079726393
 20
258.5499040983
 30
0.0
 10
28.8591657229
 20
258.5407586323
 30
0.0
 10
28.7139601283
 20
258.494433763
 30
0.0
 10
28.6120596939
 20
258.4459893023
 30
0.0
  0
SPLINE
  5
2F4
100
AcDbEntity
  8
0
100
AcDbSpline
 62
7
  6
CONTINUOUS
 70
0
 71
3
 72
10
 73
6
 74
0
 42
0.0000001
 43
0.0000001
 44
0.0000000001
 40
0.0
 40
0.0
 40
0.0
 40
0.0
 40
0.1997736843
 40
0.435224179
 40
1.0
 40
1.0
 40
1.0
 40
1.0
 10
28.6120596939
 20
258.4459893023
 30
0.0
 10
28.4818174227
 20
258.3840708559
 30
0.0
 10
28.2211394694
 20
258.2013221957
 30
0.0
 10
27.7196495085
 20
257.6796635949
 30
0.0
 10
27.3935516384
 20
257.1991624304
 30
0.0
 10
27.1703405729
 20
256.8579972138
 30
0.0
  0
SPLINE
  5
2F5
100
AcDbEntity
  8
0
100
AcDbSpline
 62
7
  6
CONTINUOUS
 70
0
 71
3
 72
8
 73
4
 74
0
 42
0.0000001
 43
0.0000001
 44
0.0000000001
 40
0.0
 40
0.0
 40
0.0
 40
0.0
 40
1.0
 40
1.0
 40
1.0
 40
1.0
 10
27.1703405729
 20
256.8579972138
 30
0.0
 10
27.0601294044
 20
256.6895458107
 30
0.0
 10
26.9520365698
 20
256.5197148918
 30
0.0
 10
26.843931661
 20
256.3499040983
 30
0.0
  0
ENDSEC
  0
SECTION
  2
OBJECTS
  0
DICTIONARY
  5
C
100
AcDbDictionary
280
0
281
1
  3
ACAD_GROUP
350
D
  3
ACAD_MLINESTYLE
350
17
  3
ACAD_LAYOUT
350
1A
  3
ACAD_PLOTSETTINGS
350
19
  3
ACAD_PLOTSTYLENAME
350
E
  0
DICTIONARY
  5
D
102
{ACAD_REACTORS
330
C
102
}
100
AcDbDictionary
280
0
281
1
  0
ACDBDICTIONARYWDFLT
  5
E
102
{ACAD_REACTORS
330
C
102
}
100
AcDbDictionary
281
1
  3
Normal
350
F
100
AcDbDictionaryWithDefault
340
F
  0
DICTIONARY
  5
17
102
{ACAD_REACTORS
330
C
102
}
100
AcDbDictionary
280
0
281
1
  3
Standard
350
18
  0
DICTIONARY
  5
19
102
{ACAD_REACTORS
330
C
102
}
100
AcDbDictionary
281
1
  0
DICTIONARY
  5
1A
102
{ACAD_REACTORS
330
C
102
}
100
AcDbDictionary
281
1
  3
Model
350
2F6
  3
Layout1
350
2F7
  0
ACDBPLACEHOLDER
  5
F
102
{ACAD_REACTORS
330
E
102
}
  0
MLINESTYLE
  5
18
102
{ACAD_REACTORS
330
17
102
}
100
AcDbMlineStyle
  2
STANDARD
 70
0
  3

 62
256
 51
90.0
 52
90.0
 71
2
 49
0.5
 62
256
  6
BYLAYER
 49
-0.5
 62
256
  6
BYLAYER
  0
LAYOUT
  5
2F6
102
{ACAD_REACTORS
330
1A
102
}
100
AcDbPlotSettings
  1

  2
none_device
  4

  6

 40
0.0
 41
0.0
 42
0.0
 43
0.0
 44
210.0
 45
297.0
 46
0.0
 47
0.0
 48
0.0
 49
0.0
140
0.0
141
0.0
142
1.0
143
1.0
 70
1024
 72
1
 73
0
 74
0
  7

 75
0
147
1.0
148
0.0
149
0.0
100
AcDbLayout
  1
Model
 70
0
 71
0
 10
0.0
 20
0.0
 11
210.0
 21
297.0
 12
0.0
 22
0.0
 32
0.0
 14
0.0
 24
0.0
 34
0.0
 15
0.0
 25
0.0
 35
0.0
146
0.0
 13
0.0
 23
0.0
 33
0.0
 16
1.0
 26
0.0
 36
0.0
 17
0.0
 27
1.0
 37
0.0
 76
0
330
210
345
0
346
0
  0
LAYOUT
  5
2F7
102
{ACAD_REACTORS
330
1A
102
}
100
AcDbPlotSettings
  1

  2
none_device
  4

  6

 40
0.0
 41
0.0
 42
0.0
 43
0.0
 44
210.0
 45
297.0
 46
0.0
 47
0.0
 48
0.0
 49
0.0
140
0.0
141
0.0
142
1.0
143
1.0
 70
0
 72
1
 73
0
 74
0
  7

 75
0
147
1.0
148
0.0
149
0.0
100
AcDbLayout
  1
Layout1
 70
0
 71
1
 10
0.0
 20
0.0
 11
210.0
 21
297.0
 12
0.0
 22
0.0
 32
0.0
 14
0.0
 24
0.0
 34
0.0
 15
0.0
 25
0.0
 35
0.0
146
0.0
 13
0.0
 23
0.0
 33
0.0
 16
1.0
 26
0.0
 36
0.0
 17
0.0
 27
1.0
 37
0.0
 76
0
330
211
345
0
346
0
  0
ENDSEC
  0
EOF
