999
DXF file: C:\Users\sesa63760\Dev\_Creo\CAD\MCADID0003861_3D-CAD\drw0001_6.dxf
999
Pro/ENGINEER 2019471 by Parametric Technology Corporation
  0
SECTION
  2
HEADER
  9
$ACADVER
  1
AC1024
  9
$DWGCODEPAGE
  3
ANSI_1252
  9
$EXTMAX
 10
76.0965895277
 20
107.6223194748
 30
0.0
  9
$EXTMIN
 10
0.0
 20
0.0
 30
0.0
  9
$LIMMIN
 10
0.0
 20
0.0
  9
$LIMMAX
 10
76.0965895277
 20
107.6223194748
  9
$VIEWCTR
 10
38.0482947638
 20
53.8111597374
  9
$VIEWSIZE
 40
107.6223194748
  9
$CLAYER
  8
0
  9
$LTSCALE
 40
7.015380825
  9
$CELTYPE
  6
BYLAYER
  9
$DIMSCALE
 40
1.0
  9
$DIMASZ
 40
0.9059117801
  9
$DIMEXO
 40
1.0
  9
$DIMDLI
 40
4.8469903882
  9
$DIMEXE
 40
1.0
  9
$DIMCEN
 40
1.1479714077
  9
$DIMLFAC
 40
1.0
  9
$DIMBLK
  1
_FILLED
  9
$DIMALT
 70
0
  9
$DIMALTF
 40
0.0393700787
  9
$DIMTXT
 40
1.2682764921
  9
$DIMTOL
 70
1
  9
$DIMLIM
 70
0
  9
$DIMTFAC
 40
1.0
  9
$DIMTP
 40
0.01
  9
$DIMTM
 40
0.01
  9
$DIMGAP
 40
0.625
  9
$DIMDSEP
 70
46
  9
$AUNITS
 70
0
  9
$PDMODE
 70
3
  9
$PDSIZE
 40
0.3125
  9
$HANDSEED
  5
27C
  9
$TILEMODE
 70
1
  9
$MEASUREMENT
 70
1
  9
$INSUNITS
 70
4
  0
ENDSEC
  0
SECTION
  2
CLASSES
  0
CLASS
  1
ACDBDICTIONARYWDFLT
  2
AcDbDictionaryWithDefault
  3
AutoCAD 2000
 90
0
 91
1
280
0
281
0
  0
CLASS
  1
ACDBPLACEHOLDER
  2
AcDbPlaceHolder
  3
AutoCAD 2000
 90
0
 91
1
280
0
281
0
  0
CLASS
  1
LAYOUT
  2
AcDbLayout
  3
AutoCAD 2000
 90
0
 91
0
280
0
281
0
  0
ENDSEC
  0
SECTION
  2
TABLES
  0
TABLE
  2
VPORT
  5
8
100
AcDbSymbolTable
 70
2
  0
VPORT
  5
1F4
100
AcDbSymbolTableRecord
100
AcDbViewportTableRecord
  2
*ACTIVE
 70
0
 10
0.0
 20
0.0
 11
1.0
 21
1.0
 12
38.0482947638
 22
53.8111597374
 13
0.0
 23
0.0
 14
1.0
 24
1.0
 15
0.0
 25
0.0
 16
0.0
 26
0.0
 36
1.0
 17
0.0
 27
0.0
 37
0.0
 40
107.6223194748
 41
0.7070707071
 42
50.0
 43
0.0
 44
0.0
 50
0.0
 51
0.0
 71
0
 72
100
 73
1
 74
1
 75
0
 76
0
 77
0
 78
0
  0
ENDTAB
  0
TABLE
  2
LTYPE
  5
5
100
AcDbSymbolTable
 70
6
  0
LTYPE
  5
14
100
AcDbSymbolTableRecord
100
AcDbLinetypeTableRecord
  2
BYBLOCK
 70
0
  3

 72
65
 73
0
 40
0.0
  0
LTYPE
  5
15
100
AcDbSymbolTableRecord
100
AcDbLinetypeTableRecord
  2
BYLAYER
 70
0
  3

 72
65
 73
0
 40
0.0
  0
LTYPE
  5
16
100
AcDbSymbolTableRecord
100
AcDbLinetypeTableRecord
  2
CONTINUOUS
 70
64
  3
Solid line
 72
65
 73
0
 40
0.0
  0
LTYPE
  5
1F5
100
AcDbSymbolTableRecord
100
AcDbLinetypeTableRecord
  2
CENTER
 70
64
  3
____ _ ____ _ ____ _ ____ _ ____ _ ____ _ ____
 72
65
 73
4
 40
0.6
 49
0.375
 74
0
 49
-0.075
 74
0
 49
0.075
 74
0
 49
-0.075
 74
0
  0
LTYPE
  5
1F6
100
AcDbSymbolTableRecord
100
AcDbLinetypeTableRecord
  2
HIDDEN
 70
64
  3
- - - - - - - - - - - - - - - - - - - -
 72
65
 73
2
 40
0.2
 49
0.1
 74
0
 49
-0.1
 74
0
  0
LTYPE
  5
1F7
100
AcDbSymbolTableRecord
100
AcDbLinetypeTableRecord
  2
PHANTOM
 70
64
  3
_____ _ _ _____ _ _ _____ _ _ _____
 72
65
 73
6
 40
0.8
 49
0.45
 74
0
 49
-0.05
 74
0
 49
0.1
 74
0
 49
-0.05
 74
0
 49
0.1
 74
0
 49
-0.05
 74
0
  0
LTYPE
  5
1F8
100
AcDbSymbolTableRecord
100
AcDbLinetypeTableRecord
  2
DOT
 70
64
  3
. . . . . . . . . . . . . . . . . . . .
 72
65
 73
2
 40
0.2
 49
0.1
 74
0
 49
-0.1
 74
0
  0
LTYPE
  5
1F9
100
AcDbSymbolTableRecord
100
AcDbLinetypeTableRecord
  2
DASHED
 70
64
  3
- - - - - - - - - - - - - - - - - - - -
 72
65
 73
2
 40
0.2
 49
0.1
 74
0
 49
-0.1
 74
0
  0
ENDTAB
  0
TABLE
  2
LAYER
  5
2
100
AcDbSymbolTable
 70
36
  0
LAYER
  5
10
100
AcDbSymbolTableRecord
100
AcDbLayerTableRecord
  2
0
 70
0
 62
7
  6
CONTINUOUS
370
-3
390
F
  0
LAYER
  5
1FA
100
AcDbSymbolTableRecord
100
AcDbLayerTableRecord
  2
DEFAULT_1
 70
0
 62
7
  6
CENTER
370
-3
390
F
  0
LAYER
  5
1FB
100
AcDbSymbolTableRecord
100
AcDbLayerTableRecord
  2
DEFAULT_2
 70
0
 62
7
  6
HIDDEN
370
-3
390
F
  0
LAYER
  5
1FC
100
AcDbSymbolTableRecord
100
AcDbLayerTableRecord
  2
DEFAULT_3
 70
0
 62
7
  6
PHANTOM
370
-3
390
F
  0
LAYER
  5
1FD
100
AcDbSymbolTableRecord
100
AcDbLayerTableRecord
  2
00_COMPONENTS
 70
0
 62
7
  6
CONTINUOUS
370
-3
390
F
  0
LAYER
  5
1FE
100
AcDbSymbolTableRecord
100
AcDbLayerTableRecord
  2
01_1_DEFAULT_DATUMS
 70
0
 62
7
  6
CONTINUOUS
370
-3
390
F
  0
LAYER
  5
1FF
100
AcDbSymbolTableRecord
100
AcDbLayerTableRecord
  2
01_PLANES
 70
0
 62
7
  6
CONTINUOUS
370
-3
390
F
  0
LAYER
  5
200
100
AcDbSymbolTableRecord
100
AcDbLayerTableRecord
  2
02_COORD_SYS
 70
0
 62
7
  6
CONTINUOUS
370
-3
390
F
  0
LAYER
  5
201
100
AcDbSymbolTableRecord
100
AcDbLayerTableRecord
  2
03_AXES
 70
0
 62
7
  6
CONTINUOUS
370
-3
390
F
  0
LAYER
  5
202
100
AcDbSymbolTableRecord
100
AcDbLayerTableRecord
  2
04_POINTS
 70
0
 62
7
  6
CONTINUOUS
370
-3
390
F
  0
LAYER
  5
203
100
AcDbSymbolTableRecord
100
AcDbLayerTableRecord
  2
05_CURVES
 70
0
 62
7
  6
CONTINUOUS
370
-3
390
F
  0
LAYER
  5
204
100
AcDbSymbolTableRecord
100
AcDbLayerTableRecord
  2
06_SURFS
 70
0
 62
7
  6
CONTINUOUS
370
-3
390
F
  0
LAYER
  5
205
100
AcDbSymbolTableRecord
100
AcDbLayerTableRecord
  2
07_COSMETICS
 70
0
 62
7
  6
CONTINUOUS
370
-3
390
F
  0
LAYER
  5
206
100
AcDbSymbolTableRecord
100
AcDbLayerTableRecord
  2
10_NOTES
 70
0
 62
7
  6
CONTINUOUS
370
-3
390
F
  0
LAYER
  5
207
100
AcDbSymbolTableRecord
100
AcDbLayerTableRecord
  2
11_NOTES_PUB
 70
0
 62
7
  6
CONTINUOUS
370
-3
390
F
  0
LAYER
  5
208
100
AcDbSymbolTableRecord
100
AcDbLayerTableRecord
  2
13_REF_GTOL
 70
0
 62
7
  6
CONTINUOUS
370
-3
390
F
  0
LAYER
  5
209
100
AcDbSymbolTableRecord
100
AcDbLayerTableRecord
  2
16_MISC
 70
0
 62
7
  6
CONTINUOUS
370
-3
390
F
  0
LAYER
  5
20A
100
AcDbSymbolTableRecord
100
AcDbLayerTableRecord
  2
17_NO_PRINT
 70
0
 62
7
  6
CONTINUOUS
370
-3
390
F
  0
LAYER
  5
20B
100
AcDbSymbolTableRecord
100
AcDbLayerTableRecord
  2
18_DATUM_CAMS_JOINTS
 70
0
 62
7
  6
CONTINUOUS
370
-3
390
F
  0
LAYER
  5
20C
100
AcDbSymbolTableRecord
100
AcDbLayerTableRecord
  2
19_DATUM_FUNCTIONAL
 70
0
 62
7
  6
CONTINUOUS
370
-3
390
F
  0
LAYER
  5
20D
100
AcDbSymbolTableRecord
100
AcDbLayerTableRecord
  2
20_DATUM_KINEMATIC_SCHEME
 70
0
 62
7
  6
CONTINUOUS
370
-3
390
F
  0
ENDTAB
  0
TABLE
  2
STYLE
  5
3
100
AcDbSymbolTable
 70
1
  0
STYLE
  5
11
100
AcDbSymbolTableRecord
100
AcDbTextStyleTableRecord
  2
STANDARD
 70
0
 40
0.0
 41
1.0
 50
0.0
 71
0
 42
0.2
  3
ARIAL.TTF
  4

  0
STYLE
  5
20E
100
AcDbSymbolTableRecord
100
AcDbTextStyleTableRecord
  2
TEXTSTYLE_1
 70
0
 40
0.0
 41
0.8
 50
0.0
 71
0
 42
0.2
  3
gdt
  4

  0
ENDTAB
  0
TABLE
  2
VIEW
  5
6
100
AcDbSymbolTable
 70
0
  0
ENDTAB
  0
TABLE
  2
UCS
  5
7
100
AcDbSymbolTable
 70
0
  0
ENDTAB
  0
TABLE
  2
APPID
  5
9
100
AcDbSymbolTable
 70
1
  0
APPID
  5
20F
100
AcDbSymbolTableRecord
100
AcDbRegAppTableRecord
  2
ACAD
 70
0
  0
ENDTAB
  0
TABLE
  2
BLOCK_RECORD
  5
1
100
AcDbSymbolTable
 70
0
  0
BLOCK_RECORD
  5
210
100
AcDbSymbolTableRecord
100
AcDbBlockTableRecord
  2
*Model_Space
  0
BLOCK_RECORD
  5
211
100
AcDbSymbolTableRecord
100
AcDbBlockTableRecord
  2
*Paper_Space
  0
BLOCK_RECORD
  5
212
100
AcDbSymbolTableRecord
100
AcDbBlockTableRecord
  2
_FILLED
  0
ENDTAB
  0
TABLE
  2
DIMSTYLE
  5
A
100
AcDbSymbolTable
 70
1
100
AcDbDimStyleTable
 71
0
  0
DIMSTYLE
105
213
100
AcDbSymbolTableRecord
100
AcDbDimStyleTableRecord
  2
STANDARD
 70
0
  3

  4

 40
1.0
 41
0.9059117801
 42
1.0
 43
0.38
 44
1.0
 45
0.0
 46
0.0
 47
0.01
 48
0.01
140
1.2682764921
141
0.09
142
0.0
143
25.4
144
1.0
145
0.0
146
1.0
147
0.625
 71
1
 72
0
 73
0
 74
0
 75
0
 76
0
 77
1
 78
8
 79
2
170
0
171
1
172
0
173
0
174
0
175
0
176
0
177
0
178
0
270
2
179
2
271
2
272
2
273
2
274
2
275
0
280
0
281
0
282
0
283
1
284
8
285
0
286
0
287
3
288
0
340
11
278
46
341
212
342
212
343
212
344
212
  0
ENDTAB
  0
ENDSEC
  0
SECTION
  2
BLOCKS
  0
BLOCK
  5
20
100
AcDbEntity
  8
0
100
AcDbBlockBegin
  2
*Model_Space
 70
0
 10
0.0
 20
0.0
 30
0.0
  3
*Model_Space
  1

  0
ENDBLK
  5
21
100
AcDbEntity
  8
0
100
AcDbBlockEnd
  0
BLOCK
  5
1C
100
AcDbEntity
  8
0
100
AcDbBlockBegin
  2
*Paper_Space
 70
0
 10
0.0
 20
0.0
 30
0.0
  3
*Paper_Space
  1

  0
ENDBLK
  5
1D
100
AcDbEntity
  8
0
100
AcDbBlockEnd
  0
BLOCK
  5
214
100
AcDbEntity
  8
0
100
AcDbBlockBegin
  2
_FILLED
 70
64
 10
0.0
 20
0.0
  3
_FILLED
  1

  0
SOLID
  5
215
100
AcDbEntity
  8
0
  6
BYBLOCK
 62
0
100
AcDbTrace
 10
0.0
 20
0.0
 11
-1.0
 21
0.25
 12
-1.0
 22
-0.25
 13
-1.0
 23
-0.25
  0
ENDBLK
  5
216
100
AcDbEntity
  8
0
  6
BYBLOCK
 62
0
100
AcDbBlockEnd
  0
ENDSEC
  0
SECTION
  2
ENTITIES
  0
LINE
  5
217
100
AcDbEntity
  8
0
100
AcDbLine
 62
7
  6
BYLAYER
 10
8.6069380899
 20
51.3112933638
 11
8.6069380899
 21
53.311026111
  0
LINE
  5
218
100
AcDbEntity
  8
0
100
AcDbLine
 62
7
  6
BYLAYER
 10
18.6069380899
 20
51.0112537928
 11
18.6069380899
 21
56.611065682
  0
LINE
  5
219
100
AcDbEntity
  8
0
100
AcDbLine
 62
7
  6
BYLAYER
 10
18.8069380899
 20
50.8111597374
 11
18.8069380899
 21
56.8111597374
  0
LINE
  5
21A
100
AcDbEntity
  8
0
100
AcDbLine
 62
7
  6
BYLAYER
 10
20.8069380899
 20
56.8110519498
 11
20.8069380899
 21
50.8112519771
  0
LINE
  5
21B
100
AcDbEntity
  8
0
100
AcDbLine
 62
7
  6
BYLAYER
 10
20.9069380899
 20
50.8112519562
 11
20.9069380899
 21
56.8110675186
  0
LINE
  5
21C
100
AcDbEntity
  8
0
100
AcDbLine
 62
7
  6
BYLAYER
 10
26.8069380899
 20
56.8111597374
 11
26.8069380899
 21
50.8111597374
  0
LINE
  5
21D
100
AcDbEntity
  8
0
100
AcDbLine
 62
7
  6
BYLAYER
 10
27.8069380899
 20
49.8111597374
 11
27.8069380899
 21
57.8111597374
  0
LINE
  5
21E
100
AcDbEntity
  8
0
100
AcDbLine
 62
7
  6
BYLAYER
 10
26.8069380899
 20
56.8111597374
 11
27.8069380899
 21
57.8111597374
  0
LINE
  5
21F
100
AcDbEntity
  8
0
100
AcDbLine
 62
7
  6
BYLAYER
 10
26.8069380899
 20
50.8111597374
 11
27.8069380899
 21
49.8111597374
  0
LINE
  5
220
100
AcDbEntity
  8
0
100
AcDbLine
 62
7
  6
BYLAYER
 10
57.3103360382
 20
46.455606238
 11
54.3035401415
 21
46.455606238
  0
LINE
  5
221
100
AcDbEntity
  8
0
100
AcDbLine
 62
7
  6
BYLAYER
 10
62.3035403632
 20
46.4556062379
 11
65.3103358165
 21
46.4556062379
  0
LINE
  5
222
100
AcDbEntity
  8
0
100
AcDbLine
 62
7
  6
BYLAYER
 10
68.2069380899
 20
49.8111597374
 11
65.8069380899
 21
49.8111597374
  0
LINE
  5
223
100
AcDbEntity
  8
0
100
AcDbLine
 62
7
  6
BYLAYER
 10
61.8069380899
 20
49.8111597374
 11
57.8069380899
 21
49.8111597374
  0
LINE
  5
224
100
AcDbEntity
  8
0
100
AcDbLine
 62
7
  6
BYLAYER
 10
53.8069380899
 20
49.8111597374
 11
27.8069380899
 21
49.8111597374
  0
LINE
  5
225
100
AcDbEntity
  8
0
100
AcDbLine
 62
7
  6
BYLAYER
 10
57.3103358181
 20
49.9083829877
 11
54.3035403616
 21
49.9083829877
  0
LINE
  5
226
100
AcDbEntity
  8
0
100
AcDbLine
 62
7
  6
BYLAYER
 10
62.3035401391
 20
49.9083829877
 11
65.3103360406
 21
49.9083829877
  0
LINE
  5
227
100
AcDbEntity
  8
0
100
AcDbLine
 62
7
  6
BYLAYER
 10
57.3632658237
 20
50.5583829877
 11
54.250610356
 21
50.5583829877
  0
LINE
  5
228
100
AcDbEntity
  8
0
100
AcDbLine
 62
7
  6
BYLAYER
 10
62.2506104401
 20
50.5583829877
 11
65.3632657397
 21
50.5583829877
  0
LINE
  5
229
100
AcDbEntity
  8
0
100
AcDbLine
 62
7
  6
BYLAYER
 10
68.4069380899
 20
50.6111597374
 11
68.7392384054
 21
50.6111597374
  0
LINE
  5
22A
100
AcDbEntity
  8
0
100
AcDbLine
 62
7
  6
BYLAYER
 10
26.8069380899
 20
50.8111597374
 11
20.9069380899
 21
50.8111597374
  0
LINE
  5
22B
100
AcDbEntity
  8
0
100
AcDbLine
 62
7
  6
BYLAYER
 10
20.8069380899
 20
50.8111597374
 11
18.8069380899
 21
50.8111597374
  0
LINE
  5
22C
100
AcDbEntity
  8
0
100
AcDbLine
 62
7
  6
BYLAYER
 10
20.9069380899
 20
50.8611597374
 11
20.8069380899
 21
50.8611597374
  0
LINE
  5
22D
100
AcDbEntity
  8
0
100
AcDbLine
 62
7
  6
BYLAYER
 10
8.6069380899
 20
51.3111597374
 11
18.6069380899
 21
51.3111597374
  0
LINE
  5
22E
100
AcDbEntity
  8
0
100
AcDbLine
 62
7
  6
BYLAYER
 10
8.6069380899
 20
53.3111597374
 11
18.6069380899
 21
53.3111597374
  0
LINE
  5
22F
100
AcDbEntity
  8
0
100
AcDbLine
 62
7
  6
BYLAYER
 10
20.9069380899
 20
56.7611597374
 11
20.8069380899
 21
56.7611597374
  0
LINE
  5
230
100
AcDbEntity
  8
0
100
AcDbLine
 62
7
  6
BYLAYER
 10
26.8069380899
 20
56.8111597374
 11
20.9069380899
 21
56.8111597374
  0
LINE
  5
231
100
AcDbEntity
  8
0
100
AcDbLine
 62
7
  6
BYLAYER
 10
20.8069380899
 20
56.8111597374
 11
18.8069380899
 21
56.8111597374
  0
LINE
  5
232
100
AcDbEntity
  8
0
100
AcDbLine
 62
7
  6
BYLAYER
 10
68.4069380899
 20
57.0111597374
 11
68.7392384054
 21
57.0111597374
  0
LINE
  5
233
100
AcDbEntity
  8
0
100
AcDbLine
 62
7
  6
BYLAYER
 10
57.3632657396
 20
57.0639364872
 11
54.2506104401
 21
57.0639364872
  0
LINE
  5
234
100
AcDbEntity
  8
0
100
AcDbLine
 62
7
  6
BYLAYER
 10
62.250610356
 20
57.0639364871
 11
65.3632658237
 21
57.0639364871
  0
LINE
  5
235
100
AcDbEntity
  8
0
100
AcDbLine
 62
7
  6
BYLAYER
 10
57.3103360382
 20
57.7139364872
 11
54.3035401415
 21
57.7139364872
  0
LINE
  5
236
100
AcDbEntity
  8
0
100
AcDbLine
 62
7
  6
BYLAYER
 10
62.3035403632
 20
57.7139364872
 11
65.3103358165
 21
57.7139364872
  0
LINE
  5
237
100
AcDbEntity
  8
0
100
AcDbLine
 62
7
  6
BYLAYER
 10
68.2069380899
 20
57.8111597374
 11
65.8069380899
 21
57.8111597374
  0
LINE
  5
238
100
AcDbEntity
  8
0
100
AcDbLine
 62
7
  6
BYLAYER
 10
61.8069380899
 20
57.8111597374
 11
57.8069380899
 21
57.8111597374
  0
LINE
  5
239
100
AcDbEntity
  8
0
100
AcDbLine
 62
7
  6
BYLAYER
 10
53.8069380899
 20
57.8111597374
 11
27.8069380899
 21
57.8111597374
  0
LINE
  5
23A
100
AcDbEntity
  8
0
100
AcDbLine
 62
7
  6
BYLAYER
 10
57.3103358181
 20
61.1667132369
 11
54.3035403616
 21
61.1667132369
  0
LINE
  5
23B
100
AcDbEntity
  8
0
100
AcDbLine
 62
7
  6
BYLAYER
 10
62.3035401391
 20
61.1667132369
 11
65.3103360406
 21
61.1667132369
  0
LINE
  5
23C
100
AcDbEntity
  8
0
100
AcDbLine
 62
7
  6
BYLAYER
 10
53.8069380899
 20
60.3111597374
 11
54.279241498
 21
61.1292132369
  0
LINE
  5
23D
100
AcDbEntity
  8
0
100
AcDbLine
 62
7
  6
BYLAYER
 10
53.8069380899
 20
47.3111597374
 11
54.279241498
 21
46.4931062379
  0
LINE
  5
23E
100
AcDbEntity
  8
0
100
AcDbLine
 62
7
  6
BYLAYER
 10
53.8069380899
 20
47.3111619303
 11
53.8069380899
 21
60.3111575446
  0
LINE
  5
23F
100
AcDbEntity
  8
0
100
AcDbLine
 62
7
  6
BYLAYER
 10
61.8069380899
 20
60.3111597374
 11
62.279241498
 21
61.1292132369
  0
LINE
  5
240
100
AcDbEntity
  8
0
100
AcDbLine
 62
7
  6
BYLAYER
 10
61.8069380899
 20
47.3111597374
 11
62.279241498
 21
46.4931062379
  0
LINE
  5
241
100
AcDbEntity
  8
0
100
AcDbLine
 62
7
  6
BYLAYER
 10
57.8069380899
 20
60.3111575446
 11
57.8069380899
 21
47.3111619303
  0
LINE
  5
242
100
AcDbEntity
  8
0
100
AcDbLine
 62
7
  6
BYLAYER
 10
57.8069380899
 20
47.3111597374
 11
57.3346346817
 21
46.4931062379
  0
LINE
  5
243
100
AcDbEntity
  8
0
100
AcDbLine
 62
7
  6
BYLAYER
 10
57.8069380899
 20
60.3111597374
 11
57.3346346817
 21
61.1292132369
  0
LINE
  5
244
100
AcDbEntity
  8
0
100
AcDbLine
 62
7
  6
BYLAYER
 10
61.8069380899
 20
47.3111619303
 11
61.8069380899
 21
60.3111575446
  0
LINE
  5
245
100
AcDbEntity
  8
0
100
AcDbLine
 62
7
  6
BYLAYER
 10
68.4069380899
 20
50.0111597374
 11
68.2069380899
 21
49.8111597374
  0
LINE
  5
246
100
AcDbEntity
  8
0
100
AcDbLine
 62
7
  6
BYLAYER
 10
68.4069380899
 20
57.6111597374
 11
68.2069380899
 21
57.8111597374
  0
LINE
  5
247
100
AcDbEntity
  8
0
100
AcDbLine
 62
7
  6
BYLAYER
 10
65.8069380899
 20
60.3111575446
 11
65.8069380899
 21
47.3111619303
  0
LINE
  5
248
100
AcDbEntity
  8
0
100
AcDbLine
 62
7
  6
BYLAYER
 10
65.8069380899
 20
47.3111597374
 11
65.3346346817
 21
46.4931062379
  0
LINE
  5
249
100
AcDbEntity
  8
0
100
AcDbLine
 62
7
  6
BYLAYER
 10
65.8069380899
 20
60.3111597374
 11
65.3346346817
 21
61.1292132369
  0
LINE
  5
24A
100
AcDbEntity
  8
0
100
AcDbLine
 62
7
  6
BYLAYER
 10
68.2069380899
 20
57.8111597374
 11
68.2069380899
 21
49.8111597374
  0
LINE
  5
24B
100
AcDbEntity
  8
0
100
AcDbLine
 62
7
  6
BYLAYER
 10
68.4069380899
 20
57.6109976604
 11
68.4069380899
 21
50.0113708108
  0
LINE
  5
24C
100
AcDbEntity
  8
0
100
AcDbLine
 62
7
  6
BYLAYER
 10
68.6069380899
 20
57.0111597374
 11
68.6069380899
 21
50.6111597374
  0
LINE
  5
24D
100
AcDbEntity
  8
0
100
AcDbLine
 62
7
  6
BYLAYER
 10
68.8069380899
 20
56.8611541721
 11
68.8069380899
 21
50.7611597669
  0
ARC
  5
24E
100
AcDbEntity
  8
0
100
AcDbCircle
 62
7
  6
BYLAYER
 10
54.114005832
 20
56.4750593521
 40
11.2646627398
100
AcDbArc
 50
2.9965887044
 51
6.3141090639
  0
ARC
  5
24F
100
AcDbEntity
  8
0
100
AcDbCircle
 62
7
  6
BYLAYER
 10
73.499870112
 20
51.1472600617
 40
11.2646625013
100
AcDbArc
 50
182.9965884571
 51
186.3141088859
  0
ARC
  5
250
100
AcDbEntity
  8
0
100
AcDbCircle
 62
7
  6
BYLAYER
 10
65.4778977218
 20
56.4768485932
 40
11.242626641
100
AcDbArc
 50
173.6826387762
 51
177.0066634607
  0
ARC
  5
251
100
AcDbEntity
  8
0
100
AcDbCircle
 62
7
  6
BYLAYER
 10
46.1359786577
 20
51.1454708226
 40
11.2426264384
100
AcDbArc
 50
353.6826389647
 51
357.0066637081
  0
ARC
  5
252
100
AcDbEntity
  8
0
100
AcDbCircle
 62
7
  6
BYLAYER
 10
65.449508525
 20
51.1431590942
 40
11.2141554873
100
AcDbArc
 50
182.9891155193
 51
186.3215818079
  0
ARC
  5
253
100
AcDbEntity
  8
0
100
AcDbCircle
 62
7
  6
BYLAYER
 10
46.164367853
 20
56.4791603541
 40
11.2141552907
100
AcDbArc
 50
2.9891157075
 51
6.3215820556
  0
ARC
  5
254
100
AcDbEntity
  8
0
100
AcDbCircle
 62
7
  6
BYLAYER
 10
54.1939578218
 20
51.1407495555
 40
11.1844799639
100
AcDbArc
 50
353.6739959544
 51
357.0153067026
  0
ARC
  5
255
100
AcDbEntity
  8
0
100
AcDbCircle
 62
7
  6
BYLAYER
 10
73.4199181942
 20
56.4815698911
 40
11.1844798017
100
AcDbArc
 50
173.673995717
 51
177.0153065147
  0
ARC
  5
256
100
AcDbEntity
  8
0
100
AcDbCircle
 62
7
  6
BYLAYER
 10
68.6069380899
 20
50.7611597374
 40
0.2
100
AcDbArc
 50
311.4096221093
 51
360.0
  0
ARC
  5
257
100
AcDbEntity
  8
0
100
AcDbCircle
 62
7
  6
BYLAYER
 10
68.6069380899
 20
56.8611597374
 40
0.2
100
AcDbArc
 50
0.0
 51
48.5903778907
  0
ARC
  5
258
100
AcDbEntity
  8
0
100
AcDbCircle
 62
7
  6
BYLAYER
 10
18.8069380899
 20
56.6111597374
 40
0.2
100
AcDbArc
 50
90.0
 51
180.0
  0
ARC
  5
259
100
AcDbEntity
  8
0
100
AcDbCircle
 62
7
  6
BYLAYER
 10
18.8069380899
 20
51.0111597374
 40
0.2
100
AcDbArc
 50
180.0
 51
270.0
  0
SPLINE
  5
25A
100
AcDbEntity
  8
0
100
AcDbSpline
 62
7
  6
BYLAYER
 70
0
 71
3
 72
9
 73
5
 74
0
 42
0.0000001
 43
0.0000001
 44
0.0000000001
 40
0.0
 40
0.0
 40
0.0
 40
0.0
 40
0.2442056607
 40
1.0
 40
1.0
 40
1.0
 40
1.0
 10
54.2792337016
 20
61.1292133286
 30
0.0
 10
54.2810515974
 20
61.1323652397
 30
0.0
 10
54.2886727205
 20
61.1451696499
 30
0.0
 10
54.2969711546
 20
61.1575666269
 30
0.0
 10
54.3035401391
 20
61.1667132369
 30
0.0
  0
SPLINE
  5
25B
100
AcDbEntity
  8
0
100
AcDbSpline
 62
7
  6
BYLAYER
 70
0
 71
3
 72
9
 73
5
 74
0
 42
0.0000001
 43
0.0000001
 44
0.0000000001
 40
0.0
 40
0.0
 40
0.0
 40
0.0
 40
0.2442056624
 40
1.0
 40
1.0
 40
1.0
 40
1.0
 10
57.3346424794
 20
46.4931061462
 30
0.0
 10
57.3328245833
 20
46.4899542351
 30
0.0
 10
57.3252034586
 20
46.477149825
 30
0.0
 10
57.3169050229
 20
46.4647528483
 30
0.0
 10
57.3103360382
 20
46.455606238
 30
0.0
  0
SPLINE
  5
25C
100
AcDbEntity
  8
0
100
AcDbSpline
 62
7
  6
BYLAYER
 70
0
 71
3
 72
9
 73
5
 74
0
 42
0.0000001
 43
0.0000001
 44
0.0000000001
 40
0.0
 40
0.0
 40
0.0
 40
0.0
 40
0.2559532746
 40
1.0
 40
1.0
 40
1.0
 40
1.0
 10
57.3103360407
 20
61.1667132369
 30
0.0
 10
57.31256063
 20
61.1636157337
 30
0.0
 10
57.3211159503
 20
61.1514173313
 30
0.0
 10
57.3291037759
 20
61.1388164626
 30
0.0
 10
57.3346424781
 20
61.1292133286
 30
0.0
  0
SPLINE
  5
25D
100
AcDbEntity
  8
0
100
AcDbSpline
 62
7
  6
BYLAYER
 70
0
 71
3
 72
9
 73
5
 74
0
 42
0.0000001
 43
0.0000001
 44
0.0000000001
 40
0.0
 40
0.0
 40
0.0
 40
0.0
 40
0.2559532683
 40
1.0
 40
1.0
 40
1.0
 40
1.0
 10
54.3035401415
 20
46.455606238
 30
0.0
 10
54.3013155522
 20
46.4587037412
 30
0.0
 10
54.2927602311
 20
46.4709021439
 30
0.0
 10
54.2847724035
 20
46.4835030121
 30
0.0
 10
54.2792337003
 20
46.4931061462
 30
0.0
  0
SPLINE
  5
25E
100
AcDbEntity
  8
0
100
AcDbSpline
 62
7
  6
BYLAYER
 70
0
 71
3
 72
13
 73
9
 74
0
 42
0.0000001
 43
0.0000001
 44
0.0000000001
 40
0.0
 40
0.0
 40
0.0
 40
0.0
 40
0.1205496552
 40
0.2416413898
 40
0.3637489899
 40
0.4872833018
 40
0.7396266254
 40
1.0
 40
1.0
 40
1.0
 40
1.0
 10
53.8069404046
 20
48.181994584
 30
0.0
 10
53.8069394091
 20
48.2549218121
 30
0.0
 10
53.8126601891
 20
48.401166465
 30
0.0
 10
53.8381251136
 20
48.6199390305
 30
0.0
 10
53.8799875208
 20
48.8380112615
 30
0.0
 10
53.9571924539
 20
49.1294229169
 30
0.0
 10
54.0913587691
 20
49.491185952
 30
0.0
 10
54.2285162837
 20
49.7698832448
 30
0.0
 10
54.3035403616
 20
49.9083829877
 30
0.0
  0
SPLINE
  5
25F
100
AcDbEntity
  8
0
100
AcDbSpline
 62
7
  6
BYLAYER
 70
0
 71
3
 72
11
 73
7
 74
0
 42
0.0000001
 43
0.0000001
 44
0.0000000001
 40
0.0
 40
0.0
 40
0.0
 40
0.0
 40
0.2500020131
 40
0.5000023749
 40
0.7500021356
 40
1.0
 40
1.0
 40
1.0
 40
1.0
 10
54.2506104401
 20
50.5583829877
 30
0.0
 10
54.1819973963
 20
50.8239387285
 30
0.0
 10
54.0573531714
 20
51.3584294961
 30
0.0
 10
53.9157935333
 20
52.1694935453
 30
0.0
 10
53.8271233116
 20
52.9881395085
 30
0.0
 10
53.8069380899
 20
53.5368877838
 30
0.0
 10
53.8069380899
 20
53.8111597374
 30
0.0
  0
SPLINE
  5
260
100
AcDbEntity
  8
0
100
AcDbSpline
 62
7
  6
BYLAYER
 70
0
 71
3
 72
13
 73
9
 74
0
 42
0.0000001
 43
0.0000001
 44
0.0000000001
 40
0.0
 40
0.0
 40
0.0
 40
0.0
 40
0.2603734004
 40
0.5127167343
 40
0.6362510489
 40
0.7583586417
 40
0.8794503543
 40
1.0
 40
1.0
 40
1.0
 40
1.0
 10
57.3103358181
 20
49.9083829877
 30
0.0
 10
57.3853599036
 20
49.7698832309
 30
0.0
 10
57.5225174463
 20
49.4911859266
 30
0.0
 10
57.6566837453
 20
49.1294228595
 30
0.0
 10
57.7338886712
 20
48.8380111978
 30
0.0
 10
57.7757510547
 20
48.6199389798
 30
0.0
 10
57.8012160236
 20
48.4011664423
 30
0.0
 10
57.8069367712
 20
48.2549218064
 30
0.0
 10
57.8069357751
 20
48.181994584
 30
0.0
  0
SPLINE
  5
261
100
AcDbEntity
  8
0
100
AcDbSpline
 62
7
  6
BYLAYER
 70
0
 71
3
 72
11
 73
7
 74
0
 42
0.0000001
 43
0.0000001
 44
0.0000000001
 40
0.0
 40
0.0
 40
0.0
 40
0.0
 40
0.2499978976
 40
0.4999976723
 40
0.7499980125
 40
1.0
 40
1.0
 40
1.0
 40
1.0
 10
53.8069380899
 20
53.8111597374
 30
0.0
 10
53.8069380899
 20
54.0854317274
 30
0.0
 10
53.8271232993
 20
54.6341800552
 30
0.0
 10
53.9157935526
 20
55.4528260443
 30
0.0
 10
54.0573532146
 20
56.263890051
 30
0.0
 10
54.1819974033
 20
56.7983807736
 30
0.0
 10
54.2506104401
 20
57.0639364872
 30
0.0
  0
SPLINE
  5
262
100
AcDbEntity
  8
0
100
AcDbSpline
 62
7
  6
BYLAYER
 70
0
 71
3
 72
13
 73
9
 74
0
 42
0.0000001
 43
0.0000001
 44
0.0000000001
 40
0.0
 40
0.0
 40
0.0
 40
0.0
 40
0.260373398
 40
0.5127167334
 40
0.6362510492
 40
0.7583586424
 40
0.8794503546
 40
1.0
 40
1.0
 40
1.0
 40
1.0
 10
54.3035403632
 20
57.7139364872
 30
0.0
 10
54.2285162807
 20
57.8524362383
 30
0.0
 10
54.0913587584
 20
58.1311335413
 30
0.0
 10
53.9571924494
 20
58.4928965908
 30
0.0
 10
53.879987506
 20
58.7843082403
 30
0.0
 10
53.8381251142
 20
59.0023804508
 30
0.0
 10
53.8126601514
 20
59.2211529823
 30
0.0
 10
53.8069394101
 20
59.3673976133
 30
0.0
 10
53.8069404046
 20
59.4403248333
 30
0.0
  0
SPLINE
  5
263
100
AcDbEntity
  8
0
100
AcDbSpline
 62
7
  6
BYLAYER
 70
0
 71
3
 72
11
 73
7
 74
0
 42
0.0000001
 43
0.0000001
 44
0.0000000001
 40
0.0
 40
0.0
 40
0.0
 40
0.0
 40
0.2500020131
 40
0.5000023749
 40
0.7500021356
 40
1.0
 40
1.0
 40
1.0
 40
1.0
 10
57.3632657396
 20
57.0639364872
 30
0.0
 10
57.4318787835
 20
56.7983807463
 30
0.0
 10
57.5565230084
 20
56.2638899788
 30
0.0
 10
57.6980826465
 20
55.4528259296
 30
0.0
 10
57.7867528682
 20
54.6341799663
 30
0.0
 10
57.8069380899
 20
54.085431691
 30
0.0
 10
57.8069380899
 20
53.8111597374
 30
0.0
  0
SPLINE
  5
264
100
AcDbEntity
  8
0
100
AcDbSpline
 62
7
  6
BYLAYER
 70
0
 71
3
 72
13
 73
9
 74
0
 42
0.0000001
 43
0.0000001
 44
0.0000000001
 40
0.0
 40
0.0
 40
0.0
 40
0.0
 40
0.1205496549
 40
0.2416413891
 40
0.3637489896
 40
0.4872833027
 40
0.7396266279
 40
1.0
 40
1.0
 40
1.0
 40
1.0
 10
57.8069357751
 20
59.4403248332
 30
0.0
 10
57.8069367691
 20
59.3673976076
 30
0.0
 10
57.8012159953
 20
59.2211529597
 30
0.0
 10
57.7757510771
 20
59.0023804
 30
0.0
 10
57.7338886615
 20
58.7843081767
 30
0.0
 10
57.6566837109
 20
58.4928965334
 30
0.0
 10
57.5225173857
 20
58.1311335159
 30
0.0
 10
57.3853598915
 20
57.8524362245
 30
0.0
 10
57.3103358165
 20
57.7139364872
 30
0.0
  0
SPLINE
  5
265
100
AcDbEntity
  8
0
100
AcDbSpline
 62
7
  6
BYLAYER
 70
0
 71
3
 72
11
 73
7
 74
0
 42
0.0000001
 43
0.0000001
 44
0.0000000001
 40
0.0
 40
0.0
 40
0.0
 40
0.0
 40
0.2499978976
 40
0.4999976723
 40
0.7499980125
 40
1.0
 40
1.0
 40
1.0
 40
1.0
 10
57.8069380899
 20
53.8111597374
 30
0.0
 10
57.8069380899
 20
53.5368877474
 30
0.0
 10
57.7867528804
 20
52.9881394197
 30
0.0
 10
57.6980826271
 20
52.1694934305
 30
0.0
 10
57.5565229652
 20
51.3584294239
 30
0.0
 10
57.4318787764
 20
50.8239387012
 30
0.0
 10
57.3632657396
 20
50.5583829877
 30
0.0
  0
SPLINE
  5
266
100
AcDbEntity
  8
0
100
AcDbSpline
 62
7
  6
BYLAYER
 70
0
 71
3
 72
13
 73
9
 74
0
 42
0.0000001
 43
0.0000001
 44
0.0000000001
 40
0.0
 40
0.0
 40
0.0
 40
0.0
 40
0.2603734004
 40
0.5127167343
 40
0.6362510489
 40
0.7583586417
 40
0.8794503543
 40
1.0
 40
1.0
 40
1.0
 40
1.0
 10
57.3103358181
 20
61.1667132369
 30
0.0
 10
57.3853599036
 20
61.0282134801
 30
0.0
 10
57.5225174463
 20
60.7495161758
 30
0.0
 10
57.6566837453
 20
60.3877531087
 30
0.0
 10
57.7338886712
 20
60.096341447
 30
0.0
 10
57.7757510547
 20
59.878269229
 30
0.0
 10
57.8012160236
 20
59.6594966915
 30
0.0
 10
57.8069367712
 20
59.5132520556
 30
0.0
 10
57.8069357751
 20
59.4403248332
 30
0.0
  0
SPLINE
  5
267
100
AcDbEntity
  8
0
100
AcDbSpline
 62
7
  6
BYLAYER
 70
0
 71
3
 72
13
 73
9
 74
0
 42
0.0000001
 43
0.0000001
 44
0.0000000001
 40
0.0
 40
0.0
 40
0.0
 40
0.0
 40
0.1205496552
 40
0.2416413898
 40
0.3637489899
 40
0.4872833018
 40
0.7396266254
 40
1.0
 40
1.0
 40
1.0
 40
1.0
 10
53.8069404046
 20
59.4403248333
 30
0.0
 10
53.8069394091
 20
59.5132520613
 30
0.0
 10
53.8126601892
 20
59.6594967142
 30
0.0
 10
53.8381251136
 20
59.8782692797
 30
0.0
 10
53.8799875208
 20
60.0963415107
 30
0.0
 10
53.9571924539
 20
60.3877531661
 30
0.0
 10
54.0913587691
 20
60.7495162012
 30
0.0
 10
54.2285162837
 20
61.028213494
 30
0.0
 10
54.3035403616
 20
61.1667132369
 30
0.0
  0
SPLINE
  5
268
100
AcDbEntity
  8
0
100
AcDbSpline
 62
7
  6
BYLAYER
 70
0
 71
3
 72
13
 73
9
 74
0
 42
0.0000001
 43
0.0000001
 44
0.0000000001
 40
0.0
 40
0.0
 40
0.0
 40
0.0
 40
0.1205496549
 40
0.2416413891
 40
0.3637489896
 40
0.4872833027
 40
0.7396266279
 40
1.0
 40
1.0
 40
1.0
 40
1.0
 10
57.8069357751
 20
48.181994584
 30
0.0
 10
57.8069367691
 20
48.1090673584
 30
0.0
 10
57.8012159953
 20
47.9628227105
 30
0.0
 10
57.7757510771
 20
47.7440501508
 30
0.0
 10
57.7338886615
 20
47.5259779275
 30
0.0
 10
57.6566837109
 20
47.2345662842
 30
0.0
 10
57.5225173857
 20
46.8728032667
 30
0.0
 10
57.3853598915
 20
46.5941059753
 30
0.0
 10
57.3103358165
 20
46.4556062379
 30
0.0
  0
SPLINE
  5
269
100
AcDbEntity
  8
0
100
AcDbSpline
 62
7
  6
BYLAYER
 70
0
 71
3
 72
13
 73
9
 74
0
 42
0.0000001
 43
0.0000001
 44
0.0000000001
 40
0.0
 40
0.0
 40
0.0
 40
0.0
 40
0.260373398
 40
0.5127167334
 40
0.6362510492
 40
0.7583586424
 40
0.8794503546
 40
1.0
 40
1.0
 40
1.0
 40
1.0
 10
54.3035403632
 20
46.4556062379
 30
0.0
 10
54.2285162807
 20
46.5941059891
 30
0.0
 10
54.0913587584
 20
46.8728032921
 30
0.0
 10
53.9571924494
 20
47.2345663416
 30
0.0
 10
53.879987506
 20
47.5259779911
 30
0.0
 10
53.8381251142
 20
47.7440502016
 30
0.0
 10
53.8126601514
 20
47.9628227331
 30
0.0
 10
53.8069394101
 20
48.1090673641
 30
0.0
 10
53.8069404046
 20
48.181994584
 30
0.0
  0
SPLINE
  5
26A
100
AcDbEntity
  8
0
100
AcDbSpline
 62
7
  6
BYLAYER
 70
0
 71
3
 72
9
 73
5
 74
0
 42
0.0000001
 43
0.0000001
 44
0.0000000001
 40
0.0
 40
0.0
 40
0.0
 40
0.0
 40
0.2442422667
 40
1.0
 40
1.0
 40
1.0
 40
1.0
 10
65.3346368506
 20
61.1292132624
 30
0.0
 10
65.3328177555
 20
61.1323648162
 30
0.0
 10
65.3251957638
 20
61.1451673853
 30
0.0
 10
65.3169042457
 20
61.1575677121
 30
0.0
 10
65.3103360406
 20
61.1667132369
 30
0.0
  0
SPLINE
  5
26B
100
AcDbEntity
  8
0
100
AcDbSpline
 62
7
  6
BYLAYER
 70
0
 71
3
 72
9
 73
5
 74
0
 42
0.0000001
 43
0.0000001
 44
0.0000000001
 40
0.0
 40
0.0
 40
0.0
 40
0.0
 40
0.2442422684
 40
1.0
 40
1.0
 40
1.0
 40
1.0
 10
62.2792393278
 20
46.4931062124
 30
0.0
 10
62.2810584233
 20
46.4899546586
 30
0.0
 10
62.2886804165
 20
46.4771520896
 30
0.0
 10
62.2969719362
 20
46.4647517631
 30
0.0
 10
62.3035401415
 20
46.455606238
 30
0.0
  0
SPLINE
  5
26C
100
AcDbEntity
  8
0
100
AcDbSpline
 62
7
  6
BYLAYER
 70
0
 71
3
 72
9
 73
5
 74
0
 42
0.0000001
 43
0.0000001
 44
0.0000000001
 40
0.0
 40
0.0
 40
0.0
 40
0.0
 40
0.2559482583
 40
1.0
 40
1.0
 40
1.0
 40
1.0
 10
62.3035401391
 20
61.1667132369
 30
0.0
 10
62.3013157436
 20
61.1636160035
 30
0.0
 10
62.2927628889
 20
61.151416999
 30
0.0
 10
62.2847809071
 20
61.1388139594
 30
0.0
 10
62.2792393292
 20
61.1292132624
 30
0.0
  0
SPLINE
  5
26D
100
AcDbEntity
  8
0
100
AcDbSpline
 62
7
  6
BYLAYER
 70
0
 71
3
 72
9
 73
5
 74
0
 42
0.0000001
 43
0.0000001
 44
0.0000000001
 40
0.0
 40
0.0
 40
0.0
 40
0.0
 40
0.255948252
 40
1.0
 40
1.0
 40
1.0
 40
1.0
 10
65.3103360382
 20
46.455606238
 30
0.0
 10
65.3125604338
 20
46.4587034714
 30
0.0
 10
65.3211132892
 20
46.4709024762
 30
0.0
 10
65.3290952729
 20
46.4835055153
 30
0.0
 10
65.3346368519
 20
46.4931062124
 30
0.0
  0
SPLINE
  5
26E
100
AcDbEntity
  8
0
100
AcDbSpline
 62
7
  6
BYLAYER
 70
0
 71
3
 72
13
 73
9
 74
0
 42
0.0000001
 43
0.0000001
 44
0.0000000001
 40
0.0
 40
0.0
 40
0.0
 40
0.0
 40
0.1205496549
 40
0.2416413891
 40
0.3637489896
 40
0.4872833027
 40
0.7396266279
 40
1.0
 40
1.0
 40
1.0
 40
1.0
 10
65.8069357751
 20
59.4403248332
 30
0.0
 10
65.8069367691
 20
59.3673976076
 30
0.0
 10
65.8012159953
 20
59.2211529597
 30
0.0
 10
65.7757510771
 20
59.0023804
 30
0.0
 10
65.7338886615
 20
58.7843081767
 30
0.0
 10
65.6566837109
 20
58.4928965334
 30
0.0
 10
65.5225173857
 20
58.1311335159
 30
0.0
 10
65.3853598915
 20
57.8524362245
 30
0.0
 10
65.3103358165
 20
57.7139364872
 30
0.0
  0
SPLINE
  5
26F
100
AcDbEntity
  8
0
100
AcDbSpline
 62
7
  6
BYLAYER
 70
0
 71
3
 72
13
 73
9
 74
0
 42
0.0000001
 43
0.0000001
 44
0.0000000001
 40
0.0
 40
0.0
 40
0.0
 40
0.0
 40
0.1205496552
 40
0.2416413898
 40
0.3637489899
 40
0.4872833018
 40
0.7396266254
 40
1.0
 40
1.0
 40
1.0
 40
1.0
 10
61.8069404046
 20
59.4403248333
 30
0.0
 10
61.8069394091
 20
59.5132520613
 30
0.0
 10
61.8126601892
 20
59.6594967142
 30
0.0
 10
61.8381251136
 20
59.8782692797
 30
0.0
 10
61.8799875208
 20
60.0963415107
 30
0.0
 10
61.9571924539
 20
60.3877531661
 30
0.0
 10
62.0913587691
 20
60.7495162013
 30
0.0
 10
62.2285162837
 20
61.028213494
 30
0.0
 10
62.3035403617
 20
61.1667132369
 30
0.0
  0
SPLINE
  5
270
100
AcDbEntity
  8
0
100
AcDbSpline
 62
7
  6
BYLAYER
 70
0
 71
3
 72
13
 73
9
 74
0
 42
0.0000001
 43
0.0000001
 44
0.0000000001
 40
0.0
 40
0.0
 40
0.0
 40
0.0
 40
0.2603734004
 40
0.5127167343
 40
0.6362510489
 40
0.7583586417
 40
0.8794503543
 40
1.0
 40
1.0
 40
1.0
 40
1.0
 10
65.3103358181
 20
61.1667132369
 30
0.0
 10
65.3853599035
 20
61.0282134801
 30
0.0
 10
65.5225174463
 20
60.7495161758
 30
0.0
 10
65.6566837453
 20
60.3877531087
 30
0.0
 10
65.7338886712
 20
60.096341447
 30
0.0
 10
65.7757510547
 20
59.878269229
 30
0.0
 10
65.8012160236
 20
59.6594966915
 30
0.0
 10
65.8069367711
 20
59.5132520556
 30
0.0
 10
65.8069357751
 20
59.4403248332
 30
0.0
  0
SPLINE
  5
271
100
AcDbEntity
  8
0
100
AcDbSpline
 62
7
  6
BYLAYER
 70
0
 71
3
 72
13
 73
9
 74
0
 42
0.0000001
 43
0.0000001
 44
0.0000000001
 40
0.0
 40
0.0
 40
0.0
 40
0.0
 40
0.260373398
 40
0.5127167334
 40
0.6362510492
 40
0.7583586424
 40
0.8794503546
 40
1.0
 40
1.0
 40
1.0
 40
1.0
 10
62.3035403632
 20
46.4556062379
 30
0.0
 10
62.2285162807
 20
46.5941059891
 30
0.0
 10
62.0913587584
 20
46.8728032921
 30
0.0
 10
61.9571924494
 20
47.2345663416
 30
0.0
 10
61.879987506
 20
47.5259779911
 30
0.0
 10
61.8381251142
 20
47.7440502016
 30
0.0
 10
61.8126601514
 20
47.9628227331
 30
0.0
 10
61.8069394101
 20
48.1090673641
 30
0.0
 10
61.8069404046
 20
48.181994584
 30
0.0
  0
SPLINE
  5
272
100
AcDbEntity
  8
0
100
AcDbSpline
 62
7
  6
BYLAYER
 70
0
 71
3
 72
13
 73
9
 74
0
 42
0.0000001
 43
0.0000001
 44
0.0000000001
 40
0.0
 40
0.0
 40
0.0
 40
0.0
 40
0.1205496549
 40
0.2416413891
 40
0.3637489896
 40
0.4872833027
 40
0.7396266279
 40
1.0
 40
1.0
 40
1.0
 40
1.0
 10
65.8069357751
 20
48.181994584
 30
0.0
 10
65.8069367691
 20
48.1090673584
 30
0.0
 10
65.8012159953
 20
47.9628227105
 30
0.0
 10
65.7757510771
 20
47.7440501508
 30
0.0
 10
65.7338886615
 20
47.5259779275
 30
0.0
 10
65.6566837109
 20
47.2345662842
 30
0.0
 10
65.5225173857
 20
46.8728032667
 30
0.0
 10
65.3853598915
 20
46.5941059753
 30
0.0
 10
65.3103358165
 20
46.4556062379
 30
0.0
  0
SPLINE
  5
273
100
AcDbEntity
  8
0
100
AcDbSpline
 62
7
  6
BYLAYER
 70
0
 71
3
 72
11
 73
7
 74
0
 42
0.0000001
 43
0.0000001
 44
0.0000000001
 40
0.0
 40
0.0
 40
0.0
 40
0.0
 40
0.2500020131
 40
0.5000023749
 40
0.7500021356
 40
1.0
 40
1.0
 40
1.0
 40
1.0
 10
62.2506104401
 20
50.5583829877
 30
0.0
 10
62.1819973962
 20
50.8239387285
 30
0.0
 10
62.0573531714
 20
51.3584294961
 30
0.0
 10
61.9157935332
 20
52.1694935453
 30
0.0
 10
61.8271233116
 20
52.9881395085
 30
0.0
 10
61.8069380899
 20
53.5368877838
 30
0.0
 10
61.8069380899
 20
53.8111597374
 30
0.0
  0
SPLINE
  5
274
100
AcDbEntity
  8
0
100
AcDbSpline
 62
7
  6
BYLAYER
 70
0
 71
3
 72
11
 73
7
 74
0
 42
0.0000001
 43
0.0000001
 44
0.0000000001
 40
0.0
 40
0.0
 40
0.0
 40
0.0
 40
0.2499978976
 40
0.4999976723
 40
0.7499980125
 40
1.0
 40
1.0
 40
1.0
 40
1.0
 10
61.8069380899
 20
53.8111597374
 30
0.0
 10
61.8069380899
 20
54.0854317274
 30
0.0
 10
61.8271232993
 20
54.6341800552
 30
0.0
 10
61.9157935526
 20
55.4528260443
 30
0.0
 10
62.0573532146
 20
56.263890051
 30
0.0
 10
62.1819974033
 20
56.7983807736
 30
0.0
 10
62.2506104401
 20
57.0639364872
 30
0.0
  0
SPLINE
  5
275
100
AcDbEntity
  8
0
100
AcDbSpline
 62
7
  6
BYLAYER
 70
0
 71
3
 72
13
 73
9
 74
0
 42
0.0000001
 43
0.0000001
 44
0.0000000001
 40
0.0
 40
0.0
 40
0.0
 40
0.0
 40
0.1205496552
 40
0.2416413898
 40
0.3637489899
 40
0.4872833018
 40
0.7396266254
 40
1.0
 40
1.0
 40
1.0
 40
1.0
 10
61.8069404046
 20
48.181994584
 30
0.0
 10
61.8069394091
 20
48.2549218121
 30
0.0
 10
61.8126601892
 20
48.401166465
 30
0.0
 10
61.8381251136
 20
48.6199390305
 30
0.0
 10
61.8799875208
 20
48.8380112615
 30
0.0
 10
61.9571924539
 20
49.1294229169
 30
0.0
 10
62.0913587691
 20
49.491185952
 30
0.0
 10
62.2285162837
 20
49.7698832448
 30
0.0
 10
62.3035403617
 20
49.9083829877
 30
0.0
  0
SPLINE
  5
276
100
AcDbEntity
  8
0
100
AcDbSpline
 62
7
  6
BYLAYER
 70
0
 71
3
 72
13
 73
9
 74
0
 42
0.0000001
 43
0.0000001
 44
0.0000000001
 40
0.0
 40
0.0
 40
0.0
 40
0.0
 40
0.260373398
 40
0.5127167334
 40
0.6362510492
 40
0.7583586424
 40
0.8794503546
 40
1.0
 40
1.0
 40
1.0
 40
1.0
 10
62.3035403632
 20
57.7139364872
 30
0.0
 10
62.2285162807
 20
57.8524362383
 30
0.0
 10
62.0913587584
 20
58.1311335413
 30
0.0
 10
61.9571924494
 20
58.4928965908
 30
0.0
 10
61.879987506
 20
58.7843082403
 30
0.0
 10
61.8381251142
 20
59.0023804508
 30
0.0
 10
61.8126601514
 20
59.2211529823
 30
0.0
 10
61.8069394101
 20
59.3673976133
 30
0.0
 10
61.8069404046
 20
59.4403248333
 30
0.0
  0
SPLINE
  5
277
100
AcDbEntity
  8
0
100
AcDbSpline
 62
7
  6
BYLAYER
 70
0
 71
3
 72
11
 73
7
 74
0
 42
0.0000001
 43
0.0000001
 44
0.0000000001
 40
0.0
 40
0.0
 40
0.0
 40
0.0
 40
0.2500020131
 40
0.5000023749
 40
0.7500021356
 40
1.0
 40
1.0
 40
1.0
 40
1.0
 10
65.3632657397
 20
57.0639364872
 30
0.0
 10
65.4318787835
 20
56.7983807463
 30
0.0
 10
65.5565230084
 20
56.2638899788
 30
0.0
 10
65.6980826465
 20
55.4528259296
 30
0.0
 10
65.7867528682
 20
54.6341799663
 30
0.0
 10
65.8069380899
 20
54.085431691
 30
0.0
 10
65.8069380899
 20
53.8111597374
 30
0.0
  0
SPLINE
  5
278
100
AcDbEntity
  8
0
100
AcDbSpline
 62
7
  6
BYLAYER
 70
0
 71
3
 72
11
 73
7
 74
0
 42
0.0000001
 43
0.0000001
 44
0.0000000001
 40
0.0
 40
0.0
 40
0.0
 40
0.0
 40
0.2499978976
 40
0.4999976723
 40
0.7499980125
 40
1.0
 40
1.0
 40
1.0
 40
1.0
 10
65.8069380899
 20
53.8111597374
 30
0.0
 10
65.8069380899
 20
53.5368877474
 30
0.0
 10
65.7867528804
 20
52.9881394197
 30
0.0
 10
65.6980826271
 20
52.1694934305
 30
0.0
 10
65.5565229652
 20
51.3584294239
 30
0.0
 10
65.4318787764
 20
50.8239387012
 30
0.0
 10
65.3632657397
 20
50.5583829877
 30
0.0
  0
SPLINE
  5
279
100
AcDbEntity
  8
0
100
AcDbSpline
 62
7
  6
BYLAYER
 70
0
 71
3
 72
13
 73
9
 74
0
 42
0.0000001
 43
0.0000001
 44
0.0000000001
 40
0.0
 40
0.0
 40
0.0
 40
0.0
 40
0.2603734004
 40
0.5127167343
 40
0.6362510489
 40
0.7583586417
 40
0.8794503543
 40
1.0
 40
1.0
 40
1.0
 40
1.0
 10
65.3103358181
 20
49.9083829877
 30
0.0
 10
65.3853599035
 20
49.7698832309
 30
0.0
 10
65.5225174463
 20
49.4911859266
 30
0.0
 10
65.6566837453
 20
49.1294228595
 30
0.0
 10
65.7338886712
 20
48.8380111978
 30
0.0
 10
65.7757510547
 20
48.6199389798
 30
0.0
 10
65.8012160236
 20
48.4011664423
 30
0.0
 10
65.8069367711
 20
48.2549218064
 30
0.0
 10
65.8069357751
 20
48.181994584
 30
0.0
  0
ENDSEC
  0
SECTION
  2
OBJECTS
  0
DICTIONARY
  5
C
100
AcDbDictionary
280
0
281
1
  3
ACAD_GROUP
350
D
  3
ACAD_MLINESTYLE
350
17
  3
ACAD_LAYOUT
350
1A
  3
ACAD_PLOTSETTINGS
350
19
  3
ACAD_PLOTSTYLENAME
350
E
  0
DICTIONARY
  5
D
102
{ACAD_REACTORS
330
C
102
}
100
AcDbDictionary
280
0
281
1
  0
ACDBDICTIONARYWDFLT
  5
E
102
{ACAD_REACTORS
330
C
102
}
100
AcDbDictionary
281
1
  3
Normal
350
F
100
AcDbDictionaryWithDefault
340
F
  0
DICTIONARY
  5
17
102
{ACAD_REACTORS
330
C
102
}
100
AcDbDictionary
280
0
281
1
  3
Standard
350
18
  0
DICTIONARY
  5
19
102
{ACAD_REACTORS
330
C
102
}
100
AcDbDictionary
281
1
  0
DICTIONARY
  5
1A
102
{ACAD_REACTORS
330
C
102
}
100
AcDbDictionary
281
1
  3
Model
350
27A
  3
Layout1
350
27B
  0
ACDBPLACEHOLDER
  5
F
102
{ACAD_REACTORS
330
E
102
}
  0
MLINESTYLE
  5
18
102
{ACAD_REACTORS
330
17
102
}
100
AcDbMlineStyle
  2
STANDARD
 70
0
  3

 62
256
 51
90.0
 52
90.0
 71
2
 49
0.5
 62
256
  6
BYLAYER
 49
-0.5
 62
256
  6
BYLAYER
  0
LAYOUT
  5
27A
102
{ACAD_REACTORS
330
1A
102
}
100
AcDbPlotSettings
  1

  2
none_device
  4

  6

 40
0.0
 41
0.0
 42
0.0
 43
0.0
 44
210.0
 45
297.0
 46
0.0
 47
0.0
 48
0.0
 49
0.0
140
0.0
141
0.0
142
1.0
143
1.0
 70
1024
 72
1
 73
0
 74
0
  7

 75
0
147
1.0
148
0.0
149
0.0
100
AcDbLayout
  1
Model
 70
0
 71
0
 10
0.0
 20
0.0
 11
210.0
 21
297.0
 12
0.0
 22
0.0
 32
0.0
 14
0.0
 24
0.0
 34
0.0
 15
0.0
 25
0.0
 35
0.0
146
0.0
 13
0.0
 23
0.0
 33
0.0
 16
1.0
 26
0.0
 36
0.0
 17
0.0
 27
1.0
 37
0.0
 76
0
330
210
345
0
346
0
  0
LAYOUT
  5
27B
102
{ACAD_REACTORS
330
1A
102
}
100
AcDbPlotSettings
  1

  2
none_device
  4

  6

 40
0.0
 41
0.0
 42
0.0
 43
0.0
 44
210.0
 45
297.0
 46
0.0
 47
0.0
 48
0.0
 49
0.0
140
0.0
141
0.0
142
1.0
143
1.0
 70
0
 72
1
 73
0
 74
0
  7

 75
0
147
1.0
148
0.0
149
0.0
100
AcDbLayout
  1
Layout1
 70
0
 71
1
 10
0.0
 20
0.0
 11
210.0
 21
297.0
 12
0.0
 22
0.0
 32
0.0
 14
0.0
 24
0.0
 34
0.0
 15
0.0
 25
0.0
 35
0.0
146
0.0
 13
0.0
 23
0.0
 33
0.0
 16
1.0
 26
0.0
 36
0.0
 17
0.0
 27
1.0
 37
0.0
 76
0
330
211
345
0
346
0
  0
ENDSEC
  0
EOF
