999
DXF file: C:\Users\sesa63760\Dev\_Creo\CAD\MCADFD0002482_3D-CAD\drw0001_1.dxf
999
Pro/ENGINEER 2019471 by Parametric Technology Corporation
  0
SECTION
  2
HEADER
  9
$ACADVER
  1
AC1024
  9
$DWGCODEPAGE
  3
ANSI_1252
  9
$EXTMAX
 10
105.6168349881
 20
149.3723809118
 30
0.0
  9
$EXTMIN
 10
0.0
 20
0.0
 30
0.0
  9
$LIMMIN
 10
0.0
 20
0.0
  9
$LIMMAX
 10
105.6168349881
 20
149.3723809118
  9
$VIEWCTR
 10
52.8084174941
 20
74.6861904559
  9
$VIEWSIZE
 40
149.3723809118
  9
$CLAYER
  8
0
  9
$LTSCALE
 40
9.7368663113
  9
$CELTYPE
  6
BYLAYER
  9
$DIMSCALE
 40
1.0
  9
$DIMASZ
 40
1.2573432737
  9
$DIMEXO
 40
1.0
  9
$DIMDLI
 40
6.7272894514
  9
$DIMEXE
 40
1.0
  9
$DIMCEN
 40
1.5933053964
  9
$DIMLFAC
 40
1.0
  9
$DIMBLK
  1
_FILLED
  9
$DIMALT
 70
0
  9
$DIMALTF
 40
0.0393700787
  9
$DIMTXT
 40
1.7602805831
  9
$DIMTOL
 70
1
  9
$DIMLIM
 70
0
  9
$DIMTFAC
 40
1.0
  9
$DIMTP
 40
0.01
  9
$DIMTM
 40
0.01
  9
$DIMGAP
 40
0.625
  9
$DIMDSEP
 70
46
  9
$AUNITS
 70
0
  9
$PDMODE
 70
3
  9
$PDSIZE
 40
0.3125
  9
$HANDSEED
  5
2E9
  9
$TILEMODE
 70
1
  9
$MEASUREMENT
 70
1
  9
$INSUNITS
 70
4
  0
ENDSEC
  0
SECTION
  2
CLASSES
  0
CLASS
  1
ACDBDICTIONARYWDFLT
  2
AcDbDictionaryWithDefault
  3
AutoCAD 2000
 90
0
 91
1
280
0
281
0
  0
CLASS
  1
ACDBPLACEHOLDER
  2
AcDbPlaceHolder
  3
AutoCAD 2000
 90
0
 91
1
280
0
281
0
  0
CLASS
  1
LAYOUT
  2
AcDbLayout
  3
AutoCAD 2000
 90
0
 91
0
280
0
281
0
  0
ENDSEC
  0
SECTION
  2
TABLES
  0
TABLE
  2
VPORT
  5
8
100
AcDbSymbolTable
 70
2
  0
VPORT
  5
1F4
100
AcDbSymbolTableRecord
100
AcDbViewportTableRecord
  2
*ACTIVE
 70
0
 10
0.0
 20
0.0
 11
1.0
 21
1.0
 12
52.8084174941
 22
74.6861904559
 13
0.0
 23
0.0
 14
1.0
 24
1.0
 15
0.0
 25
0.0
 16
0.0
 26
0.0
 36
1.0
 17
0.0
 27
0.0
 37
0.0
 40
149.3723809118
 41
0.7070707071
 42
50.0
 43
0.0
 44
0.0
 50
0.0
 51
0.0
 71
0
 72
100
 73
1
 74
1
 75
0
 76
0
 77
0
 78
0
  0
ENDTAB
  0
TABLE
  2
LTYPE
  5
5
100
AcDbSymbolTable
 70
6
  0
LTYPE
  5
14
100
AcDbSymbolTableRecord
100
AcDbLinetypeTableRecord
  2
BYBLOCK
 70
0
  3

 72
65
 73
0
 40
0.0
  0
LTYPE
  5
15
100
AcDbSymbolTableRecord
100
AcDbLinetypeTableRecord
  2
BYLAYER
 70
0
  3

 72
65
 73
0
 40
0.0
  0
LTYPE
  5
16
100
AcDbSymbolTableRecord
100
AcDbLinetypeTableRecord
  2
CONTINUOUS
 70
64
  3
Solid line
 72
65
 73
0
 40
0.0
  0
LTYPE
  5
1F5
100
AcDbSymbolTableRecord
100
AcDbLinetypeTableRecord
  2
CENTER
 70
64
  3
____ _ ____ _ ____ _ ____ _ ____ _ ____ _ ____
 72
65
 73
4
 40
0.6
 49
0.375
 74
0
 49
-0.075
 74
0
 49
0.075
 74
0
 49
-0.075
 74
0
  0
LTYPE
  5
1F6
100
AcDbSymbolTableRecord
100
AcDbLinetypeTableRecord
  2
HIDDEN
 70
64
  3
- - - - - - - - - - - - - - - - - - - -
 72
65
 73
2
 40
0.2
 49
0.1
 74
0
 49
-0.1
 74
0
  0
LTYPE
  5
1F7
100
AcDbSymbolTableRecord
100
AcDbLinetypeTableRecord
  2
PHANTOM
 70
64
  3
_____ _ _ _____ _ _ _____ _ _ _____
 72
65
 73
6
 40
0.8
 49
0.45
 74
0
 49
-0.05
 74
0
 49
0.1
 74
0
 49
-0.05
 74
0
 49
0.1
 74
0
 49
-0.05
 74
0
  0
LTYPE
  5
1F8
100
AcDbSymbolTableRecord
100
AcDbLinetypeTableRecord
  2
DOT
 70
64
  3
. . . . . . . . . . . . . . . . . . . .
 72
65
 73
2
 40
0.2
 49
0.1
 74
0
 49
-0.1
 74
0
  0
LTYPE
  5
1F9
100
AcDbSymbolTableRecord
100
AcDbLinetypeTableRecord
  2
DASHED
 70
64
  3
- - - - - - - - - - - - - - - - - - - -
 72
65
 73
2
 40
0.2
 49
0.1
 74
0
 49
-0.1
 74
0
  0
ENDTAB
  0
TABLE
  2
LAYER
  5
2
100
AcDbSymbolTable
 70
36
  0
LAYER
  5
10
100
AcDbSymbolTableRecord
100
AcDbLayerTableRecord
  2
0
 70
0
 62
7
  6
CONTINUOUS
370
-3
390
F
  0
LAYER
  5
1FA
100
AcDbSymbolTableRecord
100
AcDbLayerTableRecord
  2
DEFAULT_1
 70
0
 62
7
  6
CENTER
370
-3
390
F
  0
LAYER
  5
1FB
100
AcDbSymbolTableRecord
100
AcDbLayerTableRecord
  2
DEFAULT_2
 70
0
 62
8
  6
HIDDEN
370
-3
390
F
  0
LAYER
  5
1FC
100
AcDbSymbolTableRecord
100
AcDbLayerTableRecord
  2
DEFAULT_3
 70
0
 62
7
  6
PHANTOM
370
-3
390
F
  0
LAYER
  5
1FD
100
AcDbSymbolTableRecord
100
AcDbLayerTableRecord
  2
00_COMPONENTS
 70
0
 62
7
  6
CONTINUOUS
370
-3
390
F
  0
LAYER
  5
1FE
100
AcDbSymbolTableRecord
100
AcDbLayerTableRecord
  2
01_1_DEFAULT_DATUMS
 70
0
 62
7
  6
CONTINUOUS
370
-3
390
F
  0
LAYER
  5
1FF
100
AcDbSymbolTableRecord
100
AcDbLayerTableRecord
  2
01_PLANES
 70
0
 62
7
  6
CONTINUOUS
370
-3
390
F
  0
LAYER
  5
200
100
AcDbSymbolTableRecord
100
AcDbLayerTableRecord
  2
02_COORD_SYS
 70
0
 62
7
  6
CONTINUOUS
370
-3
390
F
  0
LAYER
  5
201
100
AcDbSymbolTableRecord
100
AcDbLayerTableRecord
  2
03_AXES
 70
0
 62
7
  6
CONTINUOUS
370
-3
390
F
  0
LAYER
  5
202
100
AcDbSymbolTableRecord
100
AcDbLayerTableRecord
  2
04_POINTS
 70
0
 62
7
  6
CONTINUOUS
370
-3
390
F
  0
LAYER
  5
203
100
AcDbSymbolTableRecord
100
AcDbLayerTableRecord
  2
05_CURVES
 70
0
 62
7
  6
CONTINUOUS
370
-3
390
F
  0
LAYER
  5
204
100
AcDbSymbolTableRecord
100
AcDbLayerTableRecord
  2
06_SURFS
 70
0
 62
7
  6
CONTINUOUS
370
-3
390
F
  0
LAYER
  5
205
100
AcDbSymbolTableRecord
100
AcDbLayerTableRecord
  2
07_COSMETICS
 70
0
 62
7
  6
CONTINUOUS
370
-3
390
F
  0
LAYER
  5
206
100
AcDbSymbolTableRecord
100
AcDbLayerTableRecord
  2
10_NOTES
 70
0
 62
7
  6
CONTINUOUS
370
-3
390
F
  0
LAYER
  5
207
100
AcDbSymbolTableRecord
100
AcDbLayerTableRecord
  2
11_NOTES_PUB
 70
0
 62
7
  6
CONTINUOUS
370
-3
390
F
  0
LAYER
  5
208
100
AcDbSymbolTableRecord
100
AcDbLayerTableRecord
  2
13_REF_GTOL
 70
0
 62
7
  6
CONTINUOUS
370
-3
390
F
  0
LAYER
  5
209
100
AcDbSymbolTableRecord
100
AcDbLayerTableRecord
  2
16_MISC
 70
0
 62
7
  6
CONTINUOUS
370
-3
390
F
  0
LAYER
  5
20A
100
AcDbSymbolTableRecord
100
AcDbLayerTableRecord
  2
17_NO_PRINT
 70
0
 62
7
  6
CONTINUOUS
370
-3
390
F
  0
LAYER
  5
20B
100
AcDbSymbolTableRecord
100
AcDbLayerTableRecord
  2
18_DATUM_CAMS_JOINTS
 70
0
 62
7
  6
CONTINUOUS
370
-3
390
F
  0
LAYER
  5
20C
100
AcDbSymbolTableRecord
100
AcDbLayerTableRecord
  2
19_DATUM_FUNCTIONAL
 70
0
 62
7
  6
CONTINUOUS
370
-3
390
F
  0
LAYER
  5
20D
100
AcDbSymbolTableRecord
100
AcDbLayerTableRecord
  2
20_DATUM_KINEMATIC_SCHEME
 70
0
 62
7
  6
CONTINUOUS
370
-3
390
F
  0
ENDTAB
  0
TABLE
  2
STYLE
  5
3
100
AcDbSymbolTable
 70
1
  0
STYLE
  5
11
100
AcDbSymbolTableRecord
100
AcDbTextStyleTableRecord
  2
STANDARD
 70
0
 40
0.0
 41
0.8
 50
0.0
 71
0
 42
0.2
  3
txt
  4

  0
STYLE
  5
20E
100
AcDbSymbolTableRecord
100
AcDbTextStyleTableRecord
  2
TEXTSTYLE_1
 70
0
 40
0.0
 41
0.8
 50
0.0
 71
0
 42
0.2
  3
gdt
  4

  0
ENDTAB
  0
TABLE
  2
VIEW
  5
6
100
AcDbSymbolTable
 70
0
  0
ENDTAB
  0
TABLE
  2
UCS
  5
7
100
AcDbSymbolTable
 70
0
  0
ENDTAB
  0
TABLE
  2
APPID
  5
9
100
AcDbSymbolTable
 70
1
  0
APPID
  5
20F
100
AcDbSymbolTableRecord
100
AcDbRegAppTableRecord
  2
ACAD
 70
0
  0
ENDTAB
  0
TABLE
  2
BLOCK_RECORD
  5
1
100
AcDbSymbolTable
 70
0
  0
BLOCK_RECORD
  5
210
100
AcDbSymbolTableRecord
100
AcDbBlockTableRecord
  2
*Model_Space
  0
BLOCK_RECORD
  5
211
100
AcDbSymbolTableRecord
100
AcDbBlockTableRecord
  2
*Paper_Space
  0
BLOCK_RECORD
  5
212
100
AcDbSymbolTableRecord
100
AcDbBlockTableRecord
  2
_FILLED
  0
ENDTAB
  0
TABLE
  2
DIMSTYLE
  5
A
100
AcDbSymbolTable
 70
1
100
AcDbDimStyleTable
 71
0
  0
DIMSTYLE
105
213
100
AcDbSymbolTableRecord
100
AcDbDimStyleTableRecord
  2
STANDARD
 70
0
  3

  4

 40
1.0
 41
1.2573432737
 42
1.0
 43
0.38
 44
1.0
 45
0.0
 46
0.0
 47
0.01
 48
0.01
140
1.7602805831
141
0.09
142
0.0
143
25.4
144
1.0
145
0.0
146
1.0
147
0.625
 71
1
 72
0
 73
0
 74
0
 75
0
 76
0
 77
1
 78
8
 79
2
170
0
171
1
172
0
173
0
174
0
175
0
176
0
177
0
178
0
270
2
179
2
271
2
272
2
273
2
274
2
275
0
280
0
281
0
282
0
283
1
284
8
285
0
286
0
287
3
288
0
340
11
278
46
341
212
342
212
343
212
344
212
  0
ENDTAB
  0
ENDSEC
  0
SECTION
  2
BLOCKS
  0
BLOCK
  5
20
100
AcDbEntity
  8
0
100
AcDbBlockBegin
  2
*Model_Space
 70
0
 10
0.0
 20
0.0
 30
0.0
  3
*Model_Space
  1

  0
ENDBLK
  5
21
100
AcDbEntity
  8
0
100
AcDbBlockEnd
  0
BLOCK
  5
1C
100
AcDbEntity
  8
0
100
AcDbBlockBegin
  2
*Paper_Space
 70
0
 10
0.0
 20
0.0
 30
0.0
  3
*Paper_Space
  1

  0
ENDBLK
  5
1D
100
AcDbEntity
  8
0
100
AcDbBlockEnd
  0
BLOCK
  5
214
100
AcDbEntity
  8
0
100
AcDbBlockBegin
  2
_FILLED
 70
64
 10
0.0
 20
0.0
  3
_FILLED
  1

  0
SOLID
  5
215
100
AcDbEntity
  8
0
  6
BYBLOCK
 62
0
100
AcDbTrace
 10
0.0
 20
0.0
 11
-1.0
 21
0.25
 12
-1.0
 22
-0.25
 13
-1.0
 23
-0.25
  0
ENDBLK
  5
216
100
AcDbEntity
  8
0
  6
BYBLOCK
 62
0
100
AcDbBlockEnd
  0
ENDSEC
  0
SECTION
  2
ENTITIES
  0
LINE
  5
217
100
AcDbEntity
  8
0
100
AcDbLine
 62
7
  6
CONTINUOUS
 10
48.1616426181
 20
121.179430874
 11
30.8377777609
 21
111.1775525384
  0
LINE
  5
218
100
AcDbEntity
  8
0
100
AcDbLine
 62
7
  6
CONTINUOUS
 10
32.5671951338
 20
112.1075423519
 11
49.8910599911
 21
122.1094206875
  0
LINE
  5
219
100
AcDbEntity
  8
0
100
AcDbLine
 62
7
  6
CONTINUOUS
 10
28.8021935883
 20
108.9030793952
 11
32.1555720813
 21
110.8387410876
  0
LINE
  5
21A
100
AcDbEntity
  8
0
100
AcDbLine
 62
7
  6
CONTINUOUS
 10
50.4732768198
 20
121.4148104476
 11
52.8381786866
 21
122.7797783003
  0
LINE
  5
21B
100
AcDbEntity
  8
0
100
AcDbLine
 62
7
  6
CONTINUOUS
 10
52.8381363799
 20
122.7797652033
 11
52.8183806448
 21
122.7686309021
  0
LINE
  5
21C
100
AcDbEntity
  8
0
100
AcDbLine
 62
7
  6
CONTINUOUS
 10
32.155529778
 20
110.8387279925
 11
32.1357740429
 21
110.8275936914
  0
LINE
  5
21D
100
AcDbEntity
  8
0
100
AcDbLine
 62
7
  6
CONTINUOUS
 10
28.8022446896
 20
108.9029911102
 11
28.8220004247
 21
108.9141254114
  0
LINE
  5
21E
100
AcDbEntity
  8
0
100
AcDbLine
 62
7
  6
CONTINUOUS
 10
49.8910599911
 20
122.1094206875
 11
48.1616426181
 21
121.179430874
  0
LINE
  5
21F
100
AcDbEntity
  8
0
100
AcDbLine
 62
7
  6
CONTINUOUS
 10
30.8377777609
 20
111.1775525384
 11
32.5671951338
 21
112.1075423519
  0
LINE
  5
220
100
AcDbEntity
  8
0
100
AcDbLine
 62
7
  6
CONTINUOUS
 10
12.2527680092
 20
66.2957531936
 11
12.2527680092
 21
63.6012952171
  0
LINE
  5
221
100
AcDbEntity
  8
0
100
AcDbLine
 62
7
  6
CONTINUOUS
 10
12.8385785873
 20
97.894465123
 11
12.8385785873
 21
58.4573983756
  0
LINE
  5
222
100
AcDbEntity
  8
0
100
AcDbLine
 62
7
  6
CONTINUOUS
 10
29.8869877807
 20
108.8439473969
 11
33.2205171351
 21
110.7685499776
  0
LINE
  5
223
100
AcDbEntity
  8
0
100
AcDbLine
 62
7
  6
CONTINUOUS
 10
50.8873201622
 20
120.968422576
 11
53.9031237361
 21
122.7095871887
  0
LINE
  5
224
100
AcDbEntity
  8
0
100
AcDbLine
 62
7
  6
CONTINUOUS
 10
13.0456905509
 20
98.3522510646
 11
28.2730390232
 21
107.1437123262
  0
LINE
  5
225
100
AcDbEntity
  8
0
100
AcDbLine
 62
7
  6
CONTINUOUS
 10
28.2713008438
 20
106.8045123957
 11
13.5456883125
 21
98.3027267856
  0
LINE
  5
226
100
AcDbEntity
  8
0
100
AcDbLine
 62
7
  6
CONTINUOUS
 10
52.06333214
 20
119.8559614057
 11
34.7394672827
 21
109.8540830701
  0
LINE
  5
227
100
AcDbEntity
  8
0
100
AcDbLine
 62
7
  6
CONTINUOUS
 10
31.4525433123
 20
107.8893302741
 11
55.4686792675
 21
121.754970066
  0
LINE
  5
228
100
AcDbEntity
  8
0
100
AcDbLine
 62
7
  6
CONTINUOUS
 10
25.9100665946
 20
103.9133642407
 11
28.3948512691
 21
105.3479467781
  0
LINE
  5
229
100
AcDbEntity
  8
0
100
AcDbLine
 62
7
  6
CONTINUOUS
 10
32.2290193832
 20
107.2627363324
 11
56.2451553384
 21
121.1283761244
  0
LINE
  5
22A
100
AcDbEntity
  8
0
100
AcDbLine
 62
7
  6
CONTINUOUS
 10
29.629715754
 20
105.4138094849
 11
29.4562787301
 21
105.3136761702
  0
LINE
  5
22B
100
AcDbEntity
  8
0
100
AcDbLine
 62
7
  6
CONTINUOUS
 10
28.6428032701
 20
104.8147082819
 11
26.9100621177
 21
103.8143156827
  0
LINE
  5
22C
100
AcDbEntity
  8
0
100
AcDbLine
 62
7
  6
CONTINUOUS
 10
26.9807730903
 20
103.7734916072
 11
28.675693081
 21
104.7520482789
  0
LINE
  5
22D
100
AcDbEntity
  8
0
100
AcDbLine
 62
7
  6
CONTINUOUS
 10
26.9807730903
 20
102.7936887067
 11
29.0703776317
 21
104.0001152498
  0
LINE
  5
22E
100
AcDbEntity
  8
0
100
AcDbLine
 62
7
  6
CONTINUOUS
 10
29.468391227
 20
105.8798439173
 11
29.4640110311
 21
105.877359518
  0
LINE
  5
22F
100
AcDbEntity
  8
0
100
AcDbLine
 62
7
  6
CONTINUOUS
 10
31.1030716254
 20
106.7588891626
 11
29.468391227
 21
105.8798439173
  0
LINE
  5
230
100
AcDbEntity
  8
0
100
AcDbLine
 62
7
  6
CONTINUOUS
 10
69.9730443792
 20
26.8595995195
 11
63.1556728804
 21
29.4074676379
  0
LINE
  5
231
100
AcDbEntity
  8
0
100
AcDbLine
 62
7
  6
CONTINUOUS
 10
31.0773752006
 20
101.4083707822
 11
31.7453916296
 21
101.9714179561
  0
LINE
  5
232
100
AcDbEntity
  8
0
100
AcDbLine
 62
7
  6
CONTINUOUS
 10
33.3754066784
 20
105.3663802502
 11
57.3915426336
 21
119.2320200422
  0
LINE
  5
233
100
AcDbEntity
  8
0
100
AcDbLine
 62
7
  6
CONTINUOUS
 10
30.8636416705
 20
102.7708691078
 11
31.0572694285
 21
102.8826594787
  0
LINE
  5
234
100
AcDbEntity
  8
0
100
AcDbLine
 62
7
  6
CONTINUOUS
 10
30.8587216614
 20
102.5412323968
 11
31.153761392
 21
102.7115726479
  0
LINE
  5
235
100
AcDbEntity
  8
0
100
AcDbLine
 62
7
  6
CONTINUOUS
 10
33.3525931043
 20
103.8788943598
 11
57.3687290595
 21
117.7445341517
  0
LINE
  5
236
100
AcDbEntity
  8
0
100
AcDbLine
 62
7
  6
CONTINUOUS
 10
30.2334778259
 20
101.8955841364
 11
31.2748743517
 21
102.4968311119
  0
LINE
  5
237
100
AcDbEntity
  8
0
100
AcDbLine
 62
7
  6
CONTINUOUS
 10
45.7048842066
 20
110.2616434984
 11
44.903032159
 21
109.7986967662
  0
LINE
  5
238
100
AcDbEntity
  8
0
100
AcDbLine
 62
7
  6
CONTINUOUS
 10
33.1891462879
 20
103.0357219748
 11
31.5158139114
 21
102.0696288436
  0
LINE
  5
239
100
AcDbEntity
  8
0
100
AcDbLine
 62
7
  6
CONTINUOUS
 10
33.6815525071
 20
103.1071258878
 11
35.9442847862
 21
104.4135071802
  0
LINE
  5
23A
100
AcDbEntity
  8
0
100
AcDbLine
 62
7
  6
CONTINUOUS
 10
42.591060856
 20
108.2510022266
 11
44.9952139026
 21
109.6390323498
  0
LINE
  5
23B
100
AcDbEntity
  8
0
100
AcDbLine
 62
7
  6
CONTINUOUS
 10
46.1972904258
 20
110.3330474114
 11
48.4600227049
 21
111.6394287037
  0
LINE
  5
23C
100
AcDbEntity
  8
0
100
AcDbLine
 62
7
  6
CONTINUOUS
 10
55.1067987747
 20
115.4769237501
 11
57.5109518212
 21
116.8649538733
  0
LINE
  5
23D
100
AcDbEntity
  8
0
100
AcDbLine
 62
7
  6
CONTINUOUS
 10
31.7453951601
 20
101.9714118418
 11
34.7505864683
 21
103.7064494957
  0
LINE
  5
23E
100
AcDbEntity
  8
0
100
AcDbLine
 62
7
  6
CONTINUOUS
 10
42.5988029931
 20
108.2375923717
 11
47.266324387
 21
110.9323710192
  0
LINE
  5
23F
100
AcDbEntity
  8
0
100
AcDbLine
 62
7
  6
CONTINUOUS
 10
55.1145409118
 20
115.4635138953
 11
56.7768709975
 21
116.4232548888
  0
LINE
  5
240
100
AcDbEntity
  8
0
100
AcDbLine
 62
7
  6
CONTINUOUS
 10
24.8677044259
 20
97.7243568774
 11
25.041585167
 21
97.8247463708
  0
LINE
  5
241
100
AcDbEntity
  8
0
100
AcDbLine
 62
7
  6
CONTINUOUS
 10
36.1552523639
 20
104.047807579
 11
42.8020284338
 21
107.8853026254
  0
LINE
  5
242
100
AcDbEntity
  8
0
100
AcDbLine
 62
7
  6
CONTINUOUS
 10
48.6709902826
 20
111.2737291025
 11
55.3177663524
 21
115.1112241489
  0
LINE
  5
243
100
AcDbEntity
  8
0
100
AcDbLine
 62
7
  6
CONTINUOUS
 10
30.8587216614
 20
102.5412323968
 11
30.7569894983
 21
102.4865261837
  0
LINE
  5
244
100
AcDbEntity
  8
0
100
AcDbLine
 62
7
  6
CONTINUOUS
 10
33.3525931043
 20
103.8788943598
 11
33.2508653889
 21
103.8241905384
  0
LINE
  5
245
100
AcDbEntity
  8
0
100
AcDbLine
 62
7
  6
CONTINUOUS
 10
51.9600304079
 20
38.2369982059
 11
53.7802316733
 21
38.6578200494
  0
LINE
  5
246
100
AcDbEntity
  8
0
100
AcDbLine
 62
7
  6
CONTINUOUS
 10
12.8385785873
 20
58.4573983756
 11
26.5565072552
 21
50.5375277379
  0
LINE
  5
247
100
AcDbEntity
  8
0
100
AcDbLine
 62
7
  6
CONTINUOUS
 10
59.4371094745
 20
31.5543326527
 11
63.1556728804
 21
29.4074676379
  0
LINE
  5
248
100
AcDbEntity
  8
0
100
AcDbLine
 62
7
  6
CONTINUOUS
 10
28.3949589031
 20
51.5989731199
 11
28.7485320945
 21
51.3948421607
  0
LINE
  5
249
100
AcDbEntity
  8
0
100
AcDbLine
 62
7
  6
CONTINUOUS
 10
28.324281568
 20
54.0076891459
 11
53.7802316733
 21
39.3110219831
  0
LINE
  5
24A
100
AcDbEntity
  8
0
100
AcDbLine
 62
7
  6
CONTINUOUS
 10
59.4371094745
 20
31.5543326527
 11
51.9417463879
 21
37.4221786944
  0
LINE
  5
24B
100
AcDbEntity
  8
0
100
AcDbLine
 62
7
  6
CONTINUOUS
 10
25.4958426675
 20
102.9977923575
 11
25.4958426675
 21
91.4034580342
  0
LINE
  5
24C
100
AcDbEntity
  8
0
100
AcDbLine
 62
7
  6
CONTINUOUS
 10
26.9807730903
 20
102.7936887067
 11
26.9807730903
 21
103.7734916072
  0
LINE
  5
24D
100
AcDbEntity
  8
0
100
AcDbLine
 62
7
  6
CONTINUOUS
 10
28.324281568
 20
52.7829355202
 11
28.324281568
 21
54.0076891459
  0
LINE
  5
24E
100
AcDbEntity
  8
0
100
AcDbLine
 62
7
  6
CONTINUOUS
 10
64.7448582758
 20
110.8743255217
 11
39.7133824384
 21
96.4224824746
  0
LINE
  5
24F
100
AcDbEntity
  8
0
100
AcDbLine
 62
7
  6
CONTINUOUS
 10
30.1627515448
 20
52.9462720223
 11
30.1627515448
 21
52.211365486
  0
LINE
  5
250
100
AcDbEntity
  8
0
100
AcDbLine
 62
7
  6
CONTINUOUS
 10
30.2334778259
 20
101.8955841364
 11
30.2334778259
 21
100.9157812359
  0
LINE
  5
251
100
AcDbEntity
  8
0
100
AcDbLine
 62
7
  6
CONTINUOUS
 10
33.3754066784
 20
105.3663802502
 11
33.3525931043
 21
103.8788943598
  0
LINE
  5
252
100
AcDbEntity
  8
0
100
AcDbLine
 62
7
  6
CONTINUOUS
 10
30.8636416705
 20
102.7708691078
 11
30.8587216614
 21
102.5412323968
  0
LINE
  5
253
100
AcDbEntity
  8
0
100
AcDbLine
 62
7
  6
CONTINUOUS
 10
28.4035080139
 20
105.2706014923
 11
28.3001582014
 21
106.1939994894
  0
LINE
  5
254
100
AcDbEntity
  8
0
100
AcDbLine
 62
7
  6
CONTINUOUS
 10
28.324281568
 20
52.7829355202
 11
27.6171718429
 21
51.1499202319
  0
LINE
  5
255
100
AcDbEntity
  8
0
100
AcDbLine
 62
7
  6
CONTINUOUS
 10
55.9015608488
 20
87.0764447473
 11
80.9330366861
 21
101.5282877944
  0
LINE
  5
256
100
AcDbEntity
  8
0
100
AcDbLine
 62
7
  6
CONTINUOUS
 10
75.2408774306
 20
50.3951768652
 11
78.7764871525
 21
48.3539378195
  0
LINE
  5
257
100
AcDbEntity
  8
0
100
AcDbLine
 62
7
  6
CONTINUOUS
 10
78.7764871525
 20
50.8850953126
 11
77.4329753761
 21
51.6607776495
  0
LINE
  5
258
100
AcDbEntity
  8
0
100
AcDbLine
 62
7
  6
CONTINUOUS
 10
29.4581058422
 20
103.2619356834
 11
28.4035080139
 21
105.2706014923
  0
LINE
  5
259
100
AcDbEntity
  8
0
100
AcDbLine
 62
7
  6
CONTINUOUS
 10
82.3472561364
 20
99.0788014511
 11
57.3157802991
 21
84.626958404
  0
LINE
  5
25A
100
AcDbEntity
  8
0
100
AcDbLine
 62
7
  6
CONTINUOUS
 10
29.3880753366
 20
105.8422544218
 11
31.5158139114
 21
102.0696288436
  0
LINE
  5
25B
100
AcDbEntity
  8
0
100
AcDbLine
 62
7
  6
CONTINUOUS
 10
29.4562787301
 20
105.3136761701
 11
30.8636416705
 21
102.7708691078
  0
LINE
  5
25C
100
AcDbEntity
  8
0
100
AcDbLine
 62
7
  6
CONTINUOUS
 10
53.7802316733
 20
39.3110219831
 11
53.7802316733
 21
38.6578200494
  0
LINE
  5
25D
100
AcDbEntity
  8
0
100
AcDbLine
 62
7
  6
CONTINUOUS
 10
51.9417463879
 20
37.4221786944
 11
51.9600304079
 21
38.2369982059
  0
LINE
  5
25E
100
AcDbEntity
  8
0
100
AcDbLine
 62
7
  6
CONTINUOUS
 10
13.5456883125
 20
98.3027267856
 11
25.4958426675
 21
91.4034580342
  0
LINE
  5
25F
100
AcDbEntity
  8
0
100
AcDbLine
 62
7
  6
CONTINUOUS
 10
57.3157802991
 20
73.0326240808
 11
69.265934654
 21
66.1333553294
  0
LINE
  5
260
100
AcDbEntity
  8
0
100
AcDbLine
 62
7
  6
CONTINUOUS
 10
32.2290193832
 20
107.2627363324
 11
33.3754066784
 21
105.3663802502
  0
LINE
  5
261
100
AcDbEntity
  8
0
100
AcDbLine
 62
7
  6
CONTINUOUS
 10
33.2653599543
 20
103.8285706343
 11
33.6815525071
 21
103.1071258878
  0
LINE
  5
262
100
AcDbEntity
  8
0
100
AcDbLine
 62
7
  6
CONTINUOUS
 10
36.1552523639
 20
104.047807579
 11
35.9442847862
 21
104.4135071802
  0
LINE
  5
263
100
AcDbEntity
  8
0
100
AcDbLine
 62
7
  6
CONTINUOUS
 10
33.0498082509
 20
103.9424641861
 11
31.5995630991
 21
106.4662219174
  0
LINE
  5
264
100
AcDbEntity
  8
0
100
AcDbLine
 62
7
  6
CONTINUOUS
 10
57.3157802991
 20
73.0326240808
 11
57.3157802991
 21
84.626958404
  0
LINE
  5
265
100
AcDbEntity
  8
0
100
AcDbLine
 62
7
  6
CONTINUOUS
 10
57.3687290595
 20
117.7445341517
 11
57.3915426336
 21
119.2320200422
  0
LINE
  5
266
100
AcDbEntity
  8
0
100
AcDbLine
 62
7
  6
CONTINUOUS
 10
57.3157802991
 20
73.0326240808
 11
82.3472561364
 21
87.4844671278
  0
LINE
  5
267
100
AcDbEntity
  8
0
100
AcDbLine
 62
7
  6
CONTINUOUS
 10
87.7566153493
 20
57.6210983887
 11
91.2922250712
 21
55.579859343
  0
LINE
  5
268
100
AcDbEntity
  8
0
100
AcDbLine
 62
7
  6
CONTINUOUS
 10
91.2922250712
 20
58.1110168361
 11
89.9487132948
 21
58.886699173
  0
LINE
  5
269
100
AcDbEntity
  8
0
100
AcDbLine
 62
7
  6
CONTINUOUS
 10
28.324281568
 20
52.7829355202
 11
29.3849644846
 21
53.3953174321
  0
LINE
  5
26A
100
AcDbEntity
  8
0
100
AcDbLine
 62
7
  6
CONTINUOUS
 10
26.5565072552
 20
50.5375277379
 11
30.4456596204
 21
52.7829386638
  0
LINE
  5
26B
100
AcDbEntity
  8
0
100
AcDbLine
 62
7
  6
CONTINUOUS
 10
28.7485320945
 20
51.3948421607
 11
30.7992083734
 21
52.5788218139
  0
LINE
  5
26C
100
AcDbEntity
  8
0
100
AcDbLine
 62
7
  6
CONTINUOUS
 10
42.591060856
 20
108.2510022266
 11
42.8020284338
 21
107.8853026254
  0
LINE
  5
26D
100
AcDbEntity
  8
0
100
AcDbLine
 62
7
  6
CONTINUOUS
 10
30.2334778259
 20
100.9157812359
 11
26.9807730903
 21
102.7936887067
  0
LINE
  5
26E
100
AcDbEntity
  8
0
100
AcDbLine
 62
7
  6
CONTINUOUS
 10
55.9015608488
 20
87.0764447473
 11
39.7133824384
 21
96.4224824746
  0
LINE
  5
26F
100
AcDbEntity
  8
0
100
AcDbLine
 62
7
  6
CONTINUOUS
 10
26.9807730903
 20
103.7734916072
 11
26.9100621177
 21
103.8143156827
  0
LINE
  5
270
100
AcDbEntity
  8
0
100
AcDbLine
 62
7
  6
CONTINUOUS
 10
30.2334778259
 20
101.8955841364
 11
31.0773752006
 21
101.4083707822
  0
LINE
  5
271
100
AcDbEntity
  8
0
100
AcDbLine
 62
7
  6
CONTINUOUS
 10
81.7816725727
 20
73.3592768529
 11
69.8315182178
 21
80.2585456043
  0
LINE
  5
272
100
AcDbEntity
  8
0
100
AcDbLine
 62
7
  6
CONTINUOUS
 10
27.3846428187
 20
104.7647061388
 11
26.0614262312
 21
105.5286483091
  0
LINE
  5
273
100
AcDbEntity
  8
0
100
AcDbLine
 62
7
  6
CONTINUOUS
 10
30.7569894983
 20
102.4865261837
 11
29.4581058422
 21
103.2619356834
  0
LINE
  5
274
100
AcDbEntity
  8
0
100
AcDbLine
 62
7
  6
CONTINUOUS
 10
31.4525305247
 20
107.8893405933
 11
32.2290193832
 21
107.2627363324
  0
LINE
  5
275
100
AcDbEntity
  8
0
100
AcDbLine
 62
7
  6
CONTINUOUS
 10
44.9952139026
 20
109.6390323498
 11
44.5790386842
 21
110.3604470478
  0
LINE
  5
276
100
AcDbEntity
  8
0
100
AcDbLine
 62
7
  6
CONTINUOUS
 10
45.7811152075
 20
111.0544621094
 11
46.1972904258
 21
110.3330474114
  0
LINE
  5
277
100
AcDbEntity
  8
0
100
AcDbLine
 62
7
  6
CONTINUOUS
 10
69.8315182178
 20
80.2585456043
 11
69.8315182178
 21
91.8528799276
  0
LINE
  5
278
100
AcDbEntity
  8
0
100
AcDbLine
 62
7
  6
CONTINUOUS
 10
69.9730443792
 20
26.8595995195
 11
69.9730443792
 21
64.9086121578
  0
LINE
  5
279
100
AcDbEntity
  8
0
100
AcDbLine
 62
7
  6
CONTINUOUS
 10
72.8097437909
 20
70.0456337209
 11
72.983624532
 21
70.1460232143
  0
LINE
  5
27A
100
AcDbEntity
  8
0
100
AcDbLine
 62
7
  6
CONTINUOUS
 10
85.3254817096
 20
77.2715552444
 11
85.4993624507
 21
77.3719447379
  0
LINE
  5
27B
100
AcDbEntity
  8
0
100
AcDbLine
 62
7
  6
CONTINUOUS
 10
69.265934654
 20
66.1333553294
 11
94.2974104914
 21
80.5851983765
  0
LINE
  5
27C
100
AcDbEntity
  8
0
100
AcDbLine
 62
7
  6
CONTINUOUS
 10
95.0045202166
 20
79.3604552048
 11
69.9730443792
 21
64.9086121578
  0
LINE
  5
27D
100
AcDbEntity
  8
0
100
AcDbLine
 62
7
  6
CONTINUOUS
 10
33.2508653889
 20
103.8241905384
 11
33.0498082509
 21
103.9424641861
  0
LINE
  5
27E
100
AcDbEntity
  8
0
100
AcDbLine
 62
7
  6
CONTINUOUS
 10
34.7394672828
 20
109.85408307
 11
34.7860749867
 21
109.8139308556
  0
LINE
  5
27F
100
AcDbEntity
  8
0
100
AcDbLine
 62
7
  6
CONTINUOUS
 10
48.6709902826
 20
111.2737291025
 11
48.4600227049
 21
111.6394287037
  0
LINE
  5
280
100
AcDbEntity
  8
0
100
AcDbLine
 62
7
  6
CONTINUOUS
 10
73.6853395246
 20
45.4145799116
 11
73.6853395246
 21
47.9457374047
  0
LINE
  5
281
100
AcDbEntity
  8
0
100
AcDbLine
 62
7
  6
CONTINUOUS
 10
74.4631537455
 20
49.2929586328
 11
74.4631537455
 21
49.9461605666
  0
LINE
  5
282
100
AcDbEntity
  8
0
100
AcDbLine
 62
7
  6
CONTINUOUS
 10
55.1067987747
 20
115.4769237501
 11
55.3177663524
 21
115.1112241489
  0
LINE
  5
283
100
AcDbEntity
  8
0
100
AcDbLine
 62
7
  6
CONTINUOUS
 10
77.9986729316
 20
51.9873813359
 11
77.9986729316
 21
51.3341794022
  0
LINE
  5
284
100
AcDbEntity
  8
0
100
AcDbLine
 62
7
  6
CONTINUOUS
 10
78.7764871525
 20
50.8850953126
 11
78.7764871525
 21
48.3539378195
  0
LINE
  5
285
100
AcDbEntity
  8
0
100
AcDbLine
 62
7
  6
CONTINUOUS
 10
68.4172987675
 20
94.3023662709
 11
52.2291203571
 21
103.6484039981
  0
LINE
  5
286
100
AcDbEntity
  8
0
100
AcDbLine
 62
7
  6
CONTINUOUS
 10
94.2974104914
 20
80.5851983765
 11
82.3472561364
 21
87.4844671278
  0
LINE
  5
287
100
AcDbEntity
  8
0
100
AcDbLine
 62
7
  6
CONTINUOUS
 10
57.5109518212
 20
116.8649538733
 11
57.0947766029
 21
117.5863685713
  0
LINE
  5
288
100
AcDbEntity
  8
0
100
AcDbLine
 62
7
  6
CONTINUOUS
 10
82.3472561364
 20
87.4844671278
 11
82.3472561364
 21
99.0788014511
  0
LINE
  5
289
100
AcDbEntity
  8
0
100
AcDbLine
 62
7
  6
CONTINUOUS
 10
82.4887822979
 20
34.085521043
 11
82.4887822979
 21
72.1345336813
  0
LINE
  5
28A
100
AcDbEntity
  8
0
100
AcDbLine
 62
7
  6
CONTINUOUS
 10
57.3915426336
 20
119.2320200422
 11
56.2451553384
 21
121.1283761244
  0
LINE
  5
28B
100
AcDbEntity
  8
0
100
AcDbLine
 62
7
  6
CONTINUOUS
 10
86.2010774433
 20
52.6405014352
 11
86.2010774433
 21
55.1716589283
  0
LINE
  5
28C
100
AcDbEntity
  8
0
100
AcDbLine
 62
7
  6
CONTINUOUS
 10
86.9788916642
 20
56.5188801564
 11
86.9788916642
 21
57.1720820901
  0
LINE
  5
28D
100
AcDbEntity
  8
0
100
AcDbLine
 62
7
  6
CONTINUOUS
 10
74.4631537455
 20
49.2929586328
 11
73.6853395246
 21
47.9457374047
  0
LINE
  5
28E
100
AcDbEntity
  8
0
100
AcDbLine
 62
7
  6
CONTINUOUS
 10
51.9600304079
 20
38.2369982059
 11
53.7802316733
 21
39.2878856236
  0
LINE
  5
28F
100
AcDbEntity
  8
0
100
AcDbLine
 62
7
  6
CONTINUOUS
 10
74.4631537455
 20
49.9461605666
 11
77.9986729316
 21
51.9873813359
  0
LINE
  5
290
100
AcDbEntity
  8
0
100
AcDbLine
 62
7
  6
CONTINUOUS
 10
86.9788916642
 20
57.1720820901
 11
90.5144108503
 21
59.2133028594
  0
LINE
  5
291
100
AcDbEntity
  8
0
100
AcDbLine
 62
7
  6
CONTINUOUS
 10
52.109939844
 20
119.8158091912
 11
52.0633321401
 21
119.8559614056
  0
LINE
  5
292
100
AcDbEntity
  8
0
100
AcDbLine
 62
7
  6
CONTINUOUS
 10
90.5144108503
 20
59.2133028594
 11
90.5144108503
 21
58.5601009257
  0
LINE
  5
293
100
AcDbEntity
  8
0
100
AcDbLine
 62
7
  6
CONTINUOUS
 10
91.2922250712
 20
58.1110168361
 11
91.2922250712
 21
55.579859343
  0
LINE
  5
294
100
AcDbEntity
  8
0
100
AcDbLine
 62
7
  6
CONTINUOUS
 10
86.9788916642
 20
56.5188801564
 11
86.2010774433
 21
55.1716589283
  0
LINE
  5
295
100
AcDbEntity
  8
0
100
AcDbLine
 62
7
  6
CONTINUOUS
 10
80.9330366861
 20
101.5282877944
 11
64.7448582758
 21
110.8743255217
  0
LINE
  5
296
100
AcDbEntity
  8
0
100
AcDbLine
 62
7
  6
CONTINUOUS
 10
56.2451553384
 20
121.1283761244
 11
55.4686664799
 21
121.7549803852
  0
LINE
  5
297
100
AcDbEntity
  8
0
100
AcDbLine
 62
7
  6
CONTINUOUS
 10
95.0045202166
 20
41.3114425666
 11
95.0045202166
 21
79.3604552048
  0
LINE
  5
298
100
AcDbEntity
  8
0
100
AcDbLine
 62
7
  6
CONTINUOUS
 10
69.9730443792
 20
26.8595995195
 11
95.0045202166
 21
41.3114425666
  0
ARC
  5
299
100
AcDbEntity
  8
0
100
AcDbCircle
 62
7
  6
CONTINUOUS
 10
16.3460892761
 20
105.6805945118
 40
15.4992123248
100
AcDbArc
 50
17.1788971916
 51
20.7726372026
  0
ARC
  5
29A
100
AcDbEntity
  8
0
100
AcDbCircle
 62
7
  6
CONTINUOUS
 10
71.9091163937
 20
66.1770633997
 40
4.3079094212
100
AcDbArc
 50
69.6837829284
 51
70.4186387442
  0
ARC
  5
29B
100
AcDbEntity
  8
0
100
AcDbCircle
 62
7
  6
CONTINUOUS
 10
84.4248543125
 20
73.4029849235
 40
4.307909421
100
AcDbArc
 50
69.6837829284
 51
70.4186387442
  0
ARC
  5
29C
100
AcDbEntity
  8
0
100
AcDbCircle
 62
7
  6
CONTINUOUS
 10
23.9670770291
 20
93.855786557
 40
4.3079094204
100
AcDbArc
 50
69.6837829283
 51
70.4186387442
  0
ARC
  5
29D
100
AcDbEntity
  8
0
100
AcDbCircle
 62
7
  6
CONTINUOUS
 10
66.4886094806
 20
91.5597963895
 40
3.3797860088
100
AcDbArc
 50
29.9420423661
 51
38.7316734657
  0
ARC
  5
29E
100
AcDbEntity
  8
0
100
AcDbCircle
 62
7
  6
CONTINUOUS
 10
33.8162567994
 20
100.2686726673
 40
2.9215544887
100
AcDbArc
 50
139.9551448296
 51
141.943543249
  0
ARC
  5
29F
100
AcDbEntity
  8
0
100
AcDbCircle
 62
7
  6
CONTINUOUS
 10
80.7910074641
 20
71.9702928086
 40
1.7215065203
100
AcDbArc
 50
24.8184717358
 51
30.0152505419
  0
ARC
  5
2A0
100
AcDbEntity
  8
0
100
AcDbCircle
 62
7
  6
CONTINUOUS
 10
80.7905644077
 20
71.9710862594
 40
1.7214934909
100
AcDbArc
 50
29.9850075312
 51
35.1818216211
  0
ARC
  5
2A1
100
AcDbEntity
  8
0
100
AcDbCircle
 62
7
  6
CONTINUOUS
 10
25.3558871518
 20
97.6067428144
 40
0.3080975369
100
AcDbArc
 50
62.9110095567
 51
69.6979936698
  0
SPLINE
  5
2A2
100
AcDbEntity
  8
0
100
AcDbSpline
 62
7
  6
CONTINUOUS
 70
0
 71
3
 72
15
 73
11
 74
0
 42
0.0000001
 43
0.0000001
 44
0.0000000001
 40
0.0
 40
0.0
 40
0.0
 40
0.0
 40
0.1214398204
 40
0.2458460728
 40
0.3724236746
 40
0.5001294388
 40
0.6278177741
 40
0.7543491125
 40
0.8786863707
 40
1.0
 40
1.0
 40
1.0
 40
1.0
 10
25.4108517354
 20
97.9145546178
 30
0.0
 10
25.276992505
 20
97.9621747882
 30
0.0
 10
25.0011588938
 20
98.0454008615
 30
0.0
 10
24.5739869945
 20
98.1337826978
 30
0.0
 10
24.1336290511
 20
98.186925259
 30
0.0
 10
23.6866049746
 20
98.2043687425
 30
0.0
 10
23.2396739053
 20
98.1859558649
 30
0.0
 10
22.7995879523
 20
98.1318546981
 30
0.0
 10
22.3729003972
 20
98.0425294446
 30
0.0
 10
22.0974863892
 20
97.9587000266
 30
0.0
 10
21.9638913907
 20
97.9107790411
 30
0.0
  0
SPLINE
  5
2A3
100
AcDbEntity
  8
0
100
AcDbSpline
 62
7
  6
CONTINUOUS
 70
0
 71
3
 72
11
 73
7
 74
0
 42
0.0000001
 43
0.0000001
 44
0.0000000001
 40
0.0
 40
0.0
 40
0.0
 40
0.0
 40
0.279147662
 40
0.5382759556
 40
0.7776672423
 40
1.0
 40
1.0
 40
1.0
 40
1.0
 10
25.041585167
 20
97.8247463708
 30
0.0
 10
25.0709407845
 20
97.8416947433
 30
0.0
 10
25.129444741
 20
97.8712699927
 30
0.0
 10
25.2189619042
 20
97.9023598167
 30
0.0
 10
25.3055479198
 20
97.9177284879
 30
0.0
 10
25.3620755182
 20
97.9169769247
 30
0.0
 10
25.3888605458
 20
97.913593592
 30
0.0
  0
SPLINE
  5
2A4
100
AcDbEntity
  8
0
100
AcDbSpline
 62
7
  6
CONTINUOUS
 70
0
 71
3
 72
15
 73
11
 74
0
 42
0.0000001
 43
0.0000001
 44
0.0000000001
 40
0.0
 40
0.0
 40
0.0
 40
0.0
 40
0.1199532826
 40
0.2441308878
 40
0.3712216112
 40
0.4998056325
 40
0.6284173707
 40
0.7555778429
 40
0.8798881971
 40
1.0
 40
1.0
 40
1.0
 40
1.0
 10
22.3333042
 20
97.8212526824
 30
0.0
 10
22.4375863133
 20
97.8563330036
 30
0.0
 10
22.6532289608
 20
97.917914266
 30
0.0
 10
22.9876523736
 20
97.9837633647
 30
0.0
 10
23.3340997752
 20
98.0239152094
 30
0.0
 10
23.6866453576
 20
98.0376796454
 30
0.0
 10
24.0392885109
 20
98.0248169408
 30
0.0
 10
24.3860505786
 20
97.9855602462
 30
0.0
 10
24.7209763748
 20
97.9205608324
 30
0.0
 10
24.9370575909
 20
97.8595513996
 30
0.0
 10
25.041585167
 20
97.8247463708
 30
0.0
  0
SPLINE
  5
2A5
100
AcDbEntity
  8
0
100
AcDbSpline
 62
7
  6
CONTINUOUS
 70
0
 71
3
 72
15
 73
11
 74
0
 42
0.0000001
 43
0.0000001
 44
0.0000000001
 40
0.0
 40
0.0
 40
0.0
 40
0.0
 40
0.1214398204
 40
0.2458460728
 40
0.3724236746
 40
0.5001294388
 40
0.6278177741
 40
0.7543491125
 40
0.8786863707
 40
1.0
 40
1.0
 40
1.0
 40
1.0
 10
85.868629019
 20
77.4617529849
 30
0.0
 10
85.7347697887
 20
77.5093731553
 30
0.0
 10
85.4589361774
 20
77.5925992286
 30
0.0
 10
85.0317642782
 20
77.6809810649
 30
0.0
 10
84.5914063348
 20
77.734123626
 30
0.0
 10
84.1443822583
 20
77.7515671096
 30
0.0
 10
83.6974511889
 20
77.7331542319
 30
0.0
 10
83.2573652359
 20
77.6790530652
 30
0.0
 10
82.8306776809
 20
77.5897278116
 30
0.0
 10
82.5552636729
 20
77.5058983937
 30
0.0
 10
82.4216686743
 20
77.4579774081
 30
0.0
  0
SPLINE
  5
2A6
100
AcDbEntity
  8
0
100
AcDbSpline
 62
7
  6
CONTINUOUS
 70
0
 71
3
 72
11
 73
7
 74
0
 42
0.0000001
 43
0.0000001
 44
0.0000000001
 40
0.0
 40
0.0
 40
0.0
 40
0.0
 40
0.279147662
 40
0.5382759556
 40
0.7776672423
 40
1.0
 40
1.0
 40
1.0
 40
1.0
 10
85.4993624507
 20
77.3719447379
 30
0.0
 10
85.5287180682
 20
77.3888931104
 30
0.0
 10
85.5872220246
 20
77.4184683597
 30
0.0
 10
85.6767391878
 20
77.4495581837
 30
0.0
 10
85.7633252035
 20
77.464926855
 30
0.0
 10
85.8198528018
 20
77.4641752917
 30
0.0
 10
85.8466378294
 20
77.460791959
 30
0.0
  0
SPLINE
  5
2A7
100
AcDbEntity
  8
0
100
AcDbSpline
 62
7
  6
CONTINUOUS
 70
0
 71
3
 72
15
 73
11
 74
0
 42
0.0000001
 43
0.0000001
 44
0.0000000001
 40
0.0
 40
0.0
 40
0.0
 40
0.0
 40
0.1199532826
 40
0.2441308878
 40
0.3712216112
 40
0.4998056325
 40
0.6284173707
 40
0.7555778429
 40
0.8798881971
 40
1.0
 40
1.0
 40
1.0
 40
1.0
 10
82.7910814837
 20
77.3684510494
 30
0.0
 10
82.895363597
 20
77.4035313706
 30
0.0
 10
83.1110062444
 20
77.465112633
 30
0.0
 10
83.4454296573
 20
77.5309617317
 30
0.0
 10
83.7918770589
 20
77.5711135765
 30
0.0
 10
84.1444226412
 20
77.5848780124
 30
0.0
 10
84.4970657946
 20
77.5720153079
 30
0.0
 10
84.8438278623
 20
77.5327586132
 30
0.0
 10
85.1787536585
 20
77.4677591995
 30
0.0
 10
85.3948348746
 20
77.4067497667
 30
0.0
 10
85.4993624507
 20
77.3719447379
 30
0.0
  0
SPLINE
  5
2A8
100
AcDbEntity
  8
0
100
AcDbSpline
 62
7
  6
CONTINUOUS
 70
0
 71
3
 72
15
 73
11
 74
0
 42
0.0000001
 43
0.0000001
 44
0.0000000001
 40
0.0
 40
0.0
 40
0.0
 40
0.0
 40
0.1214398204
 40
0.2458460728
 40
0.3724236746
 40
0.5001294388
 40
0.6278177741
 40
0.7543491125
 40
0.8786863707
 40
1.0
 40
1.0
 40
1.0
 40
1.0
 10
73.3528911003
 20
70.2358314613
 30
0.0
 10
73.21903187
 20
70.2834516317
 30
0.0
 10
72.9431982587
 20
70.366677705
 30
0.0
 10
72.5160263595
 20
70.4550595414
 30
0.0
 10
72.0756684161
 20
70.5082021025
 30
0.0
 10
71.6286443396
 20
70.525645586
 30
0.0
 10
71.1817132702
 20
70.5072327084
 30
0.0
 10
70.7416273172
 20
70.4531315416
 30
0.0
 10
70.3149397622
 20
70.3638062881
 30
0.0
 10
70.0395257542
 20
70.2799768701
 30
0.0
 10
69.9059307556
 20
70.2320558846
 30
0.0
  0
SPLINE
  5
2A9
100
AcDbEntity
  8
0
100
AcDbSpline
 62
7
  6
CONTINUOUS
 70
0
 71
3
 72
11
 73
7
 74
0
 42
0.0000001
 43
0.0000001
 44
0.0000000001
 40
0.0
 40
0.0
 40
0.0
 40
0.0
 40
0.279147662
 40
0.5382759556
 40
0.7776672423
 40
1.0
 40
1.0
 40
1.0
 40
1.0
 10
72.983624532
 20
70.1460232143
 30
0.0
 10
73.0129801495
 20
70.1629715868
 30
0.0
 10
73.071484106
 20
70.1925468362
 30
0.0
 10
73.1610012691
 20
70.2236366602
 30
0.0
 10
73.2475872848
 20
70.2390053314
 30
0.0
 10
73.3041148831
 20
70.2382537682
 30
0.0
 10
73.3308999107
 20
70.2348704355
 30
0.0
  0
SPLINE
  5
2AA
100
AcDbEntity
  8
0
100
AcDbSpline
 62
7
  6
CONTINUOUS
 70
0
 71
3
 72
15
 73
11
 74
0
 42
0.0000001
 43
0.0000001
 44
0.0000000001
 40
0.0
 40
0.0
 40
0.0
 40
0.0
 40
0.1199532826
 40
0.2441308878
 40
0.3712216112
 40
0.4998056325
 40
0.6284173707
 40
0.7555778429
 40
0.8798881971
 40
1.0
 40
1.0
 40
1.0
 40
1.0
 10
70.275343565
 20
70.1425295259
 30
0.0
 10
70.3796256783
 20
70.1776098471
 30
0.0
 10
70.5952683257
 20
70.2391911095
 30
0.0
 10
70.9296917386
 20
70.3050402082
 30
0.0
 10
71.2761391402
 20
70.3451920529
 30
0.0
 10
71.6286847225
 20
70.3589564889
 30
0.0
 10
71.9813278759
 20
70.3460937844
 30
0.0
 10
72.3280899436
 20
70.3068370897
 30
0.0
 10
72.6630157398
 20
70.241837676
 30
0.0
 10
72.8790969559
 20
70.1808282432
 30
0.0
 10
72.983624532
 20
70.1460232143
 30
0.0
  0
SPLINE
  5
2AB
100
AcDbEntity
  8
0
100
AcDbSpline
 62
7
  6
CONTINUOUS
 70
0
 71
3
 72
13
 73
9
 74
0
 42
0.0000001
 43
0.0000001
 44
0.0000000001
 40
0.0
 40
0.0
 40
0.0
 40
0.0
 40
0.1081122683
 40
0.2182634155
 40
0.4511600725
 40
0.5771813041
 40
0.710546956
 40
1.0
 40
1.0
 40
1.0
 40
1.0
 10
12.2527714236
 20
63.6012952171
 30
0.0
 10
12.252771421
 20
63.5634329005
 30
0.0
 10
12.2593700001
 20
63.4868337171
 30
0.0
 10
12.2991287458
 20
63.3332900142
 30
0.0
 10
12.3787776594
 20
63.186428038
 30
0.0
 10
12.4887087458
 20
63.053309024
 30
0.0
 10
12.6278280758
 20
62.9201168447
 30
0.0
 10
12.7507706656
 20
62.8354911518
 30
0.0
 10
12.8385603347
 20
62.7848069093
 30
0.0
  0
SPLINE
  5
2AC
100
AcDbEntity
  8
0
100
AcDbSpline
 62
7
  6
CONTINUOUS
 70
0
 71
3
 72
13
 73
9
 74
0
 42
0.0000001
 43
0.0000001
 44
0.0000000001
 40
0.0
 40
0.0
 40
0.0
 40
0.0
 40
0.1081125123
 40
0.2182638659
 40
0.4511607192
 40
0.5771819077
 40
0.7105474285
 40
1.0
 40
1.0
 40
1.0
 40
1.0
 10
12.2527714236
 20
66.2957531936
 30
0.0
 10
12.2527714227
 20
66.3336151072
 30
0.0
 10
12.2593698564
 20
66.4102134576
 30
0.0
 10
12.2991277359
 20
66.5637554927
 30
0.0
 10
12.3787749347
 20
66.7106160433
 30
0.0
 10
12.4887038082
 20
66.8437340065
 30
0.0
 10
12.6278203073
 20
66.976925216
 30
0.0
 10
12.750760531
 20
67.0615505636
 30
0.0
 10
12.8385485589
 20
67.1122347026
 30
0.0
  0
SPLINE
  5
2AD
100
AcDbEntity
  8
0
100
AcDbSpline
 62
7
  6
CONTINUOUS
 70
0
 71
3
 72
13
 73
9
 74
0
 42
0.0000001
 43
0.0000001
 44
0.0000000001
 40
0.0
 40
0.0
 40
0.0
 40
0.0
 40
0.2894530526
 40
0.4228187142
 40
0.5488399454
 40
0.7817365948
 40
0.8918877377
 40
1.0
 40
1.0
 40
1.0
 40
1.0
 10
12.8385603347
 20
65.4792648859
 30
0.0
 10
12.750770663
 20
65.5299491298
 30
0.0
 10
12.6278280696
 20
65.6145748286
 30
0.0
 10
12.4887087352
 20
65.7477670121
 30
0.0
 10
12.3787776501
 20
65.8808860283
 30
0.0
 10
12.2991287449
 20
66.0277480029
 30
0.0
 10
12.2593699981
 20
66.1812916993
 30
0.0
 10
12.2527714245
 20
66.2578908791
 30
0.0
 10
12.2527714236
 20
66.2957531936
 30
0.0
  0
SPLINE
  5
2AE
100
AcDbEntity
  8
0
100
AcDbSpline
 62
7
  6
CONTINUOUS
 70
0
 71
3
 72
9
 73
5
 74
0
 42
0.0000001
 43
0.0000001
 44
0.0000000001
 40
0.0
 40
0.0
 40
0.0
 40
0.0
 40
0.2588046796
 40
1.0
 40
1.0
 40
1.0
 40
1.0
 10
55.4686664799
 20
121.7549803852
 30
0.0
 10
55.340339793
 20
121.8476474607
 30
0.0
 10
54.8379899217
 20
122.1965107123
 30
0.0
 10
54.3088339904
 20
122.5075376684
 30
0.0
 10
53.9030470438
 20
122.7096220042
 30
0.0
  0
SPLINE
  5
2AF
100
AcDbEntity
  8
0
100
AcDbSpline
 62
7
  6
CONTINUOUS
 70
0
 71
3
 72
12
 73
8
 74
0
 42
0.0000001
 43
0.0000001
 44
0.0000000001
 40
0.0
 40
0.0
 40
0.0
 40
0.0
 40
0.2850346493
 40
0.5428951472
 40
0.7780385303
 40
0.8900580012
 40
1.0
 40
1.0
 40
1.0
 40
1.0
 10
53.9030470438
 20
122.7096220042
 30
0.0
 10
53.8089485935
 20
122.7566261723
 30
0.0
 10
53.6222703545
 20
122.8326663709
 30
0.0
 10
53.3383757271
 20
122.8877637212
 30
0.0
 10
53.1124669219
 20
122.8765635091
 30
0.0
 10
52.9492291111
 20
122.8320322538
 30
0.0
 10
52.8739142172
 20
122.798895993
 30
0.0
 10
52.8381363799
 20
122.7797652033
 30
0.0
  0
SPLINE
  5
2B0
100
AcDbEntity
  8
0
100
AcDbSpline
 62
7
  6
CONTINUOUS
 70
0
 71
3
 72
9
 73
5
 74
0
 42
0.0000001
 43
0.0000001
 44
0.0000000001
 40
0.0
 40
0.0
 40
0.0
 40
0.0
 40
0.4887882328
 40
1.0
 40
1.0
 40
1.0
 40
1.0
 10
52.0633321401
 20
119.8559614056
 30
0.0
 10
51.6697975564
 20
120.1814554996
 30
0.0
 10
50.9047974953
 20
120.8968222199
 30
0.0
 10
50.2202542488
 20
121.6887947496
 30
0.0
 10
49.8910599911
 20
122.1094206875
 30
0.0
  0
SPLINE
  5
2B1
100
AcDbEntity
  8
0
100
AcDbSpline
 62
7
  6
CONTINUOUS
 70
0
 71
3
 72
11
 73
7
 74
0
 42
0.0000001
 43
0.0000001
 44
0.0000000001
 40
0.0
 40
0.0
 40
0.0
 40
0.0
 40
0.293714615
 40
0.5550927308
 40
0.7869643528
 40
1.0
 40
1.0
 40
1.0
 40
1.0
 10
31.3792769636
 20
106.7124685134
 30
0.0
 10
31.3555071697
 20
106.7285764767
 30
0.0
 10
31.3079944365
 20
106.7555196935
 30
0.0
 10
31.2340384432
 20
106.7791255068
 30
0.0
 10
31.1640323575
 20
106.7819628288
 30
0.0
 10
31.1214146274
 20
106.7687518645
 30
0.0
 10
31.1030716254
 20
106.7588891626
 30
0.0
  0
SPLINE
  5
2B2
100
AcDbEntity
  8
0
100
AcDbSpline
 62
7
  6
CONTINUOUS
 70
0
 71
3
 72
9
 73
5
 74
0
 42
0.0000001
 43
0.0000001
 44
0.0000000001
 40
0.0
 40
0.0
 40
0.0
 40
0.0
 40
0.5202770582
 40
1.0
 40
1.0
 40
1.0
 40
1.0
 10
31.5995630991
 20
106.4662219174
 30
0.0
 10
31.5708387556
 20
106.5162088343
 30
0.0
 10
31.5060713451
 20
106.6070898124
 30
0.0
 10
31.4232827747
 20
106.6826473045
 30
0.0
 10
31.3792769636
 20
106.7124685134
 30
0.0
  0
SPLINE
  5
2B3
100
AcDbEntity
  8
0
100
AcDbSpline
 62
7
  6
CONTINUOUS
 70
0
 71
3
 72
9
 73
5
 74
0
 42
0.0000001
 43
0.0000001
 44
0.0000000001
 40
0.0
 40
0.0
 40
0.0
 40
0.0
 40
0.2591061259
 40
1.0
 40
1.0
 40
1.0
 40
1.0
 10
28.3001582014
 20
106.1939994894
 30
0.0
 10
28.2887415965
 20
106.3498879062
 30
0.0
 10
28.2560574251
 20
106.9522453535
 30
0.0
 10
28.2703016893
 20
107.5576190486
 30
0.0
 10
28.3127923647
 20
108.0025393138
 30
0.0
  0
SPLINE
  5
2B4
100
AcDbEntity
  8
0
100
AcDbSpline
 62
7
  6
CONTINUOUS
 70
0
 71
3
 72
12
 73
8
 74
0
 42
0.0000001
 43
0.0000001
 44
0.0000000001
 40
0.0
 40
0.0
 40
0.0
 40
0.0
 40
0.2830494165
 40
0.5398304565
 40
0.7756870033
 40
0.8886890478
 40
1.0
 40
1.0
 40
1.0
 40
1.0
 10
28.3127899891
 20
108.0025409746
 30
0.0
 10
28.3224138701
 20
108.1023416108
 30
0.0
 10
28.3562395435
 20
108.2918333565
 30
0.0
 10
28.4575468928
 20
108.5493405215
 30
0.0
 10
28.5821803338
 20
108.7272502107
 30
0.0
 10
28.7021623907
 20
108.83831185
 30
0.0
 10
28.7680468734
 20
108.8833649044
 30
0.0
 10
28.8021936859
 20
108.9030794516
 30
0.0
  0
SPLINE
  5
2B5
100
AcDbEntity
  8
0
100
AcDbSpline
 62
7
  6
CONTINUOUS
 70
0
 71
3
 72
9
 73
5
 74
0
 42
0.0000001
 43
0.0000001
 44
0.0000000001
 40
0.0
 40
0.0
 40
0.0
 40
0.0
 40
0.2588054582
 40
1.0
 40
1.0
 40
1.0
 40
1.0
 10
34.7860749867
 20
109.8139308556
 30
0.0
 10
34.6577454892
 20
109.9065999607
 30
0.0
 10
34.1553896335
 20
110.2554749151
 30
0.0
 10
33.6262203545
 20
110.5665025221
 30
0.0
 10
33.2204261679
 20
110.7685904636
 30
0.0
  0
SPLINE
  5
2B6
100
AcDbEntity
  8
0
100
AcDbSpline
 62
7
  6
CONTINUOUS
 70
0
 71
3
 72
12
 73
8
 74
0
 42
0.0000001
 43
0.0000001
 44
0.0000000001
 40
0.0
 40
0.0
 40
0.0
 40
0.0
 40
0.2850346015
 40
0.5428947612
 40
0.7780382082
 40
0.8900578202
 40
1.0
 40
1.0
 40
1.0
 40
1.0
 10
33.2204261679
 20
110.7685904636
 30
0.0
 10
33.1263290389
 20
110.8155939717
 30
0.0
 10
32.9396531395
 20
110.8916323848
 30
0.0
 10
32.6557621441
 20
110.9467267288
 30
0.0
 10
32.4298566502
 20
110.9355255792
 30
0.0
 10
32.2666210942
 20
110.8909944698
 30
0.0
 10
32.1913071777
 20
110.8578585486
 30
0.0
 10
32.155529778
 20
110.8387279925
 30
0.0
  0
SPLINE
  5
2B7
100
AcDbEntity
  8
0
100
AcDbSpline
 62
7
  6
CONTINUOUS
 70
0
 71
3
 72
9
 73
5
 74
0
 42
0.0000001
 43
0.0000001
 44
0.0000000001
 40
0.0
 40
0.0
 40
0.0
 40
0.0
 40
0.5112117672
 40
1.0
 40
1.0
 40
1.0
 40
1.0
 10
32.5671951338
 20
112.1075423519
 30
0.0
 10
32.8963893916
 20
111.686916414
 30
0.0
 10
33.580932638
 20
110.8949438843
 30
0.0
 10
34.3459326991
 20
110.179577164
 30
0.0
 10
34.7394672828
 20
109.85408307
 30
0.0
  0
SPLINE
  5
2B8
100
AcDbEntity
  8
0
100
AcDbSpline
 62
7
  6
CONTINUOUS
 70
0
 71
3
 72
10
 73
6
 74
0
 42
0.0000001
 43
0.0000001
 44
0.0000000001
 40
0.0
 40
0.0
 40
0.0
 40
0.0
 40
0.2339845342
 40
0.4753887895
 40
1.0
 40
1.0
 40
1.0
 40
1.0
 10
29.4639926373
 20
105.8773913702
 30
0.0
 10
29.4535058898
 20
105.8713329288
 30
0.0
 10
29.4335008595
 20
105.8566093144
 30
0.0
 10
29.398982626
 20
105.8176406263
 30
0.0
 10
29.3822157456
 20
105.7805297002
 30
0.0
 10
29.374533052
 20
105.7544853969
 30
0.0
  0
SPLINE
  5
2B9
100
AcDbEntity
  8
0
100
AcDbSpline
 62
7
  6
CONTINUOUS
 70
0
 71
3
 72
11
 73
7
 74
0
 42
0.0000001
 43
0.0000001
 44
0.0000000001
 40
0.0
 40
0.0
 40
0.0
 40
0.0
 40
0.2122079724
 40
0.4543273671
 40
0.7203150569
 40
1.0
 40
1.0
 40
1.0
 40
1.0
 10
29.374533052
 20
105.7544853969
 30
0.0
 10
29.3653595214
 20
105.7233871615
 30
0.0
 10
29.3565266085
 20
105.6535493623
 30
0.0
 10
29.3674592844
 20
105.5434122836
 30
0.0
 10
29.4005021179
 20
105.4271007835
 30
0.0
 10
29.4355855147
 20
105.3510644274
 30
0.0
 10
29.4562787301
 20
105.3136761701
 30
0.0
  0
SPLINE
  5
2BA
100
AcDbEntity
  8
0
100
AcDbSpline
 62
7
  6
CONTINUOUS
 70
0
 71
3
 72
12
 73
8
 74
0
 42
0.0000001
 43
0.0000001
 44
0.0000000001
 40
0.0
 40
0.0
 40
0.0
 40
0.0
 40
0.1099419988
 40
0.2219614697
 40
0.4571048529
 40
0.7149653507
 40
1.0
 40
1.0
 40
1.0
 40
1.0
 10
28.8220004247
 20
108.9141254114
 30
0.0
 10
28.8577782618
 20
108.9332562013
 30
0.0
 10
28.9330931558
 20
108.9663924621
 30
0.0
 10
29.0963309667
 20
109.010923717
 30
0.0
 10
29.3222397719
 20
109.0221239293
 30
0.0
 10
29.6061343992
 20
108.9670265788
 30
0.0
 10
29.7928126384
 20
108.8909863806
 30
0.0
 10
29.8869110885
 20
108.8439822123
 30
0.0
  0
SPLINE
  5
2BB
100
AcDbEntity
  8
0
100
AcDbSpline
 62
7
  6
CONTINUOUS
 70
0
 71
3
 72
9
 73
5
 74
0
 42
0.0000001
 43
0.0000001
 44
0.0000000001
 40
0.0
 40
0.0
 40
0.0
 40
0.0
 40
0.2412262346
 40
1.0
 40
1.0
 40
1.0
 40
1.0
 10
29.8869110885
 20
108.8439822123
 30
0.0
 10
30.0189806164
 20
108.7782107945
 30
0.0
 10
30.5602490698
 20
108.4931222591
 30
0.0
 10
31.0762862953
 20
108.1610335142
 30
0.0
 10
31.4525305247
 20
107.8893405933
 30
0.0
  0
SPLINE
  5
2BC
100
AcDbEntity
  8
0
100
AcDbSpline
 62
7
  6
CONTINUOUS
 70
0
 71
3
 72
11
 73
7
 74
0
 42
0.0000001
 43
0.0000001
 44
0.0000000001
 40
0.0
 40
0.0
 40
0.0
 40
0.0
 40
0.2372539654
 40
0.5000012591
 40
0.7627478695
 40
1.0
 40
1.0
 40
1.0
 40
1.0
 10
95.0045202166
 20
79.3604552048
 30
0.0
 10
95.0045202166
 20
79.4763810879
 30
0.0
 10
94.9610559509
 20
79.7208541125
 30
0.0
 10
94.8094501957
 20
80.0643304109
 30
0.0
 10
94.5877929576
 20
80.3673612103
 30
0.0
 10
94.3978050425
 20
80.5272368666
 30
0.0
 10
94.2974104914
 20
80.5851983765
 30
0.0
  0
SPLINE
  5
2BD
100
AcDbEntity
  8
0
100
AcDbSpline
 62
7
  6
CONTINUOUS
 70
0
 71
3
 72
13
 73
9
 74
0
 42
0.0000001
 43
0.0000001
 44
0.0000000001
 40
0.0
 40
0.0
 40
0.0
 40
0.0
 40
0.1142259181
 40
0.2375599982
 40
0.5000010158
 40
0.7624414734
 40
0.8857749255
 40
1.0
 40
1.0
 40
1.0
 40
1.0
 10
82.3472561364
 20
99.0788014511
 30
0.0
 10
82.3472561364
 20
99.1905623911
 30
0.0
 10
82.3267520318
 20
99.4232272694
 30
0.0
 10
82.2156085529
 20
99.9008491926
 30
0.0
 10
81.9573012468
 20
100.4866580675
 30
0.0
 10
81.5791275712
 20
101.0032611025
 30
0.0
 10
81.2210659004
 20
101.3383215235
 30
0.0
 10
81.0298243319
 20
101.4724086852
 30
0.0
 10
80.9330366861
 20
101.5282877944
 30
0.0
  0
SPLINE
  5
2BE
100
AcDbEntity
  8
0
100
AcDbSpline
 62
7
  6
CONTINUOUS
 70
0
 71
3
 72
17
 73
13
 74
0
 42
0.0000001
 43
0.0000001
 44
0.0000000001
 40
0.0
 40
0.0
 40
0.0
 40
0.0
 40
0.150911187
 40
0.3014379136
 40
0.4467529417
 40
0.5825361384
 40
0.7056018312
 40
0.8145857904
 40
0.8642307356
 40
0.911161194
 40
0.9561018302
 40
1.0
 40
1.0
 40
1.0
 40
1.0
 10
64.7448582758
 20
110.8743255217
 30
0.0
 10
64.5336078624
 20
111.3686837523
 30
0.0
 10
64.0458888882
 20
112.3293036276
 30
0.0
 10
63.1497084831
 20
113.6494889555
 30
0.0
 10
62.1240194749
 20
114.801465398
 30
0.0
 10
61.0163995418
 20
115.7307244588
 30
0.0
 10
59.87790434
 20
116.3937994989
 30
0.0
 10
58.9121433447
 20
116.7065276506
 30
0.0
 10
58.1807879842
 20
116.7782913367
 30
0.0
 10
57.6751751169
 20
116.74747256
 30
0.0
 10
57.2025286611
 20
116.6333236946
 30
0.0
 10
56.9122929076
 20
116.5014610835
 30
0.0
 10
56.776870333
 20
116.4232560395
 30
0.0
  0
SPLINE
  5
2BF
100
AcDbEntity
  8
0
100
AcDbSpline
 62
7
  6
CONTINUOUS
 70
0
 71
3
 72
18
 73
14
 74
0
 42
0.0000001
 43
0.0000001
 44
0.0000000001
 40
0.0
 40
0.0
 40
0.0
 40
0.0
 40
0.0428462914
 40
0.087462922
 40
0.1352816559
 40
0.1872331101
 40
0.2437231175
 40
0.3047270773
 40
0.438359669
 40
0.5826660937
 40
0.7297883324
 40
0.8713403307
 40
1.0
 40
1.0
 40
1.0
 40
1.0
 10
80.5504589239
 20
79.2175617636
 30
0.0
 10
80.5504763823
 20
79.1150839055
 30
0.0
 10
80.5778275442
 20
78.9049964758
 30
0.0
 10
80.6983805676
 20
78.6016866092
 30
0.0
 10
80.8938210241
 20
78.3140823403
 30
0.0
 10
81.1588370463
 20
78.0480189626
 30
0.0
 10
81.4871784785
 20
77.8080563021
 30
0.0
 10
82.0161104749
 20
77.5204796107
 30
0.0
 10
82.7911715374
 20
77.2616137291
 30
0.0
 10
83.8025282576
 20
77.119605037
 30
0.0
 10
84.8427945617
 20
77.1483584831
 30
0.0
 10
85.8261515552
 20
77.345077427
 30
0.0
 10
86.4295371623
 20
77.5940344917
 30
0.0
 10
86.6960330543
 20
77.7478950483
 30
0.0
  0
SPLINE
  5
2C0
100
AcDbEntity
  8
0
100
AcDbSpline
 62
7
  6
CONTINUOUS
 70
0
 71
3
 72
12
 73
8
 74
0
 42
0.0000001
 43
0.0000001
 44
0.0000000001
 40
0.0
 40
0.0
 40
0.0
 40
0.0
 40
0.2895270772
 40
0.5486629388
 40
0.7816288993
 40
0.8918382437
 40
1.0
 40
1.0
 40
1.0
 40
1.0
 10
86.2010774433
 20
52.6405014352
 30
0.0
 10
86.2010774433
 20
52.4580677644
 30
0.0
 10
86.2287823071
 20
52.1111264238
 30
0.0
 10
86.3689585011
 20
51.6346887866
 30
0.0
 10
86.5706637028
 20
51.306027969
 30
0.0
 10
86.7741807325
 20
51.105769964
 30
0.0
 10
86.8876632541
 20
51.0265556152
 30
0.0
 10
86.9466922416
 20
50.9924893906
 30
0.0
  0
SPLINE
  5
2C1
100
AcDbEntity
  8
0
100
AcDbSpline
 62
7
  6
CONTINUOUS
 70
0
 71
3
 72
9
 73
5
 74
0
 42
0.0000001
 43
0.0000001
 44
0.0000000001
 40
0.0
 40
0.0
 40
0.0
 40
0.0
 40
0.5115924809
 40
1.0
 40
1.0
 40
1.0
 40
1.0
 10
46.1972904258
 20
110.3330474114
 30
0.0
 10
45.9496957206
 20
110.331473936
 30
0.0
 10
45.4635472113
 20
110.2742668913
 30
0.0
 10
45.0082935118
 20
110.0906060294
 30
0.0
 10
44.8035868637
 20
109.9724109756
 30
0.0
  0
SPLINE
  5
2C2
100
AcDbEntity
  8
0
100
AcDbSpline
 62
7
  6
CONTINUOUS
 70
0
 71
3
 72
12
 73
8
 74
0
 42
0.0000001
 43
0.0000001
 44
0.0000000001
 40
0.0
 40
0.0
 40
0.0
 40
0.0
 40
0.2895275962
 40
0.5486635188
 40
0.7816292527
 40
0.8918384267
 40
1.0
 40
1.0
 40
1.0
 40
1.0
 10
86.6960330543
 20
77.7478950483
 30
0.0
 10
86.8540198987
 20
77.839108251
 30
0.0
 10
87.1406178301
 20
78.0365638145
 30
0.0
 10
87.4831262837
 20
78.3961635591
 30
0.0
 10
87.6668979098
 20
78.7351615683
 30
0.0
 10
87.7385675326
 20
79.0115302415
 30
0.0
 10
87.7504287741
 20
79.1494106969
 30
0.0
 10
87.7504171636
 20
79.2175617655
 30
0.0
  0
SPLINE
  5
2C3
100
AcDbEntity
  8
0
100
AcDbSpline
 62
7
  6
CONTINUOUS
 70
0
 71
3
 72
18
 73
14
 74
0
 42
0.0000001
 43
0.0000001
 44
0.0000000001
 40
0.0
 40
0.0
 40
0.0
 40
0.0
 40
0.0428468435
 40
0.0874639365
 40
0.1352829812
 40
0.1872345715
 40
0.2437245479
 40
0.3047283323
 40
0.4383602832
 40
0.5826659571
 40
0.7297876663
 40
0.8713396455
 40
1.0
 40
1.0
 40
1.0
 40
1.0
 10
86.9466922416
 20
50.9924893906
 30
0.0
 10
87.0354507642
 20
50.9412659511
 30
0.0
 10
87.2310694504
 20
50.8599096508
 30
0.0
 10
87.5540220973
 20
50.8126566945
 30
0.0
 10
87.9008160277
 20
50.83811023
 30
0.0
 10
88.2637418395
 20
50.9345878151
 30
0.0
 10
88.6357255417
 20
51.0989566963
 30
0.0
 10
89.1492377281
 20
51.4132335482
 30
0.0
 10
89.7609484625
 20
51.9550185927
 30
0.0
 10
90.3896038215
 20
52.7598698765
 30
0.0
 10
90.8848293334
 20
53.6751399407
 30
0.0
 10
91.2061386072
 20
54.6251105342
 30
0.0
 10
91.2922250712
 20
55.2721361836
 30
0.0
 10
91.2922250712
 20
55.579859343
 30
0.0
  0
SPLINE
  5
2C4
100
AcDbEntity
  8
0
100
AcDbSpline
 62
7
  6
CONTINUOUS
 70
0
 71
3
 72
18
 73
14
 74
0
 42
0.0000001
 43
0.0000001
 44
0.0000000001
 40
0.0
 40
0.0
 40
0.0
 40
0.0
 40
0.0428462914
 40
0.087462922
 40
0.1352816559
 40
0.1872331101
 40
0.2437231175
 40
0.3047270773
 40
0.438359669
 40
0.5826660937
 40
0.7297883324
 40
0.8713403307
 40
1.0
 40
1.0
 40
1.0
 40
1.0
 10
87.7504171636
 20
79.2175617655
 30
0.0
 10
87.7503997052
 20
79.3200396236
 30
0.0
 10
87.7230485433
 20
79.5301270534
 30
0.0
 10
87.6024955199
 20
79.8334369199
 30
0.0
 10
87.4070550634
 20
80.1210411888
 30
0.0
 10
87.1420390412
 20
80.3871045665
 30
0.0
 10
86.813697609
 20
80.627067227
 30
0.0
 10
86.2847656126
 20
80.9146439184
 30
0.0
 10
85.5097045501
 20
81.1735098001
 30
0.0
 10
84.4983478299
 20
81.3155184921
 30
0.0
 10
83.4580815258
 20
81.286765046
 30
0.0
 10
82.4747245323
 20
81.0900461021
 30
0.0
 10
81.8713389252
 20
80.8410890374
 30
0.0
 10
81.6048430332
 20
80.6872284808
 30
0.0
  0
SPLINE
  5
2C5
100
AcDbEntity
  8
0
100
AcDbSpline
 62
7
  6
CONTINUOUS
 70
0
 71
3
 72
10
 73
6
 74
0
 42
0.0000001
 43
0.0000001
 44
0.0000000001
 40
0.0
 40
0.0
 40
0.0
 40
0.0
 40
0.5122066424
 40
0.7577983317
 40
1.0
 40
1.0
 40
1.0
 40
1.0
 10
48.6709902826
 20
111.2737291025
 30
0.0
 10
48.4215836876
 20
111.2786001472
 30
0.0
 10
48.0487175387
 20
111.2426654278
 30
0.0
 10
47.5832674398
 20
111.0952540622
 30
0.0
 10
47.3684704159
 20
110.9913623129
 30
0.0
 10
47.2663208942
 20
110.9323770443
 30
0.0
  0
SPLINE
  5
2C6
100
AcDbEntity
  8
0
100
AcDbSpline
 62
7
  6
CONTINUOUS
 70
0
 71
3
 72
9
 73
5
 74
0
 42
0.0000001
 43
0.0000001
 44
0.0000000001
 40
0.0
 40
0.0
 40
0.0
 40
0.0
 40
0.4955866262
 40
1.0
 40
1.0
 40
1.0
 40
1.0
 10
44.2611324143
 20
109.197334516
 30
0.0
 10
44.3782286824
 20
109.26495632
 30
0.0
 10
44.6264099517
 20
109.3817183348
 30
0.0
 10
44.8902391461
 20
109.4562264384
 30
0.0
 10
45.0251621832
 20
109.4833765616
 30
0.0
  0
SPLINE
  5
2C7
100
AcDbEntity
  8
0
100
AcDbSpline
 62
7
  6
CONTINUOUS
 70
0
 71
3
 72
9
 73
5
 74
0
 42
0.0000001
 43
0.0000001
 44
0.0000000001
 40
0.0
 40
0.0
 40
0.0
 40
0.0
 40
0.4734017282
 40
1.0
 40
1.0
 40
1.0
 40
1.0
 10
45.0251621832
 20
109.4833765616
 30
0.0
 10
45.3187863527
 20
109.5424615969
 30
0.0
 10
45.961883747
 20
109.5628746708
 30
0.0
 10
46.5831569293
 20
109.4137794668
 30
0.0
 10
46.8979882994
 20
109.3047801116
 30
0.0
  0
SPLINE
  5
2C8
100
AcDbEntity
  8
0
100
AcDbSpline
 62
7
  6
CONTINUOUS
 70
0
 71
3
 72
9
 73
5
 74
0
 42
0.0000001
 43
0.0000001
 44
0.0000000001
 40
0.0
 40
0.0
 40
0.0
 40
0.0
 40
0.5002190397
 40
1.0
 40
1.0
 40
1.0
 40
1.0
 10
50.7970712932
 20
106.1510386708
 30
0.0
 10
51.0829088761
 20
105.7634711609
 30
0.0
 10
51.6090270733
 20
104.9543743907
 30
0.0
 10
52.040052874
 20
104.090850784
 30
0.0
 10
52.2291203571
 20
103.6484039981
 30
0.0
  0
SPLINE
  5
2C9
100
AcDbEntity
  8
0
100
AcDbSpline
 62
7
  6
CONTINUOUS
 70
0
 71
3
 72
12
 73
8
 74
0
 42
0.0000001
 43
0.0000001
 44
0.0000000001
 40
0.0
 40
0.0
 40
0.0
 40
0.0
 40
0.2895275962
 40
0.5486635188
 40
0.7816292527
 40
0.8918384267
 40
1.0
 40
1.0
 40
1.0
 40
1.0
 10
81.6048430332
 20
80.6872284808
 30
0.0
 10
81.4468561888
 20
80.5960152781
 30
0.0
 10
81.1602582574
 20
80.3985597146
 30
0.0
 10
80.8177498038
 20
80.03895997
 30
0.0
 10
80.6339781778
 20
79.6999619608
 30
0.0
 10
80.5623085549
 20
79.4235932876
 30
0.0
 10
80.5504473135
 20
79.2857128322
 30
0.0
 10
80.5504589239
 20
79.2175617636
 30
0.0
  0
SPLINE
  5
2CA
100
AcDbEntity
  8
0
100
AcDbSpline
 62
7
  6
CONTINUOUS
 70
0
 71
3
 72
9
 73
5
 74
0
 42
0.0000001
 43
0.0000001
 44
0.0000000001
 40
0.0
 40
0.0
 40
0.0
 40
0.0
 40
0.4755207211
 40
1.0
 40
1.0
 40
1.0
 40
1.0
 10
81.7816725727
 20
73.3592768529
 30
0.0
 10
81.8609787251
 20
73.3134904603
 30
0.0
 10
82.0141998504
 20
73.1934020244
 30
0.0
 10
82.1393681634
 20
73.0454985475
 30
0.0
 10
82.1975887978
 20
72.9629643793
 30
0.0
  0
SPLINE
  5
2CB
100
AcDbEntity
  8
0
100
AcDbSpline
 62
7
  6
CONTINUOUS
 70
0
 71
3
 72
9
 73
5
 74
0
 42
0.0000001
 43
0.0000001
 44
0.0000000001
 40
0.0
 40
0.0
 40
0.0
 40
0.0
 40
0.52447847
 40
1.0
 40
1.0
 40
1.0
 40
1.0
 10
82.3535194348
 20
72.6928860833
 30
0.0
 10
82.3958864425
 20
72.6011983296
 30
0.0
 10
82.4613917188
 20
72.4188470234
 30
0.0
 10
82.4887822979
 20
72.2261086598
 30
0.0
 10
82.4887822979
 20
72.1345336813
 30
0.0
  0
SPLINE
  5
2CC
100
AcDbEntity
  8
0
100
AcDbSpline
 62
7
  6
CONTINUOUS
 70
0
 71
3
 72
9
 73
5
 74
0
 42
0.0000001
 43
0.0000001
 44
0.0000000001
 40
0.0
 40
0.0
 40
0.0
 40
0.0
 40
0.7471535551
 40
1.0
 40
1.0
 40
1.0
 40
1.0
 10
25.5614564456
 20
105.5781241312
 30
0.0
 10
25.5810816534
 20
105.589454678
 30
0.0
 10
25.6090127321
 20
105.6019767342
 30
0.0
 10
25.6380889554
 20
105.6106322854
 30
0.0
 10
25.6455056787
 20
105.6125825136
 30
0.0
  0
SPLINE
  5
2CD
100
AcDbEntity
  8
0
100
AcDbSpline
 62
7
  6
CONTINUOUS
 70
0
 71
3
 72
9
 73
5
 74
0
 42
0.0000001
 43
0.0000001
 44
0.0000000001
 40
0.0
 40
0.0
 40
0.0
 40
0.0
 40
0.4773767186
 40
1.0
 40
1.0
 40
1.0
 40
1.0
 10
68.4172987675
 20
94.3023662709
 30
0.0
 10
68.5482371417
 20
94.2267706755
 30
0.0
 10
68.8040564137
 20
94.0358380493
 30
0.0
 10
69.0214771676
 20
93.8034933275
 30
0.0
 10
69.1251286665
 20
93.6744405788
 30
0.0
  0
SPLINE
  5
2CE
100
AcDbEntity
  8
0
100
AcDbSpline
 62
7
  6
CONTINUOUS
 70
0
 71
3
 72
9
 73
5
 74
0
 42
0.0000001
 43
0.0000001
 44
0.0000000001
 40
0.0
 40
0.0
 40
0.0
 40
0.0
 40
0.2518831225
 40
1.0
 40
1.0
 40
1.0
 40
1.0
 10
69.4172979397
 20
93.2467277381
 30
0.0
 10
69.4390548392
 20
93.2090438853
 30
0.0
 10
69.5225816882
 20
93.0578123732
 30
0.0
 10
69.5948271257
 20
92.9003144949
 30
0.0
 10
69.6416261266
 20
92.7798457022
 30
0.0
  0
SPLINE
  5
2CF
100
AcDbEntity
  8
0
100
AcDbSpline
 62
7
  6
CONTINUOUS
 70
0
 71
3
 72
9
 73
5
 74
0
 42
0.0000001
 43
0.0000001
 44
0.0000000001
 40
0.0
 40
0.0
 40
0.0
 40
0.0
 40
0.5226225496
 40
1.0
 40
1.0
 40
1.0
 40
1.0
 10
69.6416261266
 20
92.7798457022
 30
0.0
 10
69.7015644052
 20
92.6255541162
 30
0.0
 10
69.794072699
 20
92.3210886075
 30
0.0
 10
69.8315182178
 20
92.0040748047
 30
0.0
 10
69.8315182178
 20
91.8528799276
 30
0.0
  0
SPLINE
  5
2D0
100
AcDbEntity
  8
0
100
AcDbSpline
 62
7
  6
CONTINUOUS
 70
0
 71
3
 72
11
 73
7
 74
0
 42
0.0000001
 43
0.0000001
 44
0.0000000001
 40
0.0
 40
0.0
 40
0.0
 40
0.0
 40
0.2372539654
 40
0.5000012591
 40
0.7627478695
 40
1.0
 40
1.0
 40
1.0
 40
1.0
 10
82.4887822979
 20
72.1345336813
 30
0.0
 10
82.4887822979
 20
72.2504595644
 30
0.0
 10
82.4453180322
 20
72.4949325889
 30
0.0
 10
82.293712277
 20
72.8384088874
 30
0.0
 10
82.0720550389
 20
73.1414396868
 30
0.0
 10
81.8820671238
 20
73.3013153431
 30
0.0
 10
81.7816725727
 20
73.3592768529
 30
0.0
  0
SPLINE
  5
2D1
100
AcDbEntity
  8
0
100
AcDbSpline
 62
7
  6
CONTINUOUS
 70
0
 71
3
 72
13
 73
9
 74
0
 42
0.0000001
 43
0.0000001
 44
0.0000000001
 40
0.0
 40
0.0
 40
0.0
 40
0.0
 40
0.1142259181
 40
0.2375599982
 40
0.5000010158
 40
0.7624414734
 40
0.8857749255
 40
1.0
 40
1.0
 40
1.0
 40
1.0
 10
69.8315182178
 20
91.8528799276
 30
0.0
 10
69.8315182178
 20
91.9646408676
 30
0.0
 10
69.8110141131
 20
92.1973057459
 30
0.0
 10
69.6998706342
 20
92.674927669
 30
0.0
 10
69.4415633281
 20
93.2607365439
 30
0.0
 10
69.0633896525
 20
93.777339579
 30
0.0
 10
68.7053279817
 20
94.1124
 30
0.0
 10
68.5140864133
 20
94.2464871617
 30
0.0
 10
68.4172987675
 20
94.3023662709
 30
0.0
  0
SPLINE
  5
2D2
100
AcDbEntity
  8
0
100
AcDbSpline
 62
7
  6
CONTINUOUS
 70
0
 71
3
 72
17
 73
13
 74
0
 42
0.0000001
 43
0.0000001
 44
0.0000000001
 40
0.0
 40
0.0
 40
0.0
 40
0.0
 40
0.150911187
 40
0.3014379136
 40
0.4467529417
 40
0.5825361384
 40
0.7056018312
 40
0.8145857904
 40
0.8642307356
 40
0.911161194
 40
0.9561018302
 40
1.0
 40
1.0
 40
1.0
 40
1.0
 10
52.2291203571
 20
103.6484039981
 30
0.0
 10
52.0178699438
 20
104.1427622287
 30
0.0
 10
51.5301509695
 20
105.1033821041
 30
0.0
 10
50.6339705644
 20
106.423567432
 30
0.0
 10
49.6082815562
 20
107.5755438745
 30
0.0
 10
48.5006616232
 20
108.5048029353
 30
0.0
 10
47.3621664213
 20
109.1678779753
 30
0.0
 10
46.396405426
 20
109.480606127
 30
0.0
 10
45.6650500655
 20
109.5523698132
 30
0.0
 10
45.1594371982
 20
109.5215510364
 30
0.0
 10
44.6867907424
 20
109.4074021711
 30
0.0
 10
44.3965549889
 20
109.2755395599
 30
0.0
 10
44.2611324143
 20
109.197334516
 30
0.0
  0
SPLINE
  5
2D3
100
AcDbEntity
  8
0
100
AcDbSpline
 62
7
  6
CONTINUOUS
 70
0
 71
3
 72
17
 73
13
 74
0
 42
0.0000001
 43
0.0000001
 44
0.0000000001
 40
0.0
 40
0.0
 40
0.0
 40
0.0
 40
0.0429012378
 40
0.0872410953
 40
0.1342332195
 40
0.1847375434
 40
0.2975891322
 40
0.4261561386
 40
0.5667983334
 40
0.7137681027
 40
0.8603855583
 40
1.0
 40
1.0
 40
1.0
 40
1.0
 10
20.0926816402
 20
99.6703633966
 30
0.0
 10
20.0926972839
 20
99.578537787
 30
0.0
 10
20.1144817198
 20
99.3911479046
 30
0.0
 10
20.2110297137
 20
99.1183326473
 30
0.0
 10
20.3685542887
 20
98.8566517993
 30
0.0
 10
20.6662272443
 20
98.5163163674
 30
0.0
 10
21.181161101
 20
98.148310565
 30
0.0
 10
21.9388002643
 20
97.8284146609
 30
0.0
 10
22.8116487554
 20
97.6308332945
 30
0.0
 10
23.7425787599
 20
97.5685863352
 30
0.0
 10
24.6699024192
 20
97.6455023966
 30
0.0
 10
25.268448745
 20
97.7919302793
 30
0.0
 10
25.5506766356
 20
97.8901486554
 30
0.0
  0
SPLINE
  5
2D4
100
AcDbEntity
  8
0
100
AcDbSpline
 62
7
  6
CONTINUOUS
 70
0
 71
3
 72
11
 73
7
 74
0
 42
0.0000001
 43
0.0000001
 44
0.0000000001
 40
0.0
 40
0.0
 40
0.0
 40
0.0
 40
0.2895391946
 40
0.5491157945
 40
0.7822541179
 40
1.0
 40
1.0
 40
1.0
 40
1.0
 10
26.0614262312
 20
105.5286483091
 30
0.0
 10
26.0175729733
 20
105.5539664266
 30
0.0
 10
25.9302619152
 20
105.5954464855
 30
0.0
 10
25.7961177296
 20
105.6279155528
 30
0.0
 10
25.6701863184
 20
105.624752098
 30
0.0
 10
25.5944358313
 20
105.5971646905
 30
0.0
 10
25.5614564463
 20
105.5781241316
 30
0.0
  0
SPLINE
  5
2D5
100
AcDbEntity
  8
0
100
AcDbSpline
 62
7
  6
CONTINUOUS
 70
0
 71
3
 72
18
 73
14
 74
0
 42
0.0000001
 43
0.0000001
 44
0.0000000001
 40
0.0
 40
0.0
 40
0.0
 40
0.0
 40
0.0428462914
 40
0.087462922
 40
0.1352816559
 40
0.1872331101
 40
0.2437231175
 40
0.3047270773
 40
0.438359669
 40
0.5826660937
 40
0.7297883324
 40
0.8713403307
 40
1.0
 40
1.0
 40
1.0
 40
1.0
 10
68.0347210052
 20
71.9916402401
 30
0.0
 10
68.0347384636
 20
71.889162382
 30
0.0
 10
68.0620896255
 20
71.6790749522
 30
0.0
 10
68.1826426489
 20
71.3757650857
 30
0.0
 10
68.3780831054
 20
71.0881608168
 30
0.0
 10
68.6430991276
 20
70.8220974391
 30
0.0
 10
68.9714405598
 20
70.5821347786
 30
0.0
 10
69.5003725562
 20
70.2945580872
 30
0.0
 10
70.2754336187
 20
70.0356922055
 30
0.0
 10
71.2867903389
 20
69.8936835135
 30
0.0
 10
72.327056643
 20
69.9224369596
 30
0.0
 10
73.3104136366
 20
70.1191559034
 30
0.0
 10
73.9137992436
 20
70.3681129682
 30
0.0
 10
74.1802951356
 20
70.5219735248
 30
0.0
  0
SPLINE
  5
2D6
100
AcDbEntity
  8
0
100
AcDbSpline
 62
7
  6
CONTINUOUS
 70
0
 71
3
 72
12
 73
8
 74
0
 42
0.0000001
 43
0.0000001
 44
0.0000000001
 40
0.0
 40
0.0
 40
0.0
 40
0.0
 40
0.2895270772
 40
0.5486629388
 40
0.7816288993
 40
0.8918382437
 40
1.0
 40
1.0
 40
1.0
 40
1.0
 10
73.6853395246
 20
45.4145799116
 30
0.0
 10
73.6853395246
 20
45.2321462409
 30
0.0
 10
73.7130443885
 20
44.8852049003
 30
0.0
 10
73.8532205824
 20
44.4087672631
 30
0.0
 10
74.0549257841
 20
44.0801064454
 30
0.0
 10
74.2584428138
 20
43.8798484404
 30
0.0
 10
74.3719253354
 20
43.8006340917
 30
0.0
 10
74.4309543229
 20
43.7665678671
 30
0.0
  0
SPLINE
  5
2D7
100
AcDbEntity
  8
0
100
AcDbSpline
 62
7
  6
CONTINUOUS
 70
0
 71
3
 72
9
 73
5
 74
0
 42
0.0000001
 43
0.0000001
 44
0.0000000001
 40
0.0
 40
0.0
 40
0.0
 40
0.0
 40
0.5115924809
 40
1.0
 40
1.0
 40
1.0
 40
1.0
 10
33.6815525071
 20
103.1071258878
 30
0.0
 10
33.4339578019
 20
103.1055524124
 30
0.0
 10
32.9478092926
 20
103.0483453678
 30
0.0
 10
32.4925555931
 20
102.8646845058
 30
0.0
 10
32.2878489451
 20
102.7464894521
 30
0.0
  0
SPLINE
  5
2D8
100
AcDbEntity
  8
0
100
AcDbSpline
 62
7
  6
CONTINUOUS
 70
0
 71
3
 72
12
 73
8
 74
0
 42
0.0000001
 43
0.0000001
 44
0.0000000001
 40
0.0
 40
0.0
 40
0.0
 40
0.0
 40
0.2895275962
 40
0.5486635188
 40
0.7816292527
 40
0.8918384267
 40
1.0
 40
1.0
 40
1.0
 40
1.0
 10
74.1802951356
 20
70.5219735248
 30
0.0
 10
74.33828198
 20
70.6131867274
 30
0.0
 10
74.6248799114
 20
70.810642291
 30
0.0
 10
74.967388365
 20
71.1702420356
 30
0.0
 10
75.1511599911
 20
71.5092400448
 30
0.0
 10
75.2228296139
 20
71.785608718
 30
0.0
 10
75.2346908554
 20
71.9234891734
 30
0.0
 10
75.234679245
 20
71.991640242
 30
0.0
  0
SPLINE
  5
2D9
100
AcDbEntity
  8
0
100
AcDbSpline
 62
7
  6
CONTINUOUS
 70
0
 71
3
 72
11
 73
7
 74
0
 42
0.0000001
 43
0.0000001
 44
0.0000000001
 40
0.0
 40
0.0
 40
0.0
 40
0.0
 40
0.2895401978
 40
0.5491171512
 40
0.782255066
 40
1.0
 40
1.0
 40
1.0
 40
1.0
 10
12.8385785873
 20
97.894465123
 30
0.0
 10
12.8385785873
 20
97.9451037462
 30
0.0
 10
12.8463106371
 20
98.0414602646
 30
0.0
 10
12.8852637064
 20
98.1738711068
 30
0.0
 10
12.9509701718
 20
98.2813522939
 30
0.0
 10
13.0127383937
 20
98.3331616403
 30
0.0
 10
13.0457185269
 20
98.3522026077
 30
0.0
  0
SPLINE
  5
2DA
100
AcDbEntity
  8
0
100
AcDbSpline
 62
7
  6
CONTINUOUS
 70
0
 71
3
 72
11
 73
7
 74
0
 42
0.0000001
 43
0.0000001
 44
0.0000000001
 40
0.0
 40
0.0
 40
0.0
 40
0.0
 40
0.2897033281
 40
0.5490895198
 40
0.7822165953
 40
1.0
 40
1.0
 40
1.0
 40
1.0
 10
25.4958426675
 20
102.9977923575
 30
0.0
 10
25.4958426675
 20
103.0991286462
 30
0.0
 10
25.5112067398
 20
103.2918487903
 30
0.0
 10
25.5892560859
 20
103.5566361689
 30
0.0
 10
25.7206652636
 20
103.7714961525
 30
0.0
 10
25.8440983682
 20
103.8752662003
 30
0.0
 10
25.9100715845
 20
103.913355598
 30
0.0
  0
SPLINE
  5
2DB
100
AcDbEntity
  8
0
100
AcDbSpline
 62
7
  6
CONTINUOUS
 70
0
 71
3
 72
18
 73
14
 74
0
 42
0.0000001
 43
0.0000001
 44
0.0000000001
 40
0.0
 40
0.0
 40
0.0
 40
0.0
 40
0.0428468435
 40
0.0874639365
 40
0.1352829812
 40
0.1872345715
 40
0.2437245479
 40
0.3047283323
 40
0.4383602832
 40
0.5826659571
 40
0.7297876663
 40
0.8713396455
 40
1.0
 40
1.0
 40
1.0
 40
1.0
 10
74.4309543229
 20
43.7665678671
 30
0.0
 10
74.5197128455
 20
43.7153444276
 30
0.0
 10
74.7153315317
 20
43.6339881272
 30
0.0
 10
75.0382841787
 20
43.586735171
 30
0.0
 10
75.385078109
 20
43.6121887064
 30
0.0
 10
75.7480039208
 20
43.7086662916
 30
0.0
 10
76.119987623
 20
43.8730351727
 30
0.0
 10
76.6334998094
 20
44.1873120247
 30
0.0
 10
77.2452105438
 20
44.7290970692
 30
0.0
 10
77.8738659029
 20
45.533948353
 30
0.0
 10
78.3690914147
 20
46.4492184172
 30
0.0
 10
78.6904006885
 20
47.3991890107
 30
0.0
 10
78.7764871525
 20
48.0462146601
 30
0.0
 10
78.7764871525
 20
48.3539378195
 30
0.0
  0
SPLINE
  5
2DC
100
AcDbEntity
  8
0
100
AcDbSpline
 62
7
  6
CONTINUOUS
 70
0
 71
3
 72
18
 73
14
 74
0
 42
0.0000001
 43
0.0000001
 44
0.0000000001
 40
0.0
 40
0.0
 40
0.0
 40
0.0
 40
0.0428462914
 40
0.087462922
 40
0.1352816559
 40
0.1872331101
 40
0.2437231175
 40
0.3047270773
 40
0.438359669
 40
0.5826660937
 40
0.7297883324
 40
0.8713403307
 40
1.0
 40
1.0
 40
1.0
 40
1.0
 10
75.234679245
 20
71.991640242
 30
0.0
 10
75.2346617865
 20
72.0941181
 30
0.0
 10
75.2073106246
 20
72.3042055298
 30
0.0
 10
75.0867576012
 20
72.6075153964
 30
0.0
 10
74.8913171447
 20
72.8951196652
 30
0.0
 10
74.6263011225
 20
73.161183043
 30
0.0
 10
74.2979596903
 20
73.4011457035
 30
0.0
 10
73.769027694
 20
73.6887223949
 30
0.0
 10
72.9939666314
 20
73.9475882765
 30
0.0
 10
71.9826099112
 20
74.0895969686
 30
0.0
 10
70.9423436071
 20
74.0608435225
 30
0.0
 10
69.9589866136
 20
73.8641245786
 30
0.0
 10
69.3556010066
 20
73.6151675139
 30
0.0
 10
69.0891051146
 20
73.4613069573
 30
0.0
  0
SPLINE
  5
2DD
100
AcDbEntity
  8
0
100
AcDbSpline
 62
7
  6
CONTINUOUS
 70
0
 71
3
 72
10
 73
6
 74
0
 42
0.0000001
 43
0.0000001
 44
0.0000000001
 40
0.0
 40
0.0
 40
0.0
 40
0.0
 40
0.5122066424
 40
0.7577983317
 40
1.0
 40
1.0
 40
1.0
 40
1.0
 10
36.1552523639
 20
104.047807579
 30
0.0
 10
35.9058457689
 20
104.0526786236
 30
0.0
 10
35.53297962
 20
104.0167439042
 30
0.0
 10
35.0675295212
 20
103.8693325387
 30
0.0
 10
34.8527324972
 20
103.7654407894
 30
0.0
 10
34.7505829755
 20
103.7064555208
 30
0.0
  0
SPLINE
  5
2DE
100
AcDbEntity
  8
0
100
AcDbSpline
 62
7
  6
CONTINUOUS
 70
0
 71
3
 72
17
 73
13
 74
0
 42
0.0000001
 43
0.0000001
 44
0.0000000001
 40
0.0
 40
0.0
 40
0.0
 40
0.0
 40
0.0438981698
 40
0.088838806
 40
0.1357692644
 40
0.1854142096
 40
0.2943981688
 40
0.4174638616
 40
0.5532470583
 40
0.6985620864
 40
0.849088813
 40
1.0
 40
1.0
 40
1.0
 40
1.0
 10
31.7453944956
 20
101.9714129924
 30
0.0
 10
31.8808170702
 20
102.0496180364
 30
0.0
 10
32.1710528237
 20
102.1814806475
 30
0.0
 10
32.6436992795
 20
102.2956295129
 30
0.0
 10
33.1493121468
 20
102.3264482897
 30
0.0
 10
33.8806675073
 20
102.2546846035
 30
0.0
 10
34.8464285026
 20
101.9419564518
 30
0.0
 10
35.9849237045
 20
101.2788814118
 30
0.0
 10
37.0925436375
 20
100.3496223509
 30
0.0
 10
38.1182326457
 20
99.1976459084
 30
0.0
 10
39.0144130508
 20
97.8774605806
 30
0.0
 10
39.5021320251
 20
96.9168407052
 30
0.0
 10
39.7133824384
 20
96.4224824746
 30
0.0
  0
SPLINE
  5
2DF
100
AcDbEntity
  8
0
100
AcDbSpline
 62
7
  6
CONTINUOUS
 70
0
 71
3
 72
12
 73
8
 74
0
 42
0.0000001
 43
0.0000001
 44
0.0000000001
 40
0.0
 40
0.0
 40
0.0
 40
0.0
 40
0.2506689704
 40
0.5130677625
 40
0.7684037894
 40
0.8881418989
 40
1.0
 40
1.0
 40
1.0
 40
1.0
 10
25.5380906283
 20
101.454906655
 30
0.0
 10
25.1813084
 20
101.577895343
 30
0.0
 10
24.4197931489
 20
101.7432154316
 30
0.0
 10
23.2575542591
 20
101.7701687666
 30
0.0
 10
22.3033126581
 20
101.6128087157
 30
0.0
 10
21.6080381146
 20
101.3763323344
 30
0.0
 10
21.2929079788
 20
101.2242316614
 30
0.0
 10
21.1470657496
 20
101.1400301138
 30
0.0
  0
SPLINE
  5
2E0
100
AcDbEntity
  8
0
100
AcDbSpline
 62
7
  6
CONTINUOUS
 70
0
 71
3
 72
12
 73
8
 74
0
 42
0.0000001
 43
0.0000001
 44
0.0000000001
 40
0.0
 40
0.0
 40
0.0
 40
0.0
 40
0.2895275962
 40
0.5486635188
 40
0.7816292527
 40
0.8918384267
 40
1.0
 40
1.0
 40
1.0
 40
1.0
 10
69.0891051146
 20
73.4613069573
 30
0.0
 10
68.9311182701
 20
73.3700937546
 30
0.0
 10
68.6445203387
 20
73.172638191
 30
0.0
 10
68.3020118851
 20
72.8130384464
 30
0.0
 10
68.1182402591
 20
72.4740404373
 30
0.0
 10
68.0465706362
 20
72.1976717641
 30
0.0
 10
68.0347093948
 20
72.0597913087
 30
0.0
 10
68.0347210052
 20
71.9916402401
 30
0.0
  0
SPLINE
  5
2E1
100
AcDbEntity
  8
0
100
AcDbSpline
 62
7
  6
CONTINUOUS
 70
0
 71
3
 72
11
 73
7
 74
0
 42
0.0000001
 43
0.0000001
 44
0.0000000001
 40
0.0
 40
0.0
 40
0.0
 40
0.0
 40
0.2177843137
 40
0.4509117637
 40
0.7102976701
 40
1.0
 40
1.0
 40
1.0
 40
1.0
 10
25.9100715845
 20
103.913355598
 30
0.0
 10
25.9760433123
 20
103.9514441363
 30
0.0
 10
26.1276236134
 20
104.006453869
 30
0.0
 10
26.3793959104
 20
104.012828695
 30
0.0
 10
26.6477261735
 20
103.94803172
 30
0.0
 10
26.8223044696
 20
103.8649814382
 30
0.0
 10
26.9100621177
 20
103.8143156827
 30
0.0
  0
SPLINE
  5
2E2
100
AcDbEntity
  8
0
100
AcDbSpline
 62
7
  6
CONTINUOUS
 70
0
 71
3
 72
11
 73
7
 74
0
 42
0.0000001
 43
0.0000001
 44
0.0000000001
 40
0.0
 40
0.0
 40
0.0
 40
0.0
 40
0.2372523758
 40
0.4999990758
 40
0.7627462798
 40
1.0
 40
1.0
 40
1.0
 40
1.0
 10
69.265934654
 20
66.1333553294
 30
0.0
 10
69.3663293089
 20
66.0753937596
 30
0.0
 10
69.55631733
 20
65.91551796
 30
0.0
 10
69.7779745634
 20
65.6124870087
 30
0.0
 10
69.9295801847
 20
65.2690107821
 30
0.0
 10
69.9730443792
 20
65.024537921
 30
0.0
 10
69.9730443792
 20
64.9086121578
 30
0.0
  0
SPLINE
  5
2E3
100
AcDbEntity
  8
0
100
AcDbSpline
 62
7
  6
CONTINUOUS
 70
0
 71
3
 72
12
 73
8
 74
0
 42
0.0000001
 43
0.0000001
 44
0.0000000001
 40
0.0
 40
0.0
 40
0.0
 40
0.0
 40
0.2895275962
 40
0.5486635188
 40
0.7816292527
 40
0.8918384267
 40
1.0
 40
1.0
 40
1.0
 40
1.0
 10
21.1470657496
 20
101.1400301138
 30
0.0
 10
20.9890789052
 20
101.0488169111
 30
0.0
 10
20.7024809738
 20
100.8513613475
 30
0.0
 10
20.3599725202
 20
100.4917616029
 30
0.0
 10
20.1762008941
 20
100.1527635938
 30
0.0
 10
20.1045312713
 20
99.8763949205
 30
0.0
 10
20.0926700298
 20
99.7385144652
 30
0.0
 10
20.0926816402
 20
99.6703633966
 30
0.0
  0
SPLINE
  5
2E4
100
AcDbEntity
  8
0
100
AcDbSpline
 62
7
  6
CONTINUOUS
 70
0
 71
3
 72
9
 73
5
 74
0
 42
0.0000001
 43
0.0000001
 44
0.0000000001
 40
0.0
 40
0.0
 40
0.0
 40
0.0
 40
0.4949185281
 40
1.0
 40
1.0
 40
1.0
 40
1.0
 10
32.2878489451
 20
102.7464894521
 30
0.0
 10
32.1549090362
 20
102.6697316144
 30
0.0
 10
31.8998733682
 20
102.4899226953
 30
0.0
 10
31.6804881432
 20
102.2682867495
 30
0.0
 10
31.5796870867
 20
102.1483632137
 30
0.0
  0
SPLINE
  5
2E5
100
AcDbEntity
  8
0
100
AcDbSpline
 62
7
  6
CONTINUOUS
 70
0
 71
3
 72
11
 73
7
 74
0
 42
0.0000001
 43
0.0000001
 44
0.0000000001
 40
0.0
 40
0.0
 40
0.0
 40
0.0
 40
0.2177460211
 40
0.4508843679
 40
0.7104607696
 40
1.0
 40
1.0
 40
1.0
 40
1.0
 10
13.0457185269
 20
98.3522026077
 30
0.0
 10
13.0786979437
 20
98.3712431615
 30
0.0
 10
13.1544484481
 20
98.3988306081
 30
0.0
 10
13.2803798585
 20
98.4019940002
 30
0.0
 10
13.4145240352
 20
98.3695250094
 30
0.0
 10
13.5018350485
 20
98.3280449066
 30
0.0
 10
13.5456883125
 20
98.3027267856
 30
0.0
  0
SPLINE
  5
2E6
100
AcDbEntity
  8
0
100
AcDbSpline
 62
7
  6
CONTINUOUS
 70
0
 71
3
 72
13
 73
9
 74
0
 42
0.0000001
 43
0.0000001
 44
0.0000000001
 40
0.0
 40
0.0
 40
0.0
 40
0.0
 40
0.1142250362
 40
0.2375584228
 40
0.4999988469
 40
0.762439898
 40
0.8857740437
 40
1.0
 40
1.0
 40
1.0
 40
1.0
 10
55.9015608488
 20
87.0764447473
 30
0.0
 10
55.9983484621
 20
87.0205656569
 30
0.0
 10
56.1895899667
 20
86.8864785824
 30
0.0
 10
56.5476515377
 20
86.5514182498
 30
0.0
 10
56.9258252355
 20
86.0348153218
 30
0.0
 10
57.1841326453
 20
85.4490064125
 30
0.0
 10
57.2952761508
 20
84.9713843587
 30
0.0
 10
57.3157802991
 20
84.7387193815
 30
0.0
 10
57.3157802991
 20
84.626958404
 30
0.0
  0
ENDSEC
  0
SECTION
  2
OBJECTS
  0
DICTIONARY
  5
C
100
AcDbDictionary
280
0
281
1
  3
ACAD_GROUP
350
D
  3
ACAD_MLINESTYLE
350
17
  3
ACAD_LAYOUT
350
1A
  3
ACAD_PLOTSETTINGS
350
19
  3
ACAD_PLOTSTYLENAME
350
E
  0
DICTIONARY
  5
D
102
{ACAD_REACTORS
330
C
102
}
100
AcDbDictionary
280
0
281
1
  0
ACDBDICTIONARYWDFLT
  5
E
102
{ACAD_REACTORS
330
C
102
}
100
AcDbDictionary
281
1
  3
Normal
350
F
100
AcDbDictionaryWithDefault
340
F
  0
DICTIONARY
  5
17
102
{ACAD_REACTORS
330
C
102
}
100
AcDbDictionary
280
0
281
1
  3
Standard
350
18
  0
DICTIONARY
  5
19
102
{ACAD_REACTORS
330
C
102
}
100
AcDbDictionary
281
1
  0
DICTIONARY
  5
1A
102
{ACAD_REACTORS
330
C
102
}
100
AcDbDictionary
281
1
  3
Model
350
2E7
  3
Layout1
350
2E8
  0
ACDBPLACEHOLDER
  5
F
102
{ACAD_REACTORS
330
E
102
}
  0
MLINESTYLE
  5
18
102
{ACAD_REACTORS
330
17
102
}
100
AcDbMlineStyle
  2
STANDARD
 70
0
  3

 62
256
 51
90.0
 52
90.0
 71
2
 49
0.5
 62
256
  6
BYLAYER
 49
-0.5
 62
256
  6
BYLAYER
  0
LAYOUT
  5
2E7
102
{ACAD_REACTORS
330
1A
102
}
100
AcDbPlotSettings
  1

  2
none_device
  4

  6

 40
0.0
 41
0.0
 42
0.0
 43
0.0
 44
210.0
 45
297.0
 46
0.0
 47
0.0
 48
0.0
 49
0.0
140
0.0
141
0.0
142
1.0
143
1.0
 70
1024
 72
1
 73
0
 74
0
  7

 75
0
147
1.0
148
0.0
149
0.0
100
AcDbLayout
  1
Model
 70
0
 71
0
 10
0.0
 20
0.0
 11
210.0
 21
297.0
 12
0.0
 22
0.0
 32
0.0
 14
0.0
 24
0.0
 34
0.0
 15
0.0
 25
0.0
 35
0.0
146
0.0
 13
0.0
 23
0.0
 33
0.0
 16
1.0
 26
0.0
 36
0.0
 17
0.0
 27
1.0
 37
0.0
 76
0
330
210
345
0
346
0
  0
LAYOUT
  5
2E8
102
{ACAD_REACTORS
330
1A
102
}
100
AcDbPlotSettings
  1

  2
none_device
  4

  6

 40
0.0
 41
0.0
 42
0.0
 43
0.0
 44
210.0
 45
297.0
 46
0.0
 47
0.0
 48
0.0
 49
0.0
140
0.0
141
0.0
142
1.0
143
1.0
 70
0
 72
1
 73
0
 74
0
  7

 75
0
147
1.0
148
0.0
149
0.0
100
AcDbLayout
  1
Layout1
 70
0
 71
1
 10
0.0
 20
0.0
 11
210.0
 21
297.0
 12
0.0
 22
0.0
 32
0.0
 14
0.0
 24
0.0
 34
0.0
 15
0.0
 25
0.0
 35
0.0
146
0.0
 13
0.0
 23
0.0
 33
0.0
 16
1.0
 26
0.0
 36
0.0
 17
0.0
 27
1.0
 37
0.0
 76
0
330
211
345
0
346
0
  0
ENDSEC
  0
EOF
