999
DXF file: C:\Users\sesa63760\Dev\_Creo\CAD\MCADID0002063_3D-CAD\drw0001_1.dxf
999
Pro/ENGINEER 2019471 by Parametric Technology Corporation
  0
SECTION
  2
HEADER
  9
$ACADVER
  1
AC1024
  9
$DWGCODEPAGE
  3
ANSI_1252
  9
$EXTMAX
 10
92.2066226829
 20
130.406509223
 30
0.0
  9
$EXTMIN
 10
0.0
 20
0.0
 30
0.0
  9
$LIMMIN
 10
0.0
 20
0.0
  9
$LIMMAX
 10
92.2066226829
 20
130.406509223
  9
$VIEWCTR
 10
46.1033113415
 20
65.2032546115
  9
$VIEWSIZE
 40
130.406509223
  9
$CLAYER
  8
0
  9
$LTSCALE
 40
8.5005724531
  9
$CELTYPE
  6
BYLAYER
  9
$DIMSCALE
 40
1.0
  9
$DIMASZ
 40
1.0976978891
  9
$DIMEXO
 40
1.0
  9
$DIMDLI
 40
5.8731227857
  9
$DIMEXE
 40
1.0
  9
$DIMCEN
 40
1.391002765
  9
$DIMLFAC
 40
1.0
  9
$DIMBLK
  1
_FILLED
  9
$DIMALT
 70
0
  9
$DIMALTF
 40
0.0393700787
  9
$DIMTXT
 40
1.5367770447
  9
$DIMTOL
 70
1
  9
$DIMLIM
 70
0
  9
$DIMTFAC
 40
1.0
  9
$DIMTP
 40
0.01
  9
$DIMTM
 40
0.01
  9
$DIMGAP
 40
0.625
  9
$DIMDSEP
 70
46
  9
$AUNITS
 70
0
  9
$PDMODE
 70
3
  9
$PDSIZE
 40
0.3125
  9
$HANDSEED
  5
4EC
  9
$TILEMODE
 70
1
  9
$MEASUREMENT
 70
1
  9
$INSUNITS
 70
4
  0
ENDSEC
  0
SECTION
  2
CLASSES
  0
CLASS
  1
ACDBDICTIONARYWDFLT
  2
AcDbDictionaryWithDefault
  3
AutoCAD 2000
 90
0
 91
1
280
0
281
0
  0
CLASS
  1
ACDBPLACEHOLDER
  2
AcDbPlaceHolder
  3
AutoCAD 2000
 90
0
 91
1
280
0
281
0
  0
CLASS
  1
LAYOUT
  2
AcDbLayout
  3
AutoCAD 2000
 90
0
 91
0
280
0
281
0
  0
ENDSEC
  0
SECTION
  2
TABLES
  0
TABLE
  2
VPORT
  5
8
100
AcDbSymbolTable
 70
2
  0
VPORT
  5
1F4
100
AcDbSymbolTableRecord
100
AcDbViewportTableRecord
  2
*ACTIVE
 70
0
 10
0.0
 20
0.0
 11
1.0
 21
1.0
 12
46.1033113415
 22
65.2032546115
 13
0.0
 23
0.0
 14
1.0
 24
1.0
 15
0.0
 25
0.0
 16
0.0
 26
0.0
 36
1.0
 17
0.0
 27
0.0
 37
0.0
 40
130.406509223
 41
0.7070707071
 42
50.0
 43
0.0
 44
0.0
 50
0.0
 51
0.0
 71
0
 72
100
 73
1
 74
1
 75
0
 76
0
 77
0
 78
0
  0
ENDTAB
  0
TABLE
  2
LTYPE
  5
5
100
AcDbSymbolTable
 70
6
  0
LTYPE
  5
14
100
AcDbSymbolTableRecord
100
AcDbLinetypeTableRecord
  2
BYBLOCK
 70
0
  3

 72
65
 73
0
 40
0.0
  0
LTYPE
  5
15
100
AcDbSymbolTableRecord
100
AcDbLinetypeTableRecord
  2
BYLAYER
 70
0
  3

 72
65
 73
0
 40
0.0
  0
LTYPE
  5
16
100
AcDbSymbolTableRecord
100
AcDbLinetypeTableRecord
  2
CONTINUOUS
 70
64
  3
Solid line
 72
65
 73
0
 40
0.0
  0
LTYPE
  5
1F5
100
AcDbSymbolTableRecord
100
AcDbLinetypeTableRecord
  2
CENTER
 70
64
  3
____ _ ____ _ ____ _ ____ _ ____ _ ____ _ ____
 72
65
 73
4
 40
0.6
 49
0.375
 74
0
 49
-0.075
 74
0
 49
0.075
 74
0
 49
-0.075
 74
0
  0
LTYPE
  5
1F6
100
AcDbSymbolTableRecord
100
AcDbLinetypeTableRecord
  2
HIDDEN
 70
64
  3
- - - - - - - - - - - - - - - - - - - -
 72
65
 73
2
 40
0.2
 49
0.1
 74
0
 49
-0.1
 74
0
  0
LTYPE
  5
1F7
100
AcDbSymbolTableRecord
100
AcDbLinetypeTableRecord
  2
PHANTOM
 70
64
  3
_____ _ _ _____ _ _ _____ _ _ _____
 72
65
 73
6
 40
0.8
 49
0.45
 74
0
 49
-0.05
 74
0
 49
0.1
 74
0
 49
-0.05
 74
0
 49
0.1
 74
0
 49
-0.05
 74
0
  0
LTYPE
  5
1F8
100
AcDbSymbolTableRecord
100
AcDbLinetypeTableRecord
  2
DOT
 70
64
  3
. . . . . . . . . . . . . . . . . . . .
 72
65
 73
2
 40
0.2
 49
0.1
 74
0
 49
-0.1
 74
0
  0
LTYPE
  5
1F9
100
AcDbSymbolTableRecord
100
AcDbLinetypeTableRecord
  2
DASHED
 70
64
  3
- - - - - - - - - - - - - - - - - - - -
 72
65
 73
2
 40
0.2
 49
0.1
 74
0
 49
-0.1
 74
0
  0
ENDTAB
  0
TABLE
  2
LAYER
  5
2
100
AcDbSymbolTable
 70
36
  0
LAYER
  5
10
100
AcDbSymbolTableRecord
100
AcDbLayerTableRecord
  2
0
 70
0
 62
7
  6
CONTINUOUS
370
-3
390
F
  0
LAYER
  5
1FA
100
AcDbSymbolTableRecord
100
AcDbLayerTableRecord
  2
DEFAULT_1
 70
0
 62
7
  6
CENTER
370
-3
390
F
  0
LAYER
  5
1FB
100
AcDbSymbolTableRecord
100
AcDbLayerTableRecord
  2
DEFAULT_2
 70
0
 62
8
  6
HIDDEN
370
-3
390
F
  0
LAYER
  5
1FC
100
AcDbSymbolTableRecord
100
AcDbLayerTableRecord
  2
DEFAULT_3
 70
0
 62
7
  6
PHANTOM
370
-3
390
F
  0
LAYER
  5
1FD
100
AcDbSymbolTableRecord
100
AcDbLayerTableRecord
  2
00_COMPONENTS
 70
0
 62
7
  6
CONTINUOUS
370
-3
390
F
  0
LAYER
  5
1FE
100
AcDbSymbolTableRecord
100
AcDbLayerTableRecord
  2
01_1_DEFAULT_DATUMS
 70
0
 62
7
  6
CONTINUOUS
370
-3
390
F
  0
LAYER
  5
1FF
100
AcDbSymbolTableRecord
100
AcDbLayerTableRecord
  2
01_PLANES
 70
0
 62
7
  6
CONTINUOUS
370
-3
390
F
  0
LAYER
  5
200
100
AcDbSymbolTableRecord
100
AcDbLayerTableRecord
  2
02_COORD_SYS
 70
0
 62
7
  6
CONTINUOUS
370
-3
390
F
  0
LAYER
  5
201
100
AcDbSymbolTableRecord
100
AcDbLayerTableRecord
  2
03_AXES
 70
0
 62
7
  6
CONTINUOUS
370
-3
390
F
  0
LAYER
  5
202
100
AcDbSymbolTableRecord
100
AcDbLayerTableRecord
  2
04_POINTS
 70
0
 62
7
  6
CONTINUOUS
370
-3
390
F
  0
LAYER
  5
203
100
AcDbSymbolTableRecord
100
AcDbLayerTableRecord
  2
05_CURVES
 70
0
 62
7
  6
CONTINUOUS
370
-3
390
F
  0
LAYER
  5
204
100
AcDbSymbolTableRecord
100
AcDbLayerTableRecord
  2
06_SURFS
 70
0
 62
7
  6
CONTINUOUS
370
-3
390
F
  0
LAYER
  5
205
100
AcDbSymbolTableRecord
100
AcDbLayerTableRecord
  2
07_COSMETICS
 70
0
 62
7
  6
CONTINUOUS
370
-3
390
F
  0
LAYER
  5
206
100
AcDbSymbolTableRecord
100
AcDbLayerTableRecord
  2
10_NOTES
 70
0
 62
7
  6
CONTINUOUS
370
-3
390
F
  0
LAYER
  5
207
100
AcDbSymbolTableRecord
100
AcDbLayerTableRecord
  2
11_NOTES_PUB
 70
0
 62
7
  6
CONTINUOUS
370
-3
390
F
  0
LAYER
  5
208
100
AcDbSymbolTableRecord
100
AcDbLayerTableRecord
  2
13_REF_GTOL
 70
0
 62
7
  6
CONTINUOUS
370
-3
390
F
  0
LAYER
  5
209
100
AcDbSymbolTableRecord
100
AcDbLayerTableRecord
  2
16_MISC
 70
0
 62
7
  6
CONTINUOUS
370
-3
390
F
  0
LAYER
  5
20A
100
AcDbSymbolTableRecord
100
AcDbLayerTableRecord
  2
17_NO_PRINT
 70
0
 62
7
  6
CONTINUOUS
370
-3
390
F
  0
LAYER
  5
20B
100
AcDbSymbolTableRecord
100
AcDbLayerTableRecord
  2
18_DATUM_CAMS_JOINTS
 70
0
 62
7
  6
CONTINUOUS
370
-3
390
F
  0
LAYER
  5
20C
100
AcDbSymbolTableRecord
100
AcDbLayerTableRecord
  2
19_DATUM_FUNCTIONAL
 70
0
 62
7
  6
CONTINUOUS
370
-3
390
F
  0
LAYER
  5
20D
100
AcDbSymbolTableRecord
100
AcDbLayerTableRecord
  2
20_DATUM_KINEMATIC_SCHEME
 70
0
 62
7
  6
CONTINUOUS
370
-3
390
F
  0
ENDTAB
  0
TABLE
  2
STYLE
  5
3
100
AcDbSymbolTable
 70
1
  0
STYLE
  5
11
100
AcDbSymbolTableRecord
100
AcDbTextStyleTableRecord
  2
STANDARD
 70
0
 40
0.0
 41
0.8
 50
0.0
 71
0
 42
0.2
  3
txt
  4

  0
STYLE
  5
20E
100
AcDbSymbolTableRecord
100
AcDbTextStyleTableRecord
  2
TEXTSTYLE_1
 70
0
 40
0.0
 41
0.8
 50
0.0
 71
0
 42
0.2
  3
gdt
  4

  0
ENDTAB
  0
TABLE
  2
VIEW
  5
6
100
AcDbSymbolTable
 70
0
  0
ENDTAB
  0
TABLE
  2
UCS
  5
7
100
AcDbSymbolTable
 70
0
  0
ENDTAB
  0
TABLE
  2
APPID
  5
9
100
AcDbSymbolTable
 70
1
  0
APPID
  5
20F
100
AcDbSymbolTableRecord
100
AcDbRegAppTableRecord
  2
ACAD
 70
0
  0
ENDTAB
  0
TABLE
  2
BLOCK_RECORD
  5
1
100
AcDbSymbolTable
 70
0
  0
BLOCK_RECORD
  5
210
100
AcDbSymbolTableRecord
100
AcDbBlockTableRecord
  2
*Model_Space
  0
BLOCK_RECORD
  5
211
100
AcDbSymbolTableRecord
100
AcDbBlockTableRecord
  2
*Paper_Space
  0
BLOCK_RECORD
  5
212
100
AcDbSymbolTableRecord
100
AcDbBlockTableRecord
  2
_FILLED
  0
ENDTAB
  0
TABLE
  2
DIMSTYLE
  5
A
100
AcDbSymbolTable
 70
1
100
AcDbDimStyleTable
 71
0
  0
DIMSTYLE
105
213
100
AcDbSymbolTableRecord
100
AcDbDimStyleTableRecord
  2
STANDARD
 70
0
  3

  4

 40
1.0
 41
1.0976978891
 42
1.0
 43
0.38
 44
1.0
 45
0.0
 46
0.0
 47
0.01
 48
0.01
140
1.5367770447
141
0.09
142
0.0
143
25.4
144
1.0
145
0.0
146
1.0
147
0.625
 71
1
 72
0
 73
0
 74
0
 75
0
 76
0
 77
1
 78
8
 79
2
170
0
171
1
172
0
173
0
174
0
175
0
176
0
177
0
178
0
270
2
179
2
271
2
272
2
273
2
274
2
275
0
280
0
281
0
282
0
283
1
284
8
285
0
286
0
287
3
288
0
340
11
278
46
341
212
342
212
343
212
344
212
  0
ENDTAB
  0
ENDSEC
  0
SECTION
  2
BLOCKS
  0
BLOCK
  5
20
100
AcDbEntity
  8
0
100
AcDbBlockBegin
  2
*Model_Space
 70
0
 10
0.0
 20
0.0
 30
0.0
  3
*Model_Space
  1

  0
ENDBLK
  5
21
100
AcDbEntity
  8
0
100
AcDbBlockEnd
  0
BLOCK
  5
1C
100
AcDbEntity
  8
0
100
AcDbBlockBegin
  2
*Paper_Space
 70
0
 10
0.0
 20
0.0
 30
0.0
  3
*Paper_Space
  1

  0
ENDBLK
  5
1D
100
AcDbEntity
  8
0
100
AcDbBlockEnd
  0
BLOCK
  5
214
100
AcDbEntity
  8
0
100
AcDbBlockBegin
  2
_FILLED
 70
64
 10
0.0
 20
0.0
  3
_FILLED
  1

  0
SOLID
  5
215
100
AcDbEntity
  8
0
  6
BYBLOCK
 62
0
100
AcDbTrace
 10
0.0
 20
0.0
 11
-1.0
 21
0.25
 12
-1.0
 22
-0.25
 13
-1.0
 23
-0.25
  0
ENDBLK
  5
216
100
AcDbEntity
  8
0
  6
BYBLOCK
 62
0
100
AcDbBlockEnd
  0
ENDSEC
  0
SECTION
  2
ENTITIES
  0
LINE
  5
217
100
AcDbEntity
  8
0
100
AcDbLine
 62
7
  6
CONTINUOUS
 10
31.3203246267
 20
109.5650434081
 11
26.936280836
 21
107.0339296541
  0
LINE
  5
218
100
AcDbEntity
  8
0
100
AcDbLine
 62
7
  6
CONTINUOUS
 10
27.4362785976
 20
106.9844053751
 11
31.1011353476
 21
109.1002987761
  0
LINE
  5
219
100
AcDbEntity
  8
0
100
AcDbLine
 62
7
  6
CONTINUOUS
 10
77.7375819314
 20
20.9201356111
 11
77.9969931802
 21
20.9608822663
  0
LINE
  5
21A
100
AcDbEntity
  8
0
100
AcDbLine
 62
7
  6
CONTINUOUS
 10
30.8730752334
 20
107.0937054101
 11
29.6964267175
 21
106.4143711279
  0
LINE
  5
21B
100
AcDbEntity
  8
0
100
AcDbLine
 62
7
  6
CONTINUOUS
 10
30.8730752334
 20
107.0498814705
 11
29.7343799052
 21
106.3924593405
  0
LINE
  5
21C
100
AcDbEntity
  8
0
100
AcDbLine
 62
7
  6
CONTINUOUS
 10
27.6458085146
 20
104.5363852517
 11
27.0094150611
 21
104.1689655132
  0
LINE
  5
21D
100
AcDbEntity
  8
0
100
AcDbLine
 62
7
  6
CONTINUOUS
 10
31.8557090806
 20
105.1677370769
 11
33.1352046467
 21
105.9064497769
  0
LINE
  5
21E
100
AcDbEntity
  8
0
100
AcDbLine
 62
7
  6
CONTINUOUS
 10
31.8884668655
 20
105.1488247888
 11
33.4440953074
 21
106.0469619274
  0
LINE
  5
21F
100
AcDbEntity
  8
0
100
AcDbLine
 62
7
  6
CONTINUOUS
 10
24.7416064815
 20
100.789044951
 11
20.3575626908
 21
98.257931197
  0
LINE
  5
220
100
AcDbEntity
  8
0
100
AcDbLine
 62
7
  6
CONTINUOUS
 10
26.9363495339
 20
107.0338109652
 11
26.7388306416
 21
106.7050800152
  0
LINE
  5
221
100
AcDbEntity
  8
0
100
AcDbLine
 62
7
  6
CONTINUOUS
 10
20.8575604523
 20
98.208406918
 11
25.2416042431
 21
100.739520672
  0
LINE
  5
222
100
AcDbEntity
  8
0
100
AcDbLine
 62
7
  6
CONTINUOUS
 10
37.5099606239
 20
105.8632625961
 11
33.7623102867
 21
103.6995685806
  0
LINE
  5
223
100
AcDbEntity
  8
0
100
AcDbLine
 62
7
  6
CONTINUOUS
 10
20.539361687
 20
95.9426076534
 11
20.5040055898
 21
95.922194923
  0
LINE
  5
224
100
AcDbEntity
  8
0
100
AcDbLine
 62
7
  6
CONTINUOUS
 10
34.4694200118
 20
103.2913278261
 11
34.1512232851
 21
103.1076179568
  0
LINE
  5
225
100
AcDbEntity
  8
0
100
AcDbLine
 62
7
  6
CONTINUOUS
 10
38.2170703491
 20
105.4550218416
 11
38.5352670758
 21
105.6387317108
  0
LINE
  5
226
100
AcDbEntity
  8
0
100
AcDbLine
 62
7
  6
CONTINUOUS
 10
34.4694200118
 20
103.1280132333
 11
37.5099606239
 21
104.8834596955
  0
LINE
  5
227
100
AcDbEntity
  8
0
100
AcDbLine
 62
7
  6
CONTINUOUS
 10
33.3026863158
 20
101.2704592156
 11
32.6662928623
 21
100.9030394771
  0
LINE
  5
228
100
AcDbEntity
  8
0
100
AcDbLine
 62
7
  6
CONTINUOUS
 10
69.7986218319
 20
22.1875197787
 11
77.7375819314
 21
20.9201356111
  0
LINE
  5
229
100
AcDbEntity
  8
0
100
AcDbLine
 62
7
  6
CONTINUOUS
 10
11.3115738637
 20
60.7716142052
 11
11.3115738637
 21
57.5056045366
  0
LINE
  5
22A
100
AcDbEntity
  8
0
100
AcDbLine
 62
7
  6
CONTINUOUS
 10
11.4907027627
 20
69.7313920741
 11
11.4907027627
 21
68.914889657
  0
LINE
  5
22B
100
AcDbEntity
  8
0
100
AcDbLine
 62
7
  6
CONTINUOUS
 10
12.1270962162
 20
69.3639784545
 11
12.1270962162
 21
69.2823093955
  0
LINE
  5
22C
100
AcDbEntity
  8
0
100
AcDbLine
 62
7
  6
CONTINUOUS
 10
20.4686501035
 20
92.9215480174
 11
20.5040055898
 21
92.941960395
  0
LINE
  5
22D
100
AcDbEntity
  8
0
100
AcDbLine
 62
7
  6
CONTINUOUS
 10
22.1303526585
 20
93.2685703538
 11
21.493959205
 21
92.9011506153
  0
LINE
  5
22E
100
AcDbEntity
  8
0
100
AcDbLine
 62
7
  6
CONTINUOUS
 10
17.9533531201
 20
88.7047088187
 11
13.5693093294
 21
86.1735950647
  0
LINE
  5
22F
100
AcDbEntity
  8
0
100
AcDbLine
 62
7
  6
CONTINUOUS
 10
14.0693070909
 20
86.1240707857
 11
18.4533508817
 21
88.6551845397
  0
LINE
  5
230
100
AcDbEntity
  8
0
100
AcDbLine
 62
7
  6
CONTINUOUS
 10
25.534371795
 20
96.578229713
 11
26.8679931161
 21
97.2191835429
  0
LINE
  5
231
100
AcDbEntity
  8
0
100
AcDbLine
 62
7
  6
CONTINUOUS
 10
26.8679931161
 20
96.6182183039
 11
26.7590524783
 21
96.5658601735
  0
LINE
  5
232
100
AcDbEntity
  8
0
100
AcDbLine
 62
7
  6
CONTINUOUS
 10
12.584371369
 20
58.2404755293
 11
12.0186835889
 21
60.3633734506
  0
LINE
  5
233
100
AcDbEntity
  8
0
100
AcDbLine
 62
7
  6
CONTINUOUS
 10
13.3621973658
 20
85.7158091231
 11
13.3621973658
 21
81.3883463123
  0
LINE
  5
234
100
AcDbEntity
  8
0
100
AcDbLine
 62
7
  6
CONTINUOUS
 10
13.6096857696
 20
65.3236649142
 11
13.6096857696
 21
64.507162497
  0
LINE
  5
235
100
AcDbEntity
  8
0
100
AcDbLine
 62
7
  6
CONTINUOUS
 10
13.6120319381
 20
67.6901673934
 11
13.6120319381
 21
68.5066698106
  0
LINE
  5
236
100
AcDbEntity
  8
0
100
AcDbLine
 62
7
  6
CONTINUOUS
 10
13.6803967421
 20
80.837211885
 11
13.6803967421
 21
83.8990959493
  0
LINE
  5
237
100
AcDbEntity
  8
0
100
AcDbLine
 62
7
  6
CONTINUOUS
 10
13.7157522284
 20
83.8378587907
 11
13.7157522284
 21
74.6523760534
  0
LINE
  5
238
100
AcDbEntity
  8
0
100
AcDbLine
 62
7
  6
CONTINUOUS
 10
14.2460792231
 20
64.9562512945
 11
14.2460792231
 21
64.8745822355
  0
LINE
  5
239
100
AcDbEntity
  8
0
100
AcDbLine
 62
7
  6
CONTINUOUS
 10
14.4228566544
 20
64.8541911059
 11
14.4228566544
 21
64.7725220469
  0
LINE
  5
23A
100
AcDbEntity
  8
0
100
AcDbLine
 62
7
  6
CONTINUOUS
 10
14.7057058436
 20
82.8580705258
 11
14.7057058436
 21
80.816814483
  0
LINE
  5
23B
100
AcDbEntity
  8
0
100
AcDbLine
 62
7
  6
CONTINUOUS
 10
15.3420992971
 20
82.4906569061
 11
15.3420992971
 21
81.1842342214
  0
LINE
  5
23C
100
AcDbEntity
  8
0
100
AcDbLine
 62
7
  6
CONTINUOUS
 10
15.4128155687
 20
80.4085737284
 11
15.4128155687
 21
82.4498297713
  0
LINE
  5
23D
100
AcDbEntity
  8
0
100
AcDbLine
 62
7
  6
CONTINUOUS
 10
15.731014945
 20
63.2824402335
 11
15.731014945
 21
64.0989426506
  0
LINE
  5
23E
100
AcDbEntity
  8
0
100
AcDbLine
 62
7
  6
CONTINUOUS
 10
14.3525995674
 20
62.3635956432
 11
13.3952540164
 21
57.0435998888
  0
LINE
  5
23F
100
AcDbEntity
  8
0
100
AcDbLine
 62
7
  6
CONTINUOUS
 10
14.1394043042
 20
56.7650162052
 11
15.072127589
 21
61.9481853441
  0
LINE
  5
240
100
AcDbEntity
  8
0
100
AcDbLine
 62
7
  6
CONTINUOUS
 10
13.7511083256
 20
83.8582715211
 11
13.7157522284
 21
83.8378587907
  0
LINE
  5
241
100
AcDbEntity
  8
0
100
AcDbLine
 62
7
  6
CONTINUOUS
 10
10.7889349112
 20
70.0005170174
 11
13.0322951937
 21
63.3561720328
  0
LINE
  5
242
100
AcDbEntity
  8
0
100
AcDbLine
 62
7
  6
CONTINUOUS
 10
17.1452343953
 20
72.9171896637
 11
17.1452343953
 21
72.1006872466
  0
LINE
  5
243
100
AcDbEntity
  8
0
100
AcDbLine
 62
7
  6
CONTINUOUS
 10
17.7816278488
 20
72.549776044
 11
17.7816278488
 21
72.468106985
  0
LINE
  5
244
100
AcDbEntity
  8
0
100
AcDbLine
 62
7
  6
CONTINUOUS
 10
17.9584052801
 20
72.4477158554
 11
17.9584052801
 21
72.3660467964
  0
LINE
  5
245
100
AcDbEntity
  8
0
100
AcDbLine
 62
7
  6
CONTINUOUS
 10
19.2665635708
 20
70.875964983
 11
19.2665635708
 21
71.6924674001
  0
LINE
  5
246
100
AcDbEntity
  8
0
100
AcDbLine
 62
7
  6
CONTINUOUS
 10
20.1504507272
 20
97.8001452554
 11
20.1504507272
 21
93.4726824446
  0
LINE
  5
247
100
AcDbEntity
  8
0
100
AcDbLine
 62
7
  6
CONTINUOUS
 10
20.397939131
 20
80.0208087813
 11
20.397939131
 21
81.8393955481
  0
LINE
  5
248
100
AcDbEntity
  8
0
100
AcDbLine
 62
7
  6
CONTINUOUS
 10
20.4332946173
 20
79.9595716227
 11
20.4332946173
 21
81.8041243816
  0
LINE
  5
249
100
AcDbEntity
  8
0
100
AcDbLine
 62
7
  6
CONTINUOUS
 10
20.4686501035
 20
92.9215480174
 11
20.4686501035
 21
95.9834320816
  0
LINE
  5
24A
100
AcDbEntity
  8
0
100
AcDbLine
 62
7
  6
CONTINUOUS
 10
20.5040055898
 20
95.922194923
 11
20.5040055898
 21
86.7367121858
  0
LINE
  5
24B
100
AcDbEntity
  8
0
100
AcDbLine
 62
7
  6
CONTINUOUS
 10
17.5977462383
 20
60.4900517244
 11
17.2506611879
 21
58.5612904819
  0
LINE
  5
24C
100
AcDbEntity
  8
0
100
AcDbLine
 62
7
  6
CONTINUOUS
 10
13.6803967421
 20
80.837211885
 11
13.7157522284
 21
80.8576242627
  0
LINE
  5
24D
100
AcDbEntity
  8
0
100
AcDbLine
 62
7
  6
CONTINUOUS
 10
18.8967407217
 20
83.3370137311
 11
21.7104017757
 21
84.9614720013
  0
LINE
  5
24E
100
AcDbEntity
  8
0
100
AcDbLine
 62
7
  6
CONTINUOUS
 10
15.3420992971
 20
81.1842342214
 11
14.7057058436
 21
80.816814483
  0
LINE
  5
24F
100
AcDbEntity
  8
0
100
AcDbLine
 62
7
  6
CONTINUOUS
 10
24.5698812134
 20
84.5524431155
 11
23.93348776
 21
84.185023377
  0
LINE
  5
250
100
AcDbEntity
  8
0
100
AcDbLine
 62
7
  6
CONTINUOUS
 10
34.4694200118
 20
90.0639886686
 11
34.1512232851
 21
89.8802787993
  0
LINE
  5
251
100
AcDbEntity
  8
0
100
AcDbLine
 62
7
  6
CONTINUOUS
 10
24.817369614
 20
84.4095588533
 11
24.8880981049
 21
84.4503937228
  0
LINE
  5
252
100
AcDbEntity
  8
0
100
AcDbLine
 62
7
  6
CONTINUOUS
 10
20.397939131
 20
81.8393955481
 11
21.0343325845
 21
82.2068152866
  0
LINE
  5
253
100
AcDbEntity
  8
0
100
AcDbLine
 62
7
  6
CONTINUOUS
 10
21.0696880707
 20
82.1715441201
 11
20.4332946173
 21
81.8041243816
  0
LINE
  5
254
100
AcDbEntity
  8
0
100
AcDbLine
 62
7
  6
CONTINUOUS
 10
70.9506418447
 20
40.8412833815
 11
71.2087407324
 21
40.8822364113
  0
LINE
  5
255
100
AcDbEntity
  8
0
100
AcDbLine
 62
7
  6
CONTINUOUS
 10
56.9201564348
 20
33.6644240002
 11
55.6473589296
 21
34.0726563915
  0
LINE
  5
256
100
AcDbEntity
  8
0
100
AcDbLine
 62
7
  6
CONTINUOUS
 10
21.0343325845
 20
82.1715441201
 11
21.0343325845
 21
82.2068152866
  0
LINE
  5
257
100
AcDbEntity
  8
0
100
AcDbLine
 62
7
  6
CONTINUOUS
 10
21.493959205
 20
94.9424066581
 11
21.493959205
 21
92.9011506153
  0
LINE
  5
258
100
AcDbEntity
  8
0
100
AcDbLine
 62
7
  6
CONTINUOUS
 10
22.1303526585
 20
94.5749930385
 11
22.1303526585
 21
93.2685703538
  0
LINE
  5
259
100
AcDbEntity
  8
0
100
AcDbLine
 62
7
  6
CONTINUOUS
 10
22.2010689301
 20
92.4929098608
 11
22.2010689301
 21
94.5341659036
  0
LINE
  5
25A
100
AcDbEntity
  8
0
100
AcDbLine
 62
7
  6
CONTINUOUS
 10
22.3778463614
 20
77.8979317681
 11
22.3778463614
 21
77.081429351
  0
LINE
  5
25B
100
AcDbEntity
  8
0
100
AcDbLine
 62
7
  6
CONTINUOUS
 10
23.0142398149
 20
77.5305181484
 11
23.0142398149
 21
77.4488490895
  0
LINE
  5
25C
100
AcDbEntity
  8
0
100
AcDbLine
 62
7
  6
CONTINUOUS
 10
23.93348776
 20
85.0015257942
 11
23.93348776
 21
84.185023377
  0
LINE
  5
25D
100
AcDbEntity
  8
0
100
AcDbLine
 62
7
  6
CONTINUOUS
 10
20.0269749427
 20
67.1762512971
 11
19.1321455954
 21
64.8540027781
  0
LINE
  5
25E
100
AcDbEntity
  8
0
100
AcDbLine
 62
7
  6
CONTINUOUS
 10
26.8679931161
 20
79.2079484568
 11
25.9731637688
 21
76.8856999379
  0
LINE
  5
25F
100
AcDbEntity
  8
0
100
AcDbLine
 62
7
  6
CONTINUOUS
 10
13.3952540164
 20
57.0435998888
 11
13.2977626465
 21
56.8867695883
  0
LINE
  5
260
100
AcDbEntity
  8
0
100
AcDbLine
 62
7
  6
CONTINUOUS
 10
20.397939131
 20
80.0208087813
 11
20.4332946173
 21
80.041221159
  0
LINE
  5
261
100
AcDbEntity
  8
0
100
AcDbLine
 62
7
  6
CONTINUOUS
 10
52.4044250401
 20
96.3797948715
 11
56.7884688309
 21
98.9109086255
  0
LINE
  5
262
100
AcDbEntity
  8
0
100
AcDbLine
 62
7
  6
CONTINUOUS
 10
52.6548185604
 20
96.3548046376
 11
57.0388623511
 21
98.8859183916
  0
LINE
  5
263
100
AcDbEntity
  8
0
100
AcDbLine
 62
7
  6
CONTINUOUS
 10
57.2509951365
 20
98.7631728265
 11
52.8669513457
 21
96.2320590725
  0
LINE
  5
264
100
AcDbEntity
  8
0
100
AcDbLine
 62
7
  6
CONTINUOUS
 10
57.250600497
 20
98.3551497123
 11
52.8665567063
 21
95.8240359583
  0
LINE
  5
265
100
AcDbEntity
  8
0
100
AcDbLine
 62
7
  6
CONTINUOUS
 10
25.9721540534
 20
80.101651022
 11
23.5446817715
 21
78.7001576124
  0
LINE
  5
266
100
AcDbEntity
  8
0
100
AcDbLine
 62
7
  6
CONTINUOUS
 10
14.5931833869
 20
73.2053163437
 11
10.9662746463
 21
71.1113321053
  0
LINE
  5
267
100
AcDbEntity
  8
0
100
AcDbLine
 62
7
  6
CONTINUOUS
 10
11.6162717363
 20
71.0469505426
 11
14.8723363712
 21
72.9268291147
  0
LINE
  5
268
100
AcDbEntity
  8
0
100
AcDbLine
 62
7
  6
CONTINUOUS
 10
73.0231706684
 20
36.0843644068
 11
71.5219722591
 21
36.3201416206
  0
LINE
  5
269
100
AcDbEntity
  8
0
100
AcDbLine
 62
7
  6
CONTINUOUS
 10
71.4866167729
 20
36.3256945295
 11
68.351893669
 21
36.8180320347
  0
LINE
  5
26A
100
AcDbEntity
  8
0
100
AcDbLine
 62
7
  6
CONTINUOUS
 10
72.1583657126
 20
36.6875613591
 11
72.1230102264
 21
36.693114268
  0
LINE
  5
26B
100
AcDbEntity
  8
0
100
AcDbLine
 62
7
  6
CONTINUOUS
 10
67.3303449208
 20
37.5798415497
 11
65.9995124333
 21
37.7957280579
  0
LINE
  5
26C
100
AcDbEntity
  8
0
100
AcDbLine
 62
7
  6
CONTINUOUS
 10
57.071628928
 20
29.5352863291
 11
69.7986218319
 21
22.1875197787
  0
LINE
  5
26D
100
AcDbEntity
  8
0
100
AcDbLine
 62
7
  6
CONTINUOUS
 10
12.0186835889
 20
56.280861365
 11
31.8077868687
 21
44.855875727
  0
LINE
  5
26E
100
AcDbEntity
  8
0
100
AcDbLine
 62
7
  6
CONTINUOUS
 10
70.3198857296
 20
23.6012298113
 11
72.441214905
 21
22.3765075478
  0
LINE
  5
26F
100
AcDbEntity
  8
0
100
AcDbLine
 62
7
  6
CONTINUOUS
 10
13.0478011387
 20
56.9114671376
 11
12.7348146594
 21
57.0921658778
  0
LINE
  5
270
100
AcDbEntity
  8
0
100
AcDbLine
 62
7
  6
CONTINUOUS
 10
14.486857182
 20
56.0806465394
 11
31.0915174265
 21
46.4941583528
  0
LINE
  5
271
100
AcDbEntity
  8
0
100
AcDbLine
 62
7
  6
CONTINUOUS
 10
56.672668031
 20
31.888527584
 11
58.7939972065
 21
30.6638053205
  0
LINE
  5
272
100
AcDbEntity
  8
0
100
AcDbLine
 62
7
  6
CONTINUOUS
 10
72.441214905
 20
23.1113409059
 11
70.9562791831
 21
23.9686495498
  0
LINE
  5
273
100
AcDbEntity
  8
0
100
AcDbLine
 62
7
  6
CONTINUOUS
 10
72.441214905
 20
23.1930099649
 11
70.3198857296
 21
24.4177322285
  0
LINE
  5
274
100
AcDbEntity
  8
0
100
AcDbLine
 62
7
  6
CONTINUOUS
 10
57.3090614845
 20
32.2559473225
 11
57.5565498883
 21
32.1130630584
  0
LINE
  5
275
100
AcDbEntity
  8
0
100
AcDbLine
 62
7
  6
CONTINUOUS
 10
58.7939972065
 20
31.4803077376
 11
56.672668031
 21
32.7050300011
  0
LINE
  5
276
100
AcDbEntity
  8
0
100
AcDbLine
 62
7
  6
CONTINUOUS
 10
17.9898418348
 20
69.8167586279
 11
18.698043361
 21
68.5020134936
  0
LINE
  5
277
100
AcDbEntity
  8
0
100
AcDbLine
 62
7
  6
CONTINUOUS
 10
24.4991755368
 20
75.8567070874
 11
24.4991755368
 21
76.6732095045
  0
LINE
  5
278
100
AcDbEntity
  8
0
100
AcDbLine
 62
7
  6
CONTINUOUS
 10
24.5698812134
 20
84.6341121745
 11
24.5698812134
 21
84.5524431155
  0
LINE
  5
279
100
AcDbEntity
  8
0
100
AcDbLine
 62
7
  6
CONTINUOUS
 10
24.7466586415
 20
84.5320519877
 11
24.7466586415
 21
84.4503829288
  0
LINE
  5
27A
100
AcDbEntity
  8
0
100
AcDbLine
 62
7
  6
CONTINUOUS
 10
26.0548169354
 20
82.9603011135
 11
26.0548169354
 21
83.7768035306
  0
LINE
  5
27B
100
AcDbEntity
  8
0
100
AcDbLine
 62
7
  6
CONTINUOUS
 10
26.8679931161
 20
103.6382368513
 11
26.8679931161
 21
94.7383605046
  0
LINE
  5
27C
100
AcDbEntity
  8
0
100
AcDbLine
 62
7
  6
CONTINUOUS
 10
26.8679931161
 20
92.2888532532
 11
26.8679931161
 21
92.2480281323
  0
LINE
  5
27D
100
AcDbEntity
  8
0
100
AcDbLine
 62
7
  6
CONTINUOUS
 10
27.0094150611
 20
106.6184727646
 11
27.0094150611
 21
104.1689655132
  0
LINE
  5
27E
100
AcDbEntity
  8
0
100
AcDbLine
 62
7
  6
CONTINUOUS
 10
27.6458138137
 20
103.8015488342
 11
27.6458138137
 21
106.2510560856
  0
LINE
  5
27F
100
AcDbEntity
  8
0
100
AcDbLine
 62
7
  6
CONTINUOUS
 10
23.0142398149
 20
77.4488490895
 11
22.3778463614
 21
77.081429351
  0
LINE
  5
280
100
AcDbEntity
  8
0
100
AcDbLine
 62
7
  6
CONTINUOUS
 10
58.3819753525
 20
97.7005066984
 11
53.9979315617
 21
95.1693929444
  0
LINE
  5
281
100
AcDbEntity
  8
0
100
AcDbLine
 62
7
  6
CONTINUOUS
 10
26.6855156969
 20
79.3899906834
 11
24.6442321872
 21
78.2114621344
  0
LINE
  5
282
100
AcDbEntity
  8
0
100
AcDbLine
 62
7
  6
CONTINUOUS
 10
39.4898964108
 20
85.2466907523
 11
38.8535029573
 21
84.8792710138
  0
LINE
  5
283
100
AcDbEntity
  8
0
100
AcDbLine
 62
7
  6
CONTINUOUS
 10
16.087809216
 20
71.7142550659
 11
13.274148162
 21
70.0897967956
  0
LINE
  5
284
100
AcDbEntity
  8
0
100
AcDbLine
 62
7
  6
CONTINUOUS
 10
12.1270962162
 20
69.2823093955
 11
11.4907027627
 21
68.914889657
  0
LINE
  5
285
100
AcDbEntity
  8
0
100
AcDbLine
 62
7
  6
CONTINUOUS
 10
17.7816278488
 20
72.468106985
 11
17.1452343953
 21
72.1006872466
  0
LINE
  5
286
100
AcDbEntity
  8
0
100
AcDbLine
 62
7
  6
CONTINUOUS
 10
18.0291162526
 20
72.325222721
 11
18.0998447435
 21
72.3660575905
  0
LINE
  5
287
100
AcDbEntity
  8
0
100
AcDbLine
 62
7
  6
CONTINUOUS
 10
59.1327647296
 20
95.7554251276
 11
54.7487209389
 21
93.2243113736
  0
LINE
  5
288
100
AcDbEntity
  8
0
100
AcDbLine
 62
7
  6
CONTINUOUS
 10
54.7373816222
 20
93.1325007906
 11
59.1214254129
 21
95.6636145446
  0
LINE
  5
289
100
AcDbEntity
  8
0
100
AcDbLine
 62
7
  6
CONTINUOUS
 10
53.3082741286
 20
91.8777411296
 11
53.0310529465
 21
91.7176883609
  0
LINE
  5
28A
100
AcDbEntity
  8
0
100
AcDbLine
 62
7
  6
CONTINUOUS
 10
58.7329002286
 20
94.7769795211
 11
54.3488564379
 21
92.2458657671
  0
LINE
  5
28B
100
AcDbEntity
  8
0
100
AcDbLine
 62
7
  6
CONTINUOUS
 10
72.7359374597
 20
39.3491457887
 11
77.4072144591
 21
38.6154781608
  0
LINE
  5
28C
100
AcDbEntity
  8
0
100
AcDbLine
 62
7
  6
CONTINUOUS
 10
66.1837546178
 20
40.535736825
 11
66.421120247
 21
40.4984563387
  0
LINE
  5
28D
100
AcDbEntity
  8
0
100
AcDbLine
 62
7
  6
CONTINUOUS
 10
65.104683086
 20
41.1512131311
 11
66.4336146677
 21
40.9424920295
  0
LINE
  5
28E
100
AcDbEntity
  8
0
100
AcDbLine
 62
7
  6
CONTINUOUS
 10
67.1946445754
 20
40.8392363279
 11
67.8823335229
 21
40.7312283637
  0
LINE
  5
28F
100
AcDbEntity
  8
0
100
AcDbLine
 62
7
  6
CONTINUOUS
 10
68.4147455608
 20
41.0386147622
 11
68.9130949039
 21
40.9603443491
  0
LINE
  5
290
100
AcDbEntity
  8
0
100
AcDbLine
 62
7
  6
CONTINUOUS
 10
67.1418161939
 20
41.4394949799
 11
70.9506418447
 21
40.8412833815
  0
LINE
  5
291
100
AcDbEntity
  8
0
100
AcDbLine
 62
7
  6
CONTINUOUS
 10
70.3835562241
 20
40.3268418119
 11
71.7143887115
 21
40.1109553037
  0
LINE
  5
292
100
AcDbEntity
  8
0
100
AcDbLine
 62
7
  6
CONTINUOUS
 10
33.0198424257
 20
48.075322558
 11
33.5855302058
 21
47.7487299543
  0
LINE
  5
293
100
AcDbEntity
  8
0
100
AcDbLine
 62
7
  6
CONTINUOUS
 10
12.0186835889
 20
60.3633734506
 11
11.3115738637
 21
60.7716142052
  0
LINE
  5
294
100
AcDbEntity
  8
0
100
AcDbLine
 62
7
  6
CONTINUOUS
 10
56.9201564348
 20
34.6850520216
 11
33.5404407825
 21
48.183031782
  0
LINE
  5
295
100
AcDbEntity
  8
0
100
AcDbLine
 62
7
  6
CONTINUOUS
 10
31.9703681682
 20
49.5792837591
 11
17.5981140657
 21
57.8769208164
  0
LINE
  5
296
100
AcDbEntity
  8
0
100
AcDbLine
 62
7
  6
CONTINUOUS
 10
35.8129311392
 20
48.9939448286
 11
37.9342603146
 21
47.769222565
  0
LINE
  5
297
100
AcDbEntity
  8
0
100
AcDbLine
 62
7
  6
CONTINUOUS
 10
37.8988995292
 20
48.5244710203
 11
37.2625007766
 21
48.8918876993
  0
LINE
  5
298
100
AcDbEntity
  8
0
100
AcDbLine
 62
7
  6
CONTINUOUS
 10
36.4493245927
 20
49.361364567
 11
36.6968129965
 21
49.218480303
  0
LINE
  5
299
100
AcDbEntity
  8
0
100
AcDbLine
 62
7
  6
CONTINUOUS
 10
37.9342603146
 20
48.5857249821
 11
35.8129311392
 21
49.8104472457
  0
LINE
  5
29A
100
AcDbEntity
  8
0
100
AcDbLine
 62
7
  6
CONTINUOUS
 10
13.3505016649
 20
62.9421440484
 11
33.3026916149
 21
51.4230024077
  0
LINE
  5
29B
100
AcDbEntity
  8
0
100
AcDbLine
 62
7
  6
CONTINUOUS
 10
19.1321455954
 20
64.8540027781
 11
17.8013131079
 21
66.1747944954
  0
LINE
  5
29C
100
AcDbEntity
  8
0
100
AcDbLine
 62
7
  6
CONTINUOUS
 10
16.7797643597
 20
66.5925411847
 11
13.274148162
 21
70.0897967956
  0
LINE
  5
29D
100
AcDbEntity
  8
0
100
AcDbLine
 62
7
  6
CONTINUOUS
 10
13.3621973658
 20
81.3883463123
 11
13.6803967421
 21
80.837211885
  0
LINE
  5
29E
100
AcDbEntity
  8
0
100
AcDbLine
 62
7
  6
CONTINUOUS
 10
30.8730752334
 20
106.42843637
 11
30.8730752334
 21
108.3296323287
  0
LINE
  5
29F
100
AcDbEntity
  8
0
100
AcDbLine
 62
7
  6
CONTINUOUS
 10
54.3983096971
 20
91.0606590661
 11
54.283699209
 21
90.994489065
  0
LINE
  5
2A0
100
AcDbEntity
  8
0
100
AcDbLine
 62
7
  6
CONTINUOUS
 10
63.5438731304
 20
94.7136979476
 11
59.1598293397
 21
92.1825841936
  0
LINE
  5
2A1
100
AcDbEntity
  8
0
100
AcDbLine
 62
7
  6
CONTINUOUS
 10
64.1095605581
 20
94.3863764407
 11
59.7255167674
 21
91.8552626867
  0
LINE
  5
2A2
100
AcDbEntity
  8
0
100
AcDbLine
 62
7
  6
CONTINUOUS
 10
59.8667807685
 20
91.6102230642
 11
64.2508245593
 21
94.1413368182
  0
LINE
  5
2A3
100
AcDbEntity
  8
0
100
AcDbLine
 62
7
  6
CONTINUOUS
 10
19.2072366416
 20
67.9940345943
 11
16.7797643597
 21
66.5925411847
  0
LINE
  5
2A4
100
AcDbEntity
  8
0
100
AcDbLine
 62
7
  6
CONTINUOUS
 10
14.2460792231
 20
64.8745822355
 11
13.6096857696
 21
64.507162497
  0
LINE
  5
2A5
100
AcDbEntity
  8
0
100
AcDbLine
 62
7
  6
CONTINUOUS
 10
14.4935676269
 20
64.7316979714
 11
14.5642961178
 21
64.7725328409
  0
LINE
  5
2A6
100
AcDbEntity
  8
0
100
AcDbLine
 62
7
  6
CONTINUOUS
 10
55.7180646029
 20
88.3292272973
 11
55.0816711495
 21
87.9618075588
  0
LINE
  5
2A7
100
AcDbEntity
  8
0
100
AcDbLine
 62
7
  6
CONTINUOUS
 10
19.8469566289
 20
67.355840283
 11
17.8013131079
 21
66.1747944954
  0
LINE
  5
2A8
100
AcDbEntity
  8
0
100
AcDbLine
 62
7
  6
CONTINUOUS
 10
68.9130949039
 20
40.9603443491
 11
69.3164487533
 21
40.8095932855
  0
LINE
  5
2A9
100
AcDbEntity
  8
0
100
AcDbLine
 62
7
  6
CONTINUOUS
 10
81.633612769
 20
25.0710165132
 11
79.8304844451
 21
26.1120348126
  0
LINE
  5
2AA
100
AcDbEntity
  8
0
100
AcDbLine
 62
7
  6
CONTINUOUS
 10
13.6096857696
 20
64.507162497
 11
15.731014945
 21
63.2824402335
  0
LINE
  5
2AB
100
AcDbEntity
  8
0
100
AcDbLine
 62
7
  6
CONTINUOUS
 10
79.088032624
 20
26.8673435651
 11
79.3355253013
 21
26.7244568338
  0
LINE
  5
2AC
100
AcDbEntity
  8
0
100
AcDbLine
 62
7
  6
CONTINUOUS
 10
14.2460792231
 20
64.8745822355
 11
14.4935676269
 21
64.7316979714
  0
LINE
  5
2AD
100
AcDbEntity
  8
0
100
AcDbLine
 62
7
  6
CONTINUOUS
 10
15.731014945
 20
64.0989426506
 11
13.6096857696
 21
65.3236649142
  0
LINE
  5
2AE
100
AcDbEntity
  8
0
100
AcDbLine
 62
7
  6
CONTINUOUS
 10
76.5070958214
 20
29.1331251621
 11
77.2142055466
 21
28.7248844076
  0
LINE
  5
2AF
100
AcDbEntity
  8
0
100
AcDbLine
 62
7
  6
CONTINUOUS
 10
67.4207358533
 20
35.0730459123
 11
69.5420650287
 21
33.8483236487
  0
LINE
  5
2B0
100
AcDbEntity
  8
0
100
AcDbLine
 62
7
  6
CONTINUOUS
 10
77.1434892749
 20
29.5005449006
 11
77.2142002474
 21
29.4597208252
  0
LINE
  5
2B1
100
AcDbEntity
  8
0
100
AcDbLine
 62
7
  6
CONTINUOUS
 10
69.5420650287
 20
34.5831570069
 11
68.0571293068
 21
35.4404656508
  0
LINE
  5
2B2
100
AcDbEntity
  8
0
100
AcDbLine
 62
7
  6
CONTINUOUS
 10
69.5420650287
 20
34.6648260659
 11
67.4207358533
 21
35.8895483294
  0
LINE
  5
2B3
100
AcDbEntity
  8
0
100
AcDbLine
 62
7
  6
CONTINUOUS
 10
77.2142055466
 20
30.7661404505
 11
76.5070958214
 21
31.174381205
  0
LINE
  5
2B4
100
AcDbEntity
  8
0
100
AcDbLine
 62
7
  6
CONTINUOUS
 10
18.698043361
 20
68.5020134936
 11
20.0269749427
 21
67.1762512971
  0
LINE
  5
2B5
100
AcDbEntity
  8
0
100
AcDbLine
 62
7
  6
CONTINUOUS
 10
14.181016184
 20
73.616500564
 11
17.9898418348
 21
69.8167586279
  0
LINE
  5
2B6
100
AcDbEntity
  8
0
100
AcDbLine
 62
7
  6
CONTINUOUS
 10
32.6662928623
 20
103.3525467285
 11
32.6662928623
 21
100.9030394771
  0
LINE
  5
2B7
100
AcDbEntity
  8
0
100
AcDbLine
 62
7
  6
CONTINUOUS
 10
33.0198424257
 20
48.075322558
 11
33.0198424257
 21
48.9767065882
  0
LINE
  5
2B8
100
AcDbEntity
  8
0
100
AcDbLine
 62
7
  6
CONTINUOUS
 10
33.0198424257
 20
49.5177902255
 11
33.0198424257
 21
50.8338444196
  0
LINE
  5
2B9
100
AcDbEntity
  8
0
100
AcDbLine
 62
7
  6
CONTINUOUS
 10
33.1352046467
 20
105.9064497769
 11
33.1352046467
 21
105.8686248858
  0
LINE
  5
2BA
100
AcDbEntity
  8
0
100
AcDbLine
 62
7
  6
CONTINUOUS
 10
33.3026916149
 20
100.535622798
 11
33.3026916149
 21
102.9851300494
  0
LINE
  5
2BB
100
AcDbEntity
  8
0
100
AcDbLine
 62
7
  6
CONTINUOUS
 10
33.5855302058
 20
46.9721192519
 11
33.5855302058
 21
47.7487299543
  0
LINE
  5
2BC
100
AcDbEntity
  8
0
100
AcDbLine
 62
7
  6
CONTINUOUS
 10
33.8230752334
 20
106.4766519169
 11
33.8230752334
 21
108.3296323287
  0
LINE
  5
2BD
100
AcDbEntity
  8
0
100
AcDbLine
 62
7
  6
CONTINUOUS
 10
34.1512232851
 20
89.8802787993
 11
34.1512232851
 21
103.1076179568
  0
LINE
  5
2BE
100
AcDbEntity
  8
0
100
AcDbLine
 62
7
  6
CONTINUOUS
 10
34.4694200118
 20
90.0639886686
 11
34.4694200118
 21
103.2913278261
  0
LINE
  5
2BF
100
AcDbEntity
  8
0
100
AcDbLine
 62
7
  6
CONTINUOUS
 10
35.8129311392
 20
49.8104472457
 11
35.8129311392
 21
48.9939448286
  0
LINE
  5
2C0
100
AcDbEntity
  8
0
100
AcDbLine
 62
7
  6
CONTINUOUS
 10
33.0198424257
 20
50.8338444196
 11
33.1227337786
 21
51.5268987625
  0
LINE
  5
2C1
100
AcDbEntity
  8
0
100
AcDbLine
 62
7
  6
CONTINUOUS
 10
33.3026916149
 20
51.4230024077
 11
32.9816753433
 21
49.2607048487
  0
LINE
  5
2C2
100
AcDbEntity
  8
0
100
AcDbLine
 62
7
  6
CONTINUOUS
 10
32.3963158551
 20
51.9462868583
 11
31.4389703042
 21
46.626291104
  0
LINE
  5
2C3
100
AcDbEntity
  8
0
100
AcDbLine
 62
7
  6
CONTINUOUS
 10
58.4757978302
 20
88.1659833425
 11
58.6784881607
 21
88.2830059608
  0
LINE
  5
2C4
100
AcDbEntity
  8
0
100
AcDbLine
 62
7
  6
CONTINUOUS
 10
11.3115738637
 20
60.7716142052
 11
14.2107901321
 21
62.4454675066
  0
LINE
  5
2C5
100
AcDbEntity
  8
0
100
AcDbLine
 62
7
  6
CONTINUOUS
 10
59.1849621642
 20
87.9222264715
 11
59.0414856103
 21
87.8393907389
  0
LINE
  5
2C6
100
AcDbEntity
  8
0
100
AcDbLine
 62
7
  6
CONTINUOUS
 10
12.0186835889
 20
60.3633734506
 11
14.2215182326
 21
61.6351730335
  0
LINE
  5
2C7
100
AcDbEntity
  8
0
100
AcDbLine
 62
7
  6
CONTINUOUS
 10
64.2470360206
 20
90.2243149218
 11
59.8629922299
 21
87.6932011678
  0
LINE
  5
2C8
100
AcDbEntity
  8
0
100
AcDbLine
 62
7
  6
CONTINUOUS
 10
59.8215699253
 20
87.6018262053
 11
64.205613716
 21
90.1329399593
  0
LINE
  5
2C9
100
AcDbEntity
  8
0
100
AcDbLine
 62
7
  6
CONTINUOUS
 10
13.7296200529
 20
58.9016812184
 11
12.584371369
 21
58.2404755293
  0
LINE
  5
2CA
100
AcDbEntity
  8
0
100
AcDbLine
 62
7
  6
CONTINUOUS
 10
11.4907027627
 20
68.914889657
 11
13.6120319381
 21
67.6901673934
  0
LINE
  5
2CB
100
AcDbEntity
  8
0
100
AcDbLine
 62
7
  6
CONTINUOUS
 10
71.4866167729
 20
34.4811417706
 11
78.2041591618
 21
30.6028546027
  0
LINE
  5
2CC
100
AcDbEntity
  8
0
100
AcDbLine
 62
7
  6
CONTINUOUS
 10
71.5219722591
 20
34.5015548538
 11
78.239514648
 21
30.6232676858
  0
LINE
  5
2CD
100
AcDbEntity
  8
0
100
AcDbLine
 62
7
  6
CONTINUOUS
 10
13.6120319381
 20
68.4250007516
 11
12.1270962162
 21
69.2823093955
  0
LINE
  5
2CE
100
AcDbEntity
  8
0
100
AcDbLine
 62
7
  6
CONTINUOUS
 10
13.6120319381
 20
68.5066698106
 11
11.4907027627
 21
69.7313920741
  0
LINE
  5
2CF
100
AcDbEntity
  8
0
100
AcDbLine
 62
7
  6
CONTINUOUS
 10
13.274148162
 20
70.0897967956
 11
11.6162717363
 21
71.0469505426
  0
LINE
  5
2D0
100
AcDbEntity
  8
0
100
AcDbLine
 62
7
  6
CONTINUOUS
 10
77.8506042992
 20
33.2973073522
 11
73.0231706684
 21
36.0843644068
  0
LINE
  5
2D1
100
AcDbEntity
  8
0
100
AcDbLine
 62
7
  6
CONTINUOUS
 10
24.7780951962
 20
81.9010947602
 11
25.5390615345
 21
80.5337106534
  0
LINE
  5
2D2
100
AcDbEntity
  8
0
100
AcDbLine
 62
7
  6
CONTINUOUS
 10
36.4493245927
 20
49.443033626
 11
36.4493245927
 21
49.361364567
  0
LINE
  5
2D3
100
AcDbEntity
  8
0
100
AcDbLine
 62
7
  6
CONTINUOUS
 10
37.2625007766
 20
48.8918876993
 11
37.2625007766
 21
48.9735567583
  0
LINE
  5
2D4
100
AcDbEntity
  8
0
100
AcDbLine
 62
7
  6
CONTINUOUS
 10
37.5099606239
 20
104.8834596955
 11
37.5099606239
 21
105.8632625961
  0
LINE
  5
2D5
100
AcDbEntity
  8
0
100
AcDbLine
 62
7
  6
CONTINUOUS
 10
37.8988995292
 20
48.6061400792
 11
37.8988995292
 21
48.5244710203
  0
LINE
  5
2D6
100
AcDbEntity
  8
0
100
AcDbLine
 62
7
  6
CONTINUOUS
 10
37.9342603146
 20
47.769222565
 11
37.9342603146
 21
48.5857249821
  0
LINE
  5
2D7
100
AcDbEntity
  8
0
100
AcDbLine
 62
7
  6
CONTINUOUS
 10
38.2170703491
 20
105.4550218416
 11
38.2170703491
 21
104.475218941
  0
LINE
  5
2D8
100
AcDbEntity
  8
0
100
AcDbLine
 62
7
  6
CONTINUOUS
 10
38.5352670758
 20
105.6387317108
 11
38.5352670758
 21
104.2915121312
  0
LINE
  5
2D9
100
AcDbEntity
  8
0
100
AcDbLine
 62
7
  6
CONTINUOUS
 10
38.8535029573
 20
85.6957734309
 11
38.8535029573
 21
84.8792710138
  0
LINE
  5
2DA
100
AcDbEntity
  8
0
100
AcDbLine
 62
7
  6
CONTINUOUS
 10
39.4898964108
 20
85.3283598113
 11
39.4898964108
 21
85.2466907523
  0
LINE
  5
2DB
100
AcDbEntity
  8
0
100
AcDbLine
 62
7
  6
CONTINUOUS
 10
52.4044304768
 20
96.379785456
 11
52.3008692786
 21
96.1513574653
  0
LINE
  5
2DC
100
AcDbEntity
  8
0
100
AcDbLine
 62
7
  6
CONTINUOUS
 10
12.7348146594
 20
57.0921658778
 11
13.4815785347
 21
57.5233076287
  0
LINE
  5
2DD
100
AcDbEntity
  8
0
100
AcDbLine
 62
7
  6
CONTINUOUS
 10
13.4090035047
 20
57.1200061761
 11
13.0478011387
 21
56.9114671376
  0
LINE
  5
2DE
100
AcDbEntity
  8
0
100
AcDbLine
 62
7
  6
CONTINUOUS
 10
17.250661188
 20
58.5612904823
 11
14.1394043043
 21
56.7650162053
  0
LINE
  5
2DF
100
AcDbEntity
  8
0
100
AcDbLine
 62
7
  6
CONTINUOUS
 10
14.486857182
 20
56.0806465394
 11
17.5981140657
 21
57.8769208164
  0
LINE
  5
2E0
100
AcDbEntity
  8
0
100
AcDbLine
 62
7
  6
CONTINUOUS
 10
64.1623884833
 20
60.7638420006
 11
64.420487371
 21
60.8047950304
  0
LINE
  5
2E1
100
AcDbEntity
  8
0
100
AcDbLine
 62
7
  6
CONTINUOUS
 10
17.8013131079
 20
66.1747944954
 11
16.7797643597
 21
66.5925411847
  0
LINE
  5
2E2
100
AcDbEntity
  8
0
100
AcDbLine
 62
7
  6
CONTINUOUS
 10
17.1452343953
 20
72.1006872466
 11
19.2665635708
 21
70.875964983
  0
LINE
  5
2E3
100
AcDbEntity
  8
0
100
AcDbLine
 62
7
  6
CONTINUOUS
 10
65.8650944579
 20
43.9728992601
 11
67.9864236334
 21
42.7481769965
  0
LINE
  5
2E4
100
AcDbEntity
  8
0
100
AcDbLine
 62
7
  6
CONTINUOUS
 10
17.7816278488
 20
72.468106985
 11
18.0291162526
 21
72.325222721
  0
LINE
  5
2E5
100
AcDbEntity
  8
0
100
AcDbLine
 62
7
  6
CONTINUOUS
 10
66.5014879114
 20
44.3403189986
 11
66.7489763152
 21
44.1974347345
  0
LINE
  5
2E6
100
AcDbEntity
  8
0
100
AcDbLine
 62
7
  6
CONTINUOUS
 10
67.9864236334
 20
43.5646794137
 11
65.8650944579
 21
44.7894016772
  0
LINE
  5
2E7
100
AcDbEntity
  8
0
100
AcDbLine
 62
7
  6
CONTINUOUS
 10
19.2665635708
 20
71.6924674001
 11
17.1452343953
 21
72.9171896637
  0
LINE
  5
2E8
100
AcDbEntity
  8
0
100
AcDbLine
 62
7
  6
CONTINUOUS
 10
82.2346480899
 20
35.8284211062
 11
77.4072144591
 21
38.6154781608
  0
LINE
  5
2E9
100
AcDbEntity
  8
0
100
AcDbLine
 62
7
  6
CONTINUOUS
 10
68.351893669
 20
36.8180320347
 11
67.3303449208
 21
37.5798415497
  0
LINE
  5
2EA
100
AcDbEntity
  8
0
100
AcDbLine
 62
7
  6
CONTINUOUS
 10
55.3645150395
 20
32.1538715296
 11
56.5716268464
 21
30.063104156
  0
LINE
  5
2EB
100
AcDbEntity
  8
0
100
AcDbLine
 62
7
  6
CONTINUOUS
 10
20.1504507272
 20
93.4726824446
 11
20.4686501035
 21
92.9215480174
  0
LINE
  5
2EC
100
AcDbEntity
  8
0
100
AcDbLine
 62
7
  6
CONTINUOUS
 10
40.9748321328
 20
83.6545487502
 11
40.9748321328
 21
84.4710511674
  0
LINE
  5
2ED
100
AcDbEntity
  8
0
100
AcDbLine
 62
7
  6
CONTINUOUS
 10
59.1598293397
 20
92.1825841936
 11
58.4061193893
 21
91.1080451926
  0
LINE
  5
2EE
100
AcDbEntity
  8
0
100
AcDbLine
 62
7
  6
CONTINUOUS
 10
57.9101047509
 20
78.8170065452
 11
57.2737112974
 21
78.4495868068
  0
LINE
  5
2EF
100
AcDbEntity
  8
0
100
AcDbLine
 62
7
  6
CONTINUOUS
 10
66.234917307
 20
56.0069230259
 11
64.7337188977
 21
56.2427002397
  0
LINE
  5
2F0
100
AcDbEntity
  8
0
100
AcDbLine
 62
7
  6
CONTINUOUS
 10
64.6983634115
 20
56.2482531486
 11
61.5869762572
 21
56.7369255252
  0
LINE
  5
2F1
100
AcDbEntity
  8
0
100
AcDbLine
 62
7
  6
CONTINUOUS
 10
65.3701123512
 20
56.6101199782
 11
65.3347568649
 21
56.6156728871
  0
LINE
  5
2F2
100
AcDbEntity
  8
0
100
AcDbLine
 62
7
  6
CONTINUOUS
 10
60.4874258415
 20
57.5178527814
 11
59.1584942599
 21
57.726573883
  0
LINE
  5
2F3
100
AcDbEntity
  8
0
100
AcDbLine
 62
7
  6
CONTINUOUS
 10
74.8453594076
 20
44.9935751324
 11
73.0422310837
 21
46.0345934317
  0
LINE
  5
2F4
100
AcDbEntity
  8
0
100
AcDbLine
 62
7
  6
CONTINUOUS
 10
72.2997792626
 20
46.7899021843
 11
72.5472719399
 21
46.6470154529
  0
LINE
  5
2F5
100
AcDbEntity
  8
0
100
AcDbLine
 62
7
  6
CONTINUOUS
 10
71.7143887115
 20
40.1109553037
 11
72.7359374597
 21
39.3491457887
  0
LINE
  5
2F6
100
AcDbEntity
  8
0
100
AcDbLine
 62
7
  6
CONTINUOUS
 10
23.5446817715
 20
78.7001576124
 11
20.4332946173
 21
81.8041243816
  0
LINE
  5
2F7
100
AcDbEntity
  8
0
100
AcDbLine
 62
7
  6
CONTINUOUS
 10
20.397939131
 20
81.8393955481
 11
18.8967407217
 21
83.3370137311
  0
LINE
  5
2F8
100
AcDbEntity
  8
0
100
AcDbLine
 62
7
  6
CONTINUOUS
 10
25.9731637688
 20
76.8856999379
 11
24.6442321872
 21
78.2114621344
  0
LINE
  5
2F9
100
AcDbEntity
  8
0
100
AcDbLine
 62
7
  6
CONTINUOUS
 10
21.0696880707
 20
82.1715441201
 11
21.0343325845
 21
82.2068152866
  0
LINE
  5
2FA
100
AcDbEntity
  8
0
100
AcDbLine
 62
7
  6
CONTINUOUS
 10
25.5390615345
 20
80.5337106534
 11
26.8679931161
 21
79.2079484568
  0
LINE
  5
2FB
100
AcDbEntity
  8
0
100
AcDbLine
 62
7
  6
CONTINUOUS
 10
20.9692695454
 20
85.7008366964
 11
24.7780951962
 21
81.9010947602
  0
LINE
  5
2FC
100
AcDbEntity
  8
0
100
AcDbLine
 62
7
  6
CONTINUOUS
 10
32.4424164725
 20
44.9458902616
 11
33.5855302058
 21
46.9721192519
  0
LINE
  5
2FD
100
AcDbEntity
  8
0
100
AcDbLine
 62
7
  6
CONTINUOUS
 10
35.6722121885
 20
46.9522808301
 11
35.5536733563
 21
46.7421645386
  0
LINE
  5
2FE
100
AcDbEntity
  8
0
100
AcDbLine
 62
7
  6
CONTINUOUS
 10
31.4389703042
 20
46.626291104
 11
31.3414789342
 21
46.4694608034
  0
LINE
  5
2FF
100
AcDbEntity
  8
0
100
AcDbLine
 62
7
  6
CONTINUOUS
 10
63.425529401
 20
78.6945199279
 11
59.0414856208
 21
76.1634061678
  0
LINE
  5
300
100
AcDbEntity
  8
0
100
AcDbLine
 62
7
  6
CONTINUOUS
 10
59.4489954041
 20
75.9281356073
 11
60.0853888576
 21
76.2955553458
  0
LINE
  5
301
100
AcDbEntity
  8
0
100
AcDbLine
 62
7
  6
CONTINUOUS
 10
59.4657514454
 20
75.9184617212
 11
60.1021448989
 21
76.2858814597
  0
LINE
  5
302
100
AcDbEntity
  8
0
100
AcDbLine
 62
7
  6
CONTINUOUS
 10
59.4750513126
 20
73.4528465311
 11
59.4489954041
 21
73.437803235
  0
LINE
  5
303
100
AcDbEntity
  8
0
100
AcDbLine
 62
7
  6
CONTINUOUS
 10
12.411242466
 20
58.2130461598
 11
12.584371369
 21
58.2404755293
  0
LINE
  5
304
100
AcDbEntity
  8
0
100
AcDbLine
 62
7
  6
CONTINUOUS
 10
65.9710200479
 20
59.2680392792
 11
70.6189610977
 21
58.5380367799
  0
LINE
  5
305
100
AcDbEntity
  8
0
100
AcDbLine
 62
7
  6
CONTINUOUS
 10
59.3657075313
 20
60.4798449342
 11
59.5770158918
 21
60.446656985
  0
LINE
  5
306
100
AcDbEntity
  8
0
100
AcDbLine
 62
7
  6
CONTINUOUS
 10
58.2636649126
 20
61.0820589561
 11
59.5925964942
 21
60.8733378545
  0
LINE
  5
307
100
AcDbEntity
  8
0
100
AcDbLine
 62
7
  6
CONTINUOUS
 10
63.5425380507
 20
60.257687637
 11
64.8714696323
 21
60.0489665354
  0
LINE
  5
308
100
AcDbEntity
  8
0
100
AcDbLine
 62
7
  6
CONTINUOUS
 10
61.5737273873
 20
60.9694605873
 11
62.0720767305
 21
60.8911901742
  0
LINE
  5
309
100
AcDbEntity
  8
0
100
AcDbLine
 62
7
  6
CONTINUOUS
 10
60.3535628325
 20
61.362053599
 11
64.1623884833
 21
60.7638420006
  0
LINE
  5
30A
100
AcDbEntity
  8
0
100
AcDbLine
 62
7
  6
CONTINUOUS
 10
60.3474964838
 20
60.7930684901
 11
61.0687680498
 21
60.677923918
  0
LINE
  5
30B
100
AcDbEntity
  8
0
100
AcDbLine
 62
7
  6
CONTINUOUS
 10
14.7057058436
 20
80.816814483
 11
15.4128155687
 21
80.4085737284
  0
LINE
  5
30C
100
AcDbEntity
  8
0
100
AcDbLine
 62
7
  6
CONTINUOUS
 10
69.71884246
 20
49.0556837813
 11
70.4259521851
 21
48.6474430268
  0
LINE
  5
30D
100
AcDbEntity
  8
0
100
AcDbLine
 62
7
  6
CONTINUOUS
 10
22.3778463614
 20
77.081429351
 11
24.4991755368
 21
75.8567070874
  0
LINE
  5
30E
100
AcDbEntity
  8
0
100
AcDbLine
 62
7
  6
CONTINUOUS
 10
60.6324824919
 20
54.9956045314
 11
62.7538116673
 21
53.7708822679
  0
LINE
  5
30F
100
AcDbEntity
  8
0
100
AcDbLine
 62
7
  6
CONTINUOUS
 10
15.4128155687
 20
81.1434070866
 11
15.3420992971
 21
81.1842342214
  0
LINE
  5
310
100
AcDbEntity
  8
0
100
AcDbLine
 62
7
  6
CONTINUOUS
 10
70.3552359135
 20
49.4231035198
 11
70.425946886
 21
49.3822794443
  0
LINE
  5
311
100
AcDbEntity
  8
0
100
AcDbLine
 62
7
  6
CONTINUOUS
 10
62.7538116673
 20
54.505715626
 11
61.2688759453
 21
55.3630242699
  0
LINE
  5
312
100
AcDbEntity
  8
0
100
AcDbLine
 62
7
  6
CONTINUOUS
 10
24.4991755368
 20
76.5915404456
 11
23.0142398149
 21
77.4488490895
  0
LINE
  5
313
100
AcDbEntity
  8
0
100
AcDbLine
 62
7
  6
CONTINUOUS
 10
62.7538116673
 20
54.587384685
 11
60.6324824919
 21
55.8121069486
  0
LINE
  5
314
100
AcDbEntity
  8
0
100
AcDbLine
 62
7
  6
CONTINUOUS
 10
24.4991755368
 20
76.6732095045
 11
22.3778463614
 21
77.8979317681
  0
LINE
  5
315
100
AcDbEntity
  8
0
100
AcDbLine
 62
7
  6
CONTINUOUS
 10
70.4259521851
 20
50.6886990696
 11
69.71884246
 21
51.0969398241
  0
LINE
  5
316
100
AcDbEntity
  8
0
100
AcDbLine
 62
7
  6
CONTINUOUS
 10
15.4128155687
 20
82.4498297713
 11
14.7057058436
 21
82.8580705258
  0
LINE
  5
317
100
AcDbEntity
  8
0
100
AcDbLine
 62
7
  6
CONTINUOUS
 10
13.7157522284
 20
83.8378587907
 11
20.4332946173
 21
79.9595716227
  0
LINE
  5
318
100
AcDbEntity
  8
0
100
AcDbLine
 62
7
  6
CONTINUOUS
 10
64.6983634115
 20
54.4037003898
 11
71.4159058003
 21
50.5254132218
  0
LINE
  5
319
100
AcDbEntity
  8
0
100
AcDbLine
 62
7
  6
CONTINUOUS
 10
13.6803967421
 20
83.8990959493
 11
20.397939131
 21
80.0208087813
  0
LINE
  5
31A
100
AcDbEntity
  8
0
100
AcDbLine
 62
7
  6
CONTINUOUS
 10
64.7337188977
 20
54.4241134729
 11
71.4512612866
 21
50.545826305
  0
LINE
  5
31B
100
AcDbEntity
  8
0
100
AcDbLine
 62
7
  6
CONTINUOUS
 10
32.3077816867
 20
44.8063565523
 11
32.4424164725
 21
44.9458902616
  0
LINE
  5
31C
100
AcDbEntity
  8
0
100
AcDbLine
 62
7
  6
CONTINUOUS
 10
68.6581413671
 20
75.6735383445
 11
64.2740975764
 21
73.1424245905
  0
LINE
  5
31D
100
AcDbEntity
  8
0
100
AcDbLine
 62
7
  6
CONTINUOUS
 10
64.9812073015
 20
71.9176814188
 11
69.3652510922
 21
74.4487951728
  0
LINE
  5
31E
100
AcDbEntity
  8
0
100
AcDbLine
 62
7
  6
CONTINUOUS
 10
62.4754305798
 20
60.7404391105
 11
62.0720767305
 21
60.8911901742
  0
LINE
  5
31F
100
AcDbEntity
  8
0
100
AcDbLine
 62
7
  6
CONTINUOUS
 10
24.6442321872
 20
78.2114621344
 11
23.5446817715
 21
78.7001576124
  0
LINE
  5
320
100
AcDbEntity
  8
0
100
AcDbLine
 62
7
  6
CONTINUOUS
 10
71.0623509378
 20
53.2198659713
 11
66.234917307
 21
56.0069230259
  0
LINE
  5
321
100
AcDbEntity
  8
0
100
AcDbLine
 62
7
  6
CONTINUOUS
 10
18.8967407217
 20
83.3370137311
 11
14.0693070909
 21
86.1240707857
  0
LINE
  5
322
100
AcDbEntity
  8
0
100
AcDbLine
 62
7
  6
CONTINUOUS
 10
61.5869762572
 20
56.7369255252
 11
60.4874258415
 21
57.5178527814
  0
LINE
  5
323
100
AcDbEntity
  8
0
100
AcDbLine
 62
7
  6
CONTINUOUS
 10
53.0310529465
 20
91.7176883609
 11
53.0310529465
 21
78.9802506536
  0
LINE
  5
324
100
AcDbEntity
  8
0
100
AcDbLine
 62
7
  6
CONTINUOUS
 10
52.3008692786
 20
96.1513574653
 11
52.3006324949
 21
95.9065435967
  0
LINE
  5
325
100
AcDbEntity
  8
0
100
AcDbLine
 62
7
  6
CONTINUOUS
 10
52.8665567063
 20
95.8240359583
 11
52.8669513457
 21
96.2320590725
  0
LINE
  5
326
100
AcDbEntity
  8
0
100
AcDbLine
 62
7
  6
CONTINUOUS
 10
53.2897962145
 20
94.5176847312
 11
53.2873112662
 21
91.9484626268
  0
LINE
  5
327
100
AcDbEntity
  8
0
100
AcDbLine
 62
7
  6
CONTINUOUS
 10
54.3488564379
 20
92.2458657671
 11
54.3499076463
 21
93.3327245458
  0
LINE
  5
328
100
AcDbEntity
  8
0
100
AcDbLine
 62
7
  6
CONTINUOUS
 10
35.5536733563
 20
46.7421645386
 11
35.4190385705
 21
46.6026308293
  0
LINE
  5
329
100
AcDbEntity
  8
0
100
AcDbLine
 62
7
  6
CONTINUOUS
 10
64.6630082307
 20
70.468384395
 11
64.6276524389
 21
70.447971841
  0
LINE
  5
32A
100
AcDbEntity
  8
0
100
AcDbLine
 62
7
  6
CONTINUOUS
 10
63.5669825521
 20
69.3456621389
 11
62.9305890986
 21
68.9782424004
  0
LINE
  5
32B
100
AcDbEntity
  8
0
100
AcDbLine
 62
7
  6
CONTINUOUS
 10
33.233541664
 20
50.9572229958
 11
33.0198424257
 21
50.8338444196
  0
LINE
  5
32C
100
AcDbEntity
  8
0
100
AcDbLine
 62
7
  6
CONTINUOUS
 10
64.6630079252
 20
67.4065008599
 11
69.3652510922
 21
70.121332362
  0
LINE
  5
32D
100
AcDbEntity
  8
0
100
AcDbLine
 62
7
  6
CONTINUOUS
 10
59.7132345468
 20
64.2628776196
 11
59.0768410933
 21
63.8954578811
  0
LINE
  5
32E
100
AcDbEntity
  8
0
100
AcDbLine
 62
7
  6
CONTINUOUS
 10
59.9607229506
 20
64.1199933555
 11
60.0314514415
 21
64.160828225
  0
LINE
  5
32F
100
AcDbEntity
  8
0
100
AcDbLine
 62
7
  6
CONTINUOUS
 10
33.414406204
 20
48.3031227018
 11
33.0198424257
 21
48.075322558
  0
LINE
  5
330
100
AcDbEntity
  8
0
100
AcDbLine
 62
7
  6
CONTINUOUS
 10
23.93348776
 20
84.185023377
 11
26.0548169354
 21
82.9603011135
  0
LINE
  5
331
100
AcDbEntity
  8
0
100
AcDbLine
 62
7
  6
CONTINUOUS
 10
59.0768410933
 20
63.8954578811
 11
61.1981702688
 21
62.6707356175
  0
LINE
  5
332
100
AcDbEntity
  8
0
100
AcDbLine
 62
7
  6
CONTINUOUS
 10
24.5698812134
 20
84.5524431155
 11
24.817369614
 21
84.4095588533
  0
LINE
  5
333
100
AcDbEntity
  8
0
100
AcDbLine
 62
7
  6
CONTINUOUS
 10
59.7132345468
 20
64.2628776196
 11
59.9607229506
 21
64.1199933555
  0
LINE
  5
334
100
AcDbEntity
  8
0
100
AcDbLine
 62
7
  6
CONTINUOUS
 10
61.1981702688
 20
63.4872380347
 11
59.0768410933
 21
64.7119602982
  0
LINE
  5
335
100
AcDbEntity
  8
0
100
AcDbLine
 62
7
  6
CONTINUOUS
 10
26.0548169354
 20
83.7768035306
 11
23.93348776
 21
85.0015257942
  0
LINE
  5
336
100
AcDbEntity
  8
0
100
AcDbLine
 62
7
  6
CONTINUOUS
 10
75.4463947285
 20
55.7509797253
 11
70.6189610977
 21
58.5380367799
  0
LINE
  5
337
100
AcDbEntity
  8
0
100
AcDbLine
 62
7
  6
CONTINUOUS
 10
20.5040055898
 20
87.4712652758
 11
18.4533508817
 21
88.6551845397
  0
LINE
  5
338
100
AcDbEntity
  8
0
100
AcDbLine
 62
7
  6
CONTINUOUS
 10
64.8714696323
 20
60.0489665354
 11
65.9710200479
 21
59.2680392792
  0
LINE
  5
339
100
AcDbEntity
  8
0
100
AcDbLine
 62
7
  6
CONTINUOUS
 10
55.0816711495
 20
90.0030636016
 11
55.0816711495
 21
87.9618075588
  0
LINE
  5
33A
100
AcDbEntity
  8
0
100
AcDbLine
 62
7
  6
CONTINUOUS
 10
55.3645150395
 20
33.9093517264
 11
55.3645150395
 21
32.1538715296
  0
LINE
  5
33B
100
AcDbEntity
  8
0
100
AcDbLine
 62
7
  6
CONTINUOUS
 10
55.7180646029
 20
89.6356499819
 11
55.7180646029
 21
88.3292272973
  0
LINE
  5
33C
100
AcDbEntity
  8
0
100
AcDbLine
 62
7
  6
CONTINUOUS
 10
55.7887808746
 20
87.5535668043
 11
55.7887808746
 21
89.5948228471
  0
LINE
  5
33D
100
AcDbEntity
  8
0
100
AcDbLine
 62
7
  6
CONTINUOUS
 10
56.672668031
 20
32.7050300011
 11
56.672668031
 21
31.888527584
  0
LINE
  5
33E
100
AcDbEntity
  8
0
100
AcDbLine
 62
7
  6
CONTINUOUS
 10
56.9201564348
 20
34.6850520216
 11
56.9201564348
 21
33.6644240002
  0
LINE
  5
33F
100
AcDbEntity
  8
0
100
AcDbLine
 62
7
  6
CONTINUOUS
 10
57.2737112974
 20
80.8990940582
 11
57.2737112974
 21
78.4495868068
  0
LINE
  5
340
100
AcDbEntity
  8
0
100
AcDbLine
 62
7
  6
CONTINUOUS
 10
57.3090614845
 20
32.3376163815
 11
57.3090614845
 21
32.2559473225
  0
LINE
  5
341
100
AcDbEntity
  8
0
100
AcDbLine
 62
7
  6
CONTINUOUS
 10
57.4858389158
 20
32.2355561928
 11
57.4858389158
 21
32.1538871339
  0
LINE
  5
342
100
AcDbEntity
  8
0
100
AcDbLine
 62
7
  6
CONTINUOUS
 10
57.9101047509
 20
80.5316804385
 11
57.9101047509
 21
78.8170065452
  0
LINE
  5
343
100
AcDbEntity
  8
0
100
AcDbLine
 62
7
  6
CONTINUOUS
 10
57.9808210226
 20
78.0413460522
 11
57.9808210226
 21
80.4908533036
  0
LINE
  5
344
100
AcDbEntity
  8
0
100
AcDbLine
 62
7
  6
CONTINUOUS
 10
58.4757978302
 20
88.1659833425
 11
58.4757978302
 21
88.6340780071
  0
LINE
  5
345
100
AcDbEntity
  8
0
100
AcDbLine
 62
7
  6
CONTINUOUS
 10
57.250600497
 20
98.3551497123
 11
57.2509951365
 21
98.7631728265
  0
LINE
  5
346
100
AcDbEntity
  8
0
100
AcDbLine
 62
7
  6
CONTINUOUS
 10
58.7329002286
 20
94.7769795211
 11
58.7335411828
 21
95.4396708166
  0
LINE
  5
347
100
AcDbEntity
  8
0
100
AcDbLine
 62
7
  6
CONTINUOUS
 10
58.8046961396
 20
90.7550676786
 11
58.8036041715
 21
89.6260669438
  0
LINE
  5
348
100
AcDbEntity
  8
0
100
AcDbLine
 62
7
  6
CONTINUOUS
 10
62.8161792388
 20
75.1260497036
 11
63.3147987115
 21
76.235809822
  0
LINE
  5
349
100
AcDbEntity
  8
0
100
AcDbLine
 62
7
  6
CONTINUOUS
 10
63.3665192096
 20
75.6977204123
 11
63.0942662309
 21
75.091776372
  0
LINE
  5
34A
100
AcDbEntity
  8
0
100
AcDbLine
 62
7
  6
CONTINUOUS
 10
64.0891693749
 20
76.119837236
 11
63.6201245869
 21
75.0759004709
  0
LINE
  5
34B
100
AcDbEntity
  8
0
100
AcDbLine
 62
7
  6
CONTINUOUS
 10
59.5925964942
 20
60.8733378545
 11
60.3535628325
 21
61.362053599
  0
LINE
  5
34C
100
AcDbEntity
  8
0
100
AcDbLine
 62
7
  6
CONTINUOUS
 10
65.2640458924
 20
66.5695790104
 11
68.0571060494
 21
68.1821434182
  0
LINE
  5
34D
100
AcDbEntity
  8
0
100
AcDbLine
 62
7
  6
CONTINUOUS
 10
65.7590185785
 20
66.5695740721
 11
65.2640458924
 21
66.2838031644
  0
LINE
  5
34E
100
AcDbEntity
  8
0
100
AcDbLine
 62
7
  6
CONTINUOUS
 10
31.4527197924
 20
46.7026973912
 11
31.0915174265
 21
46.4941583528
  0
LINE
  5
34F
100
AcDbEntity
  8
0
100
AcDbLine
 62
7
  6
CONTINUOUS
 10
33.5855302058
 20
47.7487299543
 11
33.9391074745
 21
47.952866667
  0
LINE
  5
350
100
AcDbEntity
  8
0
100
AcDbLine
 62
7
  6
CONTINUOUS
 10
36.4493245927
 20
49.361364567
 11
35.8129311392
 21
48.9939448286
  0
LINE
  5
351
100
AcDbEntity
  8
0
100
AcDbLine
 62
7
  6
CONTINUOUS
 10
36.6968129965
 20
49.218480303
 11
36.7675414874
 21
49.2593151725
  0
LINE
  5
352
100
AcDbEntity
  8
0
100
AcDbLine
 62
7
  6
CONTINUOUS
 10
66.2539777223
 20
65.9571520509
 11
65.7590185777
 21
65.6713889613
  0
LINE
  5
353
100
AcDbEntity
  8
0
100
AcDbLine
 62
7
  6
CONTINUOUS
 10
34.6116816866
 20
47.5645645492
 11
33.5855302058
 21
46.9721192519
  0
LINE
  5
354
100
AcDbEntity
  8
0
100
AcDbLine
 62
7
  6
CONTINUOUS
 10
37.9342603146
 20
48.5448864574
 11
37.8988995292
 21
48.5244710203
  0
LINE
  5
355
100
AcDbEntity
  8
0
100
AcDbLine
 62
7
  6
CONTINUOUS
 10
60.4207929975
 20
61.3514944745
 11
59.5925964942
 21
60.8733378545
  0
LINE
  5
356
100
AcDbEntity
  8
0
100
AcDbLine
 62
7
  6
CONTINUOUS
 10
59.1539964241
 20
60.4972464441
 11
60.5880942289
 21
61.3252182554
  0
LINE
  5
357
100
AcDbEntity
  8
0
100
AcDbLine
 62
7
  6
CONTINUOUS
 10
35.5536733563
 20
46.7421645386
 11
32.4424164725
 21
44.9458902616
  0
LINE
  5
358
100
AcDbEntity
  8
0
100
AcDbLine
 62
7
  6
CONTINUOUS
 10
60.778223689
 20
61.2953566501
 11
59.1865819339
 21
60.3764273396
  0
LINE
  5
359
100
AcDbEntity
  8
0
100
AcDbLine
 62
7
  6
CONTINUOUS
 10
35.419041514
 20
46.6026257251
 11
32.3077846303
 21
44.806351448
  0
LINE
  5
35A
100
AcDbEntity
  8
0
100
AcDbLine
 62
7
  6
CONTINUOUS
 10
59.5770158918
 20
60.446656985
 11
59.2234639732
 21
60.2425349081
  0
LINE
  5
35B
100
AcDbEntity
  8
0
100
AcDbLine
 62
7
  6
CONTINUOUS
 10
65.7590185777
 20
63.9975879304
 11
67.7035526588
 21
65.1202585041
  0
LINE
  5
35C
100
AcDbEntity
  8
0
100
AcDbLine
 62
7
  6
CONTINUOUS
 10
60.3474964838
 20
60.7930684901
 11
59.8594545986
 21
60.5112990583
  0
LINE
  5
35D
100
AcDbEntity
  8
0
100
AcDbLine
 62
7
  6
CONTINUOUS
 10
65.7590185777
 20
63.875116096
 11
65.264045892
 21
63.5893451881
  0
LINE
  5
35E
100
AcDbEntity
  8
0
100
AcDbLine
 62
7
  6
CONTINUOUS
 10
68.0571060494
 20
64.9161337496
 11
65.2640458924
 21
63.3035693418
  0
LINE
  5
35F
100
AcDbEntity
  8
0
100
AcDbLine
 62
7
  6
CONTINUOUS
 10
61.5737273873
 20
60.9694605873
 11
59.7226043542
 21
59.9007205853
  0
LINE
  5
360
100
AcDbEntity
  8
0
100
AcDbLine
 62
7
  6
CONTINUOUS
 10
59.7969796526
 20
59.5776701045
 11
62.0720767305
 21
60.8911901742
  0
LINE
  5
361
100
AcDbEntity
  8
0
100
AcDbLine
 62
7
  6
CONTINUOUS
 10
62.4754305798
 20
60.7404391105
 11
59.5409496554
 21
59.046225872
  0
LINE
  5
362
100
AcDbEntity
  8
0
100
AcDbLine
 62
7
  6
CONTINUOUS
 10
59.8188616614
 20
59.5397691274
 11
59.4645050683
 21
59.3357734321
  0
LINE
  5
363
100
AcDbEntity
  8
0
100
AcDbLine
 62
7
  6
CONTINUOUS
 10
68.0571060494
 20
64.9161337496
 11
66.2539777223
 21
65.9571520509
  0
LINE
  5
364
100
AcDbEntity
  8
0
100
AcDbLine
 62
7
  6
CONTINUOUS
 10
65.5115258979
 20
66.7124608053
 11
65.7590185777
 21
66.5695740725
  0
LINE
  5
365
100
AcDbEntity
  8
0
100
AcDbLine
 62
7
  6
CONTINUOUS
 10
21.493959205
 20
92.9011506153
 11
22.2010689301
 21
92.4929098608
  0
LINE
  5
366
100
AcDbEntity
  8
0
100
AcDbLine
 62
7
  6
CONTINUOUS
 10
62.9305890986
 20
68.9782424004
 11
63.6376988237
 21
68.5700016459
  0
LINE
  5
367
100
AcDbEntity
  8
0
100
AcDbLine
 62
7
  6
CONTINUOUS
 10
22.2010689301
 20
93.2277432189
 11
22.1303526585
 21
93.2685703538
  0
LINE
  5
368
100
AcDbEntity
  8
0
100
AcDbLine
 62
7
  6
CONTINUOUS
 10
63.5669825521
 20
69.3456621389
 11
63.6376935246
 21
69.3048380634
  0
LINE
  5
369
100
AcDbEntity
  8
0
100
AcDbLine
 62
7
  6
CONTINUOUS
 10
59.1584942599
 20
57.726573883
 11
58.2636649126
 21
61.0820589561
  0
LINE
  5
36A
100
AcDbEntity
  8
0
100
AcDbLine
 62
7
  6
CONTINUOUS
 10
59.5770158918
 20
60.446656985
 11
59.8188616614
 21
59.5397691274
  0
LINE
  5
36B
100
AcDbEntity
  8
0
100
AcDbLine
 62
7
  6
CONTINUOUS
 10
65.9995124333
 20
37.7957280579
 11
65.104683086
 21
41.1512131311
  0
LINE
  5
36C
100
AcDbEntity
  8
0
100
AcDbLine
 62
7
  6
CONTINUOUS
 10
60.288888433
 20
61.0128404947
 11
60.3474964838
 21
60.7930684901
  0
LINE
  5
36D
100
AcDbEntity
  8
0
100
AcDbLine
 62
7
  6
CONTINUOUS
 10
59.4645050683
 20
59.3357734321
 11
59.5409496554
 21
59.046225872
  0
LINE
  5
36E
100
AcDbEntity
  8
0
100
AcDbLine
 62
7
  6
CONTINUOUS
 10
58.7939972065
 20
30.6638053205
 11
58.7939972065
 21
31.4803077376
  0
LINE
  5
36F
100
AcDbEntity
  8
0
100
AcDbLine
 62
7
  6
CONTINUOUS
 10
59.0414856208
 20
76.1634061678
 11
59.0414856208
 21
87.8393907328
  0
LINE
  5
370
100
AcDbEntity
  8
0
100
AcDbLine
 62
7
  6
CONTINUOUS
 10
59.0768410933
 20
64.7119602982
 11
59.0768410933
 21
63.8954578811
  0
LINE
  5
371
100
AcDbEntity
  8
0
100
AcDbLine
 62
7
  6
CONTINUOUS
 10
59.4489954041
 20
73.437803235
 11
59.4489954041
 21
75.9281356073
  0
LINE
  5
372
100
AcDbEntity
  8
0
100
AcDbLine
 62
7
  6
CONTINUOUS
 10
59.4657514454
 20
75.9184617212
 11
59.4657514454
 21
73.4689544698
  0
LINE
  5
373
100
AcDbEntity
  8
0
100
AcDbLine
 62
7
  6
CONTINUOUS
 10
59.7132345468
 20
64.3445466786
 11
59.7132345468
 21
64.2628776196
  0
LINE
  5
374
100
AcDbEntity
  8
0
100
AcDbLine
 62
7
  6
CONTINUOUS
 10
59.8900119813
 20
64.2424864881
 11
59.8900119813
 21
64.1608174291
  0
LINE
  5
375
100
AcDbEntity
  8
0
100
AcDbLine
 62
7
  6
CONTINUOUS
 10
60.0853888576
 20
76.2955553458
 11
60.0853888576
 21
76.2762074125
  0
LINE
  5
376
100
AcDbEntity
  8
0
100
AcDbLine
 62
7
  6
CONTINUOUS
 10
60.6324824919
 20
55.8121069486
 11
60.6324824919
 21
54.9956045314
  0
LINE
  5
377
100
AcDbEntity
  8
0
100
AcDbLine
 62
7
  6
CONTINUOUS
 10
61.1981702688
 20
62.6707356175
 11
61.1981702688
 21
63.4872380347
  0
LINE
  5
378
100
AcDbEntity
  8
0
100
AcDbLine
 62
7
  6
CONTINUOUS
 10
61.2688759453
 20
55.4446933289
 11
61.2688759453
 21
55.3630242699
  0
LINE
  5
379
100
AcDbEntity
  8
0
100
AcDbLine
 62
7
  6
CONTINUOUS
 10
59.8629922299
 20
87.6932011678
 11
59.8667807686
 21
91.6102230642
  0
LINE
  5
37A
100
AcDbEntity
  8
0
100
AcDbLine
 62
7
  6
CONTINUOUS
 10
69.0116962297
 20
63.7936028577
 11
64.6276524389
 21
61.2624891033
  0
LINE
  5
37B
100
AcDbEntity
  8
0
100
AcDbLine
 62
7
  6
CONTINUOUS
 10
68.8045842661
 20
63.3358169161
 11
64.4205404754
 21
60.8047031621
  0
LINE
  5
37C
100
AcDbEntity
  8
0
100
AcDbLine
 62
7
  6
CONTINUOUS
 10
63.5425380507
 20
60.257687637
 11
59.1584942599
 21
57.726573883
  0
LINE
  5
37D
100
AcDbEntity
  8
0
100
AcDbLine
 62
7
  6
CONTINUOUS
 10
64.8714696323
 20
60.0489665354
 11
60.4874258415
 21
57.5178527814
  0
LINE
  5
37E
100
AcDbEntity
  8
0
100
AcDbLine
 62
7
  6
CONTINUOUS
 10
65.9710200479
 20
59.2680392792
 11
61.5869762572
 21
56.7369255252
  0
LINE
  5
37F
100
AcDbEntity
  8
0
100
AcDbLine
 62
7
  6
CONTINUOUS
 10
38.8535029573
 20
84.8792710138
 11
40.9748321328
 21
83.6545487502
  0
LINE
  5
380
100
AcDbEntity
  8
0
100
AcDbLine
 62
7
  6
CONTINUOUS
 10
63.6376988237
 20
70.6112576887
 11
62.9305890986
 21
71.0194984432
  0
LINE
  5
381
100
AcDbEntity
  8
0
100
AcDbLine
 62
7
  6
CONTINUOUS
 10
22.2010689301
 20
94.5341659036
 11
21.493959205
 21
94.9424066581
  0
LINE
  5
382
100
AcDbEntity
  8
0
100
AcDbLine
 62
7
  6
CONTINUOUS
 10
20.5040055898
 20
95.922194923
 11
26.8679931161
 21
92.2480281323
  0
LINE
  5
383
100
AcDbEntity
  8
0
100
AcDbLine
 62
7
  6
CONTINUOUS
 10
59.4489954041
 20
73.437803235
 11
64.6276524389
 21
70.447971841
  0
LINE
  5
384
100
AcDbEntity
  8
0
100
AcDbLine
 62
7
  6
CONTINUOUS
 10
20.4686501035
 20
95.9834320816
 11
26.8679931161
 21
92.2888532532
  0
LINE
  5
385
100
AcDbEntity
  8
0
100
AcDbLine
 62
7
  6
CONTINUOUS
 10
59.4657514454
 20
73.4689544698
 11
64.6630079252
 21
70.4683849241
  0
LINE
  5
386
100
AcDbEntity
  8
0
100
AcDbLine
 62
7
  6
CONTINUOUS
 10
40.9748321328
 20
84.3893821084
 11
39.4898964108
 21
85.2466907523
  0
LINE
  5
387
100
AcDbEntity
  8
0
100
AcDbLine
 62
7
  6
CONTINUOUS
 10
40.9748321328
 20
84.4710511674
 11
38.8535029573
 21
85.6957734309
  0
LINE
  5
388
100
AcDbEntity
  8
0
100
AcDbLine
 62
7
  6
CONTINUOUS
 10
53.0310529465
 20
78.9802506536
 11
34.1512232851
 21
89.8802787993
  0
LINE
  5
389
100
AcDbEntity
  8
0
100
AcDbLine
 62
7
  6
CONTINUOUS
 10
53.0310529465
 20
79.5926117854
 11
34.4694200118
 21
90.3089331213
  0
LINE
  5
38A
100
AcDbEntity
  8
0
100
AcDbLine
 62
7
  6
CONTINUOUS
 10
64.2740975764
 20
73.1424245905
 11
59.4657514454
 21
75.9184617212
  0
LINE
  5
38B
100
AcDbEntity
  8
0
100
AcDbLine
 62
7
  6
CONTINUOUS
 10
59.4489954041
 20
75.9281356073
 11
59.0414856208
 21
76.1634061678
  0
LINE
  5
38C
100
AcDbEntity
  8
0
100
AcDbLine
 62
7
  6
CONTINUOUS
 10
26.8679931161
 20
94.7383605046
 11
20.8575604523
 21
98.208406918
  0
LINE
  5
38D
100
AcDbEntity
  8
0
100
AcDbLine
 62
7
  6
CONTINUOUS
 10
65.9950145976
 20
40.5664006191
 11
66.0675683284
 21
40.2943342618
  0
LINE
  5
38E
100
AcDbEntity
  8
0
100
AcDbLine
 62
7
  6
CONTINUOUS
 10
66.309414098
 20
39.3874464042
 11
66.3819678288
 21
39.1153800469
  0
LINE
  5
38F
100
AcDbEntity
  8
0
100
AcDbLine
 62
7
  6
CONTINUOUS
 10
66.421120247
 20
40.4984563387
 11
66.6629660166
 21
39.5915684811
  0
LINE
  5
390
100
AcDbEntity
  8
0
100
AcDbLine
 62
7
  6
CONTINUOUS
 10
67.1299066065
 20
41.0819946697
 11
67.1946445754
 21
40.8392363279
  0
LINE
  5
391
100
AcDbEntity
  8
0
100
AcDbLine
 62
7
  6
CONTINUOUS
 10
62.0720767305
 20
60.8911901742
 11
62.0161441068
 21
61.1009297008
  0
LINE
  5
392
100
AcDbEntity
  8
0
100
AcDbLine
 62
7
  6
CONTINUOUS
 10
62.4754305798
 20
60.7404391105
 11
62.3951713712
 21
61.0413999332
  0
LINE
  5
393
100
AcDbEntity
  8
0
100
AcDbLine
 62
7
  6
CONTINUOUS
 10
63.374561128
 20
60.8875776359
 11
63.5425380507
 21
60.257687637
  0
LINE
  5
394
100
AcDbEntity
  8
0
100
AcDbLine
 62
7
  6
CONTINUOUS
 10
68.9130949039
 20
40.9603443491
 11
68.8571622802
 21
41.1700838757
  0
LINE
  5
395
100
AcDbEntity
  8
0
100
AcDbLine
 62
7
  6
CONTINUOUS
 10
69.3164487533
 20
40.8095932855
 11
69.2361895446
 21
41.1105541082
  0
LINE
  5
396
100
AcDbEntity
  8
0
100
AcDbLine
 62
7
  6
CONTINUOUS
 10
62.7538116673
 20
53.7708822679
 11
62.7538116673
 21
54.587384685
  0
LINE
  5
397
100
AcDbEntity
  8
0
100
AcDbLine
 62
7
  6
CONTINUOUS
 10
62.9305890986
 20
71.0194984432
 11
62.9305890986
 21
68.9782424004
  0
LINE
  5
398
100
AcDbEntity
  8
0
100
AcDbLine
 62
7
  6
CONTINUOUS
 10
63.3665192096
 20
76.1876218626
 11
63.3665192096
 21
75.6977204123
  0
LINE
  5
399
100
AcDbEntity
  8
0
100
AcDbLine
 62
7
  6
CONTINUOUS
 10
63.425529401
 20
78.6945199279
 11
63.425529401
 21
89.6825607585
  0
LINE
  5
39A
100
AcDbEntity
  8
0
100
AcDbLine
 62
7
  6
CONTINUOUS
 10
63.5669825521
 20
70.6520848236
 11
63.5669825521
 21
69.3456621389
  0
LINE
  5
39B
100
AcDbEntity
  8
0
100
AcDbLine
 62
7
  6
CONTINUOUS
 10
63.6376988237
 20
68.5700016459
 11
63.6376988237
 21
70.6112576887
  0
LINE
  5
39C
100
AcDbEntity
  8
0
100
AcDbLine
 62
7
  6
CONTINUOUS
 10
64.6276524389
 20
61.2624891037
 11
64.6276524389
 21
70.447971841
  0
LINE
  5
39D
100
AcDbEntity
  8
0
100
AcDbLine
 62
7
  6
CONTINUOUS
 10
64.6630079252
 20
70.4683849241
 11
64.6630079252
 21
67.4065008599
  0
LINE
  5
39E
100
AcDbEntity
  8
0
100
AcDbLine
 62
7
  6
CONTINUOUS
 10
64.6983634115
 20
56.2482531486
 11
64.6983634115
 21
54.4037003898
  0
LINE
  5
39F
100
AcDbEntity
  8
0
100
AcDbLine
 62
7
  6
CONTINUOUS
 10
64.7337188977
 20
56.2427002397
 11
64.7337188977
 21
54.4241134729
  0
LINE
  5
3A0
100
AcDbEntity
  8
0
100
AcDbLine
 62
7
  6
CONTINUOUS
 10
64.9812073015
 20
67.590218608
 11
64.9812073015
 21
71.9176814188
  0
LINE
  5
3A1
100
AcDbEntity
  8
0
100
AcDbLine
 62
7
  6
CONTINUOUS
 10
65.2640458924
 20
63.3035693418
 11
65.2640458924
 21
63.5893451878
  0
LINE
  5
3A2
100
AcDbEntity
  8
0
100
AcDbLine
 62
7
  6
CONTINUOUS
 10
65.2640458924
 20
66.2838031644
 11
65.2640458924
 21
66.5695790104
  0
LINE
  5
3A3
100
AcDbEntity
  8
0
100
AcDbLine
 62
7
  6
CONTINUOUS
 10
65.3347568649
 20
56.6156728871
 11
65.3347568649
 21
56.5897076005
  0
LINE
  5
3A4
100
AcDbEntity
  8
0
100
AcDbLine
 62
7
  6
CONTINUOUS
 10
65.7590185777
 20
66.5695740725
 11
65.7590185777
 21
63.875116096
  0
LINE
  5
3A5
100
AcDbEntity
  8
0
100
AcDbLine
 62
7
  6
CONTINUOUS
 10
65.8650944579
 20
44.7894016772
 11
65.8650944579
 21
43.9728992601
  0
LINE
  5
3A6
100
AcDbEntity
  8
0
100
AcDbLine
 62
7
  6
CONTINUOUS
 10
66.2539777223
 20
65.9571520509
 11
66.2539777223
 21
67.1411130072
  0
LINE
  5
3A7
100
AcDbEntity
  8
0
100
AcDbLine
 62
7
  6
CONTINUOUS
 10
64.2470360206
 20
90.2243149218
 11
64.2508245593
 21
94.1413368182
  0
LINE
  5
3A8
100
AcDbEntity
  8
0
100
AcDbLine
 62
7
  6
CONTINUOUS
 10
61.2688759453
 20
55.3630242699
 11
60.6324824919
 21
54.9956045314
  0
LINE
  5
3A9
100
AcDbEntity
  8
0
100
AcDbLine
 62
7
  6
CONTINUOUS
 10
64.6983634115
 20
56.2482531487
 11
65.3347568649
 21
56.6156728871
  0
LINE
  5
3AA
100
AcDbEntity
  8
0
100
AcDbLine
 62
7
  6
CONTINUOUS
 10
64.7337188977
 20
56.2427002397
 11
65.3701123512
 21
56.6101199782
  0
LINE
  5
3AB
100
AcDbEntity
  8
0
100
AcDbLine
 62
7
  6
CONTINUOUS
 10
66.234917307
 20
56.0069230259
 11
70.6189610977
 21
58.5380367799
  0
LINE
  5
3AC
100
AcDbEntity
  8
0
100
AcDbLine
 62
7
  6
CONTINUOUS
 10
64.7337192032
 20
54.4241129438
 11
64.6983634115
 21
54.4037003898
  0
LINE
  5
3AD
100
AcDbEntity
  8
0
100
AcDbLine
 62
7
  6
CONTINUOUS
 10
69.1754572731
 20
55.2563609228
 11
71.0226027468
 21
56.1441203993
  0
LINE
  5
3AE
100
AcDbEntity
  8
0
100
AcDbLine
 62
7
  6
CONTINUOUS
 10
71.5344316871
 20
55.7891460681
 11
70.1706662082
 21
55.1337046073
  0
LINE
  5
3AF
100
AcDbEntity
  8
0
100
AcDbLine
 62
7
  6
CONTINUOUS
 10
60.1021448989
 20
76.2858814597
 11
60.0853888576
 21
76.2955553458
  0
LINE
  5
3B0
100
AcDbEntity
  8
0
100
AcDbLine
 62
7
  6
CONTINUOUS
 10
57.2737112974
 20
78.4495868068
 11
57.9808210226
 21
78.0413460522
  0
LINE
  5
3B1
100
AcDbEntity
  8
0
100
AcDbLine
 62
7
  6
CONTINUOUS
 10
57.9808210226
 20
78.7761794104
 11
57.9101047509
 21
78.8170065452
  0
LINE
  5
3B2
100
AcDbEntity
  8
0
100
AcDbLine
 62
7
  6
CONTINUOUS
 10
57.9808210226
 20
80.4908533036
 11
57.2737112974
 21
80.8990940582
  0
LINE
  5
3B3
100
AcDbEntity
  8
0
100
AcDbLine
 62
7
  6
CONTINUOUS
 10
54.7487209389
 20
93.2243113736
 11
53.9979315617
 21
95.1693929444
  0
LINE
  5
3B4
100
AcDbEntity
  8
0
100
AcDbLine
 62
7
  6
CONTINUOUS
 10
70.2155793014
 20
40.9567318108
 11
70.3835562241
 21
40.3268418119
  0
LINE
  5
3B5
100
AcDbEntity
  8
0
100
AcDbLine
 62
7
  6
CONTINUOUS
 10
66.5014879114
 20
44.4219880576
 11
66.5014879114
 21
44.3403189986
  0
LINE
  5
3B6
100
AcDbEntity
  8
0
100
AcDbLine
 62
7
  6
CONTINUOUS
 10
66.6782653427
 20
44.3199278689
 11
66.6782653427
 21
44.23825881
  0
LINE
  5
3B7
100
AcDbEntity
  8
0
100
AcDbLine
 62
7
  6
CONTINUOUS
 10
67.4207358533
 20
35.8895483294
 11
67.4207358533
 21
35.0730459123
  0
LINE
  5
3B8
100
AcDbEntity
  8
0
100
AcDbLine
 62
7
  6
CONTINUOUS
 10
67.7035526588
 20
65.1202585041
 11
67.7035526588
 21
67.978016964
  0
LINE
  5
3B9
100
AcDbEntity
  8
0
100
AcDbLine
 62
7
  6
CONTINUOUS
 10
67.9864236334
 20
42.7481769965
 11
67.9864236334
 21
43.5646794137
  0
LINE
  5
3BA
100
AcDbEntity
  8
0
100
AcDbLine
 62
7
  6
CONTINUOUS
 10
68.0571060494
 20
68.1821434182
 11
68.0571060494
 21
64.9161337496
  0
LINE
  5
3BB
100
AcDbEntity
  8
0
100
AcDbLine
 62
7
  6
CONTINUOUS
 10
68.0571293068
 20
35.5221347097
 11
68.0571293068
 21
35.4404656508
  0
LINE
  5
3BC
100
AcDbEntity
  8
0
100
AcDbLine
 62
7
  6
CONTINUOUS
 10
69.0116962297
 20
63.7936028577
 11
69.0116962297
 21
69.9172015307
  0
LINE
  5
3BD
100
AcDbEntity
  8
0
100
AcDbLine
 62
7
  6
CONTINUOUS
 10
69.3652510922
 20
70.121332362
 11
69.3652510922
 21
74.4487951728
  0
LINE
  5
3BE
100
AcDbEntity
  8
0
100
AcDbLine
 62
7
  6
CONTINUOUS
 10
69.5420650287
 20
33.8483236487
 11
69.5420650287
 21
34.6648260659
  0
LINE
  5
3BF
100
AcDbEntity
  8
0
100
AcDbLine
 62
7
  6
CONTINUOUS
 10
69.71884246
 20
51.0969398241
 11
69.71884246
 21
49.0556837813
  0
LINE
  5
3C0
100
AcDbEntity
  8
0
100
AcDbLine
 62
7
  6
CONTINUOUS
 10
75.4463947285
 20
55.7509797253
 11
71.0623509378
 21
53.2198659713
  0
LINE
  5
3C1
100
AcDbEntity
  8
0
100
AcDbLine
 62
7
  6
CONTINUOUS
 10
68.6581413671
 20
75.6735383445
 11
63.425529401
 21
78.6945199279
  0
LINE
  5
3C2
100
AcDbEntity
  8
0
100
AcDbLine
 62
7
  6
CONTINUOUS
 10
26.8679931161
 20
99.8005458608
 11
25.2416042431
 21
100.739520672
  0
LINE
  5
3C3
100
AcDbEntity
  8
0
100
AcDbLine
 62
7
  6
CONTINUOUS
 10
58.3819753525
 20
97.7005066984
 11
59.1327647296
 21
95.7554251277
  0
LINE
  5
3C4
100
AcDbEntity
  8
0
100
AcDbLine
 62
7
  6
CONTINUOUS
 10
70.3198857296
 20
24.4177322285
 11
70.3198857296
 21
23.6012298113
  0
LINE
  5
3C5
100
AcDbEntity
  8
0
100
AcDbLine
 62
7
  6
CONTINUOUS
 10
70.3552359135
 20
50.7295262044
 11
70.3552359135
 21
49.4231035198
  0
LINE
  5
3C6
100
AcDbEntity
  8
0
100
AcDbLine
 62
7
  6
CONTINUOUS
 10
70.4259521851
 20
48.6474430268
 11
70.4259521851
 21
50.6886990696
  0
LINE
  5
3C7
100
AcDbEntity
  8
0
100
AcDbLine
 62
7
  6
CONTINUOUS
 10
70.9562791831
 20
24.0503186088
 11
70.9562791831
 21
23.9686495498
  0
LINE
  5
3C8
100
AcDbEntity
  8
0
100
AcDbLine
 62
7
  6
CONTINUOUS
 10
71.1809112734
 20
56.0569048245
 11
71.1809112734
 21
55.6192400689
  0
LINE
  5
3C9
100
AcDbEntity
  8
0
100
AcDbLine
 62
7
  6
CONTINUOUS
 10
71.4159058003
 20
41.3399304846
 11
71.4159058003
 21
50.5254132218
  0
LINE
  5
3CA
100
AcDbEntity
  8
0
100
AcDbLine
 62
7
  6
CONTINUOUS
 10
71.4512612866
 20
50.545826305
 11
71.4512612866
 21
47.4839422407
  0
LINE
  5
3CB
100
AcDbEntity
  8
0
100
AcDbLine
 62
7
  6
CONTINUOUS
 10
71.4866167729
 20
36.3256945295
 11
71.4866167729
 21
34.4811417706
  0
LINE
  5
3CC
100
AcDbEntity
  8
0
100
AcDbLine
 62
7
  6
CONTINUOUS
 10
71.5219722591
 20
36.3201416206
 11
71.5219722591
 21
34.5015548538
  0
LINE
  5
3CD
100
AcDbEntity
  8
0
100
AcDbLine
 62
7
  6
CONTINUOUS
 10
71.7694606629
 20
47.6676599889
 11
71.7694606629
 21
51.9951227997
  0
LINE
  5
3CE
100
AcDbEntity
  8
0
100
AcDbLine
 62
7
  6
CONTINUOUS
 10
72.0522992538
 20
43.3810107264
 11
72.0522992538
 21
43.6667865687
  0
LINE
  5
3CF
100
AcDbEntity
  8
0
100
AcDbLine
 62
7
  6
CONTINUOUS
 10
72.0522992538
 20
46.3612445452
 11
72.0522992538
 21
46.6470203875
  0
LINE
  5
3D0
100
AcDbEntity
  8
0
100
AcDbLine
 62
7
  6
CONTINUOUS
 10
72.1230102264
 20
36.693114268
 11
72.1230102264
 21
36.6671489814
  0
LINE
  5
3D1
100
AcDbEntity
  8
0
100
AcDbLine
 62
7
  6
CONTINUOUS
 10
72.441214905
 20
22.3765075478
 11
72.441214905
 21
23.1930099649
  0
LINE
  5
3D2
100
AcDbEntity
  8
0
100
AcDbLine
 62
7
  6
CONTINUOUS
 10
72.5472719399
 20
46.6470154529
 11
72.5472719399
 21
43.9525574764
  0
LINE
  5
3D3
100
AcDbEntity
  8
0
100
AcDbLine
 62
7
  6
CONTINUOUS
 10
73.0422310837
 20
46.0345934317
 11
73.0422310837
 21
47.2185543844
  0
LINE
  5
3D4
100
AcDbEntity
  8
0
100
AcDbLine
 62
7
  6
CONTINUOUS
 10
71.7694606629
 20
51.9951227997
 11
76.1535044536
 21
54.5262365537
  0
LINE
  5
3D5
100
AcDbEntity
  8
0
100
AcDbLine
 62
7
  6
CONTINUOUS
 10
71.4512615921
 20
50.5458257758
 11
71.4159058003
 21
50.5254132218
  0
LINE
  5
3D6
100
AcDbEntity
  8
0
100
AcDbLine
 62
7
  6
CONTINUOUS
 10
70.3552359135
 20
49.4231035198
 11
69.71884246
 21
49.0556837813
  0
LINE
  5
3D7
100
AcDbEntity
  8
0
100
AcDbLine
 62
7
  6
CONTINUOUS
 10
27.0094150611
 20
104.1689655132
 11
27.6458138137
 21
103.8015488342
  0
LINE
  5
3D8
100
AcDbEntity
  8
0
100
AcDbLine
 62
7
  6
CONTINUOUS
 10
32.6662928623
 20
100.9030394771
 11
33.3026916149
 21
100.535622798
  0
LINE
  5
3D9
100
AcDbEntity
  8
0
100
AcDbLine
 62
7
  6
CONTINUOUS
 10
55.0816711495
 20
87.9618075588
 11
55.7887808746
 21
87.5535668043
  0
LINE
  5
3DA
100
AcDbEntity
  8
0
100
AcDbLine
 62
7
  6
CONTINUOUS
 10
55.7180646029
 20
88.3292272973
 11
55.7887808746
 21
88.2884001624
  0
LINE
  5
3DB
100
AcDbEntity
  8
0
100
AcDbLine
 62
7
  6
CONTINUOUS
 10
55.7887808746
 20
89.5948228471
 11
55.0816711495
 21
90.0030636016
  0
LINE
  5
3DC
100
AcDbEntity
  8
0
100
AcDbLine
 62
7
  6
CONTINUOUS
 10
59.0414856208
 20
87.8393907328
 11
58.4757978302
 21
88.1659833425
  0
LINE
  5
3DD
100
AcDbEntity
  8
0
100
AcDbLine
 62
7
  6
CONTINUOUS
 10
33.3026916149
 20
102.9851300494
 11
32.6662928623
 21
103.3525467285
  0
LINE
  5
3DE
100
AcDbEntity
  8
0
100
AcDbLine
 62
7
  6
CONTINUOUS
 10
27.6458138137
 20
106.2510560856
 11
27.0094150611
 21
106.6184727646
  0
LINE
  5
3DF
100
AcDbEntity
  8
0
100
AcDbLine
 62
7
  6
CONTINUOUS
 10
54.283699209
 20
90.994489065
 11
53.0310529465
 21
91.7176883609
  0
LINE
  5
3E0
100
AcDbEntity
  8
0
100
AcDbLine
 62
7
  6
CONTINUOUS
 10
53.1371076578
 20
91.7789187115
 11
34.4694200118
 21
102.5564693782
  0
LINE
  5
3E1
100
AcDbEntity
  8
0
100
AcDbLine
 62
7
  6
CONTINUOUS
 10
34.1512232851
 20
103.1076179568
 11
27.4362785976
 21
106.9844053751
  0
LINE
  5
3E2
100
AcDbEntity
  8
0
100
AcDbLine
 62
7
  6
CONTINUOUS
 10
34.4694200118
 20
103.2913278261
 11
33.7623102867
 21
103.6995685806
  0
LINE
  5
3E3
100
AcDbEntity
  8
0
100
AcDbLine
 62
7
  6
CONTINUOUS
 10
31.8884668655
 20
105.1488247888
 11
31.8557090806
 21
105.1677370769
  0
LINE
  5
3E4
100
AcDbEntity
  8
0
100
AcDbLine
 62
7
  6
CONTINUOUS
 10
29.7343799052
 20
106.3924593405
 11
29.6964267175
 21
106.4143711279
  0
LINE
  5
3E5
100
AcDbEntity
  8
0
100
AcDbLine
 62
7
  6
CONTINUOUS
 10
58.8669472992
 20
88.1062381708
 11
59.7214125172
 21
87.6118222989
  0
LINE
  5
3E6
100
AcDbEntity
  8
0
100
AcDbLine
 62
7
  6
CONTINUOUS
 10
53.4992072679
 20
91.5809031932
 11
54.4294859468
 21
91.0426196745
  0
LINE
  5
3E7
100
AcDbEntity
  8
0
100
AcDbLine
 62
7
  6
CONTINUOUS
 10
74.4918060235
 20
45.1976998831
 11
74.4918060235
 21
48.055458343
  0
LINE
  5
3E8
100
AcDbEntity
  8
0
100
AcDbLine
 62
7
  6
CONTINUOUS
 10
74.8453594076
 20
48.2595847934
 11
74.8453594076
 21
44.9935751324
  0
LINE
  5
3E9
100
AcDbEntity
  8
0
100
AcDbLine
 62
7
  6
CONTINUOUS
 10
75.7999495911
 20
43.8710442386
 11
75.7999495911
 21
49.9946429116
  0
LINE
  5
3EA
100
AcDbEntity
  8
0
100
AcDbLine
 62
7
  6
CONTINUOUS
 10
76.1535044536
 20
50.1987737429
 11
76.1535044536
 21
54.5262365537
  0
LINE
  5
3EB
100
AcDbEntity
  8
0
100
AcDbLine
 62
7
  6
CONTINUOUS
 10
76.5070958214
 20
31.174381205
 11
76.5070958214
 21
29.1331251621
  0
LINE
  5
3EC
100
AcDbEntity
  8
0
100
AcDbLine
 62
7
  6
CONTINUOUS
 10
77.1434892749
 20
30.8069675853
 11
77.1434892749
 21
29.5005449006
  0
LINE
  5
3ED
100
AcDbEntity
  8
0
100
AcDbLine
 62
7
  6
CONTINUOUS
 10
77.2142055466
 20
28.7248844076
 11
77.2142055466
 21
30.7661404505
  0
LINE
  5
3EE
100
AcDbEntity
  8
0
100
AcDbLine
 62
7
  6
CONTINUOUS
 10
71.4512612866
 20
47.4839422407
 11
76.1535044536
 21
50.1987737429
  0
LINE
  5
3EF
100
AcDbEntity
  8
0
100
AcDbLine
 62
7
  6
CONTINUOUS
 10
66.5014879114
 20
44.3403189986
 11
65.8650944579
 21
43.9728992601
  0
LINE
  5
3F0
100
AcDbEntity
  8
0
100
AcDbLine
 62
7
  6
CONTINUOUS
 10
66.7489763152
 20
44.1974347345
 11
66.8197048061
 21
44.238269604
  0
LINE
  5
3F1
100
AcDbEntity
  8
0
100
AcDbLine
 62
7
  6
CONTINUOUS
 10
72.0522992538
 20
46.6470203875
 11
74.8453594076
 21
48.2595847934
  0
LINE
  5
3F2
100
AcDbEntity
  8
0
100
AcDbLine
 62
7
  6
CONTINUOUS
 10
72.5472719399
 20
46.6470154529
 11
72.0522992538
 21
46.3612445452
  0
LINE
  5
3F3
100
AcDbEntity
  8
0
100
AcDbLine
 62
7
  6
CONTINUOUS
 10
73.0422310837
 20
46.0345934317
 11
72.5472719399
 21
45.7488303426
  0
LINE
  5
3F4
100
AcDbEntity
  8
0
100
AcDbLine
 62
7
  6
CONTINUOUS
 10
67.261811171
 20
41.4206486494
 11
66.4336146677
 21
40.9424920295
  0
LINE
  5
3F5
100
AcDbEntity
  8
0
100
AcDbLine
 62
7
  6
CONTINUOUS
 10
52.3630966772
 20
96.3081915954
 11
37.5099606239
 21
104.8834596955
  0
LINE
  5
3F6
100
AcDbEntity
  8
0
100
AcDbLine
 62
7
  6
CONTINUOUS
 10
37.5099606239
 20
105.8632625961
 11
38.2170703491
 21
105.4550218416
  0
LINE
  5
3F7
100
AcDbEntity
  8
0
100
AcDbLine
 62
7
  6
CONTINUOUS
 10
38.5352670758
 20
105.6387317108
 11
33.8137396545
 21
108.3646451701
  0
LINE
  5
3F8
100
AcDbEntity
  8
0
100
AcDbLine
 62
7
  6
CONTINUOUS
 10
54.3499076463
 20
93.3327245458
 11
54.6873029182
 21
93.1374988373
  0
LINE
  5
3F9
100
AcDbEntity
  8
0
100
AcDbLine
 62
7
  6
CONTINUOUS
 10
58.4673008677
 20
90.950293387
 11
58.8046961396
 21
90.7550676786
  0
LINE
  5
3FA
100
AcDbEntity
  8
0
100
AcDbLine
 62
7
  6
CONTINUOUS
 10
52.6537924978
 20
95.2939445407
 11
52.9366362116
 21
95.1302837872
  0
LINE
  5
3FB
100
AcDbEntity
  8
0
100
AcDbLine
 62
7
  6
CONTINUOUS
 10
59.7255167674
 20
91.8552626867
 11
59.1598293397
 21
92.1825841936
  0
LINE
  5
3FC
100
AcDbEntity
  8
0
100
AcDbLine
 62
7
  6
CONTINUOUS
 10
53.9979315617
 20
95.1693929444
 11
52.8665567063
 21
95.8240359583
  0
LINE
  5
3FD
100
AcDbEntity
  8
0
100
AcDbLine
 62
7
  6
CONTINUOUS
 10
52.8669513457
 20
96.2320590725
 11
52.6548185604
 21
96.3548046376
  0
LINE
  5
3FE
100
AcDbEntity
  8
0
100
AcDbLine
 62
7
  6
CONTINUOUS
 10
78.2041591618
 20
21.4185747563
 11
78.2041591618
 21
30.6028546027
  0
LINE
  5
3FF
100
AcDbEntity
  8
0
100
AcDbLine
 62
7
  6
CONTINUOUS
 10
78.239514648
 20
30.6232676858
 11
78.239514648
 21
27.5613836216
  0
LINE
  5
400
100
AcDbEntity
  8
0
100
AcDbLine
 62
7
  6
CONTINUOUS
 10
78.5577140243
 20
27.7451013698
 11
78.5577140243
 21
32.0725641805
  0
LINE
  5
401
100
AcDbEntity
  8
0
100
AcDbLine
 62
7
  6
CONTINUOUS
 10
78.8405526153
 20
23.4584521073
 11
78.8405526153
 21
23.7442279496
  0
LINE
  5
402
100
AcDbEntity
  8
0
100
AcDbLine
 62
7
  6
CONTINUOUS
 10
78.8405526153
 20
26.4386859261
 11
78.8405526153
 21
26.7244617684
  0
LINE
  5
403
100
AcDbEntity
  8
0
100
AcDbLine
 62
7
  6
CONTINUOUS
 10
79.3355253013
 20
26.7244568338
 11
79.3355253013
 21
24.0299988573
  0
LINE
  5
404
100
AcDbEntity
  8
0
100
AcDbLine
 62
7
  6
CONTINUOUS
 10
79.8304844451
 20
26.1120348126
 11
79.8304844451
 21
27.2959957652
  0
LINE
  5
405
100
AcDbEntity
  8
0
100
AcDbLine
 62
7
  6
CONTINUOUS
 10
81.2800593849
 20
25.275141264
 11
81.2800593849
 21
28.1328997239
  0
LINE
  5
406
100
AcDbEntity
  8
0
100
AcDbLine
 62
7
  6
CONTINUOUS
 10
81.633612769
 20
28.3370261743
 11
81.633612769
 21
25.0710165132
  0
LINE
  5
407
100
AcDbEntity
  8
0
100
AcDbLine
 62
7
  6
CONTINUOUS
 10
66.4336146677
 20
40.9424920295
 11
67.1418161939
 21
41.4394949799
  0
LINE
  5
408
100
AcDbEntity
  8
0
100
AcDbLine
 62
7
  6
CONTINUOUS
 10
65.9950145976
 20
40.5664006191
 11
67.4291124023
 21
41.3943724304
  0
LINE
  5
409
100
AcDbEntity
  8
0
100
AcDbLine
 62
7
  6
CONTINUOUS
 10
67.6192418625
 20
41.3645108251
 11
66.0272830423
 21
40.4453984581
  0
LINE
  5
40A
100
AcDbEntity
  8
0
100
AcDbLine
 62
7
  6
CONTINUOUS
 10
72.5472719399
 20
44.0750293079
 11
74.4918060235
 21
45.1976998831
  0
LINE
  5
40B
100
AcDbEntity
  8
0
100
AcDbLine
 62
7
  6
CONTINUOUS
 10
66.421120247
 20
40.4984563387
 11
66.0675683284
 21
40.2943342618
  0
LINE
  5
40C
100
AcDbEntity
  8
0
100
AcDbLine
 62
7
  6
CONTINUOUS
 10
72.5472719399
 20
43.9525574764
 11
72.0522992538
 21
43.6667865687
  0
LINE
  5
40D
100
AcDbEntity
  8
0
100
AcDbLine
 62
7
  6
CONTINUOUS
 10
67.1946445754
 20
40.8392363279
 11
66.7195479919
 21
40.5649408248
  0
LINE
  5
40E
100
AcDbEntity
  8
0
100
AcDbLine
 62
7
  6
CONTINUOUS
 10
56.8141101378
 20
34.7462764946
 11
55.3645150395
 21
33.9093517264
  0
LINE
  5
40F
100
AcDbEntity
  8
0
100
AcDbLine
 62
7
  6
CONTINUOUS
 10
74.8453594076
 20
44.9935751324
 11
72.0522992538
 21
43.3810107264
  0
LINE
  5
410
100
AcDbEntity
  8
0
100
AcDbLine
 62
7
  6
CONTINUOUS
 10
68.4147455608
 20
41.0386147622
 11
66.5622863146
 21
39.9691033019
  0
LINE
  5
411
100
AcDbEntity
  8
0
100
AcDbLine
 62
7
  6
CONTINUOUS
 10
66.6468653074
 20
39.6519438916
 11
68.9130949039
 21
40.9603443491
  0
LINE
  5
412
100
AcDbEntity
  8
0
100
AcDbLine
 62
7
  6
CONTINUOUS
 10
66.6629660166
 20
39.5915684811
 11
66.309414098
 21
39.3874464042
  0
LINE
  5
413
100
AcDbEntity
  8
0
100
AcDbLine
 62
7
  6
CONTINUOUS
 10
69.3164487533
 20
40.8095932855
 11
66.3819678288
 21
39.1153800469
  0
LINE
  5
414
100
AcDbEntity
  8
0
100
AcDbLine
 62
7
  6
CONTINUOUS
 10
75.7999495911
 20
43.8710442386
 11
71.4159058003
 21
41.3399304846
  0
LINE
  5
415
100
AcDbEntity
  8
0
100
AcDbLine
 62
7
  6
CONTINUOUS
 10
75.5928376275
 20
43.4132582969
 11
71.2087938368
 21
40.8821445429
  0
LINE
  5
416
100
AcDbEntity
  8
0
100
AcDbLine
 62
7
  6
CONTINUOUS
 10
70.3835562241
 20
40.3268418119
 11
65.9995124333
 21
37.7957280579
  0
LINE
  5
417
100
AcDbEntity
  8
0
100
AcDbLine
 62
7
  6
CONTINUOUS
 10
57.3090614845
 20
32.2559473225
 11
56.672668031
 21
31.888527584
  0
LINE
  5
418
100
AcDbEntity
  8
0
100
AcDbLine
 62
7
  6
CONTINUOUS
 10
57.5565498883
 20
32.1130630584
 11
57.6272783792
 21
32.1538979279
  0
LINE
  5
419
100
AcDbEntity
  8
0
100
AcDbLine
 62
7
  6
CONTINUOUS
 10
71.7143887115
 20
40.1109553037
 11
67.3303449208
 21
37.5798415497
  0
LINE
  5
41A
100
AcDbEntity
  8
0
100
AcDbLine
 62
7
  6
CONTINUOUS
 10
52.6548185604
 20
96.3548046376
 11
52.4044304768
 21
96.379785456
  0
LINE
  5
41B
100
AcDbEntity
  8
0
100
AcDbLine
 62
7
  6
CONTINUOUS
 10
56.7884742675
 20
98.91089921
 11
57.0388623511
 21
98.8859183916
  0
LINE
  5
41C
100
AcDbEntity
  8
0
100
AcDbLine
 62
7
  6
CONTINUOUS
 10
64.1095605581
 20
94.3863764407
 11
63.5438731304
 21
94.7136979476
  0
LINE
  5
41D
100
AcDbEntity
  8
0
100
AcDbLine
 62
7
  6
CONTINUOUS
 10
58.3819753525
 20
97.7005066984
 11
57.250600497
 21
98.3551497123
  0
LINE
  5
41E
100
AcDbEntity
  8
0
100
AcDbLine
 62
7
  6
CONTINUOUS
 10
57.2509951365
 20
98.7631728265
 11
57.0388623511
 21
98.8859183916
  0
LINE
  5
41F
100
AcDbEntity
  8
0
100
AcDbLine
 62
7
  6
CONTINUOUS
 10
82.5882029525
 20
23.9496885103
 11
82.5882029525
 21
30.0720842925
  0
LINE
  5
420
100
AcDbEntity
  8
0
100
AcDbLine
 62
7
  6
CONTINUOUS
 10
82.9417578151
 20
30.2762151238
 11
82.9417578151
 21
34.6036779345
  0
LINE
  5
421
100
AcDbEntity
  8
0
100
AcDbLine
 62
7
  6
CONTINUOUS
 10
72.7359374597
 20
39.3491457887
 11
68.351893669
 21
36.8180320347
  0
LINE
  5
422
100
AcDbEntity
  8
0
100
AcDbLine
 62
7
  6
CONTINUOUS
 10
68.0571293068
 20
35.4404656508
 11
67.4207358533
 21
35.0730459123
  0
LINE
  5
423
100
AcDbEntity
  8
0
100
AcDbLine
 62
7
  6
CONTINUOUS
 10
71.4866167729
 20
36.3256945295
 11
72.1230102264
 21
36.693114268
  0
LINE
  5
424
100
AcDbEntity
  8
0
100
AcDbLine
 62
7
  6
CONTINUOUS
 10
71.5219722591
 20
36.3201416206
 11
72.1583657126
 21
36.6875613591
  0
LINE
  5
425
100
AcDbEntity
  8
0
100
AcDbLine
 62
7
  6
CONTINUOUS
 10
73.0231706684
 20
36.0843644068
 11
77.4072144591
 21
38.6154781608
  0
LINE
  5
426
100
AcDbEntity
  8
0
100
AcDbLine
 62
7
  6
CONTINUOUS
 10
71.5219725646
 20
34.5015543247
 11
71.4866167729
 21
34.4811417706
  0
LINE
  5
427
100
AcDbEntity
  8
0
100
AcDbLine
 62
7
  6
CONTINUOUS
 10
82.2346480899
 20
35.8284211062
 11
77.8506042992
 21
33.2973073522
  0
LINE
  5
428
100
AcDbEntity
  8
0
100
AcDbLine
 62
7
  6
CONTINUOUS
 10
78.5577140243
 20
32.0725641805
 11
82.9417578151
 21
34.6036779345
  0
LINE
  5
429
100
AcDbEntity
  8
0
100
AcDbLine
 62
7
  6
CONTINUOUS
 10
78.2395149535
 20
30.6232671567
 11
78.2041591618
 21
30.6028546027
  0
LINE
  5
42A
100
AcDbEntity
  8
0
100
AcDbLine
 62
7
  6
CONTINUOUS
 10
77.1434892749
 20
29.5005449006
 11
76.5070958214
 21
29.1331251621
  0
LINE
  5
42B
100
AcDbEntity
  8
0
100
AcDbLine
 62
7
  6
CONTINUOUS
 10
70.9562791831
 20
23.9686495498
 11
70.3198857296
 21
23.6012298113
  0
LINE
  5
42C
100
AcDbEntity
  8
0
100
AcDbLine
 62
7
  6
CONTINUOUS
 10
78.239514648
 20
27.5613836216
 11
82.9417578151
 21
30.2762151238
  0
LINE
  5
42D
100
AcDbEntity
  8
0
100
AcDbLine
 62
7
  6
CONTINUOUS
 10
78.8405526153
 20
26.7244617684
 11
81.633612769
 21
28.3370261743
  0
LINE
  5
42E
100
AcDbEntity
  8
0
100
AcDbLine
 62
7
  6
CONTINUOUS
 10
79.3355253013
 20
26.7244568338
 11
78.8405526153
 21
26.4386859261
  0
LINE
  5
42F
100
AcDbEntity
  8
0
100
AcDbLine
 62
7
  6
CONTINUOUS
 10
79.8304844451
 20
26.1120348126
 11
79.3355253013
 21
25.8262717234
  0
LINE
  5
430
100
AcDbEntity
  8
0
100
AcDbLine
 62
7
  6
CONTINUOUS
 10
79.3355253013
 20
24.1524706888
 11
81.2800593849
 21
25.275141264
  0
LINE
  5
431
100
AcDbEntity
  8
0
100
AcDbLine
 62
7
  6
CONTINUOUS
 10
79.3355253013
 20
24.0299988573
 11
78.8405526153
 21
23.7442279496
  0
LINE
  5
432
100
AcDbEntity
  8
0
100
AcDbLine
 62
7
  6
CONTINUOUS
 10
81.633612769
 20
25.0710165132
 11
78.8405526153
 21
23.4584521073
  0
LINE
  5
433
100
AcDbEntity
  8
0
100
AcDbLine
 62
7
  6
CONTINUOUS
 10
82.5882029525
 20
23.9496885103
 11
78.2041591618
 21
21.4185747563
  0
LINE
  5
434
100
AcDbEntity
  8
0
100
AcDbLine
 62
7
  6
CONTINUOUS
 10
82.3810909889
 20
23.4919025687
 11
77.9970471982
 21
20.9607888147
  0
ARC
  5
435
100
AcDbEntity
  8
0
100
AcDbCircle
 62
7
  6
CONTINUOUS
 10
35.3714955913
 20
53.8722106041
 40
24.6872568775
100
AcDbArc
 50
14.9541569484
 51
15.1803594714
  0
ARC
  5
436
100
AcDbEntity
  8
0
100
AcDbCircle
 62
7
  6
CONTINUOUS
 10
48.1488949904
 20
77.6174370621
 40
16.0539720745
100
AcDbArc
 50
48.4188189735
 51
51.3578736372
  0
ARC
  5
437
100
AcDbEntity
  8
0
100
AcDbCircle
 62
7
  6
CONTINUOUS
 10
48.6537455298
 20
78.2374168654
 40
15.2544754119
100
AcDbArc
 50
51.3848058653
 51
51.8724893251
  0
ARC
  5
438
100
AcDbEntity
  8
0
100
AcDbCircle
 62
7
  6
CONTINUOUS
 10
19.4078671389
 20
80.9339712464
 40
3.5363234331
100
AcDbArc
 50
85.5525958542
 51
94.1850374921
  0
ARC
  5
439
100
AcDbEntity
  8
0
100
AcDbCircle
 62
7
  6
CONTINUOUS
 10
19.5741986921
 20
84.0239590007
 40
2.7134478351
100
AcDbArc
 50
71.2829170171
 51
72.5832064985
  0
ARC
  5
43A
100
AcDbEntity
  8
0
100
AcDbCircle
 62
7
  6
CONTINUOUS
 10
19.6085962969
 20
84.1248870653
 40
2.6068193614
100
AcDbArc
 50
68.5811566134
 51
71.2871177771
  0
ARC
  5
43B
100
AcDbEntity
  8
0
100
AcDbCircle
 62
7
  6
CONTINUOUS
 10
25.8928565316
 20
95.8286082307
 40
1.6264832345
100
AcDbArc
 50
115.6593452728
 51
117.8528927751
  0
ARC
  5
43C
100
AcDbEntity
  8
0
100
AcDbCircle
 62
7
  6
CONTINUOUS
 10
32.3480752334
 20
108.3296323287
 40
1.475
100
AcDbArc
 50
0.0
 51
180.0
  0
ARC
  5
43D
100
AcDbEntity
  8
0
100
AcDbCircle
 62
7
  6
CONTINUOUS
 10
25.2997981031
 20
96.5387655846
 40
0.6899666973
100
AcDbArc
 50
147.6260769975
 51
152.2812780196
  0
ARC
  5
43E
100
AcDbEntity
  8
0
100
AcDbCircle
 62
7
  6
CONTINUOUS
 10
31.4999169648
 20
109.1075013372
 40
0.5045510698
100
AcDbArc
 50
80.0032909685
 51
85.1656439045
  0
ARC
  5
43F
100
AcDbEntity
  8
0
100
AcDbCircle
 62
7
  6
CONTINUOUS
 10
87.7719901382
 20
68.1485458406
 40
29.6231657098
100
AcDbArc
 50
194.9684846642
 51
195.210509661
  0
ARC
  5
440
100
AcDbEntity
  8
0
100
AcDbCircle
 62
7
  6
CONTINUOUS
 10
76.8958877933
 20
31.7405505282
 40
3.5363234331
100
AcDbArc
 50
85.5525958542
 51
94.1850374921
  0
ARC
  5
441
100
AcDbEntity
  8
0
100
AcDbCircle
 62
7
  6
CONTINUOUS
 10
69.9969380129
 20
52.5666989958
 40
2.2164838308
100
AcDbArc
 50
279.4916808454
 51
281.4599098469
  0
ARC
  5
442
100
AcDbEntity
  8
0
100
AcDbCircle
 62
7
  6
CONTINUOUS
 10
70.0141388383
 20
52.1279309039
 40
2.1681530461
100
AcDbArc
 50
279.2412184038
 51
281.2492860234
  0
ARC
  5
443
100
AcDbEntity
  8
0
100
AcDbCircle
 62
7
  6
CONTINUOUS
 10
70.0332615414
 20
51.6567776556
 40
2.0880772129
100
AcDbArc
 50
279.0630540541
 51
281.1436073992
  0
ARC
  5
444
100
AcDbEntity
  8
0
100
AcDbCircle
 62
7
  6
CONTINUOUS
 10
65.0954389838
 20
38.8782894665
 40
2.0590478037
100
AcDbArc
 50
35.969974688
 51
40.3439536236
  0
ARC
  5
445
100
AcDbEntity
  8
0
100
AcDbCircle
 62
7
  6
CONTINUOUS
 10
58.2560142723
 20
58.8125503942
 40
2.0571826333
100
AcDbArc
 50
35.9143740327
 51
40.678742089
  0
ARC
  5
446
100
AcDbEntity
  8
0
100
AcDbCircle
 62
7
  6
CONTINUOUS
 10
70.0210603189
 20
51.5625722862
 40
1.9568365492
100
AcDbArc
 50
280.0984320645
 51
282.3734165642
  0
ARC
  5
447
100
AcDbEntity
  8
0
100
AcDbCircle
 62
7
  6
CONTINUOUS
 10
70.0342262903
 20
51.9266221548
 40
1.9275623072
100
AcDbArc
 50
279.8578879088
 51
282.1663838697
  0
ARC
  5
448
100
AcDbEntity
  8
0
100
AcDbCircle
 62
7
  6
CONTINUOUS
 10
70.0444717554
 20
52.311417356
 40
1.9187447912
100
AcDbArc
 50
279.5932556311
 51
281.9106928235
  0
ARC
  5
449
100
AcDbEntity
  8
0
100
AcDbCircle
 62
7
  6
CONTINUOUS
 10
70.216605717
 20
51.2787156196
 40
1.7674237858
100
AcDbArc
 50
274.4528467572
 51
277.2059976841
  0
ARC
  5
44A
100
AcDbEntity
  8
0
100
AcDbCircle
 62
7
  6
CONTINUOUS
 10
70.0116705743
 20
52.0041081969
 40
1.6939067064
100
AcDbArc
 50
281.9135146042
 51
284.4787173922
  0
ARC
  5
44B
100
AcDbEntity
  8
0
100
AcDbCircle
 62
7
  6
CONTINUOUS
 10
70.0225484279
 20
51.2068833045
 40
1.6800081327
100
AcDbArc
 50
280.7297028975
 51
281.9497496206
  0
ARC
  5
44C
100
AcDbEntity
  8
0
100
AcDbCircle
 62
7
  6
CONTINUOUS
 10
70.025036816
 20
51.5728552696
 40
1.6532726404
100
AcDbArc
 50
281.8868398604
 51
284.5134394812
  0
ARC
  5
44D
100
AcDbEntity
  8
0
100
AcDbCircle
 62
7
  6
CONTINUOUS
 10
69.8043704632
 20
54.6367104828
 40
1.6264832345
100
AcDbArc
 50
115.6593452728
 51
117.8528927751
  0
ARC
  5
44E
100
AcDbEntity
  8
0
100
AcDbCircle
 62
7
  6
CONTINUOUS
 10
70.0370394366
 20
51.1399234111
 40
1.6114989017
100
AcDbArc
 50
281.9386322834
 51
284.6309646446
  0
ARC
  5
44F
100
AcDbEntity
  8
0
100
AcDbCircle
 62
7
  6
CONTINUOUS
 10
58.8263950109
 20
59.4682183969
 40
1.1831181341
100
AcDbArc
 50
58.855247465
 51
61.5224706715
  0
ARC
  5
450
100
AcDbEntity
  8
0
100
AcDbCircle
 62
7
  6
CONTINUOUS
 10
70.9200816966
 20
55.2910669702
 40
0.7908910788
100
AcDbArc
 50
35.051339742
 51
39.0331204421
  0
ARC
  5
451
100
AcDbEntity
  8
0
100
AcDbCircle
 62
7
  6
CONTINUOUS
 10
63.1804513821
 20
72.5681516967
 40
2.2939939277
100
AcDbArc
 50
279.7384272096
 51
281.5921310671
  0
ARC
  5
452
100
AcDbEntity
  8
0
100
AcDbCircle
 62
7
  6
CONTINUOUS
 10
63.2004510332
 20
72.1514540751
 40
2.2661831527
100
AcDbArc
 50
279.3470944396
 51
281.2215625331
  0
ARC
  5
453
100
AcDbEntity
  8
0
100
AcDbCircle
 62
7
  6
CONTINUOUS
 10
63.227919569
 20
71.6548130836
 40
2.1591454276
100
AcDbArc
 50
279.0762309702
 51
281.042547273
  0
ARC
  5
454
100
AcDbEntity
  8
0
100
AcDbCircle
 62
7
  6
CONTINUOUS
 10
63.197021711
 20
71.5363160066
 40
2.0933298349
100
AcDbArc
 50
280.2196928528
 51
282.2554676812
  0
ARC
  5
455
100
AcDbEntity
  8
0
100
AcDbCircle
 62
7
  6
CONTINUOUS
 10
63.2172257428
 20
71.8315129087
 40
1.9959333036
100
AcDbArc
 50
280.1351545915
 51
282.2702215087
  0
ARC
  5
456
100
AcDbEntity
  8
0
100
AcDbCircle
 62
7
  6
CONTINUOUS
 10
63.2439330228
 20
72.1184861988
 40
1.8889817481
100
AcDbArc
 50
279.8933412217
 51
282.1482119569
  0
ARC
  5
457
100
AcDbEntity
  8
0
100
AcDbCircle
 62
7
  6
CONTINUOUS
 10
63.2253707691
 20
71.3812824423
 40
1.5839751245
100
AcDbArc
 50
282.4641465615
 51
285.1059447218
  0
ARC
  5
458
100
AcDbEntity
  8
0
100
AcDbCircle
 62
7
  6
CONTINUOUS
 10
63.2541243154
 20
70.9674118519
 40
1.5529433407
100
AcDbArc
 50
281.7796358162
 51
284.5349282819
  0
ARC
  5
459
100
AcDbEntity
  8
0
100
AcDbCircle
 62
7
  6
CONTINUOUS
 10
63.2411297647
 20
71.7207282463
 40
1.5301400606
100
AcDbArc
 50
282.3065688397
 51
285.0382743617
  0
ARC
  5
45A
100
AcDbEntity
  8
0
100
AcDbCircle
 62
7
  6
CONTINUOUS
 10
63.2624067358
 20
72.0530077808
 40
1.4677753256
100
AcDbArc
 50
281.9872111235
 51
283.6972267749
  0
ARC
  5
45B
100
AcDbEntity
  8
0
100
AcDbCircle
 62
7
  6
CONTINUOUS
 10
56.7368189733
 20
81.4299015732
 40
0.9480381042
100
AcDbArc
 50
180.0062187254
 51
181.436752174
  0
ARC
  5
45C
100
AcDbEntity
  8
0
100
AcDbCircle
 62
7
  6
CONTINUOUS
 10
56.948632486
 20
80.741522524
 40
0.4819893581
100
AcDbArc
 50
274.759175769
 51
285.8527796521
  0
ARC
  5
45D
100
AcDbEntity
  8
0
100
AcDbCircle
 62
7
  6
CONTINUOUS
 10
56.9563730027
 20
80.7140762217
 40
0.4534724804
100
AcDbArc
 50
285.8592601822
 51
299.9869259495
  0
ARC
  5
45E
100
AcDbEntity
  8
0
100
AcDbCircle
 62
7
  6
CONTINUOUS
 10
56.8282536699
 20
80.4461989927
 40
0.335500437
100
AcDbArc
 50
299.9730252038
 51
308.4841479549
  0
ARC
  5
45F
100
AcDbEntity
  8
0
100
AcDbCircle
 62
7
  6
CONTINUOUS
 10
54.606186955
 20
93.1691231282
 40
0.152845278
100
AcDbArc
 50
14.9135243439
 51
21.1660841035
  0
SPLINE
  5
460
100
AcDbEntity
  8
0
100
AcDbSpline
 62
7
  6
CONTINUOUS
 70
0
 71
3
 72
16
 73
12
 74
0
 42
0.0000001
 43
0.0000001
 44
0.0000000001
 40
0.0
 40
0.0
 40
0.0
 40
0.0
 40
0.0517180579
 40
0.1045970627
 40
0.2145185708
 40
0.331027796
 40
0.4544836472
 40
0.584443672
 40
0.7198040714
 40
0.8589561329
 40
1.0
 40
1.0
 40
1.0
 40
1.0
 10
61.6522081629
 20
75.5509357264
 30
0.0
 10
61.6687432885
 20
75.5795589055
 30
0.0
 10
61.7054396164
 20
75.6356251327
 30
0.0
 10
61.7919896776
 20
75.7422099131
 30
0.0
 10
61.9238834866
 20
75.8640181707
 30
0.0
 10
62.1107535195
 20
75.9882230184
 30
0.0
 10
62.3240662143
 20
76.091669089
 30
0.0
 10
62.5593213494
 20
76.1732375509
 30
0.0
 10
62.8115741982
 20
76.2318248221
 30
0.0
 10
63.0752941805
 20
76.2664760617
 30
0.0
 10
63.2545603157
 20
76.2731796418
 30
0.0
 10
63.3447061727
 20
76.2724045109
 30
0.0
  0
SPLINE
  5
461
100
AcDbEntity
  8
0
100
AcDbSpline
 62
7
  6
CONTINUOUS
 70
0
 71
3
 72
15
 73
11
 74
0
 42
0.0000001
 43
0.0000001
 44
0.0000000001
 40
0.0
 40
0.0
 40
0.0
 40
0.0
 40
0.1400181709
 40
0.2759455626
 40
0.4073332996
 40
0.5341244645
 40
0.6564149715
 40
0.7744782184
 40
0.8887884943
 40
1.0
 40
1.0
 40
1.0
 40
1.0
 10
64.12156641
 20
76.1560458126
 30
0.0
 10
64.1702649608
 20
76.1410006499
 30
0.0
 10
64.2653079134
 20
76.1082080058
 30
0.0
 10
64.4018467726
 20
76.050059278
 30
0.0
 10
64.5293014353
 20
75.9838715947
 30
0.0
 10
64.6466363054
 20
75.9099593159
 30
0.0
 10
64.7528971206
 20
75.8285629895
 30
0.0
 10
64.8470984735
 20
75.7399123456
 30
0.0
 10
64.9281613787
 20
75.6443080286
 30
0.0
 10
64.9732195445
 20
75.5753493548
 30
0.0
 10
64.9929688569
 20
75.5400099911
 30
0.0
  0
SPLINE
  5
462
100
AcDbEntity
  8
0
100
AcDbSpline
 62
7
  6
CONTINUOUS
 70
0
 71
3
 72
14
 73
10
 74
0
 42
0.0000001
 43
0.0000001
 44
0.0000000001
 40
0.0
 40
0.0
 40
0.0
 40
0.0
 40
0.3702749119
 40
0.5234407428
 40
0.6545998613
 40
0.7644486291
 40
0.8550661162
 40
0.9308784314
 40
1.0
 40
1.0
 40
1.0
 40
1.0
 10
64.0891693749
 20
76.119837236
 30
0.0
 10
64.0917762094
 20
76.1256391774
 30
0.0
 10
64.0957700581
 20
76.1337246143
 30
0.0
 10
64.1017998691
 20
76.1432285082
 30
0.0
 10
64.1059482882
 20
76.1485967162
 30
0.0
 10
64.1099939619
 20
76.1526375731
 30
0.0
 10
64.1139467042
 20
76.1553355596
 30
0.0
 10
64.1178662637
 20
76.1566190813
 30
0.0
 10
64.1204311845
 20
76.1563922916
 30
0.0
 10
64.1215659161
 20
76.1560426194
 30
0.0
  0
SPLINE
  5
463
100
AcDbEntity
  8
0
100
AcDbSpline
 62
7
  6
CONTINUOUS
 70
0
 71
3
 72
9
 73
5
 74
0
 42
0.0000001
 43
0.0000001
 44
0.0000000001
 40
0.0
 40
0.0
 40
0.0
 40
0.0
 40
0.4957856824
 40
1.0
 40
1.0
 40
1.0
 40
1.0
 10
63.8765011076
 20
75.6463130573
 30
0.0
 10
63.7932175655
 20
75.6622070126
 30
0.0
 10
63.6236990467
 20
75.6866009746
 30
0.0
 10
63.4527371238
 20
75.696400838
 30
0.0
 10
63.3665192096
 20
75.6977204123
 30
0.0
  0
SPLINE
  5
464
100
AcDbEntity
  8
0
100
AcDbSpline
 62
7
  6
CONTINUOUS
 70
0
 71
3
 72
16
 73
12
 74
0
 42
0.0000001
 43
0.0000001
 44
0.0000000001
 40
0.0
 40
0.0
 40
0.0
 40
0.0
 40
0.2036653462
 40
0.3870601455
 40
0.5473738628
 40
0.6830948179
 40
0.7936335538
 40
0.8798690436
 40
0.9453782116
 40
0.9732122238
 40
1.0
 40
1.0
 40
1.0
 40
1.0
 10
63.3665192096
 20
76.1876218626
 30
0.0
 10
63.3665192096
 20
76.1938695268
 30
0.0
 10
63.3663038591
 20
76.2057449127
 30
0.0
 10
63.3652512752
 20
76.2225098124
 30
0.0
 10
63.3634935139
 20
76.2371221987
 30
0.0
 10
63.3610800708
 20
76.2493728903
 30
0.0
 10
63.358033238
 20
76.2591419462
 30
0.0
 10
63.3544255891
 20
76.266374015
 30
0.0
 10
63.35058529
 20
76.2705477692
 30
0.0
 10
63.34721118
 20
76.2721388523
 30
0.0
 10
63.3455274693
 20
76.2723943056
 30
0.0
 10
63.3447057593
 20
76.2724019139
 30
0.0
  0
SPLINE
  5
465
100
AcDbEntity
  8
0
100
AcDbSpline
 62
7
  6
CONTINUOUS
 70
0
 71
3
 72
13
 73
9
 74
0
 42
0.0000001
 43
0.0000001
 44
0.0000000001
 40
0.0
 40
0.0
 40
0.0
 40
0.0
 40
0.0694369346
 40
0.1495379957
 40
0.2449796763
 40
0.3582140062
 40
0.6416050092
 40
1.0
 40
1.0
 40
1.0
 40
1.0
 10
63.3447057593
 20
76.2724019139
 30
0.0
 10
63.34357112
 20
76.2724124197
 30
0.0
 10
63.3411142185
 20
76.2719492512
 30
0.0
 10
63.3375474976
 20
76.2700484874
 30
0.0
 10
63.3339052479
 20
76.2670120968
 30
0.0
 10
63.3285263582
 20
76.2610090857
 30
0.0
 10
63.3218401866
 20
76.2505665849
 30
0.0
 10
63.3171989727
 20
76.2411520003
 30
0.0
 10
63.3147987115
 20
76.235809822
 30
0.0
  0
SPLINE
  5
466
100
AcDbEntity
  8
0
100
AcDbSpline
 62
7
  6
CONTINUOUS
 70
0
 71
3
 72
15
 73
11
 74
0
 42
0.0000001
 43
0.0000001
 44
0.0000000001
 40
0.0
 40
0.0
 40
0.0
 40
0.0
 40
0.1009097948
 40
0.2069880244
 40
0.3197470092
 40
0.4401334358
 40
0.5685694812
 40
0.7050067447
 40
0.849074828
 40
1.0
 40
1.0
 40
1.0
 40
1.0
 10
64.8773826535
 20
75.4601160942
 30
0.0
 10
64.8684234439
 20
75.4949427915
 30
0.0
 10
64.8430506282
 20
75.5647281059
 30
0.0
 10
64.7858014035
 20
75.6638120732
 30
0.0
 10
64.7095647906
 20
75.7581909696
 30
0.0
 10
64.6154455104
 20
75.8467047266
 30
0.0
 10
64.5046948539
 20
75.9283283909
 30
0.0
 10
64.3787354416
 20
76.002099973
 30
0.0
 10
64.2391862045
 20
76.0670933652
 30
0.0
 10
64.1403442794
 20
76.1032879051
 30
0.0
 10
64.0891693749
 20
76.119837236
 30
0.0
  0
SPLINE
  5
467
100
AcDbEntity
  8
0
100
AcDbSpline
 62
7
  6
CONTINUOUS
 70
0
 71
3
 72
9
 73
5
 74
0
 42
0.0000001
 43
0.0000001
 44
0.0000000001
 40
0.0
 40
0.0
 40
0.0
 40
0.0
 40
0.2536979683
 40
1.0
 40
1.0
 40
1.0
 40
1.0
 10
61.7949389514
 20
75.5548211949
 30
0.0
 10
61.7914794104
 20
75.5471214142
 30
0.0
 10
61.7784583253
 20
75.5164997151
 30
0.0
 10
61.767963177
 20
75.4847941804
 30
0.0
 10
61.7617453305
 20
75.4607536135
 30
0.0
  0
SPLINE
  5
468
100
AcDbEntity
  8
0
100
AcDbSpline
 62
7
  6
CONTINUOUS
 70
0
 71
3
 72
16
 73
12
 74
0
 42
0.0000001
 43
0.0000001
 44
0.0000000001
 40
0.0
 40
0.0
 40
0.0
 40
0.0
 40
0.1477468279
 40
0.2928054361
 40
0.4327057353
 40
0.5652601338
 40
0.6887696025
 40
0.8022202897
 40
0.8551594026
 40
0.9056575113
 40
1.0
 40
1.0
 40
1.0
 40
1.0
 10
63.3147987115
 20
76.235809822
 30
0.0
 10
63.2288692558
 20
76.2356623285
 30
0.0
 10
63.0584739432
 20
76.2273487313
 30
0.0
 10
62.8090590945
 20
76.1910141592
 30
0.0
 10
62.5730939375
 20
76.1318199509
 30
0.0
 10
62.3567733475
 20
76.0512790968
 30
0.0
 10
62.1657583657
 20
75.951459903
 30
0.0
 10
62.0286534889
 20
75.851939838
 30
0.0
 10
61.9373418458
 20
75.7646272512
 30
0.0
 10
61.8622360949
 20
75.6773795227
 30
0.0
 10
61.8174265213
 20
75.6048710017
 30
0.0
 10
61.7949389514
 20
75.5548211949
 30
0.0
  0
SPLINE
  5
469
100
AcDbEntity
  8
0
100
AcDbSpline
 62
7
  6
CONTINUOUS
 70
0
 71
3
 72
9
 73
5
 74
0
 42
0.0000001
 43
0.0000001
 44
0.0000000001
 40
0.0
 40
0.0
 40
0.0
 40
0.0
 40
0.2393477567
 40
1.0
 40
1.0
 40
1.0
 40
1.0
 10
26.6558601985
 20
105.5978395162
 30
0.0
 10
26.6558601985
 20
105.4404271815
 30
0.0
 10
26.6750560355
 20
104.78279592
 30
0.0
 10
26.7665806198
 20
104.1281095989
 30
0.0
 10
26.8679931161
 20
103.6382368513
 30
0.0
  0
SPLINE
  5
46A
100
AcDbEntity
  8
0
100
AcDbSpline
 62
7
  6
CONTINUOUS
 70
0
 71
3
 72
9
 73
5
 74
0
 42
0.0000001
 43
0.0000001
 44
0.0000000001
 40
0.0
 40
0.0
 40
0.0
 40
0.0
 40
0.241743396
 40
1.0
 40
1.0
 40
1.0
 40
1.0
 10
26.7388306416
 20
106.7050800152
 30
0.0
 10
26.7248736755
 20
106.6166494306
 30
0.0
 10
26.6750597874
 20
106.2496124474
 30
0.0
 10
26.6558601985
 20
105.878645905
 30
0.0
 10
26.6558601985
 20
105.5978395162
 30
0.0
  0
SPLINE
  5
46B
100
AcDbEntity
  8
0
100
AcDbSpline
 62
7
  6
CONTINUOUS
 70
0
 71
3
 72
9
 73
5
 74
0
 42
0.0000001
 43
0.0000001
 44
0.0000000001
 40
0.0
 40
0.0
 40
0.0
 40
0.0
 40
0.2437003359
 40
1.0
 40
1.0
 40
1.0
 40
1.0
 10
58.4490104443
 20
88.7563188037
 30
0.0
 10
58.4501431178
 20
88.7478743073
 30
0.0
 10
58.455414927
 20
88.7133083512
 30
0.0
 10
58.4630928755
 20
88.6791206445
 30
0.0
 10
58.4700553377
 20
88.6536124319
 30
0.0
  0
SPLINE
  5
46C
100
AcDbEntity
  8
0
100
AcDbSpline
 62
7
  6
CONTINUOUS
 70
0
 71
3
 72
11
 73
7
 74
0
 42
0.0000001
 43
0.0000001
 44
0.0000000001
 40
0.0
 40
0.0
 40
0.0
 40
0.0
 40
0.2257115257
 40
0.4681262102
 40
0.7267124786
 40
1.0
 40
1.0
 40
1.0
 40
1.0
 10
54.4294859468
 20
91.0426196745
 30
0.0
 10
54.7684545162
 20
90.9527121527
 30
0.0
 10
55.4577325086
 20
90.7120221183
 30
0.0
 10
56.4699943022
 20
90.2063137553
 30
0.0
 10
57.4816076242
 20
89.5512493599
 30
0.0
 10
58.1288552052
 20
89.0352327972
 30
0.0
 10
58.4490104443
 20
88.7563188037
 30
0.0
  0
SPLINE
  5
46D
100
AcDbEntity
  8
0
100
AcDbSpline
 62
7
  6
CONTINUOUS
 70
0
 71
3
 72
9
 73
5
 74
0
 42
0.0000001
 43
0.0000001
 44
0.0000000001
 40
0.0
 40
0.0
 40
0.0
 40
0.0
 40
0.4744163294
 40
1.0
 40
1.0
 40
1.0
 40
1.0
 10
53.2873112662
 20
91.9484626268
 30
0.0
 10
53.2872776451
 20
91.9137013557
 30
0.0
 10
53.3002528426
 20
91.8403936983
 30
0.0
 10
53.330045561
 20
91.772766954
 30
0.0
 10
53.3492793467
 20
91.739403609
 30
0.0
  0
SPLINE
  5
46E
100
AcDbEntity
  8
0
100
AcDbSpline
 62
7
  6
CONTINUOUS
 70
0
 71
3
 72
9
 73
5
 74
0
 42
0.0000001
 43
0.0000001
 44
0.0000000001
 40
0.0
 40
0.0
 40
0.0
 40
0.0
 40
0.5254418025
 40
1.0
 40
1.0
 40
1.0
 40
1.0
 10
53.3492793467
 20
91.739403609
 30
0.0
 10
53.3685187086
 20
91.7060305917
 30
0.0
 10
53.4121389796
 20
91.6463282609
 30
0.0
 10
53.4690938946
 20
91.5983275768
 30
0.0
 10
53.4992072679
 20
91.5809031932
 30
0.0
  0
SPLINE
  5
46F
100
AcDbEntity
  8
0
100
AcDbSpline
 62
7
  6
CONTINUOUS
 70
0
 71
3
 72
11
 73
7
 74
0
 42
0.0000001
 43
0.0000001
 44
0.0000000001
 40
0.0
 40
0.0
 40
0.0
 40
0.0
 40
0.2373455167
 40
0.5001399573
 40
0.7628582333
 40
1.0
 40
1.0
 40
1.0
 40
1.0
 10
52.9366362116
 20
95.1302837872
 30
0.0
 10
52.9868251672
 20
95.1012431479
 30
0.0
 10
53.0817720663
 20
95.0212039035
 30
0.0
 10
53.1925532379
 20
94.8696184948
 30
0.0
 10
53.2682048986
 20
94.6978376835
 30
0.0
 10
53.2898522496
 20
94.5756201831
 30
0.0
 10
53.2897962145
 20
94.5176847312
 30
0.0
  0
SPLINE
  5
470
100
AcDbEntity
  8
0
100
AcDbSpline
 62
7
  6
CONTINUOUS
 70
0
 71
3
 72
11
 73
7
 74
0
 42
0.0000001
 43
0.0000001
 44
0.0000000001
 40
0.0
 40
0.0
 40
0.0
 40
0.0
 40
0.2371417667
 40
0.4998600427
 40
0.7626544833
 40
1.0
 40
1.0
 40
1.0
 40
1.0
 10
52.3006324949
 20
95.9065435967
 30
0.0
 10
52.3005764598
 20
95.8486081448
 30
0.0
 10
52.3222238108
 20
95.7263906444
 30
0.0
 10
52.3978754716
 20
95.5546098331
 30
0.0
 10
52.5086566431
 20
95.4030244244
 30
0.0
 10
52.6036035423
 20
95.32298518
 30
0.0
 10
52.6537924978
 20
95.2939445407
 30
0.0
  0
SPLINE
  5
471
100
AcDbEntity
  8
0
100
AcDbSpline
 62
7
  6
CONTINUOUS
 70
0
 71
3
 72
9
 73
5
 74
0
 42
0.0000001
 43
0.0000001
 44
0.0000000001
 40
0.0
 40
0.0
 40
0.0
 40
0.0
 40
0.5501363083
 40
1.0
 40
1.0
 40
1.0
 40
1.0
 10
54.6873029182
 20
93.1374988373
 30
0.0
 10
54.6955708196
 20
93.1327148138
 30
0.0
 10
54.7121201785
 20
93.125891773
 30
0.0
 10
54.7306215724
 20
93.1285872431
 30
0.0
 10
54.7373862439
 20
93.1324928019
 30
0.0
  0
SPLINE
  5
472
100
AcDbEntity
  8
0
100
AcDbSpline
 62
7
  6
CONTINUOUS
 70
0
 71
3
 72
9
 73
5
 74
0
 42
0.0000001
 43
0.0000001
 44
0.0000000001
 40
0.0
 40
0.0
 40
0.0
 40
0.0
 40
0.4998534432
 40
1.0
 40
1.0
 40
1.0
 40
1.0
 10
58.3966688671
 20
91.0728131982
 30
0.0
 10
58.3966454337
 20
91.0485850367
 30
0.0
 10
58.4131709638
 20
91.0007125474
 30
0.0
 10
58.4463179522
 20
90.9624346495
 30
0.0
 10
58.4673008677
 20
90.950293387
 30
0.0
  0
SPLINE
  5
473
100
AcDbEntity
  8
0
100
AcDbSpline
 62
7
  6
CONTINUOUS
 70
0
 71
3
 72
9
 73
5
 74
0
 42
0.0000001
 43
0.0000001
 44
0.0000000001
 40
0.0
 40
0.0
 40
0.0
 40
0.0
 40
0.2246005375
 40
1.0
 40
1.0
 40
1.0
 40
1.0
 10
58.4061193893
 20
91.1080451926
 30
0.0
 10
58.4045366087
 20
91.1057886754
 30
0.0
 10
58.3985256586
 20
91.0950045129
 30
0.0
 10
58.3966780706
 20
91.082328825
 30
0.0
 10
58.3966688671
 20
91.0728131982
 30
0.0
  0
SPLINE
  5
474
100
AcDbEntity
  8
0
100
AcDbSpline
 62
7
  6
CONTINUOUS
 70
0
 71
3
 72
9
 73
5
 74
0
 42
0.0000001
 43
0.0000001
 44
0.0000000001
 40
0.0
 40
0.0
 40
0.0
 40
0.0
 40
0.5501363083
 40
1.0
 40
1.0
 40
1.0
 40
1.0
 10
59.7214125172
 20
87.6118222989
 30
0.0
 10
59.7379483201
 20
87.6022542519
 30
0.0
 10
59.7710470378
 20
87.5886081701
 30
0.0
 10
59.8080498257
 20
87.5939991104
 30
0.0
 10
59.8215791686
 20
87.6018102279
 30
0.0
  0
SPLINE
  5
475
100
AcDbEntity
  8
0
100
AcDbSpline
 62
7
  6
CONTINUOUS
 70
0
 71
3
 72
10
 73
6
 74
0
 42
0.0000001
 43
0.0000001
 44
0.0000000001
 40
0.0
 40
0.0
 40
0.0
 40
0.0
 40
0.5178904287
 40
0.7705521139
 40
1.0
 40
1.0
 40
1.0
 40
1.0
 10
58.4757978302
 20
88.6340780071
 30
0.0
 10
58.5088527457
 20
88.5234004438
 30
0.0
 10
58.5888234551
 20
88.3661020785
 30
0.0
 10
58.736653089
 20
88.1982672574
 30
0.0
 10
58.8226528131
 20
88.1318681163
 30
0.0
 10
58.8669472992
 20
88.1062381708
 30
0.0
  0
SPLINE
  5
476
100
AcDbEntity
  8
0
100
AcDbSpline
 62
7
  6
CONTINUOUS
 70
0
 71
3
 72
9
 73
5
 74
0
 42
0.0000001
 43
0.0000001
 44
0.0000000001
 40
0.0
 40
0.0
 40
0.0
 40
0.0
 40
0.5255658528
 40
1.0
 40
1.0
 40
1.0
 40
1.0
 10
56.5716268464
 20
30.063104156
 30
0.0
 10
56.6358272356
 20
29.9519064373
 30
0.0
 10
56.7813086324
 20
29.7530379327
 30
0.0
 10
56.9712488022
 20
29.5932395106
 30
0.0
 10
57.071628928
 20
29.5352863291
 30
0.0
  0
SPLINE
  5
477
100
AcDbEntity
  8
0
100
AcDbSpline
 62
7
  6
CONTINUOUS
 70
0
 71
3
 72
11
 73
7
 74
0
 42
0.0000001
 43
0.0000001
 44
0.0000000001
 40
0.0
 40
0.0
 40
0.0
 40
0.0
 40
0.2372539654
 40
0.5000012591
 40
0.7627478695
 40
1.0
 40
1.0
 40
1.0
 40
1.0
 10
32.9747530023
 20
49.1628263193
 30
0.0
 10
32.9747530023
 20
49.0700856128
 30
0.0
 10
33.0095244149
 20
48.8745071932
 30
0.0
 10
33.130809019
 20
48.5997261544
 30
0.0
 10
33.3081348096
 20
48.3573015149
 30
0.0
 10
33.4601251416
 20
48.2294009898
 30
0.0
 10
33.5404407825
 20
48.183031782
 30
0.0
  0
SPLINE
  5
478
100
AcDbEntity
  8
0
100
AcDbSpline
 62
7
  6
CONTINUOUS
 70
0
 71
3
 72
9
 73
5
 74
0
 42
0.0000001
 43
0.0000001
 44
0.0000000001
 40
0.0
 40
0.0
 40
0.0
 40
0.0
 40
0.2422060608
 40
1.0
 40
1.0
 40
1.0
 40
1.0
 10
32.9816753433
 20
49.2607048487
 30
0.0
 10
32.9805113855
 20
49.2528646756
 30
0.0
 10
32.9763618689
 20
49.2203987981
 30
0.0
 10
32.9747530023
 20
49.1876248439
 30
0.0
 10
32.9747530023
 20
49.1628263193
 30
0.0
  0
SPLINE
  5
479
100
AcDbEntity
  8
0
100
AcDbSpline
 62
7
  6
CONTINUOUS
 70
0
 71
3
 72
10
 73
6
 74
0
 42
0.0000001
 43
0.0000001
 44
0.0000000001
 40
0.0
 40
0.0
 40
0.0
 40
0.0
 40
0.519838348
 40
0.7712346302
 40
1.0
 40
1.0
 40
1.0
 40
1.0
 10
13.0322951937
 20
63.3561720328
 30
0.0
 10
13.0617297963
 20
63.2689931451
 30
0.0
 10
13.1280394935
 20
63.1459190147
 30
0.0
 10
13.2471252505
 20
63.014320641
 30
0.0
 10
13.3154338742
 20
62.9623899888
 30
0.0
 10
13.3505016649
 20
62.9421440484
 30
0.0
  0
SPLINE
  5
47A
100
AcDbEntity
  8
0
100
AcDbSpline
 62
7
  6
CONTINUOUS
 70
0
 71
3
 72
9
 73
5
 74
0
 42
0.0000001
 43
0.0000001
 44
0.0000000001
 40
0.0
 40
0.0
 40
0.0
 40
0.0
 40
0.2340633272
 40
1.0
 40
1.0
 40
1.0
 40
1.0
 10
10.6970290936
 20
70.5162103812
 30
0.0
 10
10.6970290936
 20
70.4752377315
 30
0.0
 10
10.705820918
 20
70.3002069645
 30
0.0
 10
10.7460446819
 20
70.1275485434
 30
0.0
 10
10.7889349112
 20
70.0005170174
 30
0.0
  0
SPLINE
  5
47B
100
AcDbEntity
  8
0
100
AcDbSpline
 62
7
  6
CONTINUOUS
 70
0
 71
3
 72
11
 73
7
 74
0
 42
0.0000001
 43
0.0000001
 44
0.0000000001
 40
0.0
 40
0.0
 40
0.0
 40
0.0
 40
0.2296153348
 40
0.4826034904
 40
0.7447394582
 40
1.0
 40
1.0
 40
1.0
 40
1.0
 10
13.7157522284
 20
74.6523760534
 30
0.0
 10
13.7157522284
 20
74.5635595923
 30
0.0
 10
13.7415558931
 20
74.3766806641
 30
0.0
 10
13.837129854
 20
74.1033843514
 30
0.0
 10
13.9836156832
 20
73.8422528547
 30
0.0
 10
14.1111158676
 20
73.6862341743
 30
0.0
 10
14.181016184
 20
73.616500564
 30
0.0
  0
SPLINE
  5
47C
100
AcDbEntity
  8
0
100
AcDbSpline
 62
7
  6
CONTINUOUS
 70
0
 71
3
 72
11
 73
7
 74
0
 42
0.0000001
 43
0.0000001
 44
0.0000000001
 40
0.0
 40
0.0
 40
0.0
 40
0.0
 40
0.2296153348
 40
0.4826034904
 40
0.7447394582
 40
1.0
 40
1.0
 40
1.0
 40
1.0
 10
20.5040055898
 20
86.7367121858
 30
0.0
 10
20.5040055898
 20
86.6478957246
 30
0.0
 10
20.5298092545
 20
86.4610167965
 30
0.0
 10
20.6253832155
 20
86.1877204838
 30
0.0
 10
20.7718690446
 20
85.9265889871
 30
0.0
 10
20.899369229
 20
85.7705703066
 30
0.0
 10
20.9692695454
 20
85.7008366964
 30
0.0
  0
SPLINE
  5
47D
100
AcDbEntity
  8
0
100
AcDbSpline
 62
7
  6
CONTINUOUS
 70
0
 71
3
 72
9
 73
5
 74
0
 42
0.0000001
 43
0.0000001
 44
0.0000000001
 40
0.0
 40
0.0
 40
0.0
 40
0.0
 40
0.2729903125
 40
1.0
 40
1.0
 40
1.0
 40
1.0
 10
57.2030003249
 20
80.6133171668
 30
0.0
 10
57.2030003249
 20
80.5851183687
 30
0.0
 10
57.1983170139
 20
80.4820882576
 30
0.0
 10
57.173551389
 20
80.3784143593
 30
0.0
 10
57.1393728924
 20
80.3115457195
 30
0.0
  0
SPLINE
  5
47E
100
AcDbEntity
  8
0
100
AcDbSpline
 62
7
  6
CONTINUOUS
 70
0
 71
3
 72
9
 73
5
 74
0
 42
0.0000001
 43
0.0000001
 44
0.0000000001
 40
0.0
 40
0.0
 40
0.0
 40
0.0
 40
0.2615098856
 40
1.0
 40
1.0
 40
1.0
 40
1.0
 10
57.1393728924
 20
80.3115457195
 30
0.0
 10
57.1328448711
 20
80.2987739494
 30
0.0
 10
57.1056741602
 20
80.2511315008
 30
0.0
 10
57.0687423102
 20
80.2087809817
 30
0.0
 10
57.0370349505
 20
80.1835758405
 30
0.0
  0
SPLINE
  5
47F
100
AcDbEntity
  8
0
100
AcDbSpline
 62
7
  6
CONTINUOUS
 70
0
 71
3
 72
9
 73
5
 74
0
 42
0.0000001
 43
0.0000001
 44
0.0000000001
 40
0.0
 40
0.0
 40
0.0
 40
0.0
 40
0.5499401486
 40
1.0
 40
1.0
 40
1.0
 40
1.0
 10
64.2470360206
 20
90.2243149218
 30
0.0
 10
64.2470176121
 20
90.2052820788
 30
0.0
 10
64.242229118
 20
90.1699266464
 30
0.0
 10
64.2191122641
 20
90.140712002
 30
0.0
 10
64.2056229515
 20
90.1329239776
 30
0.0
  0
SPLINE
  5
480
100
AcDbEntity
  8
0
100
AcDbSpline
 62
7
  6
CONTINUOUS
 70
0
 71
3
 72
11
 73
7
 74
0
 42
0.0000001
 43
0.0000001
 44
0.0000000001
 40
0.0
 40
0.0
 40
0.0
 40
0.0
 40
0.2371474498
 40
0.5001382213
 40
0.763053995
 40
1.0
 40
1.0
 40
1.0
 40
1.0
 10
64.1095605581
 20
94.3863764407
 30
0.0
 10
64.1296179753
 20
94.3747706957
 30
0.0
 10
64.1675284815
 20
94.3426927802
 30
0.0
 10
64.211992269
 20
94.2821482109
 30
0.0
 10
64.2420995839
 20
94.2133496822
 30
0.0
 10
64.2508469532
 20
94.1644902389
 30
0.0
 10
64.2508245593
 20
94.1413368182
 30
0.0
  0
SPLINE
  5
481
100
AcDbEntity
  8
0
100
AcDbSpline
 62
7
  6
CONTINUOUS
 70
0
 71
3
 72
9
 73
5
 74
0
 42
0.0000001
 43
0.0000001
 44
0.0000000001
 40
0.0
 40
0.0
 40
0.0
 40
0.0
 40
0.4795051667
 40
1.0
 40
1.0
 40
1.0
 40
1.0
 10
58.7329002286
 20
94.7769795211
 30
0.0
 10
59.1902178601
 20
94.6440707132
 30
0.0
 10
60.1200190901
 20
94.2814878917
 30
0.0
 10
60.9868388294
 20
93.7904026552
 30
0.0
 10
61.4207507453
 20
93.5094082005
 30
0.0
  0
SPLINE
  5
482
100
AcDbEntity
  8
0
100
AcDbSpline
 62
7
  6
CONTINUOUS
 70
0
 71
3
 72
9
 73
5
 74
0
 42
0.0000001
 43
0.0000001
 44
0.0000000001
 40
0.0
 40
0.0
 40
0.0
 40
0.0
 40
0.5499401486
 40
1.0
 40
1.0
 40
1.0
 40
1.0
 10
59.1421365652
 20
95.7093020258
 30
0.0
 10
59.142127361
 20
95.6997856043
 30
0.0
 10
59.1397331139
 20
95.6821078881
 30
0.0
 10
59.128174687
 20
95.6675005659
 30
0.0
 10
59.1214300307
 20
95.6636065537
 30
0.0
  0
SPLINE
  5
483
100
AcDbEntity
  8
0
100
AcDbSpline
 62
7
  6
CONTINUOUS
 70
0
 71
3
 72
9
 73
5
 74
0
 42
0.0000001
 43
0.0000001
 44
0.0000000001
 40
0.0
 40
0.0
 40
0.0
 40
0.0
 40
0.2662961739
 40
1.0
 40
1.0
 40
1.0
 40
1.0
 10
59.1327647296
 20
95.7554251277
 30
0.0
 10
59.1342736221
 20
95.7515160166
 30
0.0
 10
59.1393588781
 20
95.7366352196
 30
0.0
 10
59.1421477315
 20
95.7208469745
 30
0.0
 10
59.1421365652
 20
95.7093020258
 30
0.0
  0
SPLINE
  5
484
100
AcDbEntity
  8
0
100
AcDbSpline
 62
7
  6
CONTINUOUS
 70
0
 71
3
 72
11
 73
7
 74
0
 42
0.0000001
 43
0.0000001
 44
0.0000000001
 40
0.0
 40
0.0
 40
0.0
 40
0.0
 40
0.289594553
 40
0.5491560912
 40
0.7822931605
 40
1.0
 40
1.0
 40
1.0
 40
1.0
 10
82.5882029525
 20
23.9496885103
 30
0.0
 10
82.5882029525
 20
23.8990398932
 30
0.0
 10
82.5804845092
 20
23.8026736798
 30
0.0
 10
82.5414976833
 20
23.6702602767
 30
0.0
 10
82.4757842125
 20
23.5628032121
 30
0.0
 10
82.4140543001
 20
23.5109599822
 30
0.0
 10
82.3810838697
 20
23.4919148027
 30
0.0
  0
SPLINE
  5
485
100
AcDbEntity
  8
0
100
AcDbSpline
 62
7
  6
CONTINUOUS
 70
0
 71
3
 72
11
 73
7
 74
0
 42
0.0000001
 43
0.0000001
 44
0.0000000001
 40
0.0
 40
0.0
 40
0.0
 40
0.0
 40
0.2372523758
 40
0.4999990758
 40
0.7627462798
 40
1.0
 40
1.0
 40
1.0
 40
1.0
 10
82.2346480899
 20
35.8284211062
 30
0.0
 10
82.3350427448
 20
35.7704595364
 30
0.0
 10
82.5250307659
 20
35.6105837368
 30
0.0
 10
82.7466879992
 20
35.3075527855
 30
0.0
 10
82.8982936205
 20
34.9640765589
 30
0.0
 10
82.9417578151
 20
34.7196036978
 30
0.0
 10
82.9417578151
 20
34.6036779345
 30
0.0
  0
SPLINE
  5
486
100
AcDbEntity
  8
0
100
AcDbSpline
 62
7
  6
CONTINUOUS
 70
0
 71
3
 72
11
 73
7
 74
0
 42
0.0000001
 43
0.0000001
 44
0.0000000001
 40
0.0
 40
0.0
 40
0.0
 40
0.0
 40
0.2895961908
 40
0.5491556764
 40
0.7822922832
 40
1.0
 40
1.0
 40
1.0
 40
1.0
 10
75.7999495911
 20
43.8710442386
 30
0.0
 10
75.7999495911
 20
43.8203953219
 30
0.0
 10
75.792231728
 20
43.7240290437
 30
0.0
 10
75.7532439796
 20
43.5916160677
 30
0.0
 10
75.687531175
 20
43.484158955
 30
0.0
 10
75.6258011464
 20
43.4323156765
 30
0.0
 10
75.5928306348
 20
43.4132703111
 30
0.0
  0
SPLINE
  5
487
100
AcDbEntity
  8
0
100
AcDbSpline
 62
7
  6
CONTINUOUS
 70
0
 71
3
 72
11
 73
7
 74
0
 42
0.0000001
 43
0.0000001
 44
0.0000000001
 40
0.0
 40
0.0
 40
0.0
 40
0.0
 40
0.2372523758
 40
0.4999990758
 40
0.7627462798
 40
1.0
 40
1.0
 40
1.0
 40
1.0
 10
75.4463947285
 20
55.7509797253
 30
0.0
 10
75.5467893834
 20
55.6930181556
 30
0.0
 10
75.7367774045
 20
55.533142356
 30
0.0
 10
75.9584346378
 20
55.2301114046
 30
0.0
 10
76.1100402591
 20
54.886635178
 30
0.0
 10
76.1535044536
 20
54.642162317
 30
0.0
 10
76.1535044536
 20
54.5262365537
 30
0.0
  0
SPLINE
  5
488
100
AcDbEntity
  8
0
100
AcDbSpline
 62
7
  6
CONTINUOUS
 70
0
 71
3
 72
11
 73
7
 74
0
 42
0.0000001
 43
0.0000001
 44
0.0000000001
 40
0.0
 40
0.0
 40
0.0
 40
0.0
 40
0.2895961908
 40
0.5491556764
 40
0.7822922832
 40
1.0
 40
1.0
 40
1.0
 40
1.0
 10
69.0116962297
 20
63.7936028577
 30
0.0
 10
69.0116962297
 20
63.742953941
 30
0.0
 10
69.0039783666
 20
63.6465876628
 30
0.0
 10
68.9649906182
 20
63.5141746868
 30
0.0
 10
68.8992778136
 20
63.4067175741
 30
0.0
 10
68.837547785
 20
63.3548742956
 30
0.0
 10
68.8045772733
 20
63.3358289303
 30
0.0
  0
SPLINE
  5
489
100
AcDbEntity
  8
0
100
AcDbSpline
 62
7
  6
CONTINUOUS
 70
0
 71
3
 72
11
 73
7
 74
0
 42
0.0000001
 43
0.0000001
 44
0.0000000001
 40
0.0
 40
0.0
 40
0.0
 40
0.0
 40
0.2372523758
 40
0.4999990758
 40
0.7627462798
 40
1.0
 40
1.0
 40
1.0
 40
1.0
 10
68.6581413671
 20
75.6735383445
 30
0.0
 10
68.758536022
 20
75.6155767747
 30
0.0
 10
68.9485240431
 20
75.4557009751
 30
0.0
 10
69.1701812764
 20
75.1526700238
 30
0.0
 10
69.3217868977
 20
74.8091937971
 30
0.0
 10
69.3652510922
 20
74.5647209361
 30
0.0
 10
69.3652510922
 20
74.4487951728
 30
0.0
  0
SPLINE
  5
48A
100
AcDbEntity
  8
0
100
AcDbSpline
 62
7
  6
CONTINUOUS
 70
0
 71
3
 72
11
 73
7
 74
0
 42
0.0000001
 43
0.0000001
 44
0.0000000001
 40
0.0
 40
0.0
 40
0.0
 40
0.0
 40
0.2896433527
 40
0.5491132405
 40
0.7822372579
 40
1.0
 40
1.0
 40
1.0
 40
1.0
 10
61.8699183255
 20
75.3877523079
 30
0.0
 10
61.7799848892
 20
75.4396742269
 30
0.0
 10
61.616802597
 20
75.5521114305
 30
0.0
 10
61.4217268954
 20
75.7570541122
 30
0.0
 10
61.2982880795
 20
75.9838299385
 30
0.0
 10
61.269549222
 20
76.146578595
 30
0.0
 10
61.2695178562
 20
76.2246528907
 30
0.0
  0
SPLINE
  5
48B
100
AcDbEntity
  8
0
100
AcDbSpline
 62
7
  6
CONTINUOUS
 70
0
 71
3
 72
11
 73
7
 74
0
 42
0.0000001
 43
0.0000001
 44
0.0000000001
 40
0.0
 40
0.0
 40
0.0
 40
0.0
 40
0.217745073
 40
0.4508830113
 40
0.7104597664
 40
1.0
 40
1.0
 40
1.0
 40
1.0
 10
13.5693373061
 20
86.1735466081
 30
0.0
 10
13.5363571614
 20
86.1545056107
 30
0.0
 10
13.4745888969
 20
86.1026962689
 30
0.0
 10
13.4088824862
 20
85.9952150512
 30
0.0
 10
13.3699293552
 20
85.8628042549
 30
0.0
 10
13.3621973658
 20
85.7664477533
 30
0.0
 10
13.3621973658
 20
85.7158091231
 30
0.0
  0
SPLINE
  5
48C
100
AcDbEntity
  8
0
100
AcDbSpline
 62
7
  6
CONTINUOUS
 70
0
 71
3
 72
11
 73
7
 74
0
 42
0.0000001
 43
0.0000001
 44
0.0000000001
 40
0.0
 40
0.0
 40
0.0
 40
0.0
 40
0.2177460211
 40
0.4508843679
 40
0.7104607696
 40
1.0
 40
1.0
 40
1.0
 40
1.0
 10
17.9533810961
 20
88.7046603617
 30
0.0
 10
17.9863605129
 20
88.7237009155
 30
0.0
 10
18.0621110173
 20
88.7512883621
 30
0.0
 10
18.1880424276
 20
88.7544517543
 30
0.0
 10
18.3221866043
 20
88.7219827634
 30
0.0
 10
18.4094976177
 20
88.6805026606
 30
0.0
 10
18.4533508817
 20
88.6551845397
 30
0.0
  0
SPLINE
  5
48D
100
AcDbEntity
  8
0
100
AcDbSpline
 62
7
  6
CONTINUOUS
 70
0
 71
3
 72
16
 73
12
 74
0
 42
0.0000001
 43
0.0000001
 44
0.0000000001
 40
0.0
 40
0.0
 40
0.0
 40
0.0
 40
0.0917630235
 40
0.1432317445
 40
0.1987276489
 40
0.3210837688
 40
0.4558963346
 40
0.5976869238
 40
0.7398855992
 40
0.8758986362
 40
1.0
 40
1.0
 40
1.0
 40
1.0
 10
21.4091641044
 20
85.3163527275
 30
0.0
 10
21.3671815573
 20
85.2072136561
 30
0.0
 10
21.2623198612
 20
85.0511626816
 30
0.0
 10
21.0761739612
 20
84.8790988297
 30
0.0
 10
20.8357710842
 20
84.7113091205
 30
0.0
 10
20.4702857209
 20
84.5447418564
 30
0.0
 10
19.9747765876
 20
84.4212923379
 30
0.0
 10
19.440883902
 20
84.3758497339
 30
0.0
 10
18.9047026423
 20
84.4114826654
 30
0.0
 10
18.402754161
 20
84.525719054
 30
0.0
 10
18.0953624802
 20
84.6569847922
 30
0.0
 10
17.9584043969
 20
84.7360557896
 30
0.0
  0
SPLINE
  5
48E
100
AcDbEntity
  8
0
100
AcDbSpline
 62
7
  6
CONTINUOUS
 70
0
 71
3
 72
11
 73
7
 74
0
 42
0.0000001
 43
0.0000001
 44
0.0000000001
 40
0.0
 40
0.0
 40
0.0
 40
0.0
 40
0.2177438688
 40
0.4508811915
 40
0.7104582954
 40
1.0
 40
1.0
 40
1.0
 40
1.0
 10
33.8979885063
 20
106.6797350974
 30
0.0
 10
33.8979884932
 20
106.6207102253
 30
0.0
 10
33.8763134816
 20
106.4976489809
 30
0.0
 10
33.782962088
 20
106.3261578599
 30
0.0
 10
33.6354146702
 20
106.1712574308
 30
0.0
 10
33.5120675386
 20
106.0862054791
 30
0.0
 10
33.4440953074
 20
106.0469619274
 30
0.0
  0
SPLINE
  5
48F
100
AcDbEntity
  8
0
100
AcDbSpline
 62
7
  6
CONTINUOUS
 70
0
 71
3
 72
11
 73
7
 74
0
 42
0.0000001
 43
0.0000001
 44
0.0000000001
 40
0.0
 40
0.0
 40
0.0
 40
0.0
 40
0.2368832632
 40
0.4894066306
 40
0.7475679149
 40
1.0
 40
1.0
 40
1.0
 40
1.0
 10
25.1019215974
 20
97.3116561083
 30
0.0
 10
25.2318088943
 20
97.3740814453
 30
0.0
 10
25.5150837328
 20
97.4729467469
 30
0.0
 10
25.9660427221
 20
97.5452532305
 30
0.0
 10
26.4321534635
 20
97.5448516306
 30
0.0
 10
26.7404889051
 20
97.4946917474
 30
0.0
 10
26.8891740367
 20
97.4562706319
 30
0.0
  0
SPLINE
  5
490
100
AcDbEntity
  8
0
100
AcDbSpline
 62
7
  6
CONTINUOUS
 70
0
 71
3
 72
9
 73
5
 74
0
 42
0.0000001
 43
0.0000001
 44
0.0000000001
 40
0.0
 40
0.0
 40
0.0
 40
0.0
 40
0.2455460151
 40
1.0
 40
1.0
 40
1.0
 40
1.0
 10
24.6009999454
 20
96.9270674928
 30
0.0
 10
24.6103955545
 20
96.9391694176
 30
0.0
 10
24.6497760407
 20
96.9875835148
 30
0.0
 10
24.6934090484
 20
97.0324954122
 30
0.0
 10
24.7280990321
 20
97.0643173549
 30
0.0
  0
SPLINE
  5
491
100
AcDbEntity
  8
0
100
AcDbSpline
 62
7
  6
CONTINUOUS
 70
0
 71
3
 72
9
 73
5
 74
0
 42
0.0000001
 43
0.0000001
 44
0.0000000001
 40
0.0
 40
0.0
 40
0.0
 40
0.0
 40
0.2399865385
 40
1.0
 40
1.0
 40
1.0
 40
1.0
 10
24.7280990321
 20
97.0643173549
 30
0.0
 10
24.7545783395
 20
97.0886074499
 30
0.0
 10
24.8693650555
 20
97.184957651
 30
0.0
 10
24.9993568708
 20
97.2623623146
 30
0.0
 10
25.1019215974
 20
97.3116561083
 30
0.0
  0
SPLINE
  5
492
100
AcDbEntity
  8
0
100
AcDbSpline
 62
7
  6
CONTINUOUS
 70
0
 71
3
 72
11
 73
7
 74
0
 42
0.0000001
 43
0.0000001
 44
0.0000000001
 40
0.0
 40
0.0
 40
0.0
 40
0.0
 40
0.2585190021
 40
0.5202385495
 40
0.771398183
 40
1.0
 40
1.0
 40
1.0
 40
1.0
 10
26.8961762292
 20
96.5448789957
 30
0.0
 10
26.7099158562
 20
96.5058203241
 30
0.0
 10
26.3274685387
 20
96.4607249293
 30
0.0
 10
25.7577414599
 20
96.4854121926
 30
0.0
 10
25.2212366756
 20
96.5986544351
 30
0.0
 10
24.8924000396
 20
96.7362494802
 30
0.0
 10
24.7466577583
 20
96.820391922
 30
0.0
  0
SPLINE
  5
493
100
AcDbEntity
  8
0
100
AcDbSpline
 62
7
  6
CONTINUOUS
 70
0
 71
3
 72
11
 73
7
 74
0
 42
0.0000001
 43
0.0000001
 44
0.0000000001
 40
0.0
 40
0.0
 40
0.0
 40
0.0
 40
0.217745073
 40
0.4508830113
 40
0.7104597664
 40
1.0
 40
1.0
 40
1.0
 40
1.0
 10
20.3575906675
 20
98.2578827405
 30
0.0
 10
20.3246105228
 20
98.238841743
 30
0.0
 10
20.2628422584
 20
98.1870324012
 30
0.0
 10
20.1971358476
 20
98.0795511836
 30
0.0
 10
20.1581827166
 20
97.9471403872
 30
0.0
 10
20.1504507272
 20
97.8507838856
 30
0.0
 10
20.1504507272
 20
97.8001452554
 30
0.0
  0
SPLINE
  5
494
100
AcDbEntity
  8
0
100
AcDbSpline
 62
7
  6
CONTINUOUS
 70
0
 71
3
 72
11
 73
7
 74
0
 42
0.0000001
 43
0.0000001
 44
0.0000000001
 40
0.0
 40
0.0
 40
0.0
 40
0.0
 40
0.2177460211
 40
0.4508843679
 40
0.7104607696
 40
1.0
 40
1.0
 40
1.0
 40
1.0
 10
24.7416344575
 20
100.7889964941
 30
0.0
 10
24.7746138743
 20
100.8080370479
 30
0.0
 10
24.8503643787
 20
100.8356244945
 30
0.0
 10
24.9762957891
 20
100.8387878866
 30
0.0
 10
25.1104399658
 20
100.8063188958
 30
0.0
 10
25.1977509791
 20
100.764838793
 30
0.0
 10
25.2416042431
 20
100.739520672
 30
0.0
  0
SPLINE
  5
495
100
AcDbEntity
  8
0
100
AcDbSpline
 62
7
  6
CONTINUOUS
 70
0
 71
3
 72
9
 73
5
 74
0
 42
0.0000001
 43
0.0000001
 44
0.0000000001
 40
0.0
 40
0.0
 40
0.0
 40
0.0
 40
0.4836252222
 40
1.0
 40
1.0
 40
1.0
 40
1.0
 10
31.3203373547
 20
109.5650216416
 30
0.0
 10
31.3523521339
 20
109.5835172727
 30
0.0
 10
31.4255497912
 20
109.6105319081
 30
0.0
 10
31.5030986581
 20
109.6135509788
 30
0.0
 10
31.5424381839
 20
109.6102574689
 30
0.0
  0
SPLINE
  5
496
100
AcDbEntity
  8
0
100
AcDbSpline
 62
7
  6
CONTINUOUS
 70
0
 71
3
 72
9
 73
5
 74
0
 42
0.0000001
 43
0.0000001
 44
0.0000000001
 40
0.0
 40
0.0
 40
0.0
 40
0.0
 40
0.4831233282
 40
1.0
 40
1.0
 40
1.0
 40
1.0
 10
55.9959141212
 20
81.8875476956
 30
0.0
 10
56.02867501
 20
81.9064312326
 30
0.0
 10
56.1037530144
 20
81.9338928854
 30
0.0
 10
56.1832285321
 20
81.9361182306
 30
0.0
 10
56.223500296
 20
81.9322682158
 30
0.0
  0
SPLINE
  5
497
100
AcDbEntity
  8
0
100
AcDbSpline
 62
7
  6
CONTINUOUS
 70
0
 71
3
 72
9
 73
5
 74
0
 42
0.0000001
 43
0.0000001
 44
0.0000000001
 40
0.0
 40
0.0
 40
0.0
 40
0.0
 40
0.2387782387
 40
1.0
 40
1.0
 40
1.0
 40
1.0
 10
56.223500296
 20
81.9322682158
 30
0.0
 10
56.2354810218
 20
81.9311228483
 30
0.0
 10
56.2854757282
 20
81.9244780522
 30
0.0
 10
56.3344244365
 20
81.9108169881
 30
0.0
 10
56.3704185641
 20
81.8975291346
 30
0.0
  0
SPLINE
  5
498
100
AcDbEntity
  8
0
100
AcDbSpline
 62
7
  6
CONTINUOUS
 70
0
 71
3
 72
13
 73
9
 74
0
 42
0.0000001
 43
0.0000001
 44
0.0000000001
 40
0.0
 40
0.0
 40
0.0
 40
0.0
 40
0.1070846641
 40
0.2259306965
 40
0.4877092523
 40
0.7563543051
 40
0.88326865
 40
1.0
 40
1.0
 40
1.0
 40
1.0
 10
56.3704185641
 20
81.8975291346
 30
0.0
 10
56.4241833203
 20
81.8776809467
 30
0.0
 10
56.5327061359
 20
81.8220914884
 30
0.0
 10
56.7409179433
 20
81.6630939096
 30
0.0
 10
56.9657951517
 20
81.3923220667
 30
0.0
 10
57.121758649
 20
81.0726447475
 30
0.0
 10
57.1900952982
 20
80.8063236219
 30
0.0
 10
57.2030003249
 20
80.6757914734
 30
0.0
 10
57.2030003249
 20
80.6133171668
 30
0.0
  0
SPLINE
  5
499
100
AcDbEntity
  8
0
100
AcDbSpline
 62
7
  6
CONTINUOUS
 70
0
 71
3
 72
17
 73
13
 74
0
 42
0.0000001
 43
0.0000001
 44
0.0000000001
 40
0.0
 40
0.0
 40
0.0
 40
0.0
 40
0.0428571277
 40
0.087483909
 40
0.1353159407
 40
0.187279013
 40
0.3045397097
 40
0.4382076182
 40
0.5825507004
 40
0.7297102646
 40
0.8713099941
 40
1.0
 40
1.0
 40
1.0
 40
1.0
 10
65.3694445334
 20
76.2246527594
 30
0.0
 10
65.3694679769
 20
76.1662984107
 30
0.0
 10
65.3538431505
 20
76.0466716429
 30
0.0
 10
65.2852569801
 20
75.873939775
 30
0.0
 10
65.1739109868
 20
75.7101918141
 30
0.0
 10
64.96435713
 20
75.4998417251
 30
0.0
 10
64.6072402838
 20
75.2824598967
 30
0.0
 10
64.0937764973
 20
75.110939299
 30
0.0
 10
63.5175447743
 20
75.0299590584
 30
0.0
 10
62.9252553198
 20
75.0463421224
 30
0.0
 10
62.3652656623
 20
75.1583782605
 30
0.0
 10
62.0216681191
 20
75.3001415057
 30
0.0
 10
61.8699183255
 20
75.3877523079
 30
0.0
  0
SPLINE
  5
49A
100
AcDbEntity
  8
0
100
AcDbSpline
 62
7
  6
CONTINUOUS
 70
0
 71
3
 72
17
 73
13
 74
0
 42
0.0000001
 43
0.0000001
 44
0.0000000001
 40
0.0
 40
0.0
 40
0.0
 40
0.0
 40
0.0428571277
 40
0.087483909
 40
0.1353159407
 40
0.187279013
 40
0.3045397097
 40
0.4382076182
 40
0.5825507004
 40
0.7297102646
 40
0.8713099941
 40
1.0
 40
1.0
 40
1.0
 40
1.0
 10
78.9459512519
 20
36.3795355212
 30
0.0
 10
78.9459746954
 20
36.3211811725
 30
0.0
 10
78.930349869
 20
36.201554405
 30
0.0
 10
78.8617636988
 20
36.0288225375
 30
0.0
 10
78.7504177056
 20
35.8650745769
 30
0.0
 10
78.5408638494
 20
35.6547244883
 30
0.0
 10
78.1837470038
 20
35.4373426604
 30
0.0
 10
77.6702832185
 20
35.2658220631
 30
0.0
 10
77.0940514967
 20
35.1848418227
 30
0.0
 10
76.5017620435
 20
35.2012248866
 30
0.0
 10
75.9417723872
 20
35.3132610245
 30
0.0
 10
75.5981748447
 20
35.4550242694
 30
0.0
 10
75.4464250514
 20
35.5426350714
 30
0.0
  0
SPLINE
  5
49B
100
AcDbEntity
  8
0
100
AcDbSpline
 62
7
  6
CONTINUOUS
 70
0
 71
3
 72
11
 73
7
 74
0
 42
0.0000001
 43
0.0000001
 44
0.0000000001
 40
0.0
 40
0.0
 40
0.0
 40
0.0
 40
0.2228966146
 40
0.4583247889
 40
0.7157164664
 40
1.0
 40
1.0
 40
1.0
 40
1.0
 10
72.1576978905
 20
56.3020941403
 30
0.0
 10
72.1577255568
 20
56.233228541
 30
0.0
 10
72.1356024149
 20
56.0908378302
 30
0.0
 10
72.0397900499
 20
55.8887541119
 30
0.0
 10
71.8862309536
 20
55.701692849
 30
0.0
 10
71.7557846378
 20
55.5952042558
 30
0.0
 10
71.6836167004
 20
55.5451425754
 30
0.0
  0
SPLINE
  5
49C
100
AcDbEntity
  8
0
100
AcDbSpline
 62
7
  6
CONTINUOUS
 70
0
 71
3
 72
15
 73
11
 74
0
 42
0.0000001
 43
0.0000001
 44
0.0000000001
 40
0.0
 40
0.0
 40
0.0
 40
0.0
 40
0.1105240975
 40
0.2315141697
 40
0.3604365017
 40
0.4939688046
 40
0.6283574212
 40
0.7597363041
 40
0.8846666531
 40
1.0
 40
1.0
 40
1.0
 40
1.0
 10
71.6836167004
 20
55.5451425754
 30
0.0
 10
71.5879489067
 20
55.4787794412
 30
0.0
 10
71.3730524227
 20
55.3602190832
 30
0.0
 10
71.0145933086
 20
55.2313594043
 30
0.0
 10
70.6183374775
 20
55.1472106065
 30
0.0
 10
70.2008105897
 20
55.1113770721
 30
0.0
 10
69.7794147292
 20
55.1253563125
 30
0.0
 10
69.3715961677
 20
55.1884861003
 30
0.0
 10
68.994645475
 20
55.2982948101
 30
0.0
 10
68.7633928463
 20
55.4044456019
 30
0.0
 10
68.6581716899
 20
55.4651936905
 30
0.0
  0
SPLINE
  5
49D
100
AcDbEntity
  8
0
100
AcDbSpline
 62
7
  6
CONTINUOUS
 70
0
 71
3
 72
11
 73
7
 74
0
 42
0.0000001
 43
0.0000001
 44
0.0000000001
 40
0.0
 40
0.0
 40
0.0
 40
0.0
 40
0.2404499894
 40
0.4975211803
 40
0.7559455272
 40
1.0
 40
1.0
 40
1.0
 40
1.0
 10
69.0134355291
 20
56.1197583603
 30
0.0
 10
69.1700970204
 20
56.1950516848
 30
0.0
 10
69.5158406485
 20
56.3072193701
 30
0.0
 10
70.0621358945
 20
56.3670903374
 30
0.0
 10
70.6126129547
 20
56.324036467
 30
0.0
 10
70.9653572761
 20
56.223354563
 30
0.0
 10
71.1274379861
 20
56.1536815566
 30
0.0
  0
SPLINE
  5
49E
100
AcDbEntity
  8
0
100
AcDbSpline
 62
7
  6
CONTINUOUS
 70
0
 71
3
 72
9
 73
5
 74
0
 42
0.0000001
 43
0.0000001
 44
0.0000000001
 40
0.0
 40
0.0
 40
0.0
 40
0.0
 40
0.4750293956
 40
1.0
 40
1.0
 40
1.0
 40
1.0
 10
68.4392650318
 20
55.6263025766
 30
0.0
 10
68.4996307557
 20
55.731422236
 30
0.0
 10
68.6728692319
 20
55.9268717542
 30
0.0
 10
68.8926930423
 20
56.0617281248
 30
0.0
 10
69.0134355291
 20
56.1197583603
 30
0.0
  0
SPLINE
  5
49F
100
AcDbEntity
  8
0
100
AcDbSpline
 62
7
  6
CONTINUOUS
 70
0
 71
3
 72
11
 73
7
 74
0
 42
0.0000001
 43
0.0000001
 44
0.0000000001
 40
0.0
 40
0.0
 40
0.0
 40
0.0
 40
0.2236142239
 40
0.4553045867
 40
0.7122548212
 40
1.0
 40
1.0
 40
1.0
 40
1.0
 10
71.6683646566
 20
55.7773870569
 30
0.0
 10
71.6613328208
 20
55.7855183232
 30
0.0
 10
71.6434317968
 20
55.7993581432
 30
0.0
 10
71.6094174398
 20
55.8078033191
 30
0.0
 10
71.5717335486
 20
55.8042205589
 30
0.0
 10
71.5468995921
 20
55.7951382874
 30
0.0
 10
71.5344316871
 20
55.7891460681
 30
0.0
  0
SPLINE
  5
4A0
100
AcDbEntity
  8
0
100
AcDbSpline
 62
7
  6
CONTINUOUS
 70
0
 71
3
 72
9
 73
5
 74
0
 42
0.0000001
 43
0.0000001
 44
0.0000000001
 40
0.0
 40
0.0
 40
0.0
 40
0.0
 40
0.2541348417
 40
1.0
 40
1.0
 40
1.0
 40
1.0
 10
71.6683681046
 20
55.7773913463
 30
0.0
 10
71.6785593859
 20
55.7655992643
 30
0.0
 10
71.7176432595
 20
55.7183348456
 30
0.0
 10
71.7524630771
 20
55.667492994
 30
0.0
 10
71.7753108299
 20
55.6278648144
 30
0.0
  0
SPLINE
  5
4A1
100
AcDbEntity
  8
0
100
AcDbSpline
 62
7
  6
CONTINUOUS
 70
0
 71
3
 72
9
 73
5
 74
0
 42
0.0000001
 43
0.0000001
 44
0.0000000001
 40
0.0
 40
0.0
 40
0.0
 40
0.0
 40
0.2654287177
 40
1.0
 40
1.0
 40
1.0
 40
1.0
 10
31.2546619871
 20
106.0454569087
 30
0.0
 10
31.2280670921
 20
106.0608111311
 30
0.0
 10
31.1297988066
 20
106.1218034818
 30
0.0
 10
31.0391671334
 20
106.1960605154
 30
0.0
 10
30.9816392145
 20
106.2586167816
 30
0.0
  0
SPLINE
  5
4A2
100
AcDbEntity
  8
0
100
AcDbSpline
 62
7
  6
CONTINUOUS
 70
0
 71
3
 72
9
 73
5
 74
0
 42
0.0000001
 43
0.0000001
 44
0.0000000001
 40
0.0
 40
0.0
 40
0.0
 40
0.0
 40
0.5248173257
 40
1.0
 40
1.0
 40
1.0
 40
1.0
 10
30.9816392145
 20
106.2586167816
 30
0.0
 10
30.9265535199
 20
106.3185173559
 30
0.0
 10
30.8357704185
 20
106.4482596297
 30
0.0
 10
30.8007022236
 20
106.6045529396
 30
0.0
 10
30.8006807925
 20
106.6782353476
 30
0.0
  0
SPLINE
  5
4A3
100
AcDbEntity
  8
0
100
AcDbSpline
 62
7
  6
CONTINUOUS
 70
0
 71
3
 72
11
 73
7
 74
0
 42
0.0000001
 43
0.0000001
 44
0.0000000001
 40
0.0
 40
0.0
 40
0.0
 40
0.0
 40
0.2511659051
 40
0.5136344362
 40
0.7688790181
 40
1.0
 40
1.0
 40
1.0
 40
1.0
 10
33.1352046467
 20
105.9064497769
 30
0.0
 10
32.9819122491
 20
105.8545099147
 30
0.0
 10
32.6554349365
 20
105.7849452006
 30
0.0
 10
32.1573764233
 20
105.7747890197
 30
0.0
 10
31.6787039414
 20
105.8545561207
 30
0.0
 10
31.3836447941
 20
105.970990335
 30
0.0
 10
31.2546619871
 20
106.0454569087
 30
0.0
  0
SPLINE
  5
4A4
100
AcDbEntity
  8
0
100
AcDbSpline
 62
7
  6
CONTINUOUS
 70
0
 71
3
 72
9
 73
5
 74
0
 42
0.0000001
 43
0.0000001
 44
0.0000000001
 40
0.0
 40
0.0
 40
0.0
 40
0.0
 40
0.4944537202
 40
1.0
 40
1.0
 40
1.0
 40
1.0
 10
56.141341899
 20
81.896896552
 30
0.0
 10
56.1110691392
 20
81.8671105918
 30
0.0
 10
56.0580661165
 20
81.7980824989
 30
0.0
 10
56.0235804945
 20
81.7185495256
 30
0.0
 10
56.0104758948
 20
81.6771521055
 30
0.0
  0
SPLINE
  5
4A5
100
AcDbEntity
  8
0
100
AcDbSpline
 62
7
  6
CONTINUOUS
 70
0
 71
3
 72
9
 73
5
 74
0
 42
0.0000001
 43
0.0000001
 44
0.0000000001
 40
0.0
 40
0.0
 40
0.0
 40
0.0
 40
0.2440488484
 40
1.0
 40
1.0
 40
1.0
 40
1.0
 10
56.0104758948
 20
81.6771521055
 30
0.0
 10
56.0048548822
 20
81.6593953313
 30
0.0
 10
55.9850624233
 20
81.58561391
 30
0.0
 10
55.9777456809
 20
81.5087808624
 30
0.0
 10
55.977689881
 20
81.4510885198
 30
0.0
  0
SPLINE
  5
4A6
100
AcDbEntity
  8
0
100
AcDbSpline
 62
7
  6
CONTINUOUS
 70
0
 71
3
 72
15
 73
11
 74
0
 42
0.0000001
 43
0.0000001
 44
0.0000000001
 40
0.0
 40
0.0
 40
0.0
 40
0.0
 40
0.1230200388
 40
0.2540080235
 40
0.3891351132
 40
0.5241741595
 40
0.6544514563
 40
0.7769090242
 40
0.891347363
 40
1.0
 40
1.0
 40
1.0
 40
1.0
 10
55.977689881
 20
81.4510885198
 30
0.0
 10
55.9776221151
 20
81.3810244538
 30
0.0
 10
55.9942321929
 20
81.2361370384
 30
0.0
 10
56.0586878291
 20
81.0231078407
 30
0.0
 10
56.1592254501
 20
80.8169107051
 30
0.0
 10
56.2895438329
 20
80.6286341541
 30
0.0
 10
56.4434094812
 20
80.4687746904
 30
0.0
 10
56.6143675564
 20
80.345839987
 30
0.0
 10
56.7978007504
 20
80.2692658126
 30
0.0
 10
56.926958522
 20
80.2560075121
 30
0.0
 10
56.9886220845
 20
80.2611949552
 30
0.0
  0
LINE
  5
4A7
100
AcDbEntity
  8
0
100
AcDbLine
 62
7
  6
CONTINUOUS
 10
59.1865717541
 20
60.3764288522
 11
59.1973230815
 21
60.3367752872
  0
SPLINE
  5
4A8
100
AcDbEntity
  8
0
100
AcDbSpline
 62
7
  6
CONTINUOUS
 70
0
 71
3
 72
11
 73
7
 74
0
 42
0.0000001
 43
0.0000001
 44
0.0000000001
 40
0.0
 40
0.0
 40
0.0
 40
0.0
 40
0.217745073
 40
0.4508830113
 40
0.7104597664
 40
1.0
 40
1.0
 40
1.0
 40
1.0
 10
10.966311016
 20
71.1112691118
 30
0.0
 10
10.9234368279
 20
71.0865158151
 30
0.0
 10
10.8431380841
 20
71.0191636708
 30
0.0
 10
10.7577197502
 20
70.8794380878
 30
0.0
 10
10.7070806799
 20
70.7073040526
 30
0.0
 10
10.6970290936
 20
70.5820406005
 30
0.0
 10
10.6970290936
 20
70.5162103812
 30
0.0
  0
SPLINE
  5
4A9
100
AcDbEntity
  8
0
100
AcDbSpline
 62
7
  6
CONTINUOUS
 70
0
 71
3
 72
11
 73
7
 74
0
 42
0.0000001
 43
0.0000001
 44
0.0000000001
 40
0.0
 40
0.0
 40
0.0
 40
0.0
 40
0.2372539654
 40
0.5000012591
 40
0.7627478695
 40
1.0
 40
1.0
 40
1.0
 40
1.0
 10
11.3115738637
 20
57.5056045366
 30
0.0
 10
11.3115738637
 20
57.3896786535
 30
0.0
 10
11.3550381294
 20
57.145205629
 30
0.0
 10
11.5066438846
 20
56.8017293305
 30
0.0
 10
11.7283011227
 20
56.4986985311
 30
0.0
 10
11.9182890378
 20
56.3388228748
 30
0.0
 10
12.0186835889
 20
56.280861365
 30
0.0
  0
SPLINE
  5
4AA
100
AcDbEntity
  8
0
100
AcDbSpline
 62
7
  6
CONTINUOUS
 70
0
 71
3
 72
11
 73
7
 74
0
 42
0.0000001
 43
0.0000001
 44
0.0000000001
 40
0.0
 40
0.0
 40
0.0
 40
0.0
 40
0.2896708326
 40
0.5491222316
 40
0.7822370661
 40
1.0
 40
1.0
 40
1.0
 40
1.0
 10
31.8077868687
 20
44.855875727
 30
0.0
 10
31.8516609358
 20
44.8305455956
 30
0.0
 10
31.9389596284
 20
44.7890252613
 30
0.0
 10
32.0731257078
 20
44.7566267732
 30
0.0
 10
32.1990213591
 20
44.7597941476
 30
0.0
 10
32.274798508
 20
44.7873150873
 30
0.0
 10
32.3077837651
 20
44.8063529521
 30
0.0
  0
SPLINE
  5
4AB
100
AcDbEntity
  8
0
100
AcDbSpline
 62
7
  6
CONTINUOUS
 70
0
 71
3
 72
9
 73
5
 74
0
 42
0.0000001
 43
0.0000001
 44
0.0000000001
 40
0.0
 40
0.0
 40
0.0
 40
0.0
 40
0.2406700569
 40
1.0
 40
1.0
 40
1.0
 40
1.0
 10
17.2506611879
 20
58.5612904819
 30
0.0
 10
17.2496337811
 20
58.5555811538
 30
0.0
 10
17.2459569077
 20
58.5317531938
 30
0.0
 10
17.2445592031
 20
58.5075950472
 30
0.0
 10
17.2445592031
 20
58.4892924022
 30
0.0
  0
SPLINE
  5
4AC
100
AcDbEntity
  8
0
100
AcDbSpline
 62
7
  6
CONTINUOUS
 70
0
 71
3
 72
11
 73
7
 74
0
 42
0.0000001
 43
0.0000001
 44
0.0000000001
 40
0.0
 40
0.0
 40
0.0
 40
0.0
 40
0.2372444228
 40
0.5000010918
 40
0.7627571666
 40
1.0
 40
1.0
 40
1.0
 40
1.0
 10
17.2445592031
 20
58.4892924022
 30
0.0
 10
17.2445592031
 20
58.4313318235
 30
0.0
 10
17.2663046336
 20
58.3090998113
 30
0.0
 10
17.3420740863
 20
58.137343297
 30
0.0
 10
17.45293532
 20
57.9858475858
 30
0.0
 10
17.5479187845
 20
57.9059004199
 30
0.0
 10
17.5981140657
 20
57.8769208164
 30
0.0
  0
SPLINE
  5
4AD
100
AcDbEntity
  8
0
100
AcDbSpline
 62
7
  6
CONTINUOUS
 70
0
 71
3
 72
9
 73
5
 74
0
 42
0.0000001
 43
0.0000001
 44
0.0000000001
 40
0.0
 40
0.0
 40
0.0
 40
0.0
 40
0.4763650667
 40
1.0
 40
1.0
 40
1.0
 40
1.0
 10
66.5478056319
 20
40.719412941
 30
0.0
 10
66.6421009487
 20
40.6642358434
 30
0.0
 10
66.8246212428
 20
40.521624425
 30
0.0
 10
66.9752009614
 20
40.3469121736
 30
0.0
 10
67.0457149887
 20
40.2496996643
 30
0.0
  0
SPLINE
  5
4AE
100
AcDbEntity
  8
0
100
AcDbSpline
 62
7
  6
CONTINUOUS
 70
0
 71
3
 72
11
 73
7
 74
0
 42
0.0000001
 43
0.0000001
 44
0.0000000001
 40
0.0
 40
0.0
 40
0.0
 40
0.0
 40
0.2896433527
 40
0.5491132405
 40
0.7822372579
 40
1.0
 40
1.0
 40
1.0
 40
1.0
 10
17.9584043969
 20
84.7360557896
 30
0.0
 10
17.8684709608
 20
84.7879777085
 30
0.0
 10
17.705288669
 20
84.9004149119
 30
0.0
 10
17.5102129678
 20
85.1053575932
 30
0.0
 10
17.3867741521
 20
85.332133419
 30
0.0
 10
17.3580352947
 20
85.4948820751
 30
0.0
 10
17.3580039289
 20
85.5729563707
 30
0.0
  0
SPLINE
  5
4AF
100
AcDbEntity
  8
0
100
AcDbSpline
 62
7
  6
CONTINUOUS
 70
0
 71
3
 72
10
 73
6
 74
0
 42
0.0000001
 43
0.0000001
 44
0.0000000001
 40
0.0
 40
0.0
 40
0.0
 40
0.0
 40
0.5345393077
 40
0.7707057855
 40
1.0
 40
1.0
 40
1.0
 40
1.0
 10
71.1809112734
 20
56.0569048245
 30
0.0
 10
71.1809112734
 20
56.0776553416
 30
0.0
 10
71.1750890785
 20
56.1088108516
 30
0.0
 10
71.1512144184
 20
56.140226017
 30
0.0
 10
71.1356270224
 20
56.1501870636
 30
0.0
 10
71.12744966
 20
56.1537027213
 30
0.0
  0
SPLINE
  5
4B0
100
AcDbEntity
  8
0
100
AcDbSpline
 62
7
  6
CONTINUOUS
 70
0
 71
3
 72
11
 73
7
 74
0
 42
0.0000001
 43
0.0000001
 44
0.0000000001
 40
0.0
 40
0.0
 40
0.0
 40
0.0
 40
0.2896433527
 40
0.5491132405
 40
0.7822372579
 40
1.0
 40
1.0
 40
1.0
 40
1.0
 10
68.6581716899
 20
55.4651936905
 30
0.0
 10
68.5682382539
 20
55.5171156094
 30
0.0
 10
68.405055962
 20
55.6295528128
 30
0.0
 10
68.2099802609
 20
55.8344954941
 30
0.0
 10
68.0865414452
 20
56.0612713199
 30
0.0
 10
68.0578025878
 20
56.224019976
 30
0.0
 10
68.057771222
 20
56.3020942716
 30
0.0
  0
SPLINE
  5
4B1
100
AcDbEntity
  8
0
100
AcDbSpline
 62
7
  6
CONTINUOUS
 70
0
 71
3
 72
11
 73
7
 74
0
 42
0.0000001
 43
0.0000001
 44
0.0000000001
 40
0.0
 40
0.0
 40
0.0
 40
0.0
 40
0.2896433527
 40
0.5491132405
 40
0.7822372579
 40
1.0
 40
1.0
 40
1.0
 40
1.0
 10
75.4464250514
 20
35.5426350714
 30
0.0
 10
75.3564916153
 20
35.5945569903
 30
0.0
 10
75.1933093234
 20
35.7069941936
 30
0.0
 10
74.9982336223
 20
35.9119368749
 30
0.0
 10
74.8747948066
 20
36.1387127008
 30
0.0
 10
74.8460559492
 20
36.3014613569
 30
0.0
 10
74.8460245834
 20
36.3795356525
 30
0.0
  0
SPLINE
  5
4B2
100
AcDbEntity
  8
0
100
AcDbSpline
 62
7
  6
CONTINUOUS
 70
0
 71
3
 72
9
 73
5
 74
0
 42
0.0000001
 43
0.0000001
 44
0.0000000001
 40
0.0
 40
0.0
 40
0.0
 40
0.0
 40
0.4756693755
 40
1.0
 40
1.0
 40
1.0
 40
1.0
 10
59.6973949995
 20
60.6581280808
 30
0.0
 10
59.7938313903
 20
60.6028748936
 30
0.0
 10
59.9805986068
 20
60.4584228901
 30
0.0
 10
60.134133916
 20
60.2804692771
 30
0.0
 10
60.2059664928
 20
60.1812237885
 30
0.0
  0
SPLINE
  5
4B3
100
AcDbEntity
  8
0
100
AcDbSpline
 62
7
  6
CONTINUOUS
 70
0
 71
3
 72
11
 73
7
 74
0
 42
0.0000001
 43
0.0000001
 44
0.0000000001
 40
0.0
 40
0.0
 40
0.0
 40
0.0
 40
0.2896433527
 40
0.5491132405
 40
0.7822372579
 40
1.0
 40
1.0
 40
1.0
 40
1.0
 10
24.7466577583
 20
96.820391922
 30
0.0
 10
24.6567243223
 20
96.8723138408
 30
0.0
 10
24.4935420304
 20
96.9847510442
 30
0.0
 10
24.2984663292
 20
97.1896937255
 30
0.0
 10
24.1750275136
 20
97.4164695513
 30
0.0
 10
24.1462886562
 20
97.5792182075
 30
0.0
 10
24.1462572903
 20
97.657292503
 30
0.0
  0
SPLINE
  5
4B4
100
AcDbEntity
  8
0
100
AcDbSpline
 62
7
  6
CONTINUOUS
 70
0
 71
3
 72
11
 73
7
 74
0
 42
0.0000001
 43
0.0000001
 44
0.0000000001
 40
0.0
 40
0.0
 40
0.0
 40
0.0
 40
0.2177482241
 40
0.4508901735
 40
0.7104621366
 40
1.0
 40
1.0
 40
1.0
 40
1.0
 10
30.873143759
 20
108.3296323287
 30
0.0
 10
30.8731437614
 20
108.273461026
 30
0.0
 10
30.893772546
 20
108.1563488605
 30
0.0
 10
30.9826177163
 20
107.9931554072
 30
0.0
 10
31.1230300175
 20
107.8457493926
 30
0.0
 10
31.2404128563
 20
107.7648168071
 30
0.0
 10
31.3050970735
 20
107.7274722017
 30
0.0
  0
SPLINE
  5
4B5
100
AcDbEntity
  8
0
100
AcDbSpline
 62
7
  6
CONTINUOUS
 70
0
 71
3
 72
11
 73
7
 74
0
 42
0.0000001
 43
0.0000001
 44
0.0000000001
 40
0.0
 40
0.0
 40
0.0
 40
0.0
 40
0.2896433527
 40
0.5491132405
 40
0.7822372579
 40
1.0
 40
1.0
 40
1.0
 40
1.0
 10
64.7690440642
 20
77.0615533423
 30
0.0
 10
64.8589775004
 20
77.0096314233
 30
0.0
 10
65.0221597927
 20
76.8971942197
 30
0.0
 10
65.2172354942
 20
76.692251538
 30
0.0
 10
65.3406743102
 20
76.4654757116
 30
0.0
 10
65.3694131676
 20
76.3027270552
 30
0.0
 10
65.3694445334
 20
76.2246527594
 30
0.0
  0
SPLINE
  5
4B6
100
AcDbEntity
  8
0
100
AcDbSpline
 62
7
  6
CONTINUOUS
 70
0
 71
3
 72
9
 73
5
 74
0
 42
0.0000001
 43
0.0000001
 44
0.0000000001
 40
0.0
 40
0.0
 40
0.0
 40
0.0
 40
0.2478590893
 40
1.0
 40
1.0
 40
1.0
 40
1.0
 10
30.8006807925
 20
106.6782353476
 30
0.0
 10
30.8006768644
 20
106.6917403862
 30
0.0
 10
30.8027969645
 20
106.7462150583
 30
0.0
 10
30.8136198452
 20
106.8002845419
 30
0.0
 10
30.8260011959
 20
106.8393511996
 30
0.0
  0
SPLINE
  5
4B7
100
AcDbEntity
  8
0
100
AcDbSpline
 62
7
  6
CONTINUOUS
 70
0
 71
3
 72
9
 73
5
 74
0
 42
0.0000001
 43
0.0000001
 44
0.0000000001
 40
0.0
 40
0.0
 40
0.0
 40
0.0
 40
0.2562428654
 40
1.0
 40
1.0
 40
1.0
 40
1.0
 10
33.855799028
 20
106.8872965945
 30
0.0
 10
33.8627307797
 20
106.870515208
 30
0.0
 10
33.8868486098
 20
106.8038614016
 30
0.0
 10
33.897988518
 20
106.732435654
 30
0.0
 10
33.8979885063
 20
106.6797350974
 30
0.0
  0
SPLINE
  5
4B8
100
AcDbEntity
  8
0
100
AcDbSpline
 62
7
  6
CONTINUOUS
 70
0
 71
3
 72
16
 73
12
 74
0
 42
0.0000001
 43
0.0000001
 44
0.0000000001
 40
0.0
 40
0.0
 40
0.0
 40
0.0
 40
0.0433569795
 40
0.0879192225
 40
0.1842460616
 40
0.2945487677
 40
0.4197096776
 40
0.5575064762
 40
0.7037405333
 40
0.8531358333
 40
1.0
 40
1.0
 40
1.0
 40
1.0
 10
24.1462572903
 20
97.657292503
 30
0.0
 10
24.1462382528
 20
97.7046799122
 30
0.0
 10
24.1563864906
 20
97.8010606096
 30
0.0
 10
24.2179422104
 20
97.9940504043
 30
0.0
 10
24.3755759665
 20
98.2258428315
 30
0.0
 10
24.6593070794
 20
98.4571668672
 30
0.0
 10
25.0256358753
 20
98.6424134927
 30
0.0
 10
25.4554169427
 20
98.7727255835
 30
0.0
 10
25.9257288251
 20
98.841670124
 30
0.0
 10
26.4107459416
 20
98.8454469664
 30
0.0
 10
26.7331444227
 20
98.8035825603
 30
0.0
 10
26.8903059789
 20
98.7709358261
 30
0.0
  0
SPLINE
  5
4B9
100
AcDbEntity
  8
0
100
AcDbSpline
 62
7
  6
CONTINUOUS
 70
0
 71
3
 72
11
 73
7
 74
0
 42
0.0000001
 43
0.0000001
 44
0.0000000001
 40
0.0
 40
0.0
 40
0.0
 40
0.0
 40
0.2746496493
 40
0.533747493
 40
0.7756928628
 40
1.0
 40
1.0
 40
1.0
 40
1.0
 10
58.4700553377
 20
88.6536124319
 30
0.0
 10
58.1370197922
 20
88.9458231569
 30
0.0
 10
57.4633172124
 20
89.4845716956
 30
0.0
 10
56.4083362562
 20
90.1621767006
 30
0.0
 10
55.3535875846
 20
90.6754184502
 30
0.0
 10
54.6357021289
 20
90.910664375
 30
0.0
 10
54.283699209
 20
90.994489065
 30
0.0
  0
SPLINE
  5
4BA
100
AcDbEntity
  8
0
100
AcDbSpline
 62
7
  6
CONTINUOUS
 70
0
 71
3
 72
17
 73
13
 74
0
 42
0.0000001
 43
0.0000001
 44
0.0000000001
 40
0.0
 40
0.0
 40
0.0
 40
0.0
 40
0.0428328836
 40
0.0873878624
 40
0.1350908174
 40
0.1868356048
 40
0.3035043502
 40
0.4365106526
 40
0.580401053
 40
0.7275508689
 40
0.8698837253
 40
1.0
 40
1.0
 40
1.0
 40
1.0
 10
56.9958670783
 20
80.1555681469
 30
0.0
 10
56.9715106025
 20
80.1415289548
 30
0.0
 10
56.9179331723
 20
80.1191515453
 30
0.0
 10
56.8295184113
 20
80.1057193419
 30
0.0
 10
56.7345712599
 20
80.1121634003
 30
0.0
 10
56.5965721728
 20
80.1476743657
 30
0.0
 10
56.4198404731
 20
80.242457955
 30
0.0
 10
56.2238125278
 20
80.4129703348
 30
0.0
 10
56.0495086117
 20
80.6317623602
 30
0.0
 10
55.9106789771
 20
80.8815221297
 30
0.0
 10
55.8184030726
 20
81.1423443887
 30
0.0
 10
55.7912110208
 20
81.3207571264
 30
0.0
 10
55.7890789206
 20
81.406131008
 30
0.0
  0
SPLINE
  5
4BB
100
AcDbEntity
  8
0
100
AcDbSpline
 62
7
  6
CONTINUOUS
 70
0
 71
3
 72
17
 73
13
 74
0
 42
0.0000001
 43
0.0000001
 44
0.0000000001
 40
0.0
 40
0.0
 40
0.0
 40
0.0
 40
0.0428571277
 40
0.087483909
 40
0.1353159407
 40
0.187279013
 40
0.3045397097
 40
0.4382076182
 40
0.5825507004
 40
0.7297102646
 40
0.8713099941
 40
1.0
 40
1.0
 40
1.0
 40
1.0
 10
61.2695178562
 20
76.2246528907
 30
0.0
 10
61.2694944127
 20
76.2830072395
 30
0.0
 10
61.2851192391
 20
76.4026340073
 30
0.0
 10
61.3537054095
 20
76.5753658752
 30
0.0
 10
61.4650514029
 20
76.7391138361
 30
0.0
 10
61.6746052596
 20
76.9494639251
 30
0.0
 10
62.0317221059
 20
77.1668457535
 30
0.0
 10
62.5451858923
 20
77.3383663511
 30
0.0
 10
63.1214176153
 20
77.4193465917
 30
0.0
 10
63.7137070698
 20
77.4029635278
 30
0.0
 10
64.2736967273
 20
77.2909273897
 30
0.0
 10
64.6172942706
 20
77.1491641445
 30
0.0
 10
64.7690440642
 20
77.0615533423
 30
0.0
  0
SPLINE
  5
4BC
100
AcDbEntity
  8
0
100
AcDbSpline
 62
7
  6
CONTINUOUS
 70
0
 71
3
 72
16
 73
12
 74
0
 42
0.0000001
 43
0.0000001
 44
0.0000000001
 40
0.0
 40
0.0
 40
0.0
 40
0.0
 40
0.1302934027
 40
0.2739439469
 40
0.4227706634
 40
0.5678264981
 40
0.700761288
 40
0.8159196349
 40
0.9128540273
 40
0.9568974689
 40
1.0
 40
1.0
 40
1.0
 40
1.0
 10
56.03626902
 20
81.3692462494
 30
0.0
 10
56.0362048151
 20
81.3028639472
 30
0.0
 10
56.0553585028
 20
81.1631240462
 30
0.0
 10
56.1264750904
 20
80.9586777647
 30
0.0
 10
56.2358139182
 20
80.7631109292
 30
0.0
 10
56.3737189146
 20
80.5934703115
 30
0.0
 10
56.5288188715
 20
80.4642974269
 30
0.0
 10
56.6885776125
 20
80.3860919208
 30
0.0
 10
56.8225622053
 20
80.3711610106
 30
0.0
 10
56.9140253524
 20
80.3959759667
 30
0.0
 10
56.9528950939
 20
80.4186749476
 30
0.0
 10
56.9702358759
 20
80.4321486272
 30
0.0
  0
SPLINE
  5
4BD
100
AcDbEntity
  8
0
100
AcDbSpline
 62
7
  6
CONTINUOUS
 70
0
 71
3
 72
11
 73
7
 74
0
 42
0.0000001
 43
0.0000001
 44
0.0000000001
 40
0.0
 40
0.0
 40
0.0
 40
0.0
 40
0.218182472
 40
0.4536044041
 40
0.7137395314
 40
1.0
 40
1.0
 40
1.0
 40
1.0
 10
56.9702358759
 20
80.4321486272
 30
0.0
 10
56.9908316807
 20
80.4481514392
 30
0.0
 10
57.0285631479
 20
80.4883501558
 30
0.0
 10
57.0683847844
 20
80.5647558614
 30
0.0
 10
57.0920326693
 20
80.6558254493
 30
0.0
 10
57.0968998491
 20
80.7212980884
 30
0.0
 10
57.096932947
 20
80.7555184239
 30
0.0
  0
SPLINE
  5
4BE
100
AcDbEntity
  8
0
100
AcDbSpline
 62
7
  6
CONTINUOUS
 70
0
 71
3
 72
11
 73
7
 74
0
 42
0.0000001
 43
0.0000001
 44
0.0000000001
 40
0.0
 40
0.0
 40
0.0
 40
0.0
 40
0.2325413197
 40
0.4898231517
 40
0.7525179397
 40
1.0
 40
1.0
 40
1.0
 40
1.0
 10
57.096932947
 20
80.7555184239
 30
0.0
 10
57.0970068995
 20
80.8319789266
 30
0.0
 10
57.0717277218
 20
80.9932116307
 30
0.0
 10
56.9805152462
 20
81.2248505033
 30
0.0
 10
56.8435472206
 20
81.4385891176
 30
0.0
 10
56.7252377474
 20
81.5599247808
 30
0.0
 10
56.661287507
 20
81.6102432727
 30
0.0
  0
SPLINE
  5
4BF
100
AcDbEntity
  8
0
100
AcDbSpline
 62
7
  6
CONTINUOUS
 70
0
 71
3
 72
9
 73
5
 74
0
 42
0.0000001
 43
0.0000001
 44
0.0000000001
 40
0.0
 40
0.0
 40
0.0
 40
0.0
 40
0.2718208796
 40
1.0
 40
1.0
 40
1.0
 40
1.0
 10
56.661287507
 20
81.6102432727
 30
0.0
 10
56.6424126813
 20
81.6250947065
 30
0.0
 10
56.5709059725
 20
81.6768302183
 30
0.0
 10
56.4899309576
 20
81.7171437594
 30
0.0
 10
56.4277171538
 20
81.7335450747
 30
0.0
  0
SPLINE
  5
4C0
100
AcDbEntity
  8
0
100
AcDbSpline
 62
7
  6
CONTINUOUS
 70
0
 71
3
 72
10
 73
6
 74
0
 42
0.0000001
 43
0.0000001
 44
0.0000000001
 40
0.0
 40
0.0
 40
0.0
 40
0.0
 40
0.5258050898
 40
0.7653487819
 40
1.0
 40
1.0
 40
1.0
 40
1.0
 10
56.4277171538
 20
81.7335450747
 30
0.0
 10
56.3808517122
 20
81.7459001283
 30
0.0
 10
56.307883651
 20
81.7532256167
 30
0.0
 10
56.2182662004
 20
81.7283003248
 30
0.0
 10
56.1800456606
 20
81.7058867653
 30
0.0
 10
56.162966091
 20
81.6926160461
 30
0.0
  0
SPLINE
  5
4C1
100
AcDbEntity
  8
0
100
AcDbSpline
 62
7
  6
CONTINUOUS
 70
0
 71
3
 72
11
 73
7
 74
0
 42
0.0000001
 43
0.0000001
 44
0.0000000001
 40
0.0
 40
0.0
 40
0.0
 40
0.0
 40
0.218182472
 40
0.4536044041
 40
0.7137395314
 40
1.0
 40
1.0
 40
1.0
 40
1.0
 10
56.162966091
 20
81.6926160461
 30
0.0
 10
56.1423702863
 20
81.6766132341
 30
0.0
 10
56.1046388191
 20
81.6364145175
 30
0.0
 10
56.0648171825
 20
81.5600088119
 30
0.0
 10
56.0411692976
 20
81.468939224
 30
0.0
 10
56.0363021178
 20
81.4034665849
 30
0.0
 10
56.03626902
 20
81.3692462494
 30
0.0
  0
SPLINE
  5
4C2
100
AcDbEntity
  8
0
100
AcDbSpline
 62
7
  6
CONTINUOUS
 70
0
 71
3
 72
9
 73
5
 74
0
 42
0.0000001
 43
0.0000001
 44
0.0000000001
 40
0.0
 40
0.0
 40
0.0
 40
0.0
 40
0.2572921286
 40
1.0
 40
1.0
 40
1.0
 40
1.0
 10
66.6647874222
 20
40.2112648364
 30
0.0
 10
66.647408606
 20
40.2316912224
 30
0.0
 10
66.578238289
 20
40.3096711227
 30
0.0
 10
66.502551602
 20
40.3819706682
 30
0.0
 10
66.4427746897
 20
40.4311648298
 30
0.0
  0
SPLINE
  5
4C3
100
AcDbEntity
  8
0
100
AcDbSpline
 62
7
  6
CONTINUOUS
 70
0
 71
3
 72
9
 73
5
 74
0
 42
0.0000001
 43
0.0000001
 44
0.0000000001
 40
0.0
 40
0.0
 40
0.0
 40
0.0
 40
0.2545170374
 40
1.0
 40
1.0
 40
1.0
 40
1.0
 10
66.3149007113
 20
40.5252177135
 30
0.0
 10
66.3077917729
 20
40.5298395408
 30
0.0
 10
66.279683838
 20
40.5477245781
 30
0.0
 10
66.2508640748
 20
40.5644964522
 30
0.0
 10
66.2289997284
 20
40.5762766471
 30
0.0
  0
SPLINE
  5
4C4
100
AcDbEntity
  8
0
100
AcDbSpline
 62
7
  6
CONTINUOUS
 70
0
 71
3
 72
11
 73
7
 74
0
 42
0.0000001
 43
0.0000001
 44
0.0000000001
 40
0.0
 40
0.0
 40
0.0
 40
0.0
 40
0.2895391946
 40
0.5491157945
 40
0.7822541179
 40
1.0
 40
1.0
 40
1.0
 40
1.0
 10
14.0693070909
 20
86.1240707857
 30
0.0
 10
14.0254538331
 20
86.1493889031
 30
0.0
 10
13.9381427749
 20
86.190868962
 30
0.0
 10
13.8039985894
 20
86.2233380293
 30
0.0
 10
13.6780671782
 20
86.2201745745
 30
0.0
 10
13.6023166911
 20
86.192587167
 30
0.0
 10
13.5693373061
 20
86.1735466081
 30
0.0
  0
SPLINE
  5
4C5
100
AcDbEntity
  8
0
100
AcDbSpline
 62
7
  6
CONTINUOUS
 70
0
 71
3
 72
9
 73
5
 74
0
 42
0.0000001
 43
0.0000001
 44
0.0000000001
 40
0.0
 40
0.0
 40
0.0
 40
0.0
 40
0.2409942703
 40
1.0
 40
1.0
 40
1.0
 40
1.0
 10
71.6696034869
 20
55.5211278635
 30
0.0
 10
71.6652425772
 20
55.5405019224
 30
0.0
 10
71.6427953201
 20
55.6199079907
 30
0.0
 10
71.6034315937
 20
55.6940657586
 30
0.0
 10
71.5675350007
 20
55.745283788
 30
0.0
  0
SPLINE
  5
4C6
100
AcDbEntity
  8
0
100
AcDbSpline
 62
7
  6
CONTINUOUS
 70
0
 71
3
 72
11
 73
7
 74
0
 42
0.0000001
 43
0.0000001
 44
0.0000000001
 40
0.0
 40
0.0
 40
0.0
 40
0.0
 40
0.2176552377
 40
0.4508391752
 40
0.7105706974
 40
1.0
 40
1.0
 40
1.0
 40
1.0
 10
13.2977935999
 20
56.8867159846
 30
0.0
 10
13.2813132216
 20
56.8771959805
 30
0.0
 10
13.2434275954
 20
56.8634471979
 30
0.0
 10
13.1804590071
 20
56.8618203603
 30
0.0
 10
13.1133836994
 20
56.8780921244
 30
0.0
 10
13.0697191264
 20
56.8988130678
 30
0.0
 10
13.0478011387
 20
56.9114671376
 30
0.0
  0
SPLINE
  5
4C7
100
AcDbEntity
  8
0
100
AcDbSpline
 62
7
  6
CONTINUOUS
 70
0
 71
3
 72
9
 73
5
 74
0
 42
0.0000001
 43
0.0000001
 44
0.0000000001
 40
0.0
 40
0.0
 40
0.0
 40
0.0
 40
0.2764748402
 40
1.0
 40
1.0
 40
1.0
 40
1.0
 10
69.0444725432
 20
56.0747657193
 30
0.0
 10
68.9994799604
 20
56.0509803333
 30
0.0
 10
68.8413409751
 20
55.9575487298
 30
0.0
 10
68.699840733
 20
55.828825899
 30
0.0
 10
68.6285856822
 20
55.7163053029
 30
0.0
  0
SPLINE
  5
4C8
100
AcDbEntity
  8
0
100
AcDbSpline
 62
7
  6
CONTINUOUS
 70
0
 71
3
 72
9
 73
5
 74
0
 42
0.0000001
 43
0.0000001
 44
0.0000000001
 40
0.0
 40
0.0
 40
0.0
 40
0.0
 40
0.2586845673
 40
1.0
 40
1.0
 40
1.0
 40
1.0
 10
68.6285856822
 20
55.7163053029
 30
0.0
 10
68.6197352584
 20
55.7023293819
 30
0.0
 10
68.5873946092
 20
55.6471574475
 30
0.0
 10
68.5630071159
 20
55.5871842466
 30
0.0
 10
68.5508540952
 20
55.5413622703
 30
0.0
  0
SPLINE
  5
4C9
100
AcDbEntity
  8
0
100
AcDbSpline
 62
7
  6
CONTINUOUS
 70
0
 71
3
 72
11
 73
7
 74
0
 42
0.0000001
 43
0.0000001
 44
0.0000000001
 40
0.0
 40
0.0
 40
0.0
 40
0.0
 40
0.2439927705
 40
0.5039834519
 40
0.7618653315
 40
1.0
 40
1.0
 40
1.0
 40
1.0
 10
71.0226027468
 20
56.1441203993
 30
0.0
 10
70.8744389373
 20
56.2051626192
 30
0.0
 10
70.5520103337
 20
56.2927598671
 30
0.0
 10
70.0502011005
 20
56.3282984191
 30
0.0
 10
69.5541507558
 20
56.2720707131
 30
0.0
 10
69.2410343155
 20
56.1705457026
 30
0.0
 10
69.1000713301
 20
56.1027972616
 30
0.0
  0
SPLINE
  5
4CA
100
AcDbEntity
  8
0
100
AcDbSpline
 62
7
  6
CONTINUOUS
 70
0
 71
3
 72
17
 73
13
 74
0
 42
0.0000001
 43
0.0000001
 44
0.0000000001
 40
0.0
 40
0.0
 40
0.0
 40
0.0
 40
0.0428571277
 40
0.087483909
 40
0.1353159407
 40
0.187279013
 40
0.3045397097
 40
0.4382076182
 40
0.5825507004
 40
0.7297102646
 40
0.8713099941
 40
1.0
 40
1.0
 40
1.0
 40
1.0
 10
74.8460245834
 20
36.3795356525
 30
0.0
 10
74.8460011399
 20
36.4378900011
 30
0.0
 10
74.8616259663
 20
36.5575167686
 30
0.0
 10
74.9302121365
 20
36.7302486361
 30
0.0
 10
75.0415581297
 20
36.8939965967
 30
0.0
 10
75.2511119859
 20
37.1043466853
 30
0.0
 10
75.6082288314
 20
37.3217285132
 30
0.0
 10
76.1216926168
 20
37.4932491105
 30
0.0
 10
76.6979243386
 20
37.5742293509
 30
0.0
 10
77.2902137918
 20
37.557846287
 30
0.0
 10
77.8502034481
 20
37.4458101491
 30
0.0
 10
78.1938009906
 20
37.3040469042
 30
0.0
 10
78.3455507839
 20
37.2164361022
 30
0.0
  0
SPLINE
  5
4CB
100
AcDbEntity
  8
0
100
AcDbSpline
 62
7
  6
CONTINUOUS
 70
0
 71
3
 72
11
 73
7
 74
0
 42
0.0000001
 43
0.0000001
 44
0.0000000001
 40
0.0
 40
0.0
 40
0.0
 40
0.0
 40
0.2896433527
 40
0.5491132405
 40
0.7822372579
 40
1.0
 40
1.0
 40
1.0
 40
1.0
 10
71.5572974225
 20
57.1389947214
 30
0.0
 10
71.6472308586
 20
57.0870728025
 30
0.0
 10
71.8104131505
 20
56.9746355991
 30
0.0
 10
72.0054888516
 20
56.7696929178
 30
0.0
 10
72.1289276673
 20
56.542917092
 30
0.0
 10
72.1576665247
 20
56.3801684359
 30
0.0
 10
72.1576978905
 20
56.3020941403
 30
0.0
  0
SPLINE
  5
4CC
100
AcDbEntity
  8
0
100
AcDbSpline
 62
7
  6
CONTINUOUS
 70
0
 71
3
 72
11
 73
7
 74
0
 42
0.0000001
 43
0.0000001
 44
0.0000000001
 40
0.0
 40
0.0
 40
0.0
 40
0.0
 40
0.2372539654
 40
0.5000012591
 40
0.7627478695
 40
1.0
 40
1.0
 40
1.0
 40
1.0
 10
71.7694606629
 20
51.9951227997
 30
0.0
 10
71.7694606629
 20
52.1110486828
 30
0.0
 10
71.7259963973
 20
52.3555217073
 30
0.0
 10
71.5743906421
 20
52.6989980058
 30
0.0
 10
71.3527334039
 20
53.0020288052
 30
0.0
 10
71.1627454889
 20
53.1619044615
 30
0.0
 10
71.0623509378
 20
53.2198659713
 30
0.0
  0
SPLINE
  5
4CD
100
AcDbEntity
  8
0
100
AcDbSpline
 62
7
  6
CONTINUOUS
 70
0
 71
3
 72
17
 73
13
 74
0
 42
0.0000001
 43
0.0000001
 44
0.0000000001
 40
0.0
 40
0.0
 40
0.0
 40
0.0
 40
0.0428571277
 40
0.087483909
 40
0.1353159407
 40
0.187279013
 40
0.3045397097
 40
0.4382076182
 40
0.5825507004
 40
0.7297102646
 40
0.8713099941
 40
1.0
 40
1.0
 40
1.0
 40
1.0
 10
68.057771222
 20
56.3020942716
 30
0.0
 10
68.0577477785
 20
56.3604486202
 30
0.0
 10
68.0733726049
 20
56.4800753878
 30
0.0
 10
68.1419587751
 20
56.6528072553
 30
0.0
 10
68.2533047682
 20
56.8165552159
 30
0.0
 10
68.4628586245
 20
57.0269053044
 30
0.0
 10
68.81997547
 20
57.2442871323
 30
0.0
 10
69.3334392554
 20
57.4158077296
 30
0.0
 10
69.9096709772
 20
57.4967879701
 30
0.0
 10
70.5019604304
 20
57.4804049061
 30
0.0
 10
71.0619500867
 20
57.3683687683
 30
0.0
 10
71.4055476292
 20
57.2266055234
 30
0.0
 10
71.5572974225
 20
57.1389947214
 30
0.0
  0
SPLINE
  5
4CE
100
AcDbEntity
  8
0
100
AcDbSpline
 62
7
  6
CONTINUOUS
 70
0
 71
3
 72
9
 73
5
 74
0
 42
0.0000001
 43
0.0000001
 44
0.0000000001
 40
0.0
 40
0.0
 40
0.0
 40
0.0
 40
0.2366777112
 40
1.0
 40
1.0
 40
1.0
 40
1.0
 10
54.7580927745
 20
93.1781882718
 30
0.0
 10
54.7580951104
 20
93.1806033265
 30
0.0
 10
54.7577107204
 20
93.1908068278
 30
0.0
 10
54.7558797899
 20
93.2009307127
 30
0.0
 10
54.7538836945
 20
93.2084595255
 30
0.0
  0
SPLINE
  5
4CF
100
AcDbEntity
  8
0
100
AcDbSpline
 62
7
  6
CONTINUOUS
 70
0
 71
3
 72
9
 73
5
 74
0
 42
0.0000001
 43
0.0000001
 44
0.0000000001
 40
0.0
 40
0.0
 40
0.0
 40
0.0
 40
0.460316744
 40
1.0
 40
1.0
 40
1.0
 40
1.0
 10
71.12744966
 20
56.1537027213
 30
0.0
 10
71.1122755234
 20
56.1602264716
 30
0.0
 10
71.0748105913
 20
56.1639454909
 30
0.0
 10
71.0400564857
 20
56.152508868
 30
0.0
 10
71.0226027469
 20
56.1441203993
 30
0.0
  0
SPLINE
  5
4D0
100
AcDbEntity
  8
0
100
AcDbSpline
 62
7
  6
CONTINUOUS
 70
0
 71
3
 72
11
 73
7
 74
0
 42
0.0000001
 43
0.0000001
 44
0.0000000001
 40
0.0
 40
0.0
 40
0.0
 40
0.0
 40
0.2895391946
 40
0.5491157945
 40
0.7822541179
 40
1.0
 40
1.0
 40
1.0
 40
1.0
 10
11.6162717363
 20
71.0469505426
 30
0.0
 10
11.5592625012
 20
71.0798640953
 30
0.0
 10
11.4457581255
 20
71.1337881719
 30
0.0
 10
11.2713706843
 20
71.1759979594
 30
0.0
 10
11.1076598497
 20
71.1718854681
 30
0.0
 10
11.0091842165
 20
71.1360218384
 30
0.0
 10
10.966311016
 20
71.1112691118
 30
0.0
  0
SPLINE
  5
4D1
100
AcDbEntity
  8
0
100
AcDbSpline
 62
7
  6
CONTINUOUS
 70
0
 71
3
 72
9
 73
5
 74
0
 42
0.0000001
 43
0.0000001
 44
0.0000000001
 40
0.0
 40
0.0
 40
0.0
 40
0.0
 40
0.4500605412
 40
1.0
 40
1.0
 40
1.0
 40
1.0
 10
54.7373862439
 20
93.1324928019
 30
0.0
 10
54.7441309076
 20
93.1363868093
 30
0.0
 10
54.7556891628
 20
93.150994241
 30
0.0
 10
54.7580835703
 20
93.1686718719
 30
0.0
 10
54.7580927745
 20
93.1781882718
 30
0.0
  0
SPLINE
  5
4D2
100
AcDbEntity
  8
0
100
AcDbSpline
 62
7
  6
CONTINUOUS
 70
0
 71
3
 72
9
 73
5
 74
0
 42
0.0000001
 43
0.0000001
 44
0.0000000001
 40
0.0
 40
0.0
 40
0.0
 40
0.0
 40
0.4500605412
 40
1.0
 40
1.0
 40
1.0
 40
1.0
 10
59.8215791686
 20
87.6018102279
 30
0.0
 10
59.8350684961
 20
87.6095982427
 30
0.0
 10
59.8581850065
 20
87.6388131062
 30
0.0
 10
59.8629738214
 20
87.6741683679
 30
0.0
 10
59.8629922299
 20
87.6932011678
 30
0.0
  0
SPLINE
  5
4D3
100
AcDbEntity
  8
0
100
AcDbSpline
 62
7
  6
CONTINUOUS
 70
0
 71
3
 72
16
 73
12
 74
0
 42
0.0000001
 43
0.0000001
 44
0.0000000001
 40
0.0
 40
0.0
 40
0.0
 40
0.0
 40
0.0429837936
 40
0.087351693
 40
0.1842376239
 40
0.29646269
 40
0.424236243
 40
0.5642574074
 40
0.7111513921
 40
0.8585400294
 40
1.0
 40
1.0
 40
1.0
 40
1.0
 10
17.3580039289
 20
85.5729563707
 30
0.0
 10
17.3579833703
 20
85.6241300616
 30
0.0
 10
17.369879353
 20
85.728481016
 30
0.0
 10
17.442022603
 20
85.9372127643
 30
0.0
 10
17.626308486
 20
86.1849344382
 30
0.0
 10
17.952690026
 20
86.4246569606
 30
0.0
 10
18.3693648987
 20
86.6082724847
 30
0.0
 10
18.8512096457
 20
86.725362626
 30
0.0
 10
19.3683678525
 20
86.7691330906
 30
0.0
 10
19.8878782829
 20
86.7368548555
 30
0.0
 10
20.2257000372
 20
86.6634200569
 30
0.0
 10
20.3863891709
 20
86.6130024109
 30
0.0
  0
SPLINE
  5
4D4
100
AcDbEntity
  8
0
100
AcDbSpline
 62
7
  6
CONTINUOUS
 70
0
 71
3
 72
11
 73
7
 74
0
 42
0.0000001
 43
0.0000001
 44
0.0000000001
 40
0.0
 40
0.0
 40
0.0
 40
0.0
 40
0.2896433527
 40
0.5491132405
 40
0.7822372579
 40
1.0
 40
1.0
 40
1.0
 40
1.0
 10
78.3455507839
 20
37.2164361022
 30
0.0
 10
78.43548422
 20
37.1645141834
 30
0.0
 10
78.5986665119
 20
37.05207698
 30
0.0
 10
78.793742213
 20
36.8471342987
 30
0.0
 10
78.9171810287
 20
36.6203584729
 30
0.0
 10
78.9459198861
 20
36.4576098167
 30
0.0
 10
78.9459512519
 20
36.3795355212
 30
0.0
  0
SPLINE
  5
4D5
100
AcDbEntity
  8
0
100
AcDbSpline
 62
7
  6
CONTINUOUS
 70
0
 71
3
 72
11
 73
7
 74
0
 42
0.0000001
 43
0.0000001
 44
0.0000000001
 40
0.0
 40
0.0
 40
0.0
 40
0.0
 40
0.2372539654
 40
0.5000012591
 40
0.7627478695
 40
1.0
 40
1.0
 40
1.0
 40
1.0
 10
78.5577140243
 20
32.0725641805
 30
0.0
 10
78.5577140243
 20
32.1884900637
 30
0.0
 10
78.5142497587
 20
32.4329630882
 30
0.0
 10
78.3626440035
 20
32.7764393867
 30
0.0
 10
78.1409867653
 20
33.0794701861
 30
0.0
 10
77.9509988503
 20
33.2393458424
 30
0.0
 10
77.8506042992
 20
33.2973073522
 30
0.0
  0
SPLINE
  5
4D6
100
AcDbEntity
  8
0
100
AcDbSpline
 62
7
  6
CONTINUOUS
 70
0
 71
3
 72
11
 73
7
 74
0
 42
0.0000001
 43
0.0000001
 44
0.0000000001
 40
0.0
 40
0.0
 40
0.0
 40
0.0
 40
0.2177068395
 40
0.4508439088
 40
0.710405447
 40
1.0
 40
1.0
 40
1.0
 40
1.0
 10
77.997040079
 20
20.9608010487
 30
0.0
 10
78.0300105094
 20
20.9798462282
 30
0.0
 10
78.0917404218
 20
21.0316894581
 30
0.0
 10
78.1574538925
 20
21.1391465227
 30
0.0
 10
78.1964407184
 20
21.2715599258
 30
0.0
 10
78.2041591618
 20
21.3679261392
 30
0.0
 10
78.2041591618
 20
21.4185747563
 30
0.0
  0
SPLINE
  5
4D7
100
AcDbEntity
  8
0
100
AcDbSpline
 62
7
  6
CONTINUOUS
 70
0
 71
3
 72
11
 73
7
 74
0
 42
0.0000001
 43
0.0000001
 44
0.0000000001
 40
0.0
 40
0.0
 40
0.0
 40
0.0
 40
0.2177077168
 40
0.4508443236
 40
0.7104038092
 40
1.0
 40
1.0
 40
1.0
 40
1.0
 10
71.208786844
 20
40.8821565571
 30
0.0
 10
71.2417573557
 20
40.9012019225
 30
0.0
 10
71.3034873843
 20
40.953045201
 30
0.0
 10
71.3692001889
 20
41.0605023137
 30
0.0
 10
71.4081879373
 20
41.1929152897
 30
0.0
 10
71.4159058003
 20
41.2892815679
 30
0.0
 10
71.4159058003
 20
41.3399304846
 30
0.0
  0
SPLINE
  5
4D8
100
AcDbEntity
  8
0
100
AcDbSpline
 62
7
  6
CONTINUOUS
 70
0
 71
3
 72
9
 73
5
 74
0
 42
0.0000001
 43
0.0000001
 44
0.0000000001
 40
0.0
 40
0.0
 40
0.0
 40
0.0
 40
0.5270474896
 40
1.0
 40
1.0
 40
1.0
 40
1.0
 10
58.072066908
 20
90.2371769677
 30
0.0
 10
57.4847924282
 20
90.6981054347
 30
0.0
 10
56.3043812172
 20
91.4933054002
 30
0.0
 10
54.9921701427
 20
92.058901496
 30
0.0
 10
54.3488564379
 20
92.2458657671
 30
0.0
  0
SPLINE
  5
4D9
100
AcDbEntity
  8
0
100
AcDbSpline
 62
7
  6
CONTINUOUS
 70
0
 71
3
 72
11
 73
7
 74
0
 42
0.0000001
 43
0.0000001
 44
0.0000000001
 40
0.0
 40
0.0
 40
0.0
 40
0.0
 40
0.2177077168
 40
0.4508443236
 40
0.7104038092
 40
1.0
 40
1.0
 40
1.0
 40
1.0
 10
64.4205334826
 20
60.8047151763
 30
0.0
 10
64.4535039943
 20
60.8237605416
 30
0.0
 10
64.5152340229
 20
60.8756038201
 30
0.0
 10
64.5809468275
 20
60.9830609328
 30
0.0
 10
64.6199345759
 20
61.1154739088
 30
0.0
 10
64.6276524389
 20
61.211840187
 30
0.0
 10
64.6276524389
 20
61.2624891037
 30
0.0
  0
SPLINE
  5
4DA
100
AcDbEntity
  8
0
100
AcDbSpline
 62
7
  6
CONTINUOUS
 70
0
 71
3
 72
11
 73
7
 74
0
 42
0.0000001
 43
0.0000001
 44
0.0000000001
 40
0.0
 40
0.0
 40
0.0
 40
0.0
 40
0.2895391946
 40
0.5491157945
 40
0.7822541179
 40
1.0
 40
1.0
 40
1.0
 40
1.0
 10
20.8575604523
 20
98.208406918
 30
0.0
 10
20.8137071945
 20
98.2337250354
 30
0.0
 10
20.7263961363
 20
98.2752050944
 30
0.0
 10
20.5922519508
 20
98.3076741617
 30
0.0
 10
20.4663205396
 20
98.3045107069
 30
0.0
 10
20.3905700525
 20
98.2769232994
 30
0.0
 10
20.3575906675
 20
98.2578827405
 30
0.0
  0
SPLINE
  5
4DB
100
AcDbEntity
  8
0
100
AcDbSpline
 62
7
  6
CONTINUOUS
 70
0
 71
3
 72
11
 73
7
 74
0
 42
0.0000001
 43
0.0000001
 44
0.0000000001
 40
0.0
 40
0.0
 40
0.0
 40
0.0
 40
0.2176552377
 40
0.4508391752
 40
0.7105706974
 40
1.0
 40
1.0
 40
1.0
 40
1.0
 10
31.3415098876
 20
46.4694071997
 30
0.0
 10
31.3250295093
 20
46.4598871957
 30
0.0
 10
31.2871438831
 20
46.446138413
 30
0.0
 10
31.2241752948
 20
46.4445115754
 30
0.0
 10
31.1570999871
 20
46.4607833395
 30
0.0
 10
31.1134354141
 20
46.481504283
 30
0.0
 10
31.0915174265
 20
46.4941583528
 30
0.0
  0
SPLINE
  5
4DC
100
AcDbEntity
  8
0
100
AcDbSpline
 62
7
  6
CONTINUOUS
 70
0
 71
3
 72
9
 73
5
 74
0
 42
0.0000001
 43
0.0000001
 44
0.0000000001
 40
0.0
 40
0.0
 40
0.0
 40
0.0
 40
0.2570624201
 40
1.0
 40
1.0
 40
1.0
 40
1.0
 10
59.8161326737
 20
60.1534571621
 30
0.0
 10
59.7994042875
 20
60.1728819775
 30
0.0
 10
59.7328414489
 20
60.2471417397
 30
0.0
 10
59.6603111668
 20
60.3161374702
 30
0.0
 10
59.6031602473
 20
60.363284685
 30
0.0
  0
SPLINE
  5
4DD
100
AcDbEntity
  8
0
100
AcDbSpline
 62
7
  6
CONTINUOUS
 70
0
 71
3
 72
11
 73
7
 74
0
 42
0.0000001
 43
0.0000001
 44
0.0000000001
 40
0.0
 40
0.0
 40
0.0
 40
0.0
 40
0.2372539654
 40
0.5000012591
 40
0.7627478695
 40
1.0
 40
1.0
 40
1.0
 40
1.0
 10
64.9812073015
 20
71.9176814188
 30
0.0
 10
64.9812073015
 20
72.0336073019
 30
0.0
 10
64.9377430359
 20
72.2780803265
 30
0.0
 10
64.7861372806
 20
72.6215566249
 30
0.0
 10
64.5644800425
 20
72.9245874243
 30
0.0
 10
64.3744921275
 20
73.0844630806
 30
0.0
 10
64.2740975764
 20
73.1424245905
 30
0.0
  0
SPLINE
  5
4DE
100
AcDbEntity
  8
0
100
AcDbSpline
 62
7
  6
CONTINUOUS
 70
0
 71
3
 72
11
 73
7
 74
0
 42
0.0000001
 43
0.0000001
 44
0.0000000001
 40
0.0
 40
0.0
 40
0.0
 40
0.0
 40
0.2369441228
 40
0.4998581051
 40
0.7628506678
 40
1.0
 40
1.0
 40
1.0
 40
1.0
 10
59.8667807686
 20
91.6102230642
 30
0.0
 10
59.8668031623
 20
91.633376301
 30
0.0
 10
59.8580561397
 20
91.6822354227
 30
0.0
 10
59.8279488536
 20
91.7510338057
 30
0.0
 10
59.7834849547
 20
91.8115784731
 30
0.0
 10
59.7455743438
 20
91.8436568496
 30
0.0
 10
59.7255167674
 20
91.8552626867
 30
0.0
  0
SPLINE
  5
4DF
100
AcDbEntity
  8
0
100
AcDbSpline
 62
7
  6
CONTINUOUS
 70
0
 71
3
 72
9
 73
5
 74
0
 42
0.0000001
 43
0.0000001
 44
0.0000000001
 40
0.0
 40
0.0
 40
0.0
 40
0.0
 40
0.2559222888
 40
1.0
 40
1.0
 40
1.0
 40
1.0
 10
55.7887808746
 20
81.4297986758
 30
0.0
 10
55.7887808746
 20
81.4384139953
 30
0.0
 10
55.7892519545
 20
81.4720751444
 30
0.0
 10
55.7916355251
 20
81.5057174431
 30
0.0
 10
55.7946102271
 20
81.5305886727
 30
0.0
  0
SPLINE
  5
4E0
100
AcDbEntity
  8
0
100
AcDbSpline
 62
7
  6
CONTINUOUS
 70
0
 71
3
 72
11
 73
7
 74
0
 42
0.0000001
 43
0.0000001
 44
0.0000000001
 40
0.0
 40
0.0
 40
0.0
 40
0.0
 40
0.2822173548
 40
0.5390094133
 40
0.7752350079
 40
1.0
 40
1.0
 40
1.0
 40
1.0
 10
55.7946102271
 20
81.5305886727
 30
0.0
 10
55.799349388
 20
81.5702123912
 30
0.0
 10
55.8141810816
 20
81.6454365623
 30
0.0
 10
55.8562410463
 20
81.7475755633
 30
0.0
 10
55.9164176302
 20
81.8306268897
 30
0.0
 10
55.9683786294
 20
81.8716761031
 30
0.0
 10
55.9959141212
 20
81.8875476956
 30
0.0
  0
SPLINE
  5
4E1
100
AcDbEntity
  8
0
100
AcDbSpline
 62
7
  6
CONTINUOUS
 70
0
 71
3
 72
11
 73
7
 74
0
 42
0.0000001
 43
0.0000001
 44
0.0000000001
 40
0.0
 40
0.0
 40
0.0
 40
0.0
 40
0.2372428334
 40
0.4999989082
 40
0.7627555772
 40
1.0
 40
1.0
 40
1.0
 40
1.0
 10
14.486857182
 20
56.0806465394
 30
0.0
 10
14.4366619008
 20
56.1096261429
 30
0.0
 10
14.3416784362
 20
56.1895733088
 30
0.0
 10
14.2308172025
 20
56.3410690199
 30
0.0
 10
14.1550477499
 20
56.5128255343
 30
0.0
 10
14.1333023194
 20
56.6350575465
 30
0.0
 10
14.1333023194
 20
56.6930181252
 30
0.0
  0
SPLINE
  5
4E2
100
AcDbEntity
  8
0
100
AcDbSpline
 62
7
  6
CONTINUOUS
 70
0
 71
3
 72
9
 73
5
 74
0
 42
0.0000001
 43
0.0000001
 44
0.0000000001
 40
0.0
 40
0.0
 40
0.0
 40
0.0
 40
0.2595216219
 40
1.0
 40
1.0
 40
1.0
 40
1.0
 10
14.1333023194
 20
56.6930181252
 30
0.0
 10
14.1333023194
 20
56.699273318
 30
0.0
 10
14.1337819397
 20
56.7233708866
 30
0.0
 10
14.1362433619
 20
56.7474507607
 30
0.0
 10
14.1394043042
 20
56.7650162052
 30
0.0
  0
SPLINE
  5
4E3
100
AcDbEntity
  8
0
100
AcDbSpline
 62
7
  6
CONTINUOUS
 70
0
 71
3
 72
11
 73
7
 74
0
 42
0.0000001
 43
0.0000001
 44
0.0000000001
 40
0.0
 40
0.0
 40
0.0
 40
0.0
 40
0.2894039282
 40
0.5491569054
 40
0.7823485195
 40
1.0
 40
1.0
 40
1.0
 40
1.0
 10
27.4362785976
 20
106.9844053751
 30
0.0
 10
27.392446604
 20
107.0097112159
 30
0.0
 10
27.3051157889
 20
107.0511448563
 30
0.0
 10
27.1709675829
 20
107.0837027324
 30
0.0
 10
27.0450268993
 20
107.0804396017
 30
0.0
 10
26.9692527228
 20
107.0529491073
 30
0.0
 10
26.9362935639
 20
107.0339078876
 30
0.0
  0
SPLINE
  5
4E4
100
AcDbEntity
  8
0
100
AcDbSpline
 62
7
  6
CONTINUOUS
 70
0
 71
3
 72
11
 73
7
 74
0
 42
0.0000001
 43
0.0000001
 44
0.0000000001
 40
0.0
 40
0.0
 40
0.0
 40
0.0
 40
0.2387356322
 40
0.5015142649
 40
0.763471181
 40
1.0
 40
1.0
 40
1.0
 40
1.0
 10
12.7348146594
 20
57.0921658778
 30
0.0
 10
12.6688321567
 20
57.1321138941
 30
0.0
 10
12.5444355987
 20
57.2397752115
 30
0.0
 10
12.3993896558
 20
57.4414889276
 30
0.0
 10
12.3006119932
 20
57.6686772
 30
0.0
 10
12.2723844567
 20
57.8298444208
 30
0.0
 10
12.2723844567
 20
57.906264647
 30
0.0
  0
SPLINE
  5
4E5
100
AcDbEntity
  8
0
100
AcDbSpline
 62
7
  6
CONTINUOUS
 70
0
 71
3
 72
11
 73
7
 74
0
 42
0.0000001
 43
0.0000001
 44
0.0000000001
 40
0.0
 40
0.0
 40
0.0
 40
0.0
 40
0.2895959469
 40
0.5491557387
 40
0.7822924144
 40
1.0
 40
1.0
 40
1.0
 40
1.0
 10
12.2723844567
 20
57.906264647
 30
0.0
 10
12.2723844567
 20
57.9402134057
 30
0.0
 10
12.2775576184
 20
58.00480547
 30
0.0
 10
12.3036901056
 20
58.0935588449
 30
0.0
 10
12.3477359335
 20
58.165584839
 30
0.0
 10
12.389112122
 20
58.2003341751
 30
0.0
 10
12.4112114794
 20
58.2130998212
 30
0.0
  0
SPLINE
  5
4E6
100
AcDbEntity
  8
0
100
AcDbSpline
 62
7
  6
CONTINUOUS
 70
0
 71
3
 72
11
 73
7
 74
0
 42
0.0000001
 43
0.0000001
 44
0.0000000001
 40
0.0
 40
0.0
 40
0.0
 40
0.0
 40
0.2895373801
 40
0.5491091728
 40
0.7822513189
 40
1.0
 40
1.0
 40
1.0
 40
1.0
 10
33.391062078
 20
107.7274772158
 30
0.0
 10
33.4557450847
 20
107.7648217442
 30
0.0
 10
33.5731256934
 20
107.845754021
 30
0.0
 10
33.7135351479
 20
107.9931589426
 30
0.0
 10
33.8023783958
 20
108.1563508169
 30
0.0
 10
33.8230067103
 20
108.2734616317
 30
0.0
 10
33.8230067078
 20
108.3296323287
 30
0.0
  0
SPLINE
  5
4E7
100
AcDbEntity
  8
0
100
AcDbSpline
 62
7
  6
CONTINUOUS
 70
0
 71
3
 72
13
 73
9
 74
0
 42
0.0000001
 43
0.0000001
 44
0.0000000001
 40
0.0
 40
0.0
 40
0.0
 40
0.0
 40
0.1141735313
 40
0.237564654
 40
0.5000005225
 40
0.7624361052
 40
0.8858268933
 40
1.0
 40
1.0
 40
1.0
 40
1.0
 10
31.3050970735
 20
107.7274722017
 30
0.0
 10
31.3764451724
 20
107.6862802895
 30
0.0
 10
31.5326318864
 20
107.6136358985
 30
0.0
 10
31.8786279526
 20
107.5083687223
 30
0.0
 10
32.3480812093
 20
107.4574980198
 30
0.0
 10
32.8175340155
 20
107.5083708926
 30
0.0
 10
33.1635287838
 20
107.6136397712
 30
0.0
 10
33.3197145415
 20
107.6862849422
 30
0.0
 10
33.391062078
 20
107.7274772158
 30
0.0
  0
SPLINE
  5
4E8
100
AcDbEntity
  8
0
100
AcDbSpline
 62
7
  6
CONTINUOUS
 70
0
 71
3
 72
11
 73
7
 74
0
 42
0.0000001
 43
0.0000001
 44
0.0000000001
 40
0.0
 40
0.0
 40
0.0
 40
0.0
 40
0.2515929948
 40
0.5112934637
 40
0.7651117504
 40
1.0
 40
1.0
 40
1.0
 40
1.0
 10
26.8885364629
 20
97.4125655677
 30
0.0
 10
26.7484332305
 20
97.4521647025
 30
0.0
 10
26.4554738239
 20
97.5050901489
 30
0.0
 10
26.0108928939
 20
97.5110124354
 30
0.0
 10
25.5807789796
 20
97.4460665172
 30
0.0
 10
25.3110678677
 20
97.353574958
 30
0.0
 10
25.1885573985
 20
97.2946950097
 30
0.0
  0
SPLINE
  5
4E9
100
AcDbEntity
  8
0
100
AcDbSpline
 62
7
  6
CONTINUOUS
 70
0
 71
3
 72
9
 73
5
 74
0
 42
0.0000001
 43
0.0000001
 44
0.0000000001
 40
0.0
 40
0.0
 40
0.0
 40
0.0
 40
0.2764748402
 40
1.0
 40
1.0
 40
1.0
 40
1.0
 10
25.1329586115
 20
97.2666634673
 30
0.0
 10
25.0879660288
 20
97.2428780813
 30
0.0
 10
24.9298270435
 20
97.1494464778
 30
0.0
 10
24.7883268014
 20
97.020723647
 30
0.0
 10
24.7170717506
 20
96.908203051
 30
0.0
  0
ENDSEC
  0
SECTION
  2
OBJECTS
  0
DICTIONARY
  5
C
100
AcDbDictionary
280
0
281
1
  3
ACAD_GROUP
350
D
  3
ACAD_MLINESTYLE
350
17
  3
ACAD_LAYOUT
350
1A
  3
ACAD_PLOTSETTINGS
350
19
  3
ACAD_PLOTSTYLENAME
350
E
  0
DICTIONARY
  5
D
102
{ACAD_REACTORS
330
C
102
}
100
AcDbDictionary
280
0
281
1
  0
ACDBDICTIONARYWDFLT
  5
E
102
{ACAD_REACTORS
330
C
102
}
100
AcDbDictionary
281
1
  3
Normal
350
F
100
AcDbDictionaryWithDefault
340
F
  0
DICTIONARY
  5
17
102
{ACAD_REACTORS
330
C
102
}
100
AcDbDictionary
280
0
281
1
  3
Standard
350
18
  0
DICTIONARY
  5
19
102
{ACAD_REACTORS
330
C
102
}
100
AcDbDictionary
281
1
  0
DICTIONARY
  5
1A
102
{ACAD_REACTORS
330
C
102
}
100
AcDbDictionary
281
1
  3
Model
350
4EA
  3
Layout1
350
4EB
  0
ACDBPLACEHOLDER
  5
F
102
{ACAD_REACTORS
330
E
102
}
  0
MLINESTYLE
  5
18
102
{ACAD_REACTORS
330
17
102
}
100
AcDbMlineStyle
  2
STANDARD
 70
0
  3

 62
256
 51
90.0
 52
90.0
 71
2
 49
0.5
 62
256
  6
BYLAYER
 49
-0.5
 62
256
  6
BYLAYER
  0
LAYOUT
  5
4EA
102
{ACAD_REACTORS
330
1A
102
}
100
AcDbPlotSettings
  1

  2
none_device
  4

  6

 40
0.0
 41
0.0
 42
0.0
 43
0.0
 44
210.0
 45
297.0
 46
0.0
 47
0.0
 48
0.0
 49
0.0
140
0.0
141
0.0
142
1.0
143
1.0
 70
1024
 72
1
 73
0
 74
0
  7

 75
0
147
1.0
148
0.0
149
0.0
100
AcDbLayout
  1
Model
 70
0
 71
0
 10
0.0
 20
0.0
 11
210.0
 21
297.0
 12
0.0
 22
0.0
 32
0.0
 14
0.0
 24
0.0
 34
0.0
 15
0.0
 25
0.0
 35
0.0
146
0.0
 13
0.0
 23
0.0
 33
0.0
 16
1.0
 26
0.0
 36
0.0
 17
0.0
 27
1.0
 37
0.0
 76
0
330
210
345
0
346
0
  0
LAYOUT
  5
4EB
102
{ACAD_REACTORS
330
1A
102
}
100
AcDbPlotSettings
  1

  2
none_device
  4

  6

 40
0.0
 41
0.0
 42
0.0
 43
0.0
 44
210.0
 45
297.0
 46
0.0
 47
0.0
 48
0.0
 49
0.0
140
0.0
141
0.0
142
1.0
143
1.0
 70
0
 72
1
 73
0
 74
0
  7

 75
0
147
1.0
148
0.0
149
0.0
100
AcDbLayout
  1
Layout1
 70
0
 71
1
 10
0.0
 20
0.0
 11
210.0
 21
297.0
 12
0.0
 22
0.0
 32
0.0
 14
0.0
 24
0.0
 34
0.0
 15
0.0
 25
0.0
 35
0.0
146
0.0
 13
0.0
 23
0.0
 33
0.0
 16
1.0
 26
0.0
 36
0.0
 17
0.0
 27
1.0
 37
0.0
 76
0
330
211
345
0
346
0
  0
ENDSEC
  0
EOF
