999
DXF file: C:\Users\sesa63760\Dev\_Creo\CAD\MCADID0005236_3D-CAD\drw0001_7.dxf
999
Pro/ENGINEER 2019471 by Parametric Technology Corporation
  0
SECTION
  2
HEADER
  9
$ACADVER
  1
AC1024
  9
$DWGCODEPAGE
  3
ANSI_1252
  9
$EXTMAX
 10
63.7047276264
 20
90.0966862144
 30
0.0
  9
$EXTMIN
 10
0.0
 20
0.0
 30
0.0
  9
$LIMMIN
 10
0.0
 20
0.0
  9
$LIMMAX
 10
63.7047276264
 20
90.0966862144
  9
$VIEWCTR
 10
31.8523638132
 20
45.0483431072
  9
$VIEWSIZE
 40
90.0966862144
  9
$CLAYER
  8
0
  9
$LTSCALE
 40
5.8729691755
  9
$CELTYPE
  6
BYLAYER
  9
$DIMSCALE
 40
1.0
  9
$DIMASZ
 40
0.7583896146
  9
$DIMEXO
 40
1.0
  9
$DIMDLI
 40
4.057687794
  9
$DIMEXE
 40
1.0
  9
$DIMCEN
 40
0.9610313196
  9
$DIMLFAC
 40
1.0
  9
$DIMBLK
  1
_FILLED
  9
$DIMALT
 70
0
  9
$DIMALTF
 40
0.0393700787
  9
$DIMTXT
 40
1.0617454604
  9
$DIMTOL
 70
1
  9
$DIMLIM
 70
0
  9
$DIMTFAC
 40
1.0
  9
$DIMTP
 40
0.01
  9
$DIMTM
 40
0.01
  9
$DIMGAP
 40
0.625
  9
$DIMDSEP
 70
46
  9
$AUNITS
 70
0
  9
$PDMODE
 70
3
  9
$PDSIZE
 40
0.3125
  9
$HANDSEED
  5
2DB
  9
$TILEMODE
 70
1
  9
$MEASUREMENT
 70
1
  9
$INSUNITS
 70
4
  0
ENDSEC
  0
SECTION
  2
CLASSES
  0
CLASS
  1
ACDBDICTIONARYWDFLT
  2
AcDbDictionaryWithDefault
  3
AutoCAD 2000
 90
0
 91
1
280
0
281
0
  0
CLASS
  1
ACDBPLACEHOLDER
  2
AcDbPlaceHolder
  3
AutoCAD 2000
 90
0
 91
1
280
0
281
0
  0
CLASS
  1
LAYOUT
  2
AcDbLayout
  3
AutoCAD 2000
 90
0
 91
0
280
0
281
0
  0
ENDSEC
  0
SECTION
  2
TABLES
  0
TABLE
  2
VPORT
  5
8
100
AcDbSymbolTable
 70
2
  0
VPORT
  5
1F4
100
AcDbSymbolTableRecord
100
AcDbViewportTableRecord
  2
*ACTIVE
 70
0
 10
0.0
 20
0.0
 11
1.0
 21
1.0
 12
31.8523638132
 22
45.0483431072
 13
0.0
 23
0.0
 14
1.0
 24
1.0
 15
0.0
 25
0.0
 16
0.0
 26
0.0
 36
1.0
 17
0.0
 27
0.0
 37
0.0
 40
90.0966862144
 41
0.7070707071
 42
50.0
 43
0.0
 44
0.0
 50
0.0
 51
0.0
 71
0
 72
100
 73
1
 74
1
 75
0
 76
0
 77
0
 78
0
  0
ENDTAB
  0
TABLE
  2
LTYPE
  5
5
100
AcDbSymbolTable
 70
6
  0
LTYPE
  5
14
100
AcDbSymbolTableRecord
100
AcDbLinetypeTableRecord
  2
BYBLOCK
 70
0
  3

 72
65
 73
0
 40
0.0
  0
LTYPE
  5
15
100
AcDbSymbolTableRecord
100
AcDbLinetypeTableRecord
  2
BYLAYER
 70
0
  3

 72
65
 73
0
 40
0.0
  0
LTYPE
  5
16
100
AcDbSymbolTableRecord
100
AcDbLinetypeTableRecord
  2
CONTINUOUS
 70
64
  3
Solid line
 72
65
 73
0
 40
0.0
  0
LTYPE
  5
1F5
100
AcDbSymbolTableRecord
100
AcDbLinetypeTableRecord
  2
CENTER
 70
64
  3
____ _ ____ _ ____ _ ____ _ ____ _ ____ _ ____
 72
65
 73
4
 40
0.6
 49
0.375
 74
0
 49
-0.075
 74
0
 49
0.075
 74
0
 49
-0.075
 74
0
  0
LTYPE
  5
1F6
100
AcDbSymbolTableRecord
100
AcDbLinetypeTableRecord
  2
HIDDEN
 70
64
  3
- - - - - - - - - - - - - - - - - - - -
 72
65
 73
2
 40
0.2
 49
0.1
 74
0
 49
-0.1
 74
0
  0
LTYPE
  5
1F7
100
AcDbSymbolTableRecord
100
AcDbLinetypeTableRecord
  2
PHANTOM
 70
64
  3
_____ _ _ _____ _ _ _____ _ _ _____
 72
65
 73
6
 40
0.8
 49
0.45
 74
0
 49
-0.05
 74
0
 49
0.1
 74
0
 49
-0.05
 74
0
 49
0.1
 74
0
 49
-0.05
 74
0
  0
LTYPE
  5
1F8
100
AcDbSymbolTableRecord
100
AcDbLinetypeTableRecord
  2
DOT
 70
64
  3
. . . . . . . . . . . . . . . . . . . .
 72
65
 73
2
 40
0.2
 49
0.1
 74
0
 49
-0.1
 74
0
  0
LTYPE
  5
1F9
100
AcDbSymbolTableRecord
100
AcDbLinetypeTableRecord
  2
DASHED
 70
64
  3
- - - - - - - - - - - - - - - - - - - -
 72
65
 73
2
 40
0.2
 49
0.1
 74
0
 49
-0.1
 74
0
  0
ENDTAB
  0
TABLE
  2
LAYER
  5
2
100
AcDbSymbolTable
 70
36
  0
LAYER
  5
10
100
AcDbSymbolTableRecord
100
AcDbLayerTableRecord
  2
0
 70
0
 62
7
  6
CONTINUOUS
370
-3
390
F
  0
LAYER
  5
1FA
100
AcDbSymbolTableRecord
100
AcDbLayerTableRecord
  2
DEFAULT_1
 70
0
 62
7
  6
CENTER
370
-3
390
F
  0
LAYER
  5
1FB
100
AcDbSymbolTableRecord
100
AcDbLayerTableRecord
  2
DEFAULT_2
 70
0
 62
7
  6
HIDDEN
370
-3
390
F
  0
LAYER
  5
1FC
100
AcDbSymbolTableRecord
100
AcDbLayerTableRecord
  2
DEFAULT_3
 70
0
 62
7
  6
PHANTOM
370
-3
390
F
  0
LAYER
  5
1FD
100
AcDbSymbolTableRecord
100
AcDbLayerTableRecord
  2
00_COMPONENTS
 70
0
 62
7
  6
CONTINUOUS
370
-3
390
F
  0
LAYER
  5
1FE
100
AcDbSymbolTableRecord
100
AcDbLayerTableRecord
  2
00_COMPONENTS_1
 70
0
 62
7
  6
CONTINUOUS
370
-3
390
F
  0
LAYER
  5
1FF
100
AcDbSymbolTableRecord
100
AcDbLayerTableRecord
  2
00_COMPONENTS_2
 70
0
 62
7
  6
CONTINUOUS
370
-3
390
F
  0
LAYER
  5
200
100
AcDbSymbolTableRecord
100
AcDbLayerTableRecord
  2
01_1_DEFAULT_DATUMS
 70
0
 62
7
  6
CONTINUOUS
370
-3
390
F
  0
LAYER
  5
201
100
AcDbSymbolTableRecord
100
AcDbLayerTableRecord
  2
01_PLANES
 70
0
 62
7
  6
CONTINUOUS
370
-3
390
F
  0
LAYER
  5
202
100
AcDbSymbolTableRecord
100
AcDbLayerTableRecord
  2
02_COORD_SYS
 70
0
 62
7
  6
CONTINUOUS
370
-3
390
F
  0
LAYER
  5
203
100
AcDbSymbolTableRecord
100
AcDbLayerTableRecord
  2
03_AXES
 70
0
 62
7
  6
CONTINUOUS
370
-3
390
F
  0
LAYER
  5
204
100
AcDbSymbolTableRecord
100
AcDbLayerTableRecord
  2
04_POINTS
 70
0
 62
7
  6
CONTINUOUS
370
-3
390
F
  0
LAYER
  5
205
100
AcDbSymbolTableRecord
100
AcDbLayerTableRecord
  2
05_CURVES
 70
0
 62
7
  6
CONTINUOUS
370
-3
390
F
  0
LAYER
  5
206
100
AcDbSymbolTableRecord
100
AcDbLayerTableRecord
  2
06_SURFS
 70
0
 62
7
  6
CONTINUOUS
370
-3
390
F
  0
LAYER
  5
207
100
AcDbSymbolTableRecord
100
AcDbLayerTableRecord
  2
07_COSMETICS
 70
0
 62
7
  6
CONTINUOUS
370
-3
390
F
  0
LAYER
  5
208
100
AcDbSymbolTableRecord
100
AcDbLayerTableRecord
  2
10_NOTES
 70
0
 62
7
  6
CONTINUOUS
370
-3
390
F
  0
LAYER
  5
209
100
AcDbSymbolTableRecord
100
AcDbLayerTableRecord
  2
11_NOTES_PUB
 70
0
 62
7
  6
CONTINUOUS
370
-3
390
F
  0
LAYER
  5
20A
100
AcDbSymbolTableRecord
100
AcDbLayerTableRecord
  2
13_REF_GTOL
 70
0
 62
7
  6
CONTINUOUS
370
-3
390
F
  0
LAYER
  5
20B
100
AcDbSymbolTableRecord
100
AcDbLayerTableRecord
  2
16_MISC
 70
0
 62
7
  6
CONTINUOUS
370
-3
390
F
  0
LAYER
  5
20C
100
AcDbSymbolTableRecord
100
AcDbLayerTableRecord
  2
17_NO_PRINT
 70
0
 62
7
  6
CONTINUOUS
370
-3
390
F
  0
LAYER
  5
20D
100
AcDbSymbolTableRecord
100
AcDbLayerTableRecord
  2
18_DATUM_CAMS_JOINTS
 70
0
 62
7
  6
CONTINUOUS
370
-3
390
F
  0
LAYER
  5
20E
100
AcDbSymbolTableRecord
100
AcDbLayerTableRecord
  2
19_DATUM_FUNCTIONAL
 70
0
 62
7
  6
CONTINUOUS
370
-3
390
F
  0
LAYER
  5
20F
100
AcDbSymbolTableRecord
100
AcDbLayerTableRecord
  2
20_DATUM_KINEMATIC_SCHEME
 70
0
 62
7
  6
CONTINUOUS
370
-3
390
F
  0
LAYER
  5
210
100
AcDbSymbolTableRecord
100
AcDbLayerTableRecord
  2
INTF_BLANK
 70
0
 62
7
  6
CONTINUOUS
370
-3
390
F
  0
LAYER
  5
211
100
AcDbSymbolTableRecord
100
AcDbLayerTableRecord
  2
SHELL1
 70
0
 62
7
  6
CONTINUOUS
370
-3
390
F
  0
LAYER
  5
212
100
AcDbSymbolTableRecord
100
AcDbLayerTableRecord
  2
SHELL1_1
 70
0
 62
7
  6
CONTINUOUS
370
-3
390
F
  0
LAYER
  5
213
100
AcDbSymbolTableRecord
100
AcDbLayerTableRecord
  2
SHELL2
 70
0
 62
7
  6
CONTINUOUS
370
-3
390
F
  0
LAYER
  5
214
100
AcDbSymbolTableRecord
100
AcDbLayerTableRecord
  2
_BLACK_HOLE
 70
0
 62
7
  6
CONTINUOUS
370
-3
390
F
  0
LAYER
  5
215
100
AcDbSymbolTableRecord
100
AcDbLayerTableRecord
  2
black
 70
0
 62
7
  6
CONTINUOUS
370
-3
390
F
  0
ENDTAB
  0
TABLE
  2
STYLE
  5
3
100
AcDbSymbolTable
 70
1
  0
STYLE
  5
11
100
AcDbSymbolTableRecord
100
AcDbTextStyleTableRecord
  2
STANDARD
 70
0
 40
0.0
 41
1.0
 50
0.0
 71
0
 42
0.2
  3
ARIAL.TTF
  4

  0
STYLE
  5
216
100
AcDbSymbolTableRecord
100
AcDbTextStyleTableRecord
  2
TEXTSTYLE_1
 70
0
 40
0.0
 41
0.8
 50
0.0
 71
0
 42
0.2
  3
gdt
  4

  0
ENDTAB
  0
TABLE
  2
VIEW
  5
6
100
AcDbSymbolTable
 70
0
  0
ENDTAB
  0
TABLE
  2
UCS
  5
7
100
AcDbSymbolTable
 70
0
  0
ENDTAB
  0
TABLE
  2
APPID
  5
9
100
AcDbSymbolTable
 70
1
  0
APPID
  5
217
100
AcDbSymbolTableRecord
100
AcDbRegAppTableRecord
  2
ACAD
 70
0
  0
ENDTAB
  0
TABLE
  2
BLOCK_RECORD
  5
1
100
AcDbSymbolTable
 70
0
  0
BLOCK_RECORD
  5
218
100
AcDbSymbolTableRecord
100
AcDbBlockTableRecord
  2
*Model_Space
  0
BLOCK_RECORD
  5
219
100
AcDbSymbolTableRecord
100
AcDbBlockTableRecord
  2
*Paper_Space
  0
BLOCK_RECORD
  5
21A
100
AcDbSymbolTableRecord
100
AcDbBlockTableRecord
  2
_FILLED
  0
ENDTAB
  0
TABLE
  2
DIMSTYLE
  5
A
100
AcDbSymbolTable
 70
1
100
AcDbDimStyleTable
 71
0
  0
DIMSTYLE
105
21B
100
AcDbSymbolTableRecord
100
AcDbDimStyleTableRecord
  2
STANDARD
 70
0
  3

  4

 40
1.0
 41
0.7583896146
 42
1.0
 43
0.38
 44
1.0
 45
0.0
 46
0.0
 47
0.01
 48
0.01
140
1.0617454604
141
0.09
142
0.0
143
25.4
144
1.0
145
0.0
146
1.0
147
0.625
 71
1
 72
0
 73
0
 74
0
 75
0
 76
0
 77
1
 78
8
 79
2
170
0
171
1
172
0
173
0
174
0
175
0
176
0
177
0
178
0
270
2
179
2
271
2
272
2
273
2
274
2
275
0
280
0
281
0
282
0
283
1
284
8
285
0
286
0
287
3
288
0
340
11
278
46
341
21A
342
21A
343
21A
344
21A
  0
ENDTAB
  0
ENDSEC
  0
SECTION
  2
BLOCKS
  0
BLOCK
  5
20
100
AcDbEntity
  8
0
100
AcDbBlockBegin
  2
*Model_Space
 70
0
 10
0.0
 20
0.0
 30
0.0
  3
*Model_Space
  1

  0
ENDBLK
  5
21
100
AcDbEntity
  8
0
100
AcDbBlockEnd
  0
BLOCK
  5
1C
100
AcDbEntity
  8
0
100
AcDbBlockBegin
  2
*Paper_Space
 70
0
 10
0.0
 20
0.0
 30
0.0
  3
*Paper_Space
  1

  0
ENDBLK
  5
1D
100
AcDbEntity
  8
0
100
AcDbBlockEnd
  0
BLOCK
  5
21C
100
AcDbEntity
  8
0
100
AcDbBlockBegin
  2
_FILLED
 70
64
 10
0.0
 20
0.0
  3
_FILLED
  1

  0
SOLID
  5
21D
100
AcDbEntity
  8
0
  6
BYBLOCK
 62
0
100
AcDbTrace
 10
0.0
 20
0.0
 11
-1.0
 21
0.25
 12
-1.0
 22
-0.25
 13
-1.0
 23
-0.25
  0
ENDBLK
  5
21E
100
AcDbEntity
  8
0
  6
BYBLOCK
 62
0
100
AcDbBlockEnd
  0
ENDSEC
  0
SECTION
  2
ENTITIES
  0
LINE
  5
21F
100
AcDbEntity
  8
00_COMPONENTS
100
AcDbLine
 62
7
  6
BYLAYER
 10
6.7642412749
 20
26.4397221312
 11
6.7642412749
 21
64.9296739301
  0
LINE
  5
220
100
AcDbEntity
  8
00_COMPONENTS
100
AcDbLine
 62
7
  6
BYLAYER
 10
57.1610412749
 20
26.4397221312
 11
52.1026768754
 21
25.1378720256
  0
LINE
  5
221
100
AcDbEntity
  8
00_COMPONENTS
100
AcDbLine
 62
7
  6
BYLAYER
 10
11.8226056744
 20
25.1378720256
 11
6.7642412749
 21
26.4397221312
  0
LINE
  5
222
100
AcDbEntity
  8
00_COMPONENTS
100
AcDbLine
 62
7
  6
BYLAYER
 10
8.0342412749
 20
33.5882930356
 11
8.0342412749
 21
34.9564598406
  0
LINE
  5
223
100
AcDbEntity
  8
00_COMPONENTS
100
AcDbLine
 62
7
  6
BYLAYER
 10
8.0342412749
 20
56.4129362207
 11
8.0342412749
 21
57.7811030257
  0
LINE
  5
224
100
AcDbEntity
  8
00_COMPONENTS
100
AcDbLine
 62
7
  6
BYLAYER
 10
8.2882412749
 20
42.4461980306
 11
8.2882412749
 21
48.9231980306
  0
LINE
  5
225
100
AcDbEntity
  8
00_COMPONENTS
100
AcDbLine
 62
7
  6
BYLAYER
 10
9.5582412749
 20
47.6531980306
 11
9.5582412749
 21
43.7161980306
  0
LINE
  5
226
100
AcDbEntity
  8
00_COMPONENTS
100
AcDbLine
 62
7
  6
BYLAYER
 10
33.7893412749
 20
23.1708980306
 11
30.6143412749
 21
23.1708980306
  0
LINE
  5
227
100
AcDbEntity
  8
00_COMPONENTS
100
AcDbLine
 62
7
  6
BYLAYER
 10
10.3239798058
 20
56.5204601122
 11
10.3239798058
 21
57.167038553
  0
LINE
  5
228
100
AcDbEntity
  8
00_COMPONENTS
100
AcDbLine
 62
7
  6
BYLAYER
 10
10.7642412749
 20
24.4916980306
 11
10.7642412749
 21
25.410258848
  0
LINE
  5
229
100
AcDbEntity
  8
00_COMPONENTS
100
AcDbLine
 62
7
  6
BYLAYER
 10
10.7642412749
 20
65.9591372133
 11
10.7642412749
 21
67.3668980306
  0
LINE
  5
22A
100
AcDbEntity
  8
00_COMPONENTS
100
AcDbLine
 62
7
  6
BYLAYER
 10
11.7426412749
 20
48.9231980306
 11
11.7426412749
 21
47.6531980306
  0
LINE
  5
22B
100
AcDbEntity
  8
00_COMPONENTS
100
AcDbLine
 62
7
  6
BYLAYER
 10
11.7426412749
 20
43.7161980306
 11
11.7426412749
 21
42.4461980306
  0
LINE
  5
22C
100
AcDbEntity
  8
00_COMPONENTS
100
AcDbLine
 62
7
  6
BYLAYER
 10
53.6394412749
 20
24.4916980306
 11
38.1001686766
 21
24.4916980306
  0
LINE
  5
22D
100
AcDbEntity
  8
00_COMPONENTS
100
AcDbLine
 62
7
  6
BYLAYER
 10
26.3035138732
 20
24.4916980306
 11
10.7642412749
 21
24.4916980306
  0
LINE
  5
22E
100
AcDbEntity
  8
00_COMPONENTS
100
AcDbLine
 62
7
  6
BYLAYER
 10
22.0042412749
 20
25.1378720256
 11
11.8226056744
 21
25.1378720256
  0
LINE
  5
22F
100
AcDbEntity
  8
00_COMPONENTS
100
AcDbLine
 62
7
  6
BYLAYER
 10
41.9210412749
 20
25.1378720256
 11
52.1026768754
 21
25.1378720256
  0
LINE
  5
230
100
AcDbEntity
  8
00_COMPONENTS
100
AcDbLine
 62
7
  6
BYLAYER
 10
30.6143412749
 20
23.1708980306
 11
26.3035138732
 21
24.4916980306
  0
LINE
  5
231
100
AcDbEntity
  8
00_COMPONENTS
100
AcDbLine
 62
7
  6
BYLAYER
 10
57.1610412749
 20
31.4487450693
 11
49.3886412749
 21
29.4483949637
  0
LINE
  5
232
100
AcDbEntity
  8
00_COMPONENTS
100
AcDbLine
 62
7
  6
BYLAYER
 10
57.1610412749
 20
32.7508822069
 11
54.8561938791
 21
32.1576932651
  0
LINE
  5
233
100
AcDbEntity
  8
00_COMPONENTS
100
AcDbLine
 62
7
  6
BYLAYER
 10
44.4610412749
 20
25.4916980306
 11
41.9210412749
 21
25.4916980306
  0
LINE
  5
234
100
AcDbEntity
  8
00_COMPONENTS
100
AcDbLine
 62
7
  6
BYLAYER
 10
41.8956412749
 20
25.4916980306
 11
28.6622412749
 21
25.4916980306
  0
LINE
  5
235
100
AcDbEntity
  8
00_COMPONENTS
100
AcDbLine
 62
7
  6
BYLAYER
 10
28.6463412749
 20
25.4916980306
 11
22.0296412749
 21
25.4916980306
  0
LINE
  5
236
100
AcDbEntity
  8
00_COMPONENTS
100
AcDbLine
 62
7
  6
BYLAYER
 10
19.4642412749
 20
25.4916980306
 11
22.0042412749
 21
25.4916980306
  0
LINE
  5
237
100
AcDbEntity
  8
00_COMPONENTS
100
AcDbLine
 62
7
  6
BYLAYER
 10
41.9210412749
 20
25.5170980306
 11
41.8956412749
 21
25.5170980306
  0
LINE
  5
238
100
AcDbEntity
  8
00_COMPONENTS
100
AcDbLine
 62
7
  6
BYLAYER
 10
22.0296412749
 20
25.5170980306
 11
22.0042412749
 21
25.5170980306
  0
LINE
  5
239
100
AcDbEntity
  8
00_COMPONENTS
100
AcDbLine
 62
7
  6
BYLAYER
 10
14.5366412749
 20
29.4483949637
 11
6.7642412749
 21
31.4487450693
  0
LINE
  5
23A
100
AcDbEntity
  8
00_COMPONENTS
100
AcDbLine
 62
7
  6
BYLAYER
 10
9.0690886706
 20
32.1576932651
 11
6.7642412749
 21
32.7508822069
  0
LINE
  5
23B
100
AcDbEntity
  8
00_COMPONENTS
100
AcDbLine
 62
7
  6
BYLAYER
 10
14.5366412749
 20
66.2315240356
 11
14.5366412749
 21
59.7985863566
  0
LINE
  5
23C
100
AcDbEntity
  8
00_COMPONENTS
100
AcDbLine
 62
7
  6
BYLAYER
 10
14.5366412749
 20
58.9067093372
 11
14.5366412749
 21
55.8503479597
  0
LINE
  5
23D
100
AcDbEntity
  8
00_COMPONENTS
100
AcDbLine
 62
7
  6
BYLAYER
 10
14.5366412749
 20
35.5190481016
 11
14.5366412749
 21
32.462686724
  0
LINE
  5
23E
100
AcDbEntity
  8
00_COMPONENTS
100
AcDbLine
 62
7
  6
BYLAYER
 10
14.5366412749
 20
31.5708097047
 11
14.5366412749
 21
25.1378720256
  0
LINE
  5
23F
100
AcDbEntity
  8
00_COMPONENTS
100
AcDbLine
 62
7
  6
BYLAYER
 10
6.7642412749
 20
51.8496477485
 11
14.5366412749
 21
55.8503479597
  0
LINE
  5
240
100
AcDbEntity
  8
00_COMPONENTS
100
AcDbLine
 62
7
  6
BYLAYER
 10
54.8561938791
 20
34.6901254912
 11
57.1610412749
 21
35.283314433
  0
LINE
  5
241
100
AcDbEntity
  8
00_COMPONENTS
100
AcDbLine
 62
7
  6
BYLAYER
 10
19.4642412749
 20
29.4483949637
 11
14.5366412749
 21
29.4483949637
  0
LINE
  5
242
100
AcDbEntity
  8
00_COMPONENTS
100
AcDbLine
 62
7
  6
BYLAYER
 10
44.4610412749
 20
29.4483949637
 11
49.3886412749
 21
29.4483949637
  0
LINE
  5
243
100
AcDbEntity
  8
00_COMPONENTS
100
AcDbLine
 62
7
  6
BYLAYER
 10
6.7642412749
 20
35.283314433
 11
9.0690886706
 21
34.6901254912
  0
LINE
  5
244
100
AcDbEntity
  8
00_COMPONENTS
100
AcDbLine
 62
7
  6
BYLAYER
 10
14.5366412749
 20
35.5190481016
 11
6.7642412749
 21
39.5197483128
  0
LINE
  5
245
100
AcDbEntity
  8
00_COMPONENTS
100
AcDbLine
 62
7
  6
BYLAYER
 10
9.805463639
 20
33.5882930356
 11
9.0690886706
 21
32.1576932651
  0
LINE
  5
246
100
AcDbEntity
  8
00_COMPONENTS
100
AcDbLine
 62
7
  6
BYLAYER
 10
9.0690886706
 20
59.2117027962
 11
9.805463639
 21
57.7811030257
  0
LINE
  5
247
100
AcDbEntity
  8
00_COMPONENTS
100
AcDbLine
 62
7
  6
BYLAYER
 10
19.4642412749
 20
25.4916980306
 11
19.4642412749
 21
35.5190481016
  0
LINE
  5
248
100
AcDbEntity
  8
00_COMPONENTS
100
AcDbLine
 62
7
  6
BYLAYER
 10
19.4642412749
 20
55.8503479597
 11
19.4642412749
 21
65.8776980306
  0
LINE
  5
249
100
AcDbEntity
  8
00_COMPONENTS
100
AcDbLine
 62
7
  6
BYLAYER
 10
14.4327831202
 20
31.3082507704
 11
14.5366412749
 21
31.5708097047
  0
LINE
  5
24A
100
AcDbEntity
  8
00_COMPONENTS
100
AcDbLine
 62
7
  6
BYLAYER
 10
55.8910412749
 20
33.5882930356
 11
54.1198189108
 21
33.5882930356
  0
LINE
  5
24B
100
AcDbEntity
  8
00_COMPONENTS
100
AcDbLine
 62
7
  6
BYLAYER
 10
9.805463639
 20
33.5882930356
 11
8.0342412749
 21
33.5882930356
  0
LINE
  5
24C
100
AcDbEntity
  8
00_COMPONENTS
100
AcDbLine
 62
7
  6
BYLAYER
 10
22.0042412749
 20
25.1378720256
 11
22.0042412749
 21
43.3351980306
  0
LINE
  5
24D
100
AcDbEntity
  8
00_COMPONENTS
100
AcDbLine
 62
7
  6
BYLAYER
 10
22.0042412749
 20
48.0341980306
 11
22.0042412749
 21
66.2315240356
  0
LINE
  5
24E
100
AcDbEntity
  8
00_COMPONENTS
100
AcDbLine
 62
7
  6
BYLAYER
 10
22.0296412749
 20
25.4916980306
 11
22.0296412749
 21
43.2970980306
  0
LINE
  5
24F
100
AcDbEntity
  8
00_COMPONENTS
100
AcDbLine
 62
7
  6
BYLAYER
 10
22.0296412749
 20
48.0722980306
 11
22.0296412749
 21
65.8776980306
  0
LINE
  5
250
100
AcDbEntity
  8
00_COMPONENTS
100
AcDbLine
 62
7
  6
BYLAYER
 10
22.8170412749
 20
43.2970980306
 11
22.8170412749
 21
48.0722980306
  0
LINE
  5
251
100
AcDbEntity
  8
00_COMPONENTS
100
AcDbLine
 62
7
  6
BYLAYER
 10
14.4851464525
 20
31.6485577134
 11
14.5944490782
 21
31.8609064731
  0
LINE
  5
252
100
AcDbEntity
  8
00_COMPONENTS
100
AcDbLine
 62
7
  6
BYLAYER
 10
19.4642412749
 20
35.5190481016
 11
14.5366412749
 21
35.5190481016
  0
LINE
  5
253
100
AcDbEntity
  8
00_COMPONENTS
100
AcDbLine
 62
7
  6
BYLAYER
 10
44.4610412749
 20
35.5190481016
 11
49.3886412749
 21
35.5190481016
  0
LINE
  5
254
100
AcDbEntity
  8
00_COMPONENTS
100
AcDbLine
 62
7
  6
BYLAYER
 10
14.5944490782
 20
59.5084895882
 11
14.4851464525
 21
59.7208383479
  0
LINE
  5
255
100
AcDbEntity
  8
00_COMPONENTS
100
AcDbLine
 62
7
  6
BYLAYER
 10
14.5366412749
 20
59.7985863566
 11
14.4327831202
 21
60.0611452908
  0
LINE
  5
256
100
AcDbEntity
  8
00_COMPONENTS
100
AcDbLine
 62
7
  6
BYLAYER
 10
28.6463412749
 20
25.4916980306
 11
28.6463412749
 21
30.2160980306
  0
LINE
  5
257
100
AcDbEntity
  8
00_COMPONENTS
100
AcDbLine
 62
7
  6
BYLAYER
 10
28.6622412749
 20
25.4916980306
 11
28.6622412749
 21
30.2160980306
  0
LINE
  5
258
100
AcDbEntity
  8
00_COMPONENTS
100
AcDbLine
 62
7
  6
BYLAYER
 10
55.6370412749
 20
42.4461980306
 11
52.1826412749
 21
42.4461980306
  0
LINE
  5
259
100
AcDbEntity
  8
00_COMPONENTS
100
AcDbLine
 62
7
  6
BYLAYER
 10
11.7426412749
 20
42.4461980306
 11
8.2882412749
 21
42.4461980306
  0
LINE
  5
25A
100
AcDbEntity
  8
00_COMPONENTS
100
AcDbLine
 62
7
  6
BYLAYER
 10
41.9210412749
 20
43.2970980306
 11
39.6858412749
 21
43.2970980306
  0
LINE
  5
25B
100
AcDbEntity
  8
00_COMPONENTS
100
AcDbLine
 62
7
  6
BYLAYER
 10
24.2394412749
 20
43.2970980306
 11
22.0042412749
 21
43.2970980306
  0
LINE
  5
25C
100
AcDbEntity
  8
00_COMPONENTS
100
AcDbLine
 62
7
  6
BYLAYER
 10
53.601302744
 20
34.2023575083
 11
51.8935299752
 21
34.8995528217
  0
LINE
  5
25D
100
AcDbEntity
  8
00_COMPONENTS
100
AcDbLine
 62
7
  6
BYLAYER
 10
31.9610412749
 20
33.5307980306
 11
31.9610412749
 21
57.8512980306
  0
LINE
  5
25E
100
AcDbEntity
  8
00_COMPONENTS
100
AcDbLine
 62
7
  6
BYLAYER
 10
31.9642412749
 20
57.8385980306
 11
31.9642412749
 21
33.5180980306
  0
LINE
  5
25F
100
AcDbEntity
  8
00_COMPONENTS
100
AcDbLine
 62
7
  6
BYLAYER
 10
41.9210412749
 20
43.3351980306
 11
41.1082412749
 21
43.3351980306
  0
LINE
  5
260
100
AcDbEntity
  8
00_COMPONENTS
100
AcDbLine
 62
7
  6
BYLAYER
 10
22.0042412749
 20
43.3351980306
 11
22.8170412749
 21
43.3351980306
  0
LINE
  5
261
100
AcDbEntity
  8
00_COMPONENTS
100
AcDbLine
 62
7
  6
BYLAYER
 10
9.5582412749
 20
43.7161980306
 11
11.7426412749
 21
43.7161980306
  0
LINE
  5
262
100
AcDbEntity
  8
00_COMPONENTS
100
AcDbLine
 62
7
  6
BYLAYER
 10
52.1826412749
 20
43.7161980306
 11
54.3670412749
 21
43.7161980306
  0
LINE
  5
263
100
AcDbEntity
  8
00_COMPONENTS
100
AcDbLine
 62
7
  6
BYLAYER
 10
53.601302744
 20
34.848935949
 11
52.9485062683
 21
35.1154389942
  0
LINE
  5
264
100
AcDbEntity
  8
00_COMPONENTS
100
AcDbLine
 62
7
  6
BYLAYER
 10
53.3029423353
 20
35.1537231613
 11
54.109302744
 21
34.824527903
  0
LINE
  5
265
100
AcDbEntity
  8
00_COMPONENTS
100
AcDbLine
 62
7
  6
BYLAYER
 10
54.3670412749
 20
47.6531980306
 11
52.1826412749
 21
47.6531980306
  0
LINE
  5
266
100
AcDbEntity
  8
00_COMPONENTS
100
AcDbLine
 62
7
  6
BYLAYER
 10
11.7426412749
 20
47.6531980306
 11
9.5582412749
 21
47.6531980306
  0
LINE
  5
267
100
AcDbEntity
  8
00_COMPONENTS
100
AcDbLine
 62
7
  6
BYLAYER
 10
10.6223402145
 20
56.2156729
 11
9.8159798058
 21
56.5448681583
  0
LINE
  5
268
100
AcDbEntity
  8
00_COMPONENTS
100
AcDbLine
 62
7
  6
BYLAYER
 10
10.3239798058
 20
56.5204601122
 11
10.9767762815
 21
56.253957067
  0
LINE
  5
269
100
AcDbEntity
  8
00_COMPONENTS
100
AcDbLine
 62
7
  6
BYLAYER
 10
35.2630412749
 20
65.8776980306
 11
35.2630412749
 21
61.1532980306
  0
LINE
  5
26A
100
AcDbEntity
  8
00_COMPONENTS
100
AcDbLine
 62
7
  6
BYLAYER
 10
35.2789412749
 20
65.8776980306
 11
35.2789412749
 21
61.1532980306
  0
LINE
  5
26B
100
AcDbEntity
  8
00_COMPONENTS
100
AcDbLine
 62
7
  6
BYLAYER
 10
41.9210412749
 20
48.0341980306
 11
41.1082412749
 21
48.0341980306
  0
LINE
  5
26C
100
AcDbEntity
  8
00_COMPONENTS
100
AcDbLine
 62
7
  6
BYLAYER
 10
22.0042412749
 20
48.0341980306
 11
22.8170412749
 21
48.0341980306
  0
LINE
  5
26D
100
AcDbEntity
  8
00_COMPONENTS
100
AcDbLine
 62
7
  6
BYLAYER
 10
22.0042412749
 20
48.0722980306
 11
24.2394412749
 21
48.0722980306
  0
LINE
  5
26E
100
AcDbEntity
  8
00_COMPONENTS
100
AcDbLine
 62
7
  6
BYLAYER
 10
39.6858412749
 20
48.0722980306
 11
41.9210412749
 21
48.0722980306
  0
LINE
  5
26F
100
AcDbEntity
  8
00_COMPONENTS
100
AcDbLine
 62
7
  6
BYLAYER
 10
8.2882412749
 20
48.9231980306
 11
11.7426412749
 21
48.9231980306
  0
LINE
  5
270
100
AcDbEntity
  8
00_COMPONENTS
100
AcDbLine
 62
7
  6
BYLAYER
 10
52.1826412749
 20
48.9231980306
 11
55.6370412749
 21
48.9231980306
  0
LINE
  5
271
100
AcDbEntity
  8
00_COMPONENTS
100
AcDbLine
 62
7
  6
BYLAYER
 10
10.3239798058
 20
57.167038553
 11
12.0317525746
 21
56.4698432396
  0
LINE
  5
272
100
AcDbEntity
  8
00_COMPONENTS
100
AcDbLine
 62
7
  6
BYLAYER
 10
41.1082412749
 20
43.2970980306
 11
41.1082412749
 21
48.0722980306
  0
LINE
  5
273
100
AcDbEntity
  8
00_COMPONENTS
100
AcDbLine
 62
7
  6
BYLAYER
 10
49.4401360973
 20
59.7208383479
 11
49.3308334716
 21
59.5084895882
  0
LINE
  5
274
100
AcDbEntity
  8
00_COMPONENTS
100
AcDbLine
 62
7
  6
BYLAYER
 10
41.8956412749
 20
65.8776980306
 11
41.8956412749
 21
48.0722980306
  0
LINE
  5
275
100
AcDbEntity
  8
00_COMPONENTS
100
AcDbLine
 62
7
  6
BYLAYER
 10
41.8956412749
 20
43.2970980306
 11
41.8956412749
 21
25.4916980306
  0
LINE
  5
276
100
AcDbEntity
  8
00_COMPONENTS
100
AcDbLine
 62
7
  6
BYLAYER
 10
41.9210412749
 20
25.1378720256
 11
41.9210412749
 21
43.3351980306
  0
LINE
  5
277
100
AcDbEntity
  8
00_COMPONENTS
100
AcDbLine
 62
7
  6
BYLAYER
 10
41.9210412749
 20
48.0341980306
 11
41.9210412749
 21
66.2315240356
  0
LINE
  5
278
100
AcDbEntity
  8
00_COMPONENTS
100
AcDbLine
 62
7
  6
BYLAYER
 10
49.4924994296
 20
60.0611452908
 11
49.3886412749
 21
59.7985863566
  0
LINE
  5
279
100
AcDbEntity
  8
00_COMPONENTS
100
AcDbLine
 62
7
  6
BYLAYER
 10
19.4642412749
 20
55.8503479597
 11
14.5366412749
 21
55.8503479597
  0
LINE
  5
27A
100
AcDbEntity
  8
00_COMPONENTS
100
AcDbLine
 62
7
  6
BYLAYER
 10
44.4610412749
 20
55.8503479597
 11
49.3886412749
 21
55.8503479597
  0
LINE
  5
27B
100
AcDbEntity
  8
00_COMPONENTS
100
AcDbLine
 62
7
  6
BYLAYER
 10
49.3308334716
 20
31.8609064731
 11
49.4401360973
 21
31.6485577134
  0
LINE
  5
27C
100
AcDbEntity
  8
00_COMPONENTS
100
AcDbLine
 62
7
  6
BYLAYER
 10
49.3886412749
 20
31.5708097047
 11
49.4924994296
 21
31.3082507704
  0
LINE
  5
27D
100
AcDbEntity
  8
00_COMPONENTS
100
AcDbLine
 62
7
  6
BYLAYER
 10
44.4610412749
 20
65.8776980306
 11
44.4610412749
 21
55.8503479597
  0
LINE
  5
27E
100
AcDbEntity
  8
00_COMPONENTS
100
AcDbLine
 62
7
  6
BYLAYER
 10
44.4610412749
 20
35.5190481016
 11
44.4610412749
 21
25.4916980306
  0
LINE
  5
27F
100
AcDbEntity
  8
00_COMPONENTS
100
AcDbLine
 62
7
  6
BYLAYER
 10
8.0342412749
 20
57.7811030257
 11
9.805463639
 21
57.7811030257
  0
LINE
  5
280
100
AcDbEntity
  8
00_COMPONENTS
100
AcDbLine
 62
7
  6
BYLAYER
 10
54.1198189108
 20
57.7811030257
 11
55.8910412749
 21
57.7811030257
  0
LINE
  5
281
100
AcDbEntity
  8
00_COMPONENTS
100
AcDbLine
 62
7
  6
BYLAYER
 10
54.1198189108
 20
57.7811030257
 11
54.8561938791
 21
59.2117027962
  0
LINE
  5
282
100
AcDbEntity
  8
00_COMPONENTS
100
AcDbLine
 62
7
  6
BYLAYER
 10
54.8561938791
 20
32.1576932651
 11
54.1198189108
 21
33.5882930356
  0
LINE
  5
283
100
AcDbEntity
  8
00_COMPONENTS
100
AcDbLine
 62
7
  6
BYLAYER
 10
49.3886412749
 20
25.1378720256
 11
49.3886412749
 21
31.5708097047
  0
LINE
  5
284
100
AcDbEntity
  8
00_COMPONENTS
100
AcDbLine
 62
7
  6
BYLAYER
 10
49.3886412749
 20
32.462686724
 11
49.3886412749
 21
35.5190481016
  0
LINE
  5
285
100
AcDbEntity
  8
00_COMPONENTS
100
AcDbLine
 62
7
  6
BYLAYER
 10
49.3886412749
 20
55.8503479597
 11
49.3886412749
 21
58.9067093372
  0
LINE
  5
286
100
AcDbEntity
  8
00_COMPONENTS
100
AcDbLine
 62
7
  6
BYLAYER
 10
49.3886412749
 20
59.7985863566
 11
49.3886412749
 21
66.2315240356
  0
LINE
  5
287
100
AcDbEntity
  8
00_COMPONENTS
100
AcDbLine
 62
7
  6
BYLAYER
 10
57.1610412749
 20
39.5197483128
 11
49.3886412749
 21
35.5190481016
  0
LINE
  5
288
100
AcDbEntity
  8
00_COMPONENTS
100
AcDbLine
 62
7
  6
BYLAYER
 10
9.0690886706
 20
56.6792705701
 11
6.7642412749
 21
56.0860816282
  0
LINE
  5
289
100
AcDbEntity
  8
00_COMPONENTS
100
AcDbLine
 62
7
  6
BYLAYER
 10
19.4642412749
 20
61.9210010975
 11
14.5366412749
 21
61.9210010975
  0
LINE
  5
28A
100
AcDbEntity
  8
00_COMPONENTS
100
AcDbLine
 62
7
  6
BYLAYER
 10
44.4610412749
 20
61.9210010975
 11
49.3886412749
 21
61.9210010975
  0
LINE
  5
28B
100
AcDbEntity
  8
00_COMPONENTS
100
AcDbLine
 62
7
  6
BYLAYER
 10
57.1610412749
 20
56.0860816282
 11
54.8561938791
 21
56.6792705701
  0
LINE
  5
28C
100
AcDbEntity
  8
00_COMPONENTS
100
AcDbLine
 62
7
  6
BYLAYER
 10
49.3886412749
 20
55.8503479597
 11
57.1610412749
 21
51.8496477485
  0
LINE
  5
28D
100
AcDbEntity
  8
00_COMPONENTS
100
AcDbLine
 62
7
  6
BYLAYER
 10
52.1826412749
 20
42.4461980306
 11
52.1826412749
 21
43.7161980306
  0
LINE
  5
28E
100
AcDbEntity
  8
00_COMPONENTS
100
AcDbLine
 62
7
  6
BYLAYER
 10
52.1826412749
 20
47.6531980306
 11
52.1826412749
 21
48.9231980306
  0
LINE
  5
28F
100
AcDbEntity
  8
00_COMPONENTS
100
AcDbLine
 62
7
  6
BYLAYER
 10
6.7642412749
 20
58.6185138544
 11
9.0690886706
 21
59.2117027962
  0
LINE
  5
290
100
AcDbEntity
  8
00_COMPONENTS
100
AcDbLine
 62
7
  6
BYLAYER
 10
54.8561938791
 20
59.2117027962
 11
57.1610412749
 21
58.6185138544
  0
LINE
  5
291
100
AcDbEntity
  8
00_COMPONENTS
100
AcDbLine
 62
7
  6
BYLAYER
 10
53.601302744
 20
34.848935949
 11
53.601302744
 21
34.2023575083
  0
LINE
  5
292
100
AcDbEntity
  8
00_COMPONENTS
100
AcDbLine
 62
7
  6
BYLAYER
 10
53.6394412749
 20
67.3668980306
 11
53.6394412749
 21
65.8360134046
  0
LINE
  5
293
100
AcDbEntity
  8
00_COMPONENTS
100
AcDbLine
 62
7
  6
BYLAYER
 10
53.6394412749
 20
25.5333826567
 11
53.6394412749
 21
24.4916980306
  0
LINE
  5
294
100
AcDbEntity
  8
00_COMPONENTS
100
AcDbLine
 62
7
  6
BYLAYER
 10
54.3670412749
 20
43.7161980306
 11
54.3670412749
 21
47.6531980306
  0
LINE
  5
295
100
AcDbEntity
  8
00_COMPONENTS
100
AcDbLine
 62
7
  6
BYLAYER
 10
38.1001686766
 20
24.4916980306
 11
33.7893412749
 21
23.1708980306
  0
LINE
  5
296
100
AcDbEntity
  8
00_COMPONENTS
100
AcDbLine
 62
7
  6
BYLAYER
 10
6.7642412749
 20
59.9206509919
 11
14.5366412749
 21
61.9210010975
  0
LINE
  5
297
100
AcDbEntity
  8
00_COMPONENTS
100
AcDbLine
 62
7
  6
BYLAYER
 10
22.0042412749
 20
65.8522980306
 11
22.0296412749
 21
65.8522980306
  0
LINE
  5
298
100
AcDbEntity
  8
00_COMPONENTS
100
AcDbLine
 62
7
  6
BYLAYER
 10
41.8956412749
 20
65.8522980306
 11
41.9210412749
 21
65.8522980306
  0
LINE
  5
299
100
AcDbEntity
  8
00_COMPONENTS
100
AcDbLine
 62
7
  6
BYLAYER
 10
44.4610412749
 20
65.8776980306
 11
41.9210412749
 21
65.8776980306
  0
LINE
  5
29A
100
AcDbEntity
  8
00_COMPONENTS
100
AcDbLine
 62
7
  6
BYLAYER
 10
19.4642412749
 20
65.8776980306
 11
22.0042412749
 21
65.8776980306
  0
LINE
  5
29B
100
AcDbEntity
  8
00_COMPONENTS
100
AcDbLine
 62
7
  6
BYLAYER
 10
22.0296412749
 20
65.8776980306
 11
35.2630412749
 21
65.8776980306
  0
LINE
  5
29C
100
AcDbEntity
  8
00_COMPONENTS
100
AcDbLine
 62
7
  6
BYLAYER
 10
35.2789412749
 20
65.8776980306
 11
41.8956412749
 21
65.8776980306
  0
LINE
  5
29D
100
AcDbEntity
  8
00_COMPONENTS
100
AcDbLine
 62
7
  6
BYLAYER
 10
11.8226056744
 20
66.2315240356
 11
22.0042412749
 21
66.2315240356
  0
LINE
  5
29E
100
AcDbEntity
  8
00_COMPONENTS
100
AcDbLine
 62
7
  6
BYLAYER
 10
41.9210412749
 20
66.2315240356
 11
52.1026768754
 21
66.2315240356
  0
LINE
  5
29F
100
AcDbEntity
  8
00_COMPONENTS
100
AcDbLine
 62
7
  6
BYLAYER
 10
10.7642412749
 20
67.3668980306
 11
53.6394412749
 21
67.3668980306
  0
LINE
  5
2A0
100
AcDbEntity
  8
00_COMPONENTS
100
AcDbLine
 62
7
  6
BYLAYER
 10
49.3886412749
 20
61.9210010975
 11
57.1610412749
 21
59.9206509919
  0
LINE
  5
2A1
100
AcDbEntity
  8
00_COMPONENTS
100
AcDbLine
 62
7
  6
BYLAYER
 10
55.6370412749
 20
48.9231980306
 11
55.6370412749
 21
42.4461980306
  0
LINE
  5
2A2
100
AcDbEntity
  8
00_COMPONENTS
100
AcDbLine
 62
7
  6
BYLAYER
 10
55.8910412749
 20
57.7811030257
 11
55.8910412749
 21
56.4129362207
  0
LINE
  5
2A3
100
AcDbEntity
  8
00_COMPONENTS
100
AcDbLine
 62
7
  6
BYLAYER
 10
55.8910412749
 20
34.9564598406
 11
55.8910412749
 21
33.5882930356
  0
LINE
  5
2A4
100
AcDbEntity
  8
00_COMPONENTS
100
AcDbLine
 62
7
  6
BYLAYER
 10
57.1610412749
 20
26.4397221312
 11
57.1610412749
 21
64.9296739301
  0
LINE
  5
2A5
100
AcDbEntity
  8
00_COMPONENTS
100
AcDbLine
 62
7
  6
BYLAYER
 10
6.7642412749
 20
64.9296739301
 11
11.8226056744
 21
66.2315240356
  0
LINE
  5
2A6
100
AcDbEntity
  8
00_COMPONENTS
100
AcDbLine
 62
7
  6
BYLAYER
 10
52.1026768754
 20
66.2315240356
 11
57.1610412749
 21
64.9296739301
  0
ARC
  5
2A7
100
AcDbEntity
  8
00_COMPONENTS
100
AcDbCircle
 62
7
  6
BYLAYER
 10
31.9610412749
 20
30.2160980306
 40
3.3147
100
AcDbArc
 50
90.0
 51
180.0
  0
ARC
  5
2A8
100
AcDbEntity
  8
00_COMPONENTS
100
AcDbCircle
 62
7
  6
BYLAYER
 10
31.9642412749
 20
61.1532980306
 40
3.3147
100
AcDbArc
 50
270.0
 51
360.0
  0
ARC
  5
2A9
100
AcDbEntity
  8
00_COMPONENTS
100
AcDbCircle
 62
7
  6
BYLAYER
 10
31.9610412749
 20
61.1532980306
 40
3.302
100
AcDbArc
 50
270.0
 51
360.0
  0
ARC
  5
2AA
100
AcDbEntity
  8
00_COMPONENTS
100
AcDbCircle
 62
7
  6
BYLAYER
 10
31.9642412749
 20
30.2160980306
 40
3.302
100
AcDbArc
 50
90.0
 51
180.0
  0
ARC
  5
2AB
100
AcDbEntity
  8
00_COMPONENTS
100
AcDbCircle
 62
7
  6
BYLAYER
 10
24.2394412749
 20
45.6846980306
 40
2.3876
100
AcDbArc
 50
270.0
 51
90.0
  0
ARC
  5
2AC
100
AcDbEntity
  8
00_COMPONENTS
100
AcDbCircle
 62
7
  6
BYLAYER
 10
39.6858412749
 20
45.6846980306
 40
2.3876
100
AcDbArc
 50
90.0
 51
270.0
  0
ARC
  5
2AD
100
AcDbEntity
  8
00_COMPONENTS
100
AcDbCircle
 62
7
  6
BYLAYER
 10
11.6197476541
 20
54.8938105593
 40
2.079664176
100
AcDbArc
 50
128.5403706277
 51
133.7507702358
  0
ARC
  5
2AE
100
AcDbEntity
  8
00_COMPONENTS
100
AcDbCircle
 62
7
  6
BYLAYER
 10
52.3055348957
 20
36.475585502
 40
2.079664176
100
AcDbArc
 50
308.5403706277
 51
313.7507702358
  0
CIRCLE
  5
2AF
100
AcDbEntity
  8
00_COMPONENTS
100
AcDbCircle
 62
7
  6
BYLAYER
 10
16.4670412749
 20
45.6846980306
 40
1.8161
  0
CIRCLE
  5
2B0
100
AcDbEntity
  8
00_COMPONENTS
100
AcDbCircle
 62
7
  6
BYLAYER
 10
47.4582412749
 20
45.6846980306
 40
1.8161
  0
CIRCLE
  5
2B1
100
AcDbEntity
  8
00_COMPONENTS
100
AcDbCircle
 62
7
  6
BYLAYER
 10
31.9610412749
 20
61.1532980306
 40
1.3716
  0
CIRCLE
  5
2B2
100
AcDbEntity
  8
00_COMPONENTS
100
AcDbCircle
 62
7
  6
BYLAYER
 10
31.9642412749
 20
30.2160980306
 40
1.3716
  0
SPLINE
  5
2B3
100
AcDbEntity
  8
00_COMPONENTS
100
AcDbSpline
 62
7
  6
BYLAYER
 70
0
 71
3
 72
9
 73
5
 74
0
 42
0.0000001
 43
0.0000001
 44
0.0000000001
 40
0.0
 40
0.0
 40
0.0
 40
0.0
 40
0.24161918
 40
1.0
 40
1.0
 40
1.0
 40
1.0
 10
13.6332270392
 20
33.898472945
 30
0.0
 10
13.5278338591
 20
33.8488438475
 30
0.0
 10
13.0790602611
 20
33.6706747135
 30
0.0
 10
12.5908850426
 20
33.5972732917
 30
0.0
 10
12.2252412749
 20
33.5972732917
 30
0.0
  0
SPLINE
  5
2B4
100
AcDbEntity
  8
00_COMPONENTS
100
AcDbSpline
 62
7
  6
BYLAYER
 70
0
 71
3
 72
14
 73
10
 74
0
 42
0.0000001
 43
0.0000001
 44
0.0000000001
 40
0.0
 40
0.0
 40
0.0
 40
0.0
 40
0.2805815934
 40
0.4161582185
 40
0.5462378553
 40
0.6696948191
 40
0.78608161
 40
0.8957563072
 40
1.0
 40
1.0
 40
1.0
 40
1.0
 10
12.2252412749
 20
33.5972732917
 30
0.0
 10
11.9389857057
 20
33.5972732917
 30
0.0
 10
11.5116700444
 20
33.6478677672
 30
0.0
 10
10.9797718713
 20
33.8180578982
 30
0.0
 10
10.6203567523
 20
33.9899716944
 30
0.0
 10
10.3068425808
 20
34.2028596743
 30
0.0
 10
10.0482043082
 20
34.451152518
 30
0.0
 10
9.8523889376
 20
34.7280639429
 30
0.0
 10
9.7664165909
 20
34.9310405513
 30
0.0
 10
9.736847347
 20
35.0331990072
 30
0.0
  0
SPLINE
  5
2B5
100
AcDbEntity
  8
00_COMPONENTS
100
AcDbSpline
 62
7
  6
BYLAYER
 70
0
 71
3
 72
9
 73
5
 74
0
 42
0.0000001
 43
0.0000001
 44
0.0000000001
 40
0.0
 40
0.0
 40
0.0
 40
0.0
 40
0.2477717144
 40
1.0
 40
1.0
 40
1.0
 40
1.0
 10
9.7378057714
 20
56.3394664739
 30
0.0
 10
9.7428999198
 20
56.3568992946
 30
0.0
 10
9.7648722676
 20
56.4268389053
 30
0.0
 10
9.7924370459
 20
56.4950079244
 30
0.0
 10
9.8159798058
 20
56.5448681583
 30
0.0
  0
SPLINE
  5
2B6
100
AcDbEntity
  8
00_COMPONENTS
100
AcDbSpline
 62
7
  6
BYLAYER
 70
0
 71
3
 72
9
 73
5
 74
0
 42
0.0000001
 43
0.0000001
 44
0.0000000001
 40
0.0
 40
0.0
 40
0.0
 40
0.0
 40
0.2573487613
 40
1.0
 40
1.0
 40
1.0
 40
1.0
 10
12.2252412749
 20
57.7721227696
 30
0.0
 10
12.349297041
 20
57.7721227696
 30
0.0
 10
12.8307338554
 20
57.7472684619
 30
0.0
 10
13.3093601071
 20
57.6234100254
 30
0.0
 10
13.6332490317
 20
57.4709041243
 30
0.0
  0
SPLINE
  5
2B7
100
AcDbEntity
  8
00_COMPONENTS
100
AcDbSpline
 62
7
  6
BYLAYER
 70
0
 71
3
 72
11
 73
7
 74
0
 42
0.0000001
 43
0.0000001
 44
0.0000000001
 40
0.0
 40
0.0
 40
0.0
 40
0.0
 40
0.2321786272
 40
0.4789529933
 40
0.7365927127
 40
1.0
 40
1.0
 40
1.0
 40
1.0
 10
10.3239798058
 20
57.167038553
 30
0.0
 10
10.446743926
 20
57.2650289632
 30
0.0
 10
10.7221131894
 20
57.4403551541
 30
0.0
 10
11.1856544038
 20
57.6292882884
 30
0.0
 10
11.693953476
 20
57.745946878
 30
0.0
 10
12.0470371126
 20
57.7721227696
 30
0.0
 10
12.2252412749
 20
57.7721227696
 30
0.0
  0
SPLINE
  5
2B8
100
AcDbEntity
  8
00_COMPONENTS
100
AcDbSpline
 62
7
  6
BYLAYER
 70
0
 71
3
 72
13
 73
9
 74
0
 42
0.0000001
 43
0.0000001
 44
0.0000000001
 40
0.0
 40
0.0
 40
0.0
 40
0.0
 40
0.2826505823
 40
0.5450026185
 40
0.6674178343
 40
0.7837247994
 40
0.8943579211
 40
1.0
 40
1.0
 40
1.0
 40
1.0
 10
11.5760443705
 20
35.0507094654
 30
0.0
 10
11.3365148893
 20
35.1123561669
 30
0.0
 10
10.8636033026
 20
35.1930310254
 30
0.0
 10
10.2749937353
 20
35.1793442943
 30
0.0
 10
9.8442000785
 20
35.0924603898
 30
0.0
 10
9.5537883734
 20
34.993953454
 30
0.0
 10
9.293291294
 20
34.8619445252
 30
0.0
 10
9.1390487378
 20
34.7505510998
 30
0.0
 10
9.0690886706
 20
34.6901254912
 30
0.0
  0
SPLINE
  5
2B9
100
AcDbEntity
  8
00_COMPONENTS
100
AcDbSpline
 62
7
  6
BYLAYER
 70
0
 71
3
 72
14
 73
10
 74
0
 42
0.0000001
 43
0.0000001
 44
0.0000000001
 40
0.0
 40
0.0
 40
0.0
 40
0.0
 40
0.2195690269
 40
0.3408031023
 40
0.4680786573
 40
0.5997110568
 40
0.7336841191
 40
0.867857641
 40
1.0
 40
1.0
 40
1.0
 40
1.0
 10
14.5366412749
 20
32.462686724
 30
0.0
 10
14.4641428693
 20
32.7538858867
 30
0.0
 10
14.257007084
 20
33.1841113274
 30
0.0
 10
13.8637929618
 20
33.6894199919
 30
0.0
 10
13.4926023233
 20
34.055372054
 30
0.0
 10
13.0663324563
 20
34.3837892713
 30
0.0
 10
12.5969782398
 20
34.6658910587
 30
0.0
 10
12.0981918487
 20
34.8933174108
 30
0.0
 10
11.7509456928
 20
35.005695843
 30
0.0
 10
11.5760443705
 20
35.0507094654
 30
0.0
  0
SPLINE
  5
2BA
100
AcDbEntity
  8
00_COMPONENTS
100
AcDbSpline
 62
7
  6
BYLAYER
 70
0
 71
3
 72
14
 73
10
 74
0
 42
0.0000001
 43
0.0000001
 44
0.0000000001
 40
0.0
 40
0.0
 40
0.0
 40
0.0
 40
0.132142359
 40
0.2663158809
 40
0.4002889432
 40
0.5319213427
 40
0.6591968977
 40
0.7804309731
 40
1.0
 40
1.0
 40
1.0
 40
1.0
 10
11.5760443705
 20
56.3186865959
 30
0.0
 10
11.7509456928
 20
56.3637002183
 30
0.0
 10
12.0981918487
 20
56.4760786505
 30
0.0
 10
12.5969782398
 20
56.7035050026
 30
0.0
 10
13.0663324563
 20
56.98560679
 30
0.0
 10
13.4926023233
 20
57.3140240073
 30
0.0
 10
13.8637929618
 20
57.6799760693
 30
0.0
 10
14.257007084
 20
58.1852847338
 30
0.0
 10
14.4641428693
 20
58.6155101746
 30
0.0
 10
14.5366412749
 20
58.9067093372
 30
0.0
  0
SPLINE
  5
2BB
100
AcDbEntity
  8
00_COMPONENTS
100
AcDbSpline
 62
7
  6
BYLAYER
 70
0
 71
3
 72
13
 73
9
 74
0
 42
0.0000001
 43
0.0000001
 44
0.0000000001
 40
0.0
 40
0.0
 40
0.0
 40
0.0
 40
0.1056420789
 40
0.2162752006
 40
0.3325821657
 40
0.4549973815
 40
0.7173494177
 40
1.0
 40
1.0
 40
1.0
 40
1.0
 10
9.0690886707
 20
56.6792705701
 30
0.0
 10
9.1390487378
 20
56.6188449614
 30
0.0
 10
9.293291294
 20
56.5074515361
 30
0.0
 10
9.5537883734
 20
56.3754426073
 30
0.0
 10
9.8442000785
 20
56.2769356714
 30
0.0
 10
10.2749937353
 20
56.1900517669
 30
0.0
 10
10.8636033026
 20
56.1763650359
 30
0.0
 10
11.3365148893
 20
56.2570398944
 30
0.0
 10
11.5760443705
 20
56.3186865959
 30
0.0
  0
SPLINE
  5
2BC
100
AcDbEntity
  8
00_COMPONENTS
100
AcDbSpline
 62
7
  6
BYLAYER
 70
0
 71
3
 72
15
 73
11
 74
0
 42
0.0000001
 43
0.0000001
 44
0.0000000001
 40
0.0
 40
0.0
 40
0.0
 40
0.0
 40
0.104125605
 40
0.2112476426
 40
0.3239422654
 40
0.4438838908
 40
0.5718527346
 40
0.707766468
 40
0.8509438515
 40
1.0
 40
1.0
 40
1.0
 40
1.0
 10
14.4328737002
 20
60.0611919091
 30
0.0
 10
14.3821963151
 20
60.1596754894
 30
0.0
 10
14.2551957209
 20
60.3479661721
 30
0.0
 10
14.0006153752
 20
60.5840965983
 30
0.0
 10
13.6882770552
 20
60.7706146188
 30
0.0
 10
13.3264437496
 20
60.9036065677
 30
0.0
 10
12.9239238566
 20
60.9807604449
 30
0.0
 10
12.4900783119
 20
61.0008507325
 30
0.0
 10
12.0351046332
 20
60.9635745246
 30
0.0
 10
11.729590333
 20
60.9022136759
 30
0.0
 10
11.5760443705
 20
60.8626961932
 30
0.0
  0
SPLINE
  5
2BD
100
AcDbEntity
  8
00_COMPONENTS
100
AcDbSpline
 62
7
  6
BYLAYER
 70
0
 71
3
 72
15
 73
11
 74
0
 42
0.0000001
 43
0.0000001
 44
0.0000000001
 40
0.0
 40
0.0
 40
0.0
 40
0.0
 40
0.1490561485
 40
0.292233532
 40
0.4281472654
 40
0.5561161092
 40
0.6760577346
 40
0.7887523574
 40
0.895874395
 40
1.0
 40
1.0
 40
1.0
 40
1.0
 10
11.5760443705
 20
30.5066998681
 30
0.0
 10
11.729590333
 20
30.4671823854
 30
0.0
 10
12.0351046332
 20
30.4058215367
 30
0.0
 10
12.4900783119
 20
30.3685453288
 30
0.0
 10
12.9239238566
 20
30.3886356164
 30
0.0
 10
13.3264437496
 20
30.4657894936
 30
0.0
 10
13.6882770552
 20
30.5987814425
 30
0.0
 10
14.0006153752
 20
30.7852994629
 30
0.0
 10
14.2551957209
 20
31.0214298892
 30
0.0
 10
14.3821963151
 20
31.2097205719
 30
0.0
 10
14.4328737002
 20
31.3082041522
 30
0.0
  0
SPLINE
  5
2BE
100
AcDbEntity
  8
00_COMPONENTS
100
AcDbSpline
 62
7
  6
BYLAYER
 70
0
 71
3
 72
11
 73
7
 74
0
 42
0.0000001
 43
0.0000001
 44
0.0000000001
 40
0.0
 40
0.0
 40
0.0
 40
0.0
 40
0.2380504118
 40
0.489313856
 40
0.7461184123
 40
1.0
 40
1.0
 40
1.0
 40
1.0
 10
9.0690886706
 20
32.1576932651
 30
0.0
 10
9.2114495553
 20
31.9614562815
 30
0.0
 10
9.5470272746
 20
31.588252422
 30
0.0
 10
10.1487189718
 20
31.1187263617
 30
0.0
 10
10.8324536267
 20
30.7449804684
 30
0.0
 10
11.3256446705
 20
30.5711441924
 30
0.0
 10
11.5760443705
 20
30.5066998681
 30
0.0
  0
SPLINE
  5
2BF
100
AcDbEntity
  8
00_COMPONENTS
100
AcDbSpline
 62
7
  6
BYLAYER
 70
0
 71
3
 72
11
 73
7
 74
0
 42
0.0000001
 43
0.0000001
 44
0.0000000001
 40
0.0
 40
0.0
 40
0.0
 40
0.0
 40
0.2538815877
 40
0.510686144
 40
0.7619495882
 40
1.0
 40
1.0
 40
1.0
 40
1.0
 10
11.5760443705
 20
60.8626961932
 30
0.0
 10
11.3256446705
 20
60.7982518689
 30
0.0
 10
10.8324536267
 20
60.6244155929
 30
0.0
 10
10.1487189718
 20
60.2506696996
 30
0.0
 10
9.5470272746
 20
59.7811436393
 30
0.0
 10
9.2114495553
 20
59.4079397798
 30
0.0
 10
9.0690886706
 20
59.2117027962
 30
0.0
  0
SPLINE
  5
2C0
100
AcDbEntity
  8
00_COMPONENTS
100
AcDbSpline
 62
7
  6
BYLAYER
 70
0
 71
3
 72
9
 73
5
 74
0
 42
0.0000001
 43
0.0000001
 44
0.0000000001
 40
0.0
 40
0.0
 40
0.0
 40
0.0
 40
0.24161918
 40
1.0
 40
1.0
 40
1.0
 40
1.0
 10
50.2920555106
 20
57.4709231163
 30
0.0
 10
50.3974486907
 20
57.5205522138
 30
0.0
 10
50.8462222887
 20
57.6987213478
 30
0.0
 10
51.3343975072
 20
57.7721227696
 30
0.0
 10
51.7000412749
 20
57.7721227696
 30
0.0
  0
SPLINE
  5
2C1
100
AcDbEntity
  8
00_COMPONENTS
100
AcDbSpline
 62
7
  6
BYLAYER
 70
0
 71
3
 72
14
 73
10
 74
0
 42
0.0000001
 43
0.0000001
 44
0.0000000001
 40
0.0
 40
0.0
 40
0.0
 40
0.0
 40
0.2805815934
 40
0.4161582185
 40
0.5462378553
 40
0.6696948191
 40
0.78608161
 40
0.8957563072
 40
1.0
 40
1.0
 40
1.0
 40
1.0
 10
51.7000412749
 20
57.7721227696
 30
0.0
 10
51.9862968441
 20
57.7721227696
 30
0.0
 10
52.4136125054
 20
57.7215282941
 30
0.0
 10
52.9455106784
 20
57.5513381631
 30
0.0
 10
53.3049257975
 20
57.3794243669
 30
0.0
 10
53.618439969
 20
57.166536387
 30
0.0
 10
53.8770782416
 20
56.9182435433
 30
0.0
 10
54.0728936122
 20
56.6413321184
 30
0.0
 10
54.1588659589
 20
56.43835551
 30
0.0
 10
54.1884352028
 20
56.3361970541
 30
0.0
  0
SPLINE
  5
2C2
100
AcDbEntity
  8
00_COMPONENTS
100
AcDbSpline
 62
7
  6
BYLAYER
 70
0
 71
3
 72
9
 73
5
 74
0
 42
0.0000001
 43
0.0000001
 44
0.0000000001
 40
0.0
 40
0.0
 40
0.0
 40
0.0
 40
0.2477717144
 40
1.0
 40
1.0
 40
1.0
 40
1.0
 10
54.1874767783
 20
35.0299295874
 30
0.0
 10
54.18238263
 20
35.0124967667
 30
0.0
 10
54.1604102822
 20
34.9425571559
 30
0.0
 10
54.1328455038
 20
34.8743881369
 30
0.0
 10
54.109302744
 20
34.824527903
 30
0.0
  0
SPLINE
  5
2C3
100
AcDbEntity
  8
00_COMPONENTS
100
AcDbSpline
 62
7
  6
BYLAYER
 70
0
 71
3
 72
9
 73
5
 74
0
 42
0.0000001
 43
0.0000001
 44
0.0000000001
 40
0.0
 40
0.0
 40
0.0
 40
0.0
 40
0.2573487613
 40
1.0
 40
1.0
 40
1.0
 40
1.0
 10
51.7000412749
 20
33.5972732917
 30
0.0
 10
51.5759855088
 20
33.5972732917
 30
0.0
 10
51.0945486944
 20
33.6221275994
 30
0.0
 10
50.6159224427
 20
33.7459860358
 30
0.0
 10
50.2920335181
 20
33.8984919369
 30
0.0
  0
SPLINE
  5
2C4
100
AcDbEntity
  8
00_COMPONENTS
100
AcDbSpline
 62
7
  6
BYLAYER
 70
0
 71
3
 72
11
 73
7
 74
0
 42
0.0000001
 43
0.0000001
 44
0.0000000001
 40
0.0
 40
0.0
 40
0.0
 40
0.0
 40
0.2321786272
 40
0.4789529933
 40
0.7365927127
 40
1.0
 40
1.0
 40
1.0
 40
1.0
 10
53.601302744
 20
34.2023575083
 30
0.0
 10
53.4785386238
 20
34.104367098
 30
0.0
 10
53.2031693604
 20
33.9290409071
 30
0.0
 10
52.739628146
 20
33.7401077729
 30
0.0
 10
52.2313290738
 20
33.6234491833
 30
0.0
 10
51.8782454372
 20
33.5972732917
 30
0.0
 10
51.7000412749
 20
33.5972732917
 30
0.0
  0
SPLINE
  5
2C5
100
AcDbEntity
  8
00_COMPONENTS
100
AcDbSpline
 62
7
  6
BYLAYER
 70
0
 71
3
 72
13
 73
9
 74
0
 42
0.0000001
 43
0.0000001
 44
0.0000000001
 40
0.0
 40
0.0
 40
0.0
 40
0.0
 40
0.2826505823
 40
0.5450026185
 40
0.6674178343
 40
0.7837247994
 40
0.8943579211
 40
1.0
 40
1.0
 40
1.0
 40
1.0
 10
52.3492381793
 20
56.3186865959
 30
0.0
 10
52.5887676605
 20
56.2570398944
 30
0.0
 10
53.0616792472
 20
56.1763650359
 30
0.0
 10
53.6502888145
 20
56.1900517669
 30
0.0
 10
54.0810824713
 20
56.2769356714
 30
0.0
 10
54.3714941764
 20
56.3754426073
 30
0.0
 10
54.6319912558
 20
56.5074515361
 30
0.0
 10
54.786233812
 20
56.6188449615
 30
0.0
 10
54.8561938791
 20
56.6792705701
 30
0.0
  0
SPLINE
  5
2C6
100
AcDbEntity
  8
00_COMPONENTS
100
AcDbSpline
 62
7
  6
BYLAYER
 70
0
 71
3
 72
14
 73
10
 74
0
 42
0.0000001
 43
0.0000001
 44
0.0000000001
 40
0.0
 40
0.0
 40
0.0
 40
0.0
 40
0.2195690269
 40
0.3408031023
 40
0.4680786573
 40
0.5997110568
 40
0.7336841191
 40
0.867857641
 40
1.0
 40
1.0
 40
1.0
 40
1.0
 10
49.3886412749
 20
58.9067093372
 30
0.0
 10
49.4611396805
 20
58.6155101746
 30
0.0
 10
49.6682754658
 20
58.1852847338
 30
0.0
 10
50.061489588
 20
57.6799760693
 30
0.0
 10
50.4326802265
 20
57.3140240073
 30
0.0
 10
50.8589500934
 20
56.98560679
 30
0.0
 10
51.32830431
 20
56.7035050026
 30
0.0
 10
51.8270907011
 20
56.4760786505
 30
0.0
 10
52.174336857
 20
56.3637002183
 30
0.0
 10
52.3492381793
 20
56.3186865959
 30
0.0
  0
SPLINE
  5
2C7
100
AcDbEntity
  8
00_COMPONENTS
100
AcDbSpline
 62
7
  6
BYLAYER
 70
0
 71
3
 72
14
 73
10
 74
0
 42
0.0000001
 43
0.0000001
 44
0.0000000001
 40
0.0
 40
0.0
 40
0.0
 40
0.0
 40
0.132142359
 40
0.2663158809
 40
0.4002889432
 40
0.5319213427
 40
0.6591968977
 40
0.7804309731
 40
1.0
 40
1.0
 40
1.0
 40
1.0
 10
52.3492381793
 20
35.0507094654
 30
0.0
 10
52.174336857
 20
35.005695843
 30
0.0
 10
51.8270907011
 20
34.8933174108
 30
0.0
 10
51.32830431
 20
34.6658910587
 30
0.0
 10
50.8589500934
 20
34.3837892713
 30
0.0
 10
50.4326802265
 20
34.055372054
 30
0.0
 10
50.061489588
 20
33.6894199919
 30
0.0
 10
49.6682754658
 20
33.1841113274
 30
0.0
 10
49.4611396805
 20
32.7538858867
 30
0.0
 10
49.3886412749
 20
32.462686724
 30
0.0
  0
SPLINE
  5
2C8
100
AcDbEntity
  8
00_COMPONENTS
100
AcDbSpline
 62
7
  6
BYLAYER
 70
0
 71
3
 72
13
 73
9
 74
0
 42
0.0000001
 43
0.0000001
 44
0.0000000001
 40
0.0
 40
0.0
 40
0.0
 40
0.0
 40
0.1056420789
 40
0.2162752006
 40
0.3325821657
 40
0.4549973815
 40
0.7173494177
 40
1.0
 40
1.0
 40
1.0
 40
1.0
 10
54.8561938791
 20
34.6901254912
 30
0.0
 10
54.786233812
 20
34.7505510998
 30
0.0
 10
54.6319912558
 20
34.8619445252
 30
0.0
 10
54.3714941764
 20
34.993953454
 30
0.0
 10
54.0810824713
 20
35.0924603898
 30
0.0
 10
53.6502888145
 20
35.1793442943
 30
0.0
 10
53.0616792472
 20
35.1930310254
 30
0.0
 10
52.5887676605
 20
35.1123561669
 30
0.0
 10
52.3492381793
 20
35.0507094654
 30
0.0
  0
SPLINE
  5
2C9
100
AcDbEntity
  8
00_COMPONENTS
100
AcDbSpline
 62
7
  6
BYLAYER
 70
0
 71
3
 72
15
 73
11
 74
0
 42
0.0000001
 43
0.0000001
 44
0.0000000001
 40
0.0
 40
0.0
 40
0.0
 40
0.0
 40
0.104125605
 40
0.2112476426
 40
0.3239422654
 40
0.4438838908
 40
0.5718527346
 40
0.707766468
 40
0.8509438515
 40
1.0
 40
1.0
 40
1.0
 40
1.0
 10
49.4924088496
 20
31.3082041522
 30
0.0
 10
49.5430862347
 20
31.2097205719
 30
0.0
 10
49.6700868289
 20
31.0214298892
 30
0.0
 10
49.9246671746
 20
30.7852994629
 30
0.0
 10
50.2370054946
 20
30.5987814425
 30
0.0
 10
50.5988388002
 20
30.4657894936
 30
0.0
 10
51.0013586932
 20
30.3886356164
 30
0.0
 10
51.4352042379
 20
30.3685453288
 30
0.0
 10
51.8901779166
 20
30.4058215367
 30
0.0
 10
52.1956922168
 20
30.4671823854
 30
0.0
 10
52.3492381793
 20
30.5066998681
 30
0.0
  0
SPLINE
  5
2CA
100
AcDbEntity
  8
00_COMPONENTS
100
AcDbSpline
 62
7
  6
BYLAYER
 70
0
 71
3
 72
15
 73
11
 74
0
 42
0.0000001
 43
0.0000001
 44
0.0000000001
 40
0.0
 40
0.0
 40
0.0
 40
0.0
 40
0.1490561485
 40
0.292233532
 40
0.4281472654
 40
0.5561161092
 40
0.6760577346
 40
0.7887523574
 40
0.895874395
 40
1.0
 40
1.0
 40
1.0
 40
1.0
 10
52.3492381793
 20
60.8626961932
 30
0.0
 10
52.1956922168
 20
60.9022136759
 30
0.0
 10
51.8901779166
 20
60.9635745246
 30
0.0
 10
51.4352042379
 20
61.0008507325
 30
0.0
 10
51.0013586932
 20
60.9807604449
 30
0.0
 10
50.5988388002
 20
60.9036065677
 30
0.0
 10
50.2370054946
 20
60.7706146188
 30
0.0
 10
49.9246671746
 20
60.5840965983
 30
0.0
 10
49.6700868289
 20
60.347966172
 30
0.0
 10
49.5430862347
 20
60.1596754894
 30
0.0
 10
49.4924088496
 20
60.061191909
 30
0.0
  0
SPLINE
  5
2CB
100
AcDbEntity
  8
00_COMPONENTS
100
AcDbSpline
 62
7
  6
BYLAYER
 70
0
 71
3
 72
11
 73
7
 74
0
 42
0.0000001
 43
0.0000001
 44
0.0000000001
 40
0.0
 40
0.0
 40
0.0
 40
0.0
 40
0.2380504118
 40
0.489313856
 40
0.7461184123
 40
1.0
 40
1.0
 40
1.0
 40
1.0
 10
54.8561938791
 20
59.2117027962
 30
0.0
 10
54.7138329944
 20
59.4079397798
 30
0.0
 10
54.3782552752
 20
59.7811436393
 30
0.0
 10
53.776563578
 20
60.2506696996
 30
0.0
 10
53.0928289231
 20
60.6244155929
 30
0.0
 10
52.5996378793
 20
60.7982518689
 30
0.0
 10
52.3492381793
 20
60.8626961932
 30
0.0
  0
SPLINE
  5
2CC
100
AcDbEntity
  8
00_COMPONENTS
100
AcDbSpline
 62
7
  6
BYLAYER
 70
0
 71
3
 72
11
 73
7
 74
0
 42
0.0000001
 43
0.0000001
 44
0.0000000001
 40
0.0
 40
0.0
 40
0.0
 40
0.0
 40
0.2538815877
 40
0.510686144
 40
0.7619495882
 40
1.0
 40
1.0
 40
1.0
 40
1.0
 10
52.3492381793
 20
30.5066998681
 30
0.0
 10
52.5996378793
 20
30.5711441924
 30
0.0
 10
53.0928289231
 20
30.7449804684
 30
0.0
 10
53.776563578
 20
31.1187263617
 30
0.0
 10
54.3782552752
 20
31.588252422
 30
0.0
 10
54.7138329944
 20
31.9614562815
 30
0.0
 10
54.8561938791
 20
32.1576932651
 30
0.0
  0
ELLIPSE
  5
2CD
100
AcDbEntity
  8
00_COMPONENTS
100
AcDbEllipse
 62
7
  6
BYLAYER
 10
11.6460834724
 20
58.4546222348
 30
0.0
 11
3.4193096007
 21
0.0
 31
0.0
 40
0.6644630244
 41
0.5315947947
 42
0.5911452022
  0
ELLIPSE
  5
2CE
100
AcDbEntity
  8
00_COMPONENTS
100
AcDbEllipse
 62
7
  6
BYLAYER
 10
11.1838412749
 20
32.0167482144
 30
0.0
 11
3.4193096007
 21
0.0
 31
0.0
 40
0.6644630244
 41
-0.1975579181
 42
0.1975579181
  0
ELLIPSE
  5
2CF
100
AcDbEntity
  8
00_COMPONENTS
100
AcDbEllipse
 62
7
  6
BYLAYER
 10
12.6445266191
 20
34.8545091486
 30
0.0
 11
3.4193096007
 21
-0.0
 31
0.0
 40
0.6644630244
 41
3.7327378558
 42
5.2448497538
  0
ELLIPSE
  5
2D0
100
AcDbEntity
  8
00_COMPONENTS
100
AcDbEllipse
 62
7
  6
BYLAYER
 10
11.6460834724
 20
32.9147738265
 30
0.0
 11
3.4193096007
 21
0.0
 31
0.0
 40
0.6644630244
 41
-0.5911452022
 42
-0.5316204977
  0
ELLIPSE
  5
2D1
100
AcDbEntity
  8
00_COMPONENTS
100
AcDbEllipse
 62
7
  6
BYLAYER
 10
11.1838412749
 20
59.3526478469
 30
0.0
 11
3.4193096007
 21
-0.0
 31
0.0
 40
0.6644630244
 41
-0.1975579181
 42
0.1975579181
  0
ELLIPSE
  5
2D2
100
AcDbEntity
  8
00_COMPONENTS
100
AcDbEllipse
 62
7
  6
BYLAYER
 10
12.6445266191
 20
56.5148869126
 30
0.0
 11
3.4193096007
 21
-0.0
 31
0.0
 40
0.6644630244
 41
7.3215210918
 42
8.8336327586
  0
ELLIPSE
  5
2D3
100
AcDbEntity
  8
00_COMPONENTS
100
AcDbEllipse
 62
7
  6
BYLAYER
 10
52.2791990774
 20
32.9147738265
 30
0.0
 11
3.4193096007
 21
-0.0
 31
0.0
 40
0.6644630244
 41
-2.6099978588
 42
-2.5504474514
  0
ELLIPSE
  5
2D4
100
AcDbEntity
  8
00_COMPONENTS
100
AcDbEllipse
 62
7
  6
BYLAYER
 10
52.7414412749
 20
59.3526478469
 30
0.0
 11
3.4193096007
 21
-0.0
 31
0.0
 40
0.6644630244
 41
2.9440347355
 42
3.3391505717
  0
ELLIPSE
  5
2D5
100
AcDbEntity
  8
00_COMPONENTS
100
AcDbEllipse
 62
7
  6
BYLAYER
 10
51.2807559307
 20
56.5148869126
 30
0.0
 11
3.4193096007
 21
-0.0
 31
0.0
 40
0.6644630244
 41
6.8743305094
 42
8.3864424074
  0
ELLIPSE
  5
2D6
100
AcDbEntity
  8
00_COMPONENTS
100
AcDbEllipse
 62
7
  6
BYLAYER
 10
52.2791990774
 20
58.4546222348
 30
0.0
 11
3.4193096007
 21
0.0
 31
0.0
 40
0.6644630244
 41
2.5504474514
 42
2.6099721559
  0
ELLIPSE
  5
2D7
100
AcDbEntity
  8
00_COMPONENTS
100
AcDbEllipse
 62
7
  6
BYLAYER
 10
52.7414412749
 20
32.0167482144
 30
0.0
 11
3.4193096007
 21
0.0
 31
0.0
 40
0.6644630244
 41
2.9440347355
 42
3.3391505717
  0
ELLIPSE
  5
2D8
100
AcDbEntity
  8
00_COMPONENTS
100
AcDbEllipse
 62
7
  6
BYLAYER
 10
51.2807559307
 20
34.8545091486
 30
0.0
 11
3.4193096007
 21
0.0
 31
0.0
 40
0.6644630244
 41
4.1799284382
 42
5.692040105
  0
ENDSEC
  0
SECTION
  2
OBJECTS
  0
DICTIONARY
  5
C
100
AcDbDictionary
280
0
281
1
  3
ACAD_GROUP
350
D
  3
ACAD_MLINESTYLE
350
17
  3
ACAD_LAYOUT
350
1A
  3
ACAD_PLOTSETTINGS
350
19
  3
ACAD_PLOTSTYLENAME
350
E
  0
DICTIONARY
  5
D
102
{ACAD_REACTORS
330
C
102
}
100
AcDbDictionary
280
0
281
1
  0
ACDBDICTIONARYWDFLT
  5
E
102
{ACAD_REACTORS
330
C
102
}
100
AcDbDictionary
281
1
  3
Normal
350
F
100
AcDbDictionaryWithDefault
340
F
  0
DICTIONARY
  5
17
102
{ACAD_REACTORS
330
C
102
}
100
AcDbDictionary
280
0
281
1
  3
Standard
350
18
  0
DICTIONARY
  5
19
102
{ACAD_REACTORS
330
C
102
}
100
AcDbDictionary
281
1
  0
DICTIONARY
  5
1A
102
{ACAD_REACTORS
330
C
102
}
100
AcDbDictionary
281
1
  3
Model
350
2D9
  3
Layout1
350
2DA
  0
ACDBPLACEHOLDER
  5
F
102
{ACAD_REACTORS
330
E
102
}
  0
MLINESTYLE
  5
18
102
{ACAD_REACTORS
330
17
102
}
100
AcDbMlineStyle
  2
STANDARD
 70
0
  3

 62
256
 51
90.0
 52
90.0
 71
2
 49
0.5
 62
256
  6
BYLAYER
 49
-0.5
 62
256
  6
BYLAYER
  0
LAYOUT
  5
2D9
102
{ACAD_REACTORS
330
1A
102
}
100
AcDbPlotSettings
  1

  2
none_device
  4

  6

 40
0.0
 41
0.0
 42
0.0
 43
0.0
 44
210.0
 45
297.0
 46
0.0
 47
0.0
 48
0.0
 49
0.0
140
0.0
141
0.0
142
1.0
143
1.0
 70
1024
 72
1
 73
0
 74
0
  7

 75
0
147
1.0
148
0.0
149
0.0
100
AcDbLayout
  1
Model
 70
0
 71
0
 10
0.0
 20
0.0
 11
210.0
 21
297.0
 12
0.0
 22
0.0
 32
0.0
 14
0.0
 24
0.0
 34
0.0
 15
0.0
 25
0.0
 35
0.0
146
0.0
 13
0.0
 23
0.0
 33
0.0
 16
1.0
 26
0.0
 36
0.0
 17
0.0
 27
1.0
 37
0.0
 76
0
330
218
345
0
346
0
  0
LAYOUT
  5
2DA
102
{ACAD_REACTORS
330
1A
102
}
100
AcDbPlotSettings
  1

  2
none_device
  4

  6

 40
0.0
 41
0.0
 42
0.0
 43
0.0
 44
210.0
 45
297.0
 46
0.0
 47
0.0
 48
0.0
 49
0.0
140
0.0
141
0.0
142
1.0
143
1.0
 70
0
 72
1
 73
0
 74
0
  7

 75
0
147
1.0
148
0.0
149
0.0
100
AcDbLayout
  1
Layout1
 70
0
 71
1
 10
0.0
 20
0.0
 11
210.0
 21
297.0
 12
0.0
 22
0.0
 32
0.0
 14
0.0
 24
0.0
 34
0.0
 15
0.0
 25
0.0
 35
0.0
146
0.0
 13
0.0
 23
0.0
 33
0.0
 16
1.0
 26
0.0
 36
0.0
 17
0.0
 27
1.0
 37
0.0
 76
0
330
219
345
0
346
0
  0
ENDSEC
  0
EOF
