999
DXF file: C:\Users\sesa63760\Dev\_Creo\CAD\MCADID0003638_3D-CAD\drw0001_2.dxf
999
Pro/ENGINEER 2019471 by Parametric Technology Corporation
  0
SECTION
  2
HEADER
  9
$ACADVER
  1
AC1024
  9
$DWGCODEPAGE
  3
ANSI_1252
  9
$EXTMAX
 10
77.2284189412
 20
109.2230496454
 30
0.0
  9
$EXTMIN
 10
0.0
 20
0.0
 30
0.0
  9
$LIMMIN
 10
0.0
 20
0.0
  9
$LIMMAX
 10
77.2284189412
 20
109.2230496454
  9
$VIEWCTR
 10
38.6142094706
 20
54.6115248227
  9
$VIEWSIZE
 40
109.2230496454
  9
$CLAYER
  8
0
  9
$LTSCALE
 40
7.1197247176
  9
$CELTYPE
  6
BYLAYER
  9
$DIMSCALE
 40
1.0
  9
$DIMASZ
 40
0.9193859398
  9
$DIMEXO
 40
1.0
  9
$DIMDLI
 40
4.9190825322
  9
$DIMEXE
 40
1.0
  9
$DIMCEN
 40
1.1650458629
  9
$DIMLFAC
 40
1.0
  9
$DIMBLK
  1
_FILLED
  9
$DIMALT
 70
0
  9
$DIMALTF
 40
0.0393700787
  9
$DIMTXT
 40
1.2871403157
  9
$DIMTOL
 70
1
  9
$DIMLIM
 70
0
  9
$DIMTFAC
 40
1.0
  9
$DIMTP
 40
0.01
  9
$DIMTM
 40
0.01
  9
$DIMGAP
 40
0.625
  9
$DIMDSEP
 70
46
  9
$AUNITS
 70
0
  9
$PDMODE
 70
3
  9
$PDSIZE
 40
0.3125
  9
$HANDSEED
  5
278
  9
$TILEMODE
 70
1
  9
$MEASUREMENT
 70
1
  9
$INSUNITS
 70
4
  0
ENDSEC
  0
SECTION
  2
CLASSES
  0
CLASS
  1
ACDBDICTIONARYWDFLT
  2
AcDbDictionaryWithDefault
  3
AutoCAD 2000
 90
0
 91
1
280
0
281
0
  0
CLASS
  1
ACDBPLACEHOLDER
  2
AcDbPlaceHolder
  3
AutoCAD 2000
 90
0
 91
1
280
0
281
0
  0
CLASS
  1
LAYOUT
  2
AcDbLayout
  3
AutoCAD 2000
 90
0
 91
0
280
0
281
0
  0
ENDSEC
  0
SECTION
  2
TABLES
  0
TABLE
  2
VPORT
  5
8
100
AcDbSymbolTable
 70
2
  0
VPORT
  5
1F4
100
AcDbSymbolTableRecord
100
AcDbViewportTableRecord
  2
*ACTIVE
 70
0
 10
0.0
 20
0.0
 11
1.0
 21
1.0
 12
38.6142094706
 22
54.6115248227
 13
0.0
 23
0.0
 14
1.0
 24
1.0
 15
0.0
 25
0.0
 16
0.0
 26
0.0
 36
1.0
 17
0.0
 27
0.0
 37
0.0
 40
109.2230496454
 41
0.7070707071
 42
50.0
 43
0.0
 44
0.0
 50
0.0
 51
0.0
 71
0
 72
100
 73
1
 74
1
 75
0
 76
0
 77
0
 78
0
  0
ENDTAB
  0
TABLE
  2
LTYPE
  5
5
100
AcDbSymbolTable
 70
6
  0
LTYPE
  5
14
100
AcDbSymbolTableRecord
100
AcDbLinetypeTableRecord
  2
BYBLOCK
 70
0
  3

 72
65
 73
0
 40
0.0
  0
LTYPE
  5
15
100
AcDbSymbolTableRecord
100
AcDbLinetypeTableRecord
  2
BYLAYER
 70
0
  3

 72
65
 73
0
 40
0.0
  0
LTYPE
  5
16
100
AcDbSymbolTableRecord
100
AcDbLinetypeTableRecord
  2
CONTINUOUS
 70
64
  3
Solid line
 72
65
 73
0
 40
0.0
  0
LTYPE
  5
1F5
100
AcDbSymbolTableRecord
100
AcDbLinetypeTableRecord
  2
CENTER
 70
64
  3
____ _ ____ _ ____ _ ____ _ ____ _ ____ _ ____
 72
65
 73
4
 40
0.6
 49
0.375
 74
0
 49
-0.075
 74
0
 49
0.075
 74
0
 49
-0.075
 74
0
  0
LTYPE
  5
1F6
100
AcDbSymbolTableRecord
100
AcDbLinetypeTableRecord
  2
HIDDEN
 70
64
  3
- - - - - - - - - - - - - - - - - - - -
 72
65
 73
2
 40
0.2
 49
0.1
 74
0
 49
-0.1
 74
0
  0
LTYPE
  5
1F7
100
AcDbSymbolTableRecord
100
AcDbLinetypeTableRecord
  2
PHANTOM
 70
64
  3
_____ _ _ _____ _ _ _____ _ _ _____
 72
65
 73
6
 40
0.8
 49
0.45
 74
0
 49
-0.05
 74
0
 49
0.1
 74
0
 49
-0.05
 74
0
 49
0.1
 74
0
 49
-0.05
 74
0
  0
LTYPE
  5
1F8
100
AcDbSymbolTableRecord
100
AcDbLinetypeTableRecord
  2
DOT
 70
64
  3
. . . . . . . . . . . . . . . . . . . .
 72
65
 73
2
 40
0.2
 49
0.1
 74
0
 49
-0.1
 74
0
  0
LTYPE
  5
1F9
100
AcDbSymbolTableRecord
100
AcDbLinetypeTableRecord
  2
DASHED
 70
64
  3
- - - - - - - - - - - - - - - - - - - -
 72
65
 73
2
 40
0.2
 49
0.1
 74
0
 49
-0.1
 74
0
  0
ENDTAB
  0
TABLE
  2
LAYER
  5
2
100
AcDbSymbolTable
 70
36
  0
LAYER
  5
10
100
AcDbSymbolTableRecord
100
AcDbLayerTableRecord
  2
0
 70
0
 62
7
  6
CONTINUOUS
370
-3
390
F
  0
LAYER
  5
1FA
100
AcDbSymbolTableRecord
100
AcDbLayerTableRecord
  2
DEFAULT_1
 70
0
 62
7
  6
CENTER
370
-3
390
F
  0
LAYER
  5
1FB
100
AcDbSymbolTableRecord
100
AcDbLayerTableRecord
  2
DEFAULT_2
 70
0
 62
7
  6
HIDDEN
370
-3
390
F
  0
LAYER
  5
1FC
100
AcDbSymbolTableRecord
100
AcDbLayerTableRecord
  2
DEFAULT_3
 70
0
 62
7
  6
PHANTOM
370
-3
390
F
  0
LAYER
  5
1FD
100
AcDbSymbolTableRecord
100
AcDbLayerTableRecord
  2
00_COMPONENTS
 70
0
 62
7
  6
CONTINUOUS
370
-3
390
F
  0
LAYER
  5
1FE
100
AcDbSymbolTableRecord
100
AcDbLayerTableRecord
  2
01_1_DEFAULT_DATUMS
 70
0
 62
7
  6
CONTINUOUS
370
-3
390
F
  0
LAYER
  5
1FF
100
AcDbSymbolTableRecord
100
AcDbLayerTableRecord
  2
01_PLANES
 70
0
 62
7
  6
CONTINUOUS
370
-3
390
F
  0
LAYER
  5
200
100
AcDbSymbolTableRecord
100
AcDbLayerTableRecord
  2
02_COORD_SYS
 70
0
 62
7
  6
CONTINUOUS
370
-3
390
F
  0
LAYER
  5
201
100
AcDbSymbolTableRecord
100
AcDbLayerTableRecord
  2
03_AXES
 70
0
 62
7
  6
CONTINUOUS
370
-3
390
F
  0
LAYER
  5
202
100
AcDbSymbolTableRecord
100
AcDbLayerTableRecord
  2
04_POINTS
 70
0
 62
7
  6
CONTINUOUS
370
-3
390
F
  0
LAYER
  5
203
100
AcDbSymbolTableRecord
100
AcDbLayerTableRecord
  2
05_CURVES
 70
0
 62
7
  6
CONTINUOUS
370
-3
390
F
  0
LAYER
  5
204
100
AcDbSymbolTableRecord
100
AcDbLayerTableRecord
  2
06_SURFS
 70
0
 62
7
  6
CONTINUOUS
370
-3
390
F
  0
LAYER
  5
205
100
AcDbSymbolTableRecord
100
AcDbLayerTableRecord
  2
07_COSMETICS
 70
0
 62
7
  6
CONTINUOUS
370
-3
390
F
  0
LAYER
  5
206
100
AcDbSymbolTableRecord
100
AcDbLayerTableRecord
  2
10_NOTES
 70
0
 62
7
  6
CONTINUOUS
370
-3
390
F
  0
LAYER
  5
207
100
AcDbSymbolTableRecord
100
AcDbLayerTableRecord
  2
11_NOTES_PUB
 70
0
 62
7
  6
CONTINUOUS
370
-3
390
F
  0
LAYER
  5
208
100
AcDbSymbolTableRecord
100
AcDbLayerTableRecord
  2
13_REF_GTOL
 70
0
 62
7
  6
CONTINUOUS
370
-3
390
F
  0
LAYER
  5
209
100
AcDbSymbolTableRecord
100
AcDbLayerTableRecord
  2
16_MISC
 70
0
 62
7
  6
CONTINUOUS
370
-3
390
F
  0
LAYER
  5
20A
100
AcDbSymbolTableRecord
100
AcDbLayerTableRecord
  2
17_NO_PRINT
 70
0
 62
7
  6
CONTINUOUS
370
-3
390
F
  0
LAYER
  5
20B
100
AcDbSymbolTableRecord
100
AcDbLayerTableRecord
  2
18_DATUM_CAMS_JOINTS
 70
0
 62
7
  6
CONTINUOUS
370
-3
390
F
  0
LAYER
  5
20C
100
AcDbSymbolTableRecord
100
AcDbLayerTableRecord
  2
19_DATUM_FUNCTIONAL
 70
0
 62
7
  6
CONTINUOUS
370
-3
390
F
  0
LAYER
  5
20D
100
AcDbSymbolTableRecord
100
AcDbLayerTableRecord
  2
20_DATUM_KINEMATIC_SCHEME
 70
0
 62
7
  6
CONTINUOUS
370
-3
390
F
  0
ENDTAB
  0
TABLE
  2
STYLE
  5
3
100
AcDbSymbolTable
 70
1
  0
STYLE
  5
11
100
AcDbSymbolTableRecord
100
AcDbTextStyleTableRecord
  2
STANDARD
 70
0
 40
0.0
 41
1.0
 50
0.0
 71
0
 42
0.2
  3
ARIAL.TTF
  4

  0
STYLE
  5
20E
100
AcDbSymbolTableRecord
100
AcDbTextStyleTableRecord
  2
TEXTSTYLE_1
 70
0
 40
0.0
 41
0.8
 50
0.0
 71
0
 42
0.2
  3
gdt
  4

  0
ENDTAB
  0
TABLE
  2
VIEW
  5
6
100
AcDbSymbolTable
 70
0
  0
ENDTAB
  0
TABLE
  2
UCS
  5
7
100
AcDbSymbolTable
 70
0
  0
ENDTAB
  0
TABLE
  2
APPID
  5
9
100
AcDbSymbolTable
 70
1
  0
APPID
  5
20F
100
AcDbSymbolTableRecord
100
AcDbRegAppTableRecord
  2
ACAD
 70
0
  0
ENDTAB
  0
TABLE
  2
BLOCK_RECORD
  5
1
100
AcDbSymbolTable
 70
0
  0
BLOCK_RECORD
  5
210
100
AcDbSymbolTableRecord
100
AcDbBlockTableRecord
  2
*Model_Space
  0
BLOCK_RECORD
  5
211
100
AcDbSymbolTableRecord
100
AcDbBlockTableRecord
  2
*Paper_Space
  0
BLOCK_RECORD
  5
212
100
AcDbSymbolTableRecord
100
AcDbBlockTableRecord
  2
_FILLED
  0
ENDTAB
  0
TABLE
  2
DIMSTYLE
  5
A
100
AcDbSymbolTable
 70
1
100
AcDbDimStyleTable
 71
0
  0
DIMSTYLE
105
213
100
AcDbSymbolTableRecord
100
AcDbDimStyleTableRecord
  2
STANDARD
 70
0
  3

  4

 40
1.0
 41
0.9193859398
 42
1.0
 43
0.38
 44
1.0
 45
0.0
 46
0.0
 47
0.01
 48
0.01
140
1.2871403157
141
0.09
142
0.0
143
25.4
144
1.0
145
0.0
146
1.0
147
0.625
 71
1
 72
0
 73
0
 74
0
 75
0
 76
0
 77
1
 78
8
 79
2
170
0
171
1
172
0
173
0
174
0
175
0
176
0
177
0
178
0
270
2
179
2
271
2
272
2
273
2
274
2
275
0
280
0
281
0
282
0
283
1
284
8
285
0
286
0
287
3
288
0
340
11
278
46
341
212
342
212
343
212
344
212
  0
ENDTAB
  0
ENDSEC
  0
SECTION
  2
BLOCKS
  0
BLOCK
  5
20
100
AcDbEntity
  8
0
100
AcDbBlockBegin
  2
*Model_Space
 70
0
 10
0.0
 20
0.0
 30
0.0
  3
*Model_Space
  1

  0
ENDBLK
  5
21
100
AcDbEntity
  8
0
100
AcDbBlockEnd
  0
BLOCK
  5
1C
100
AcDbEntity
  8
0
100
AcDbBlockBegin
  2
*Paper_Space
 70
0
 10
0.0
 20
0.0
 30
0.0
  3
*Paper_Space
  1

  0
ENDBLK
  5
1D
100
AcDbEntity
  8
0
100
AcDbBlockEnd
  0
BLOCK
  5
214
100
AcDbEntity
  8
0
100
AcDbBlockBegin
  2
_FILLED
 70
64
 10
0.0
 20
0.0
  3
_FILLED
  1

  0
SOLID
  5
215
100
AcDbEntity
  8
0
  6
BYBLOCK
 62
0
100
AcDbTrace
 10
0.0
 20
0.0
 11
-1.0
 21
0.25
 12
-1.0
 22
-0.25
 13
-1.0
 23
-0.25
  0
ENDBLK
  5
216
100
AcDbEntity
  8
0
  6
BYBLOCK
 62
0
100
AcDbBlockEnd
  0
ENDSEC
  0
SECTION
  2
ENTITIES
  0
LINE
  5
217
100
AcDbEntity
  8
0
100
AcDbLine
 62
7
  6
BYLAYER
 10
50.8799179444
 20
7.2859929078
 11
28.8801022564
 21
7.2859929078
  0
LINE
  5
218
100
AcDbEntity
  8
0
100
AcDbLine
 62
7
  6
BYLAYER
 10
26.014946591
 20
7.8859929078
 11
54.0800101004
 21
7.8859929078
  0
LINE
  5
219
100
AcDbEntity
  8
0
100
AcDbLine
 62
7
  6
BYLAYER
 10
28.9800093332
 20
100.9030744795
 11
28.9682152632
 21
100.8959458337
  0
LINE
  5
21A
100
AcDbEntity
  8
0
100
AcDbLine
 62
7
  6
BYLAYER
 10
30.6800101004
 20
11.6359929078
 11
28.1800101004
 21
11.6359929078
  0
LINE
  5
21B
100
AcDbEntity
  8
0
100
AcDbLine
 62
7
  6
BYLAYER
 10
25.1102855062
 20
14.0359929078
 11
24.3800101004
 21
14.0359929078
  0
LINE
  5
21C
100
AcDbEntity
  8
0
100
AcDbLine
 62
7
  6
BYLAYER
 10
54.0800101004
 20
18.3859929078
 11
54.3800101004
 21
18.3859929078
  0
LINE
  5
21D
100
AcDbEntity
  8
0
100
AcDbLine
 62
7
  6
BYLAYER
 10
29.7745491278
 20
9.657181282
 11
31.545737502
 21
7.8859929078
  0
LINE
  5
21E
100
AcDbEntity
  8
0
100
AcDbLine
 62
7
  6
BYLAYER
 10
27.4294547505
 20
7.8859929078
 11
27.2437176035
 21
8.2076990833
  0
LINE
  5
21F
100
AcDbEntity
  8
0
100
AcDbLine
 62
7
  6
BYLAYER
 10
54.3800101004
 20
26.3859929078
 11
54.0800101004
 21
26.3859929078
  0
LINE
  5
220
100
AcDbEntity
  8
0
100
AcDbLine
 62
7
  6
BYLAYER
 10
24.978069752
 20
10.574237148
 11
24.392163898
 21
13.8970743657
  0
LINE
  5
221
100
AcDbEntity
  8
0
100
AcDbLine
 62
7
  6
BYLAYER
 10
25.1102855062
 20
14.0359929078
 11
25.6961913604
 21
10.7131556891
  0
LINE
  5
222
100
AcDbEntity
  8
0
100
AcDbLine
 62
7
  6
BYLAYER
 10
24.3142979727
 20
59.8448317559
 11
24.3142979727
 21
64.9271540597
  0
LINE
  5
223
100
AcDbEntity
  8
0
100
AcDbLine
 62
7
  6
BYLAYER
 10
24.3800101004
 20
101.0359929078
 11
24.3800101004
 21
68.9859929078
  0
LINE
  5
224
100
AcDbEntity
  8
0
100
AcDbLine
 62
7
  6
BYLAYER
 10
24.3800101004
 20
14.0359929077
 11
24.3800101004
 21
67.3204710472
  0
LINE
  5
225
100
AcDbEntity
  8
0
100
AcDbLine
 62
7
  6
BYLAYER
 10
24.7300101004
 20
99.0359929078
 11
24.7300101004
 21
100.2359929078
  0
LINE
  5
226
100
AcDbEntity
  8
0
100
AcDbLine
 62
7
  6
BYLAYER
 10
24.8800101004
 20
68.4859929078
 11
24.8800101004
 21
99.0359929078
  0
LINE
  5
227
100
AcDbEntity
  8
0
100
AcDbLine
 62
7
  6
BYLAYER
 10
25.1102855062
 20
14.0359929078
 11
25.1102855062
 21
55.2204710459
  0
LINE
  5
228
100
AcDbEntity
  8
0
100
AcDbLine
 62
7
  6
BYLAYER
 10
25.1102855315
 20
56.0174268079
 11
25.1102855062
 21
67.3204710459
  0
LINE
  5
229
100
AcDbEntity
  8
0
100
AcDbLine
 62
7
  6
BYLAYER
 10
25.2893660714
 20
100.6303770631
 11
25.2893660714
 21
101.0359929078
  0
LINE
  5
22A
100
AcDbEntity
  8
0
100
AcDbLine
 62
7
  6
BYLAYER
 10
27.0800101004
 20
100.4359929078
 11
27.0800101004
 21
101.1664279965
  0
LINE
  5
22B
100
AcDbEntity
  8
0
100
AcDbLine
 62
7
  6
BYLAYER
 10
27.6800101004
 20
101.1664279965
 11
27.6800101004
 21
100.4359929078
  0
LINE
  5
22C
100
AcDbEntity
  8
0
100
AcDbLine
 62
7
  6
BYLAYER
 10
28.1800101004
 20
11.6359929078
 11
28.1800101004
 21
68.4859929078
  0
LINE
  5
22D
100
AcDbEntity
  8
0
100
AcDbLine
 62
7
  6
BYLAYER
 10
28.8800101004
 20
7.8859929078
 11
28.8800101004
 21
7.2859929078
  0
LINE
  5
22E
100
AcDbEntity
  8
0
100
AcDbLine
 62
7
  6
BYLAYER
 10
29.0800101004
 20
55.4859929078
 11
29.0800101004
 21
68.9859929078
  0
LINE
  5
22F
100
AcDbEntity
  8
0
100
AcDbLine
 62
7
  6
BYLAYER
 10
29.3800101004
 20
99.0359929078
 11
29.3800101004
 21
101.0359929078
  0
LINE
  5
230
100
AcDbEntity
  8
0
100
AcDbLine
 62
7
  6
BYLAYER
 10
29.9159084853
 20
98.5359929078
 11
29.9159084853
 21
101.5359929078
  0
LINE
  5
231
100
AcDbEntity
  8
0
100
AcDbLine
 62
7
  6
BYLAYER
 10
31.6800101004
 20
10.6359929078
 11
31.6800101004
 21
7.8859929078
  0
LINE
  5
232
100
AcDbEntity
  8
0
100
AcDbLine
 62
7
  6
BYLAYER
 10
54.0800101004
 20
53.9859929078
 11
54.3800101004
 21
53.9859929078
  0
LINE
  5
233
100
AcDbEntity
  8
0
100
AcDbLine
 62
7
  6
BYLAYER
 10
54.3800101004
 20
54.7859929078
 11
54.0800101004
 21
54.7859929078
  0
LINE
  5
234
100
AcDbEntity
  8
0
100
AcDbLine
 62
7
  6
BYLAYER
 10
28.1800101004
 20
55.4890371493
 11
25.1102855062
 21
55.2204710459
  0
LINE
  5
235
100
AcDbEntity
  8
0
100
AcDbLine
 62
7
  6
BYLAYER
 10
25.1102855062
 20
56.0174268057
 11
28.1800101004
 21
56.2859929078
  0
LINE
  5
236
100
AcDbEntity
  8
0
100
AcDbLine
 62
7
  6
BYLAYER
 10
24.3800101004
 20
55.2204710472
 11
25.1102855062
 21
55.2204710472
  0
LINE
  5
237
100
AcDbEntity
  8
0
100
AcDbLine
 62
7
  6
BYLAYER
 10
28.1800101004
 20
55.4859929078
 11
29.0800101004
 21
55.4859929078
  0
LINE
  5
238
100
AcDbEntity
  8
0
100
AcDbLine
 62
7
  6
BYLAYER
 10
29.0800101004
 20
56.2859929078
 11
28.1800101004
 21
56.2859929078
  0
LINE
  5
239
100
AcDbEntity
  8
0
100
AcDbLine
 62
7
  6
BYLAYER
 10
24.3142979727
 20
59.8448317559
 11
24.3800101004
 21
59.8448317559
  0
LINE
  5
23A
100
AcDbEntity
  8
0
100
AcDbLine
 62
7
  6
BYLAYER
 10
29.0800101004
 20
60.3859929078
 11
24.3800101004
 21
60.3859929078
  0
LINE
  5
23B
100
AcDbEntity
  8
0
100
AcDbLine
 62
7
  6
BYLAYER
 10
24.0817209348
 20
61.8359929078
 11
23.9179123869
 21
61.8359929078
  0
LINE
  5
23C
100
AcDbEntity
  8
0
100
AcDbLine
 62
7
  6
BYLAYER
 10
23.9179123869
 20
62.9359929078
 11
24.0817209348
 21
62.9359929078
  0
LINE
  5
23D
100
AcDbEntity
  8
0
100
AcDbLine
 62
7
  6
BYLAYER
 10
28.1800101004
 20
64.3859929078
 11
29.0800101004
 21
64.3859929078
  0
LINE
  5
23E
100
AcDbEntity
  8
0
100
AcDbLine
 62
7
  6
BYLAYER
 10
50.8800101004
 20
7.8859929078
 11
50.8800101004
 21
7.2859929078
  0
LINE
  5
23F
100
AcDbEntity
  8
0
100
AcDbLine
 62
7
  6
BYLAYER
 10
24.3800101004
 20
64.9271540597
 11
24.3142979727
 21
64.9271540597
  0
LINE
  5
240
100
AcDbEntity
  8
0
100
AcDbLine
 62
7
  6
BYLAYER
 10
24.3800101004
 20
67.3204710472
 11
25.1102855062
 21
67.3204710472
  0
LINE
  5
241
100
AcDbEntity
  8
0
100
AcDbLine
 62
7
  6
BYLAYER
 10
53.8800101004
 20
101.5359929078
 11
53.8800101004
 21
72.0359929078
  0
LINE
  5
242
100
AcDbEntity
  8
0
100
AcDbLine
 62
7
  6
BYLAYER
 10
54.0800101004
 20
54.7859929078
 11
54.0800101004
 21
7.8859929078
  0
LINE
  5
243
100
AcDbEntity
  8
0
100
AcDbLine
 62
7
  6
BYLAYER
 10
54.3800101004
 20
26.3859929078
 11
54.3800101004
 21
18.3859929078
  0
LINE
  5
244
100
AcDbEntity
  8
0
100
AcDbLine
 62
7
  6
BYLAYER
 10
54.3800101004
 20
53.9859929078
 11
54.3800101004
 21
101.0359929078
  0
LINE
  5
245
100
AcDbEntity
  8
0
100
AcDbLine
 62
7
  6
BYLAYER
 10
28.1800101004
 20
67.5890371493
 11
25.1102855062
 21
67.3204710459
  0
LINE
  5
246
100
AcDbEntity
  8
0
100
AcDbLine
 62
7
  6
BYLAYER
 10
25.1102855062
 20
68.1174268057
 11
28.1800101004
 21
68.3859929078
  0
LINE
  5
247
100
AcDbEntity
  8
0
100
AcDbLine
 62
7
  6
BYLAYER
 10
24.8800101004
 20
68.4859929078
 11
29.0800101004
 21
68.4859929078
  0
LINE
  5
248
100
AcDbEntity
  8
0
100
AcDbLine
 62
7
  6
BYLAYER
 10
29.0800101004
 20
68.9859929078
 11
24.3800101004
 21
68.9859929078
  0
LINE
  5
249
100
AcDbEntity
  8
0
100
AcDbLine
 62
7
  6
BYLAYER
 10
24.3800101004
 20
72.0359929078
 11
54.3800101004
 21
72.0359929078
  0
LINE
  5
24A
100
AcDbEntity
  8
0
100
AcDbLine
 62
7
  6
BYLAYER
 10
25.7918049376
 20
100.8959458337
 11
25.7800109081
 21
100.903074455
  0
LINE
  5
24B
100
AcDbEntity
  8
0
100
AcDbLine
 62
7
  6
BYLAYER
 10
24.3800101004
 20
98.5359929078
 11
29.9159084853
 21
98.5359929078
  0
LINE
  5
24C
100
AcDbEntity
  8
0
100
AcDbLine
 62
7
  6
BYLAYER
 10
29.3812109527
 20
99.0359929078
 11
24.7300151861
 21
99.0359929078
  0
LINE
  5
24D
100
AcDbEntity
  8
0
100
AcDbLine
 62
7
  6
BYLAYER
 10
24.7300102951
 20
100.2359929078
 11
29.3800101004
 21
100.2359929078
  0
LINE
  5
24E
100
AcDbEntity
  8
0
100
AcDbLine
 62
7
  6
BYLAYER
 10
27.0800101004
 20
100.4359929078
 11
27.6800101004
 21
100.4359929078
  0
LINE
  5
24F
100
AcDbEntity
  8
0
100
AcDbLine
 62
7
  6
BYLAYER
 10
24.3800101004
 20
101.0359929078
 11
26.1739785609
 21
101.0359929078
  0
LINE
  5
250
100
AcDbEntity
  8
0
100
AcDbLine
 62
7
  6
BYLAYER
 10
27.0800101004
 20
101.0359929078
 11
27.6800101004
 21
101.0359929078
  0
LINE
  5
251
100
AcDbEntity
  8
0
100
AcDbLine
 62
7
  6
BYLAYER
 10
28.5881079152
 20
101.0359929078
 11
54.3800101004
 21
101.0359929078
  0
LINE
  5
252
100
AcDbEntity
  8
0
100
AcDbLine
 62
7
  6
BYLAYER
 10
28.0606313051
 20
101.1664279965
 11
27.6800101004
 21
101.1664279965
  0
LINE
  5
253
100
AcDbEntity
  8
0
100
AcDbLine
 62
7
  6
BYLAYER
 10
27.0800101004
 20
101.1664279965
 11
26.6993888957
 21
101.1664279965
  0
LINE
  5
254
100
AcDbEntity
  8
0
100
AcDbLine
 62
7
  6
BYLAYER
 10
24.8800101004
 20
101.5359929078
 11
29.8443149155
 21
101.5359929078
  0
LINE
  5
255
100
AcDbEntity
  8
0
100
AcDbLine
 62
7
  6
BYLAYER
 10
29.8800400711
 20
101.5359929078
 11
53.8800101004
 21
101.5359929078
  0
ARC
  5
256
100
AcDbEntity
  8
0
100
AcDbCircle
 62
7
  6
BYLAYER
 10
33.5841423559
 20
62.3859929078
 40
9.5183251081
100
AcDbArc
 50
176.6874170517
 51
183.3125829483
  0
ARC
  5
257
100
AcDbEntity
  8
0
100
AcDbCircle
 62
7
  6
BYLAYER
 10
31.8800101004
 20
62.3859929078
 40
7.9810713567
100
AcDbArc
 50
161.4338994033
 51
176.0484409787
  0
ARC
  5
258
100
AcDbEntity
  8
0
100
AcDbCircle
 62
7
  6
BYLAYER
 10
31.8800101004
 20
62.3859929078
 40
7.9810713567
100
AcDbArc
 50
183.9515590213
 51
198.5661005967
  0
ARC
  5
259
100
AcDbEntity
  8
0
100
AcDbCircle
 62
7
  6
BYLAYER
 10
27.3800101004
 20
97.2247429078
 40
4.01125
100
AcDbArc
 50
113.508065235
 51
131.3488474336
  0
ARC
  5
25A
100
AcDbEntity
  8
0
100
AcDbCircle
 62
7
  6
BYLAYER
 10
27.3800101004
 20
97.2247429078
 40
4.01125
100
AcDbArc
 50
60.0564870768
 51
66.4919347438
  0
ARC
  5
25B
100
AcDbEntity
  8
0
100
AcDbCircle
 62
7
  6
BYLAYER
 10
27.3800101004
 20
97.2247429078
 40
4.0000158203
100
AcDbArc
 50
66.6061286675
 51
80.2031904149
  0
ARC
  5
25C
100
AcDbEntity
  8
0
100
AcDbCircle
 62
7
  6
BYLAYER
 10
27.3800101004
 20
97.2247429078
 40
4.0000158203
100
AcDbArc
 50
99.7968095851
 51
113.3938713325
  0
ARC
  5
25D
100
AcDbEntity
  8
0
100
AcDbCircle
 62
7
  6
BYLAYER
 10
27.9324930112
 20
11.0951816799
 40
3.0
100
AcDbArc
 50
189.9999999893
 51
283.3958881917
  0
ARC
  5
25E
100
AcDbEntity
  8
0
100
AcDbCircle
 62
7
  6
BYLAYER
 10
28.1800101004
 20
9.6359929078
 40
3.0
100
AcDbArc
 50
170.8755471232
 51
209.9999999999
  0
ARC
  5
25F
100
AcDbEntity
  8
0
100
AcDbCircle
 62
7
  6
BYLAYER
 10
28.9104063008
 20
11.8268931612
 40
1.6000626798
100
AcDbArc
 50
117.1602268191
 51
252.2702964059
  0
ARC
  5
260
100
AcDbEntity
  8
0
100
AcDbCircle
 62
7
  6
BYLAYER
 10
28.2800101004
 20
9.6359929078
 40
1.5
100
AcDbArc
 50
283.3958901094
 51
72.2814080829
  0
ARC
  5
261
100
AcDbEntity
  8
0
100
AcDbCircle
 62
7
  6
BYLAYER
 10
30.6800101004
 20
10.6359929078
 40
1.0
100
AcDbArc
 50
0.0
 51
90.0
  0
ARC
  5
262
100
AcDbEntity
  8
0
100
AcDbCircle
 62
7
  6
BYLAYER
 10
28.9800101004
 20
11.8268831378
 40
0.8
100
AcDbArc
 50
194.6144838749
 51
252.2804307092
  0
ARC
  5
263
100
AcDbEntity
  8
0
100
AcDbCircle
 62
7
  6
BYLAYER
 10
25.1800101004
 20
55.2204710472
 40
0.8
100
AcDbArc
 50
95.0
 51
179.9999999995
  0
ARC
  5
264
100
AcDbEntity
  8
0
100
AcDbCircle
 62
7
  6
BYLAYER
 10
25.1800101004
 20
67.3204710472
 40
0.8
100
AcDbArc
 50
95.0
 51
180.0000000001
  0
ARC
  5
265
100
AcDbEntity
  8
0
100
AcDbCircle
 62
7
  6
BYLAYER
 10
25.1800101004
 20
14.0359929078
 40
0.8
100
AcDbArc
 50
180.0
 51
190.0000000001
  0
ARC
  5
266
100
AcDbEntity
  8
0
100
AcDbCircle
 62
7
  6
BYLAYER
 10
53.8800101004
 20
101.0359929078
 40
0.5
100
AcDbArc
 50
0.0
 51
90.0
  0
ARC
  5
267
100
AcDbEntity
  8
0
100
AcDbCircle
 62
7
  6
BYLAYER
 10
29.8800101004
 20
101.0359929078
 40
0.5
100
AcDbArc
 50
90.0
 51
179.9999999997
  0
ARC
  5
268
100
AcDbEntity
  8
0
100
AcDbCircle
 62
7
  6
BYLAYER
 10
24.8800101004
 20
101.0359929078
 40
0.5
100
AcDbArc
 50
90.0
 51
179.9999999995
  0
ARC
  5
269
100
AcDbEntity
  8
0
100
AcDbCircle
 62
7
  6
BYLAYER
 10
24.8800101004
 20
98.5359929078
 40
0.5
100
AcDbArc
 50
90.0
 51
180.0
  0
ARC
  5
26A
100
AcDbEntity
  8
0
100
AcDbCircle
 62
7
  6
BYLAYER
 10
24.8800101004
 20
68.9859929078
 40
0.5
100
AcDbArc
 50
180.0
 51
270.0
  0
ARC
  5
26B
100
AcDbEntity
  8
0
100
AcDbCircle
 62
7
  6
BYLAYER
 10
26.014946591
 20
8.3859929078
 40
0.5
100
AcDbArc
 50
209.9999999996
 51
270.0
  0
SPLINE
  5
26C
100
AcDbEntity
  8
0
100
AcDbSpline
 62
7
  6
BYLAYER
 70
0
 71
3
 72
23
 73
19
 74
0
 42
0.0000001
 43
0.0000001
 44
0.0000000001
 40
0.0
 40
0.0
 40
0.0
 40
0.0
 40
0.0014043572
 40
0.0050074943
 40
0.0109162998
 40
0.0191383401
 40
0.0296602392
 40
0.0424640927
 40
0.0748112941
 40
0.1159109368
 40
0.1654154615
 40
0.2229072763
 40
0.2878947078
 40
0.3598348241
 40
0.4380990284
 40
0.6108443085
 40
0.8004374459
 40
1.0
 40
1.0
 40
1.0
 40
1.0
 10
24.392163898
 20
13.8970743657
 30
0.0
 10
24.3921044136
 20
13.8974117088
 30
0.0
 10
24.3936237623
 20
13.8981068841
 30
0.0
 10
24.3957223147
 20
13.8989681738
 30
0.0
 10
24.4000806958
 20
13.9002705032
 30
0.0
 10
24.4057906637
 20
13.9018195867
 30
0.0
 10
24.4132940785
 20
13.9036894788
 30
0.0
 10
24.426493486
 20
13.9068049577
 30
0.0
 10
24.4470468805
 20
13.9113521868
 30
0.0
 10
24.4763857986
 20
13.9175442415
 30
0.0
 10
24.5117823064
 20
13.9247636057
 30
0.0
 10
24.5529259134
 20
13.9329462295
 30
0.0
 10
24.5994721719
 20
13.9420208537
 30
0.0
 10
24.6510215736
 20
13.9519083256
 30
0.0
 10
24.7284219725
 20
13.966550567
 30
0.0
 10
24.834086051
 20
13.9861752947
 30
0.0
 10
24.968924171
 20
14.0107418176
 30
0.0
 10
25.0623592888
 20
14.0274775388
 30
0.0
 10
25.1102855062
 20
14.0359929078
 30
0.0
  0
SPLINE
  5
26D
100
AcDbEntity
  8
0
100
AcDbSpline
 62
7
  6
BYLAYER
 70
0
 71
3
 72
19
 73
15
 74
0
 42
0.0000001
 43
0.0000001
 44
0.0000000001
 40
0.0
 40
0.0
 40
0.0
 40
0.0
 40
0.0093346776
 40
0.0165296016
 40
0.0257748366
 40
0.0507457852
 40
0.0845233908
 40
0.1269081681
 40
0.1775361017
 40
0.3017273303
 40
0.4522760622
 40
0.6234023668
 40
0.808615676
 40
1.0
 40
1.0
 40
1.0
 40
1.0
 10
28.7365215481
 20
11.0648293972
 30
0.0
 10
28.7340606022
 20
11.0656157948
 30
0.0
 10
28.7291245878
 20
11.0635856124
 30
0.0
 10
28.7238468226
 20
11.0590361627
 30
0.0
 10
28.7160286886
 20
11.0505168335
 30
0.0
 10
28.7053576083
 20
11.0350079722
 30
0.0
 10
28.6912519796
 20
11.01080142
 30
0.0
 10
28.6751701021
 20
10.9796042798
 30
0.0
 10
28.6494348824
 20
10.9252663139
 30
0.0
 10
28.6140896022
 20
10.8424113419
 30
0.0
 10
28.5690450789
 20
10.7275146171
 30
0.0
 10
28.520849224
 20
10.5957506528
 30
0.0
 10
28.471453463
 20
10.4524243582
 30
0.0
 10
28.4391450542
 20
10.3533219497
 30
0.0
 10
28.4231441667
 20
10.3028274828
 30
0.0
  0
SPLINE
  5
26E
100
AcDbEntity
  8
0
100
AcDbSpline
 62
7
  6
BYLAYER
 70
0
 71
3
 72
15
 73
11
 74
0
 42
0.0000001
 43
0.0000001
 44
0.0000000001
 40
0.0
 40
0.0
 40
0.0
 40
0.0
 40
0.1249487438
 40
0.2498717709
 40
0.374900282
 40
0.499976786
 40
0.6250591083
 40
0.750100193
 40
0.8750392299
 40
1.0
 40
1.0
 40
1.0
 40
1.0
 10
28.3724573967
 20
8.9550497804
 30
0.0
 10
28.4458173012
 20
8.9725316666
 30
0.0
 10
28.5875618253
 20
9.0324285095
 30
0.0
 10
28.7610553535
 20
9.1836605516
 30
0.0
 10
28.8756936386
 20
9.3835056637
 30
0.0
 10
28.9225541071
 20
9.6091647824
 30
0.0
 10
28.8927977712
 20
9.8377166656
 30
0.0
 10
28.7935053124
 20
10.0456378717
 30
0.0
 10
28.6318494783
 20
10.2094987998
 30
0.0
 10
28.4949921065
 20
10.2798871652
 30
0.0
 10
28.4231461687
 20
10.3028337992
 30
0.0
  0
SPLINE
  5
26F
100
AcDbEntity
  8
0
100
AcDbSpline
 62
7
  6
BYLAYER
 70
0
 71
3
 72
15
 73
11
 74
0
 42
0.0000001
 43
0.0000001
 44
0.0000000001
 40
0.0
 40
0.0
 40
0.0
 40
0.0
 40
0.125185492
 40
0.2503604337
 40
0.3754413908
 40
0.5004397728
 40
0.6253681191
 40
0.7502571333
 40
0.8751367595
 40
1.0
 40
1.0
 40
1.0
 40
1.0
 10
25.6962046289
 20
10.713158049
 30
0.0
 10
25.7221694575
 20
10.5660527342
 30
0.0
 10
25.8047216434
 20
10.2764159721
 30
0.0
 10
26.0127522528
 20
9.8762815046
 30
0.0
 10
26.2982490077
 20
9.5272393858
 30
0.0
 10
26.64765449
 20
9.2427410953
 30
0.0
 10
27.0475860336
 20
9.0356939329
 30
0.0
 10
27.4807862156
 20
8.9129691768
 30
0.0
 10
27.92966776
 20
8.8813039953
 30
0.0
 10
28.2275092807
 20
8.9205613623
 30
0.0
 10
28.372455737
 20
8.9550568231
 30
0.0
  0
SPLINE
  5
270
100
AcDbEntity
  8
0
100
AcDbSpline
 62
7
  6
BYLAYER
 70
0
 71
3
 72
19
 73
15
 74
0
 42
0.0000001
 43
0.0000001
 44
0.0000000001
 40
0.0
 40
0.0
 40
0.0
 40
0.0
 40
0.1929671867
 40
0.3787222496
 40
0.5496646208
 40
0.6995946646
 40
0.8230149882
 40
0.8732850118
 40
0.9153683103
 40
0.9489319704
 40
0.9738109945
 40
0.9830703558
 40
0.9903314265
 40
1.0
 40
1.0
 40
1.0
 40
1.0
 10
25.1102782008
 20
55.2204704074
 30
0.0
 10
25.1058066908
 20
55.2719712071
 30
0.0
 10
25.0978801315
 20
55.3731240141
 30
0.0
 10
25.088911119
 20
55.5201090968
 30
0.0
 10
25.0832856003
 20
55.655726403
 30
0.0
 10
25.0812119066
 20
55.7747410326
 30
0.0
 10
25.0824011379
 20
55.8614586386
 30
0.0
 10
25.0855769033
 20
55.9191844238
 30
0.0
 10
25.0886281657
 20
55.952787764
 30
0.0
 10
25.092520264
 20
55.979457724
 30
0.0
 10
25.0965620935
 20
55.9971591462
 30
0.0
 10
25.100604813
 20
56.0075820073
 30
0.0
 10
25.1038554364
 20
56.0136459913
 30
0.0
 10
25.1076979142
 20
56.0172004207
 30
0.0
 10
25.1102782007
 20
56.0174261665
 30
0.0
  0
SPLINE
  5
271
100
AcDbEntity
  8
0
100
AcDbSpline
 62
7
  6
BYLAYER
 70
0
 71
3
 72
19
 73
15
 74
0
 42
0.0000001
 43
0.0000001
 44
0.0000000001
 40
0.0
 40
0.0
 40
0.0
 40
0.0
 40
0.1929671867
 40
0.3787222496
 40
0.5496646208
 40
0.6995946646
 40
0.8230149882
 40
0.8732850118
 40
0.9153683103
 40
0.9489319704
 40
0.9738109945
 40
0.9830703558
 40
0.9903314265
 40
1.0
 40
1.0
 40
1.0
 40
1.0
 10
25.1102782008
 20
67.3204704074
 30
0.0
 10
25.1058066908
 20
67.3719712071
 30
0.0
 10
25.0978801315
 20
67.4731240141
 30
0.0
 10
25.088911119
 20
67.6201090968
 30
0.0
 10
25.0832856003
 20
67.755726403
 30
0.0
 10
25.0812119066
 20
67.8747410326
 30
0.0
 10
25.0824011379
 20
67.9614586386
 30
0.0
 10
25.0855769033
 20
68.0191844238
 30
0.0
 10
25.0886281657
 20
68.052787764
 30
0.0
 10
25.092520264
 20
68.079457724
 30
0.0
 10
25.0965620935
 20
68.0971591462
 30
0.0
 10
25.100604813
 20
68.1075820073
 30
0.0
 10
25.1038554364
 20
68.1136459913
 30
0.0
 10
25.1076979142
 20
68.1172004207
 30
0.0
 10
25.1102782007
 20
68.1174261665
 30
0.0
  0
SPLINE
  5
272
100
AcDbEntity
  8
0
100
AcDbSpline
 62
7
  6
BYLAYER
 70
0
 71
3
 72
19
 73
15
 74
0
 42
0.0000001
 43
0.0000001
 44
0.0000000001
 40
0.0
 40
0.0
 40
0.0
 40
0.0
 40
0.0085000108
 40
0.0149338867
 40
0.0232585733
 40
0.0462598195
 40
0.0785367625
 40
0.1206354004
 40
0.1722256556
 40
0.301580545
 40
0.4605978926
 40
0.6379279207
 40
0.8212767072
 40
1.0
 40
1.0
 40
1.0
 40
1.0
 10
28.6275228721
 20
8.1768244997
 30
0.0
 10
28.6252475745
 20
8.1762824755
 30
0.0
 10
28.6209115298
 20
8.1781126368
 30
0.0
 10
28.6162595458
 20
8.1823485861
 30
0.0
 10
28.6094809952
 20
8.190327995
 30
0.0
 10
28.6002999216
 20
8.2052634274
 30
0.0
 10
28.5882223583
 20
8.2292060612
 30
0.0
 10
28.5744314562
 20
8.2610200625
 30
0.0
 10
28.5520555379
 20
8.3181802484
 30
0.0
 10
28.5216176003
 20
8.4066757605
 30
0.0
 10
28.4839511027
 20
8.5291746741
 30
0.0
 10
28.4450404028
 20
8.6667973617
 30
0.0
 10
28.4074526287
 20
8.8103951534
 30
0.0
 10
28.3837722085
 20
8.907177097
 30
0.0
 10
28.3724602144
 20
8.9550381633
 30
0.0
  0
SPLINE
  5
273
100
AcDbEntity
  8
0
100
AcDbSpline
 62
7
  6
BYLAYER
 70
0
 71
3
 72
23
 73
19
 74
0
 42
0.0000001
 43
0.0000001
 44
0.0000000001
 40
0.0
 40
0.0
 40
0.0
 40
0.0
 40
0.1842405618
 40
0.369986723
 40
0.5474869977
 40
0.6297349267
 40
0.7057683721
 40
0.7743089065
 40
0.8346028889
 40
0.8860281964
 40
0.9279633834
 40
0.9599656337
 40
0.9723149705
 40
0.9823049469
 40
0.9899934312
 40
0.9954416112
 40
0.9987225456
 40
1.0
 40
1.0
 40
1.0
 40
1.0
 10
25.6961913597
 20
10.7131556931
 30
0.0
 10
25.6519456182
 20
10.7052942484
 30
0.0
 10
25.5631130298
 20
10.6893916515
 30
0.0
 10
25.4317290491
 20
10.6654949385
 30
0.0
 10
25.3248876421
 20
10.6456857854
 30
0.0
 10
25.2444072167
 20
10.630494124
 30
0.0
 10
25.1900688451
 20
10.6200929816
 30
0.0
 10
25.1410202307
 20
10.6105396199
 30
0.0
 10
25.0978972418
 20
10.6019648314
 30
0.0
 10
25.0611733852
 20
10.5944719439
 30
0.0
 10
25.0312609258
 20
10.5881521779
 30
0.0
 10
25.0107039282
 20
10.5835825671
 30
0.0
 10
24.9978263552
 20
10.5805147696
 30
0.0
 10
24.9906911559
 20
10.57871267
 30
0.0
 10
24.9853369027
 20
10.5772400937
 30
0.0
 10
24.9813186499
 20
10.576005804
 30
0.0
 10
24.9793831251
 20
10.5752078785
 30
0.0
 10
24.9780291252
 20
10.5745463772
 30
0.0
 10
24.9780832504
 20
10.5742395262
 30
0.0
  0
SPLINE
  5
274
100
AcDbEntity
  8
0
100
AcDbSpline
 62
7
  6
BYLAYER
 70
0
 71
3
 72
22
 73
18
 74
0
 42
0.0000001
 43
0.0000001
 44
0.0000000001
 40
0.0
 40
0.0
 40
0.0
 40
0.0
 40
0.0041580354
 40
0.0114586908
 40
0.0219031947
 40
0.0353851237
 40
0.05176462
 40
0.0708423223
 40
0.1162013612
 40
0.1696845735
 40
0.2297961092
 40
0.2952776443
 40
0.3650306237
 40
0.5141559452
 40
0.6718610826
 40
0.834813461
 40
1.0
 40
1.0
 40
1.0
 40
1.0
 10
29.3812138202
 20
99.0359929078
 30
0.0
 10
29.3822292981
 20
99.0359929078
 30
0.0
 10
29.3848821984
 20
99.0347487957
 30
0.0
 10
29.389380633
 20
99.0319932963
 30
0.0
 10
29.3955644116
 20
99.0274585943
 30
0.0
 10
29.4032750682
 20
99.0213623136
 30
0.0
 10
29.4124603612
 20
99.0137051349
 30
0.0
 10
29.4274087725
 20
99.0008202224
 30
0.0
 10
29.4488813825
 20
98.9816246917
 30
0.0
 10
29.4775073005
 20
98.9554042577
 30
0.0
 10
29.5095197016
 20
98.9256060963
 30
0.0
 10
29.5442649518
 20
98.8929138571
 30
0.0
 10
29.5946629048
 20
98.8451342818
 30
0.0
 10
29.6611399812
 20
98.7815793431
 30
0.0
 10
29.7438437157
 20
98.7020606379
 30
0.0
 10
29.8292492952
 20
98.6196928089
 30
0.0
 10
29.8868923474
 20
98.5640203448
 30
0.0
 10
29.9159084853
 20
98.5359929078
 30
0.0
  0
SPLINE
  5
275
100
AcDbEntity
  8
0
100
AcDbSpline
 62
7
  6
BYLAYER
 70
0
 71
3
 72
13
 73
9
 74
0
 42
0.0000001
 43
0.0000001
 44
0.0000000001
 40
0.0
 40
0.0
 40
0.0
 40
0.0
 40
0.2885495959
 40
0.5557555489
 40
0.6775964726
 40
0.7909720839
 40
0.8975439009
 40
1.0
 40
1.0
 40
1.0
 40
1.0
 10
25.2893660714
 20
101.0359929078
 30
0.0
 10
25.2893660714
 20
101.1003908081
 30
0.0
 10
25.2728942575
 20
101.2250408902
 30
0.0
 10
25.2101935759
 20
101.3658412421
 30
0.0
 10
25.1378490356
 20
101.4523992082
 30
0.0
 10
25.0771689855
 20
101.4997408294
 30
0.0
 10
25.0106749847
 20
101.5291943427
 30
0.0
 10
24.9637913396
 20
101.5359929078
 30
0.0
 10
24.9409253999
 20
101.5359929078
 30
0.0
  0
ENDSEC
  0
SECTION
  2
OBJECTS
  0
DICTIONARY
  5
C
100
AcDbDictionary
280
0
281
1
  3
ACAD_GROUP
350
D
  3
ACAD_MLINESTYLE
350
17
  3
ACAD_LAYOUT
350
1A
  3
ACAD_PLOTSETTINGS
350
19
  3
ACAD_PLOTSTYLENAME
350
E
  0
DICTIONARY
  5
D
102
{ACAD_REACTORS
330
C
102
}
100
AcDbDictionary
280
0
281
1
  0
ACDBDICTIONARYWDFLT
  5
E
102
{ACAD_REACTORS
330
C
102
}
100
AcDbDictionary
281
1
  3
Normal
350
F
100
AcDbDictionaryWithDefault
340
F
  0
DICTIONARY
  5
17
102
{ACAD_REACTORS
330
C
102
}
100
AcDbDictionary
280
0
281
1
  3
Standard
350
18
  0
DICTIONARY
  5
19
102
{ACAD_REACTORS
330
C
102
}
100
AcDbDictionary
281
1
  0
DICTIONARY
  5
1A
102
{ACAD_REACTORS
330
C
102
}
100
AcDbDictionary
281
1
  3
Model
350
276
  3
Layout1
350
277
  0
ACDBPLACEHOLDER
  5
F
102
{ACAD_REACTORS
330
E
102
}
  0
MLINESTYLE
  5
18
102
{ACAD_REACTORS
330
17
102
}
100
AcDbMlineStyle
  2
STANDARD
 70
0
  3

 62
256
 51
90.0
 52
90.0
 71
2
 49
0.5
 62
256
  6
BYLAYER
 49
-0.5
 62
256
  6
BYLAYER
  0
LAYOUT
  5
276
102
{ACAD_REACTORS
330
1A
102
}
100
AcDbPlotSettings
  1

  2
none_device
  4

  6

 40
0.0
 41
0.0
 42
0.0
 43
0.0
 44
210.0
 45
297.0
 46
0.0
 47
0.0
 48
0.0
 49
0.0
140
0.0
141
0.0
142
1.0
143
1.0
 70
1024
 72
1
 73
0
 74
0
  7

 75
0
147
1.0
148
0.0
149
0.0
100
AcDbLayout
  1
Model
 70
0
 71
0
 10
0.0
 20
0.0
 11
210.0
 21
297.0
 12
0.0
 22
0.0
 32
0.0
 14
0.0
 24
0.0
 34
0.0
 15
0.0
 25
0.0
 35
0.0
146
0.0
 13
0.0
 23
0.0
 33
0.0
 16
1.0
 26
0.0
 36
0.0
 17
0.0
 27
1.0
 37
0.0
 76
0
330
210
345
0
346
0
  0
LAYOUT
  5
277
102
{ACAD_REACTORS
330
1A
102
}
100
AcDbPlotSettings
  1

  2
none_device
  4

  6

 40
0.0
 41
0.0
 42
0.0
 43
0.0
 44
210.0
 45
297.0
 46
0.0
 47
0.0
 48
0.0
 49
0.0
140
0.0
141
0.0
142
1.0
143
1.0
 70
0
 72
1
 73
0
 74
0
  7

 75
0
147
1.0
148
0.0
149
0.0
100
AcDbLayout
  1
Layout1
 70
0
 71
1
 10
0.0
 20
0.0
 11
210.0
 21
297.0
 12
0.0
 22
0.0
 32
0.0
 14
0.0
 24
0.0
 34
0.0
 15
0.0
 25
0.0
 35
0.0
146
0.0
 13
0.0
 23
0.0
 33
0.0
 16
1.0
 26
0.0
 36
0.0
 17
0.0
 27
1.0
 37
0.0
 76
0
330
211
345
0
346
0
  0
ENDSEC
  0
EOF
