999
DXF file: C:\Users\sesa63760\Dev\_Creo\CAD\MCADUE0003362_3D-CAD\drw0001_3.dxf
999
Pro/ENGINEER 2019471 by Parametric Technology Corporation
  0
SECTION
  2
HEADER
  9
$ACADVER
  1
AC1024
  9
$DWGCODEPAGE
  3
ANSI_1252
  9
$EXTMAX
 10
1221.493339189
 20
1727.5405797101
 30
0.0
  9
$EXTMIN
 10
0.0
 20
0.0
 30
0.0
  9
$LIMMIN
 10
0.0
 20
0.0
  9
$LIMMAX
 10
1221.493339189
 20
1727.5405797101
  9
$VIEWCTR
 10
610.7466695945
 20
863.7702898551
  9
$VIEWSIZE
 40
1727.5405797101
  9
$CLAYER
  8
0
  9
$LTSCALE
 40
112.6100526033
  9
$CELTYPE
  6
BYLAYER
  9
$DIMSCALE
 40
1.0
  9
$DIMASZ
 40
14.5415873713
  9
$DIMEXO
 40
1.0
  9
$DIMDLI
 40
77.8033090714
  9
$DIMEXE
 40
1.0
  9
$DIMCEN
 40
18.4270995169
  9
$DIMLFAC
 40
1.0
  9
$DIMBLK
  1
_FILLED
  9
$DIMALT
 70
0
  9
$DIMALTF
 40
0.0393700787
  9
$DIMTXT
 40
20.3582223198
  9
$DIMTOL
 70
1
  9
$DIMLIM
 70
0
  9
$DIMTFAC
 40
1.0
  9
$DIMTP
 40
0.01
  9
$DIMTM
 40
0.01
  9
$DIMGAP
 40
0.625
  9
$DIMDSEP
 70
46
  9
$AUNITS
 70
0
  9
$PDMODE
 70
3
  9
$PDSIZE
 40
0.3125
  9
$HANDSEED
  5
27F
  9
$TILEMODE
 70
1
  9
$MEASUREMENT
 70
1
  9
$INSUNITS
 70
4
  0
ENDSEC
  0
SECTION
  2
CLASSES
  0
CLASS
  1
ACDBDICTIONARYWDFLT
  2
AcDbDictionaryWithDefault
  3
AutoCAD 2000
 90
0
 91
1
280
0
281
0
  0
CLASS
  1
ACDBPLACEHOLDER
  2
AcDbPlaceHolder
  3
AutoCAD 2000
 90
0
 91
1
280
0
281
0
  0
CLASS
  1
LAYOUT
  2
AcDbLayout
  3
AutoCAD 2000
 90
0
 91
0
280
0
281
0
  0
ENDSEC
  0
SECTION
  2
TABLES
  0
TABLE
  2
VPORT
  5
8
100
AcDbSymbolTable
 70
2
  0
VPORT
  5
1F4
100
AcDbSymbolTableRecord
100
AcDbViewportTableRecord
  2
*ACTIVE
 70
0
 10
0.0
 20
0.0
 11
1.0
 21
1.0
 12
610.7466695945
 22
863.7702898551
 13
0.0
 23
0.0
 14
1.0
 24
1.0
 15
0.0
 25
0.0
 16
0.0
 26
0.0
 36
1.0
 17
0.0
 27
0.0
 37
0.0
 40
1727.5405797101
 41
0.7070707071
 42
50.0
 43
0.0
 44
0.0
 50
0.0
 51
0.0
 71
0
 72
100
 73
1
 74
1
 75
0
 76
0
 77
0
 78
0
  0
ENDTAB
  0
TABLE
  2
LTYPE
  5
5
100
AcDbSymbolTable
 70
6
  0
LTYPE
  5
14
100
AcDbSymbolTableRecord
100
AcDbLinetypeTableRecord
  2
BYBLOCK
 70
0
  3

 72
65
 73
0
 40
0.0
  0
LTYPE
  5
15
100
AcDbSymbolTableRecord
100
AcDbLinetypeTableRecord
  2
BYLAYER
 70
0
  3

 72
65
 73
0
 40
0.0
  0
LTYPE
  5
16
100
AcDbSymbolTableRecord
100
AcDbLinetypeTableRecord
  2
CONTINUOUS
 70
64
  3
Solid line
 72
65
 73
0
 40
0.0
  0
LTYPE
  5
1F5
100
AcDbSymbolTableRecord
100
AcDbLinetypeTableRecord
  2
CENTER
 70
64
  3
____ _ ____ _ ____ _ ____ _ ____ _ ____ _ ____
 72
65
 73
4
 40
0.6
 49
0.375
 74
0
 49
-0.075
 74
0
 49
0.075
 74
0
 49
-0.075
 74
0
  0
LTYPE
  5
1F6
100
AcDbSymbolTableRecord
100
AcDbLinetypeTableRecord
  2
HIDDEN
 70
64
  3
- - - - - - - - - - - - - - - - - - - -
 72
65
 73
2
 40
0.2
 49
0.1
 74
0
 49
-0.1
 74
0
  0
LTYPE
  5
1F7
100
AcDbSymbolTableRecord
100
AcDbLinetypeTableRecord
  2
PHANTOM
 70
64
  3
_____ _ _ _____ _ _ _____ _ _ _____
 72
65
 73
6
 40
0.8
 49
0.45
 74
0
 49
-0.05
 74
0
 49
0.1
 74
0
 49
-0.05
 74
0
 49
0.1
 74
0
 49
-0.05
 74
0
  0
LTYPE
  5
1F8
100
AcDbSymbolTableRecord
100
AcDbLinetypeTableRecord
  2
DOT
 70
64
  3
. . . . . . . . . . . . . . . . . . . .
 72
65
 73
2
 40
0.2
 49
0.1
 74
0
 49
-0.1
 74
0
  0
LTYPE
  5
1F9
100
AcDbSymbolTableRecord
100
AcDbLinetypeTableRecord
  2
DASHED
 70
64
  3
- - - - - - - - - - - - - - - - - - - -
 72
65
 73
2
 40
0.2
 49
0.1
 74
0
 49
-0.1
 74
0
  0
ENDTAB
  0
TABLE
  2
LAYER
  5
2
100
AcDbSymbolTable
 70
36
  0
LAYER
  5
10
100
AcDbSymbolTableRecord
100
AcDbLayerTableRecord
  2
0
 70
0
 62
7
  6
CONTINUOUS
370
-3
390
F
  0
LAYER
  5
1FA
100
AcDbSymbolTableRecord
100
AcDbLayerTableRecord
  2
DEFAULT_1
 70
0
 62
7
  6
CENTER
370
-3
390
F
  0
LAYER
  5
1FB
100
AcDbSymbolTableRecord
100
AcDbLayerTableRecord
  2
DEFAULT_2
 70
0
 62
8
  6
HIDDEN
370
-3
390
F
  0
LAYER
  5
1FC
100
AcDbSymbolTableRecord
100
AcDbLayerTableRecord
  2
DEFAULT_3
 70
0
 62
7
  6
PHANTOM
370
-3
390
F
  0
LAYER
  5
1FD
100
AcDbSymbolTableRecord
100
AcDbLayerTableRecord
  2
00_COMPONENTS
 70
0
 62
7
  6
CONTINUOUS
370
-3
390
F
  0
LAYER
  5
1FE
100
AcDbSymbolTableRecord
100
AcDbLayerTableRecord
  2
01_1_DEFAULT_DATUMS
 70
0
 62
7
  6
CONTINUOUS
370
-3
390
F
  0
LAYER
  5
1FF
100
AcDbSymbolTableRecord
100
AcDbLayerTableRecord
  2
01_PLANES
 70
0
 62
7
  6
CONTINUOUS
370
-3
390
F
  0
LAYER
  5
200
100
AcDbSymbolTableRecord
100
AcDbLayerTableRecord
  2
02_COORD_SYS
 70
0
 62
7
  6
CONTINUOUS
370
-3
390
F
  0
LAYER
  5
201
100
AcDbSymbolTableRecord
100
AcDbLayerTableRecord
  2
03_AXES
 70
0
 62
7
  6
CONTINUOUS
370
-3
390
F
  0
LAYER
  5
202
100
AcDbSymbolTableRecord
100
AcDbLayerTableRecord
  2
04_POINTS
 70
0
 62
7
  6
CONTINUOUS
370
-3
390
F
  0
LAYER
  5
203
100
AcDbSymbolTableRecord
100
AcDbLayerTableRecord
  2
05_CURVES
 70
0
 62
7
  6
CONTINUOUS
370
-3
390
F
  0
LAYER
  5
204
100
AcDbSymbolTableRecord
100
AcDbLayerTableRecord
  2
06_SURFS
 70
0
 62
7
  6
CONTINUOUS
370
-3
390
F
  0
LAYER
  5
205
100
AcDbSymbolTableRecord
100
AcDbLayerTableRecord
  2
07_COSMETICS
 70
0
 62
7
  6
CONTINUOUS
370
-3
390
F
  0
LAYER
  5
206
100
AcDbSymbolTableRecord
100
AcDbLayerTableRecord
  2
10_NOTES
 70
0
 62
7
  6
CONTINUOUS
370
-3
390
F
  0
LAYER
  5
207
100
AcDbSymbolTableRecord
100
AcDbLayerTableRecord
  2
11_NOTES_PUB
 70
0
 62
7
  6
CONTINUOUS
370
-3
390
F
  0
LAYER
  5
208
100
AcDbSymbolTableRecord
100
AcDbLayerTableRecord
  2
13_REF_GTOL
 70
0
 62
7
  6
CONTINUOUS
370
-3
390
F
  0
LAYER
  5
209
100
AcDbSymbolTableRecord
100
AcDbLayerTableRecord
  2
16_MISC
 70
0
 62
7
  6
CONTINUOUS
370
-3
390
F
  0
LAYER
  5
20A
100
AcDbSymbolTableRecord
100
AcDbLayerTableRecord
  2
17_NO_PRINT
 70
0
 62
7
  6
CONTINUOUS
370
-3
390
F
  0
LAYER
  5
20B
100
AcDbSymbolTableRecord
100
AcDbLayerTableRecord
  2
18_DATUM_CAMS_JOINTS
 70
0
 62
7
  6
CONTINUOUS
370
-3
390
F
  0
LAYER
  5
20C
100
AcDbSymbolTableRecord
100
AcDbLayerTableRecord
  2
19_DATUM_FUNCTIONAL
 70
0
 62
7
  6
CONTINUOUS
370
-3
390
F
  0
LAYER
  5
20D
100
AcDbSymbolTableRecord
100
AcDbLayerTableRecord
  2
20_DATUM_KINEMATIC_SCHEME
 70
0
 62
7
  6
CONTINUOUS
370
-3
390
F
  0
ENDTAB
  0
TABLE
  2
STYLE
  5
3
100
AcDbSymbolTable
 70
1
  0
STYLE
  5
11
100
AcDbSymbolTableRecord
100
AcDbTextStyleTableRecord
  2
STANDARD
 70
0
 40
0.0
 41
0.8
 50
0.0
 71
0
 42
0.2
  3
txt
  4

  0
STYLE
  5
20E
100
AcDbSymbolTableRecord
100
AcDbTextStyleTableRecord
  2
TEXTSTYLE_1
 70
0
 40
0.0
 41
0.8
 50
0.0
 71
0
 42
0.2
  3
gdt
  4

  0
ENDTAB
  0
TABLE
  2
VIEW
  5
6
100
AcDbSymbolTable
 70
0
  0
ENDTAB
  0
TABLE
  2
UCS
  5
7
100
AcDbSymbolTable
 70
0
  0
ENDTAB
  0
TABLE
  2
APPID
  5
9
100
AcDbSymbolTable
 70
1
  0
APPID
  5
20F
100
AcDbSymbolTableRecord
100
AcDbRegAppTableRecord
  2
ACAD
 70
0
  0
ENDTAB
  0
TABLE
  2
BLOCK_RECORD
  5
1
100
AcDbSymbolTable
 70
0
  0
BLOCK_RECORD
  5
210
100
AcDbSymbolTableRecord
100
AcDbBlockTableRecord
  2
*Model_Space
  0
BLOCK_RECORD
  5
211
100
AcDbSymbolTableRecord
100
AcDbBlockTableRecord
  2
*Paper_Space
  0
BLOCK_RECORD
  5
212
100
AcDbSymbolTableRecord
100
AcDbBlockTableRecord
  2
_FILLED
  0
ENDTAB
  0
TABLE
  2
DIMSTYLE
  5
A
100
AcDbSymbolTable
 70
1
100
AcDbDimStyleTable
 71
0
  0
DIMSTYLE
105
213
100
AcDbSymbolTableRecord
100
AcDbDimStyleTableRecord
  2
STANDARD
 70
0
  3

  4

 40
1.0
 41
14.5415873713
 42
1.0
 43
0.38
 44
1.0
 45
0.0
 46
0.0
 47
0.01
 48
0.01
140
20.3582223198
141
0.09
142
0.0
143
25.4
144
1.0
145
0.0
146
1.0
147
0.625
 71
1
 72
0
 73
0
 74
0
 75
0
 76
0
 77
1
 78
8
 79
2
170
0
171
1
172
0
173
0
174
0
175
0
176
0
177
0
178
0
270
2
179
2
271
2
272
2
273
2
274
2
275
0
280
0
281
0
282
0
283
1
284
8
285
0
286
0
287
3
288
0
340
11
278
46
341
212
342
212
343
212
344
212
  0
ENDTAB
  0
ENDSEC
  0
SECTION
  2
BLOCKS
  0
BLOCK
  5
20
100
AcDbEntity
  8
0
100
AcDbBlockBegin
  2
*Model_Space
 70
0
 10
0.0
 20
0.0
 30
0.0
  3
*Model_Space
  1

  0
ENDBLK
  5
21
100
AcDbEntity
  8
0
100
AcDbBlockEnd
  0
BLOCK
  5
1C
100
AcDbEntity
  8
0
100
AcDbBlockBegin
  2
*Paper_Space
 70
0
 10
0.0
 20
0.0
 30
0.0
  3
*Paper_Space
  1

  0
ENDBLK
  5
1D
100
AcDbEntity
  8
0
100
AcDbBlockEnd
  0
BLOCK
  5
214
100
AcDbEntity
  8
0
100
AcDbBlockBegin
  2
_FILLED
 70
64
 10
0.0
 20
0.0
  3
_FILLED
  1

  0
SOLID
  5
215
100
AcDbEntity
  8
0
  6
BYBLOCK
 62
0
100
AcDbTrace
 10
0.0
 20
0.0
 11
-1.0
 21
0.25
 12
-1.0
 22
-0.25
 13
-1.0
 23
-0.25
  0
ENDBLK
  5
216
100
AcDbEntity
  8
0
  6
BYBLOCK
 62
0
100
AcDbBlockEnd
  0
ENDSEC
  0
SECTION
  2
ENTITIES
  0
LINE
  5
217
100
AcDbEntity
  8
0
100
AcDbLine
 62
7
  6
CONTINUOUS
 10
629.8284767561
 20
138.4992753623
 11
632.8284767561
 21
138.4992753623
  0
LINE
  5
218
100
AcDbEntity
  8
0
100
AcDbLine
 62
7
  6
CONTINUOUS
 10
621.3284767561
 20
145.4992753623
 11
641.3284767561
 21
145.4992753623
  0
LINE
  5
219
100
AcDbEntity
  8
0
100
AcDbLine
 62
7
  6
CONTINUOUS
 10
618.3284767561
 20
161.4992753623
 11
634.8284767561
 21
161.4992753623
  0
LINE
  5
21A
100
AcDbEntity
  8
0
100
AcDbLine
 62
7
  6
CONTINUOUS
 10
618.3284767561
 20
170.4992753623
 11
615.728476756
 21
170.4992753623
  0
LINE
  5
21B
100
AcDbEntity
  8
0
100
AcDbLine
 62
7
  6
CONTINUOUS
 10
622.8284767561
 20
173.4992753623
 11
627.3284767561
 21
173.4992753623
  0
LINE
  5
21C
100
AcDbEntity
  8
0
100
AcDbLine
 62
7
  6
CONTINUOUS
 10
614.1057352644
 20
174.7492753623
 11
614.1643661948
 21
174.7492753623
  0
LINE
  5
21D
100
AcDbEntity
  8
0
100
AcDbLine
 62
7
  6
CONTINUOUS
 10
614.1643661948
 20
178.2492753623
 11
614.0552774179
 21
178.2492753623
  0
LINE
  5
21E
100
AcDbEntity
  8
0
100
AcDbLine
 62
7
  6
CONTINUOUS
 10
622.8284767561
 20
179.4992753623
 11
627.3284767561
 21
179.4992753623
  0
LINE
  5
21F
100
AcDbEntity
  8
0
100
AcDbLine
 62
7
  6
CONTINUOUS
 10
615.728476756
 20
182.4992753623
 11
618.3284767561
 21
182.4992753623
  0
LINE
  5
220
100
AcDbEntity
  8
0
100
AcDbLine
 62
7
  6
CONTINUOUS
 10
618.3284767561
 20
191.4992753623
 11
634.8284767561
 21
191.4992753623
  0
LINE
  5
221
100
AcDbEntity
  8
0
100
AcDbLine
 62
7
  6
CONTINUOUS
 10
625.8284767561
 20
1593.4992753623
 11
629.8284767561
 21
1597.4992753623
  0
LINE
  5
222
100
AcDbEntity
  8
0
100
AcDbLine
 62
7
  6
CONTINUOUS
 10
629.8284767561
 20
138.4992753623
 11
625.8284767561
 21
142.4992753623
  0
LINE
  5
223
100
AcDbEntity
  8
0
100
AcDbLine
 62
7
  6
CONTINUOUS
 10
636.3284767561
 20
1545.9992753623
 11
634.8284767561
 21
1544.4992753623
  0
LINE
  5
224
100
AcDbEntity
  8
0
100
AcDbLine
 62
7
  6
CONTINUOUS
 10
634.8284767561
 20
191.4992753623
 11
636.3284767561
 21
189.9992753623
  0
LINE
  5
225
100
AcDbEntity
  8
0
100
AcDbLine
 62
7
  6
CONTINUOUS
 10
614.1643661948
 20
1562.2492753623
 11
614.2207603016
 21
1562.4699996779
  0
LINE
  5
226
100
AcDbEntity
  8
0
100
AcDbLine
 62
7
  6
CONTINUOUS
 10
614.2282669214
 20
173.4992753623
 11
614.1643661948
 21
173.7492753623
  0
LINE
  5
227
100
AcDbEntity
  8
0
100
AcDbLine
 62
7
  6
CONTINUOUS
 10
615.728476756
 20
1565.4992753623
 11
615.728476756
 21
1553.4992753623
  0
LINE
  5
228
100
AcDbEntity
  8
0
100
AcDbLine
 62
7
  6
CONTINUOUS
 10
615.728476756
 20
182.4992753623
 11
615.728476756
 21
170.4992753623
  0
LINE
  5
229
100
AcDbEntity
  8
0
100
AcDbLine
 62
7
  6
CONTINUOUS
 10
618.3284767561
 20
161.4992753623
 11
618.3284767561
 21
191.4992753623
  0
LINE
  5
22A
100
AcDbEntity
  8
0
100
AcDbLine
 62
7
  6
CONTINUOUS
 10
618.3284767561
 20
1544.4992753623
 11
618.3284767561
 21
1574.4992753623
  0
LINE
  5
22B
100
AcDbEntity
  8
0
100
AcDbLine
 62
7
  6
CONTINUOUS
 10
621.3284767561
 20
145.4992753623
 11
621.3284767561
 21
161.4992753623
  0
LINE
  5
22C
100
AcDbEntity
  8
0
100
AcDbLine
 62
7
  6
CONTINUOUS
 10
621.3284767561
 20
191.4992753623
 11
621.3284767561
 21
1544.4992753623
  0
LINE
  5
22D
100
AcDbEntity
  8
0
100
AcDbLine
 62
7
  6
CONTINUOUS
 10
621.3284767561
 20
1574.4992753623
 11
621.3284767561
 21
1590.4992753623
  0
LINE
  5
22E
100
AcDbEntity
  8
0
100
AcDbLine
 62
7
  6
CONTINUOUS
 10
622.8284767561
 20
1562.4992753623
 11
622.8284767561
 21
1556.4992753623
  0
LINE
  5
22F
100
AcDbEntity
  8
0
100
AcDbLine
 62
7
  6
CONTINUOUS
 10
622.8284767561
 20
179.4992753623
 11
622.8284767561
 21
173.4992753623
  0
LINE
  5
230
100
AcDbEntity
  8
0
100
AcDbLine
 62
7
  6
CONTINUOUS
 10
623.3284767561
 20
1574.4992753623
 11
623.3284767561
 21
1544.4992753623
  0
LINE
  5
231
100
AcDbEntity
  8
0
100
AcDbLine
 62
7
  6
CONTINUOUS
 10
623.3284767561
 20
191.4992753623
 11
623.3284767561
 21
161.4992753623
  0
LINE
  5
232
100
AcDbEntity
  8
0
100
AcDbLine
 62
7
  6
CONTINUOUS
 10
624.3284767561
 20
1590.4992753623
 11
624.3284767561
 21
1574.4992753623
  0
LINE
  5
233
100
AcDbEntity
  8
0
100
AcDbLine
 62
7
  6
CONTINUOUS
 10
624.3284767561
 20
1544.4992753623
 11
624.3284767561
 21
191.4992753623
  0
LINE
  5
234
100
AcDbEntity
  8
0
100
AcDbLine
 62
7
  6
CONTINUOUS
 10
624.3284767561
 20
161.4992753623
 11
624.3284767561
 21
145.4992753623
  0
LINE
  5
235
100
AcDbEntity
  8
0
100
AcDbLine
 62
7
  6
CONTINUOUS
 10
625.8284767561
 20
1593.4992753623
 11
625.8284767561
 21
1590.4992753623
  0
LINE
  5
236
100
AcDbEntity
  8
0
100
AcDbLine
 62
7
  6
CONTINUOUS
 10
625.8284767561
 20
142.4992753623
 11
625.8284767561
 21
145.4992753623
  0
LINE
  5
237
100
AcDbEntity
  8
0
100
AcDbLine
 62
7
  6
CONTINUOUS
 10
627.3284767561
 20
1562.4992753623
 11
627.3284767561
 21
1556.4992753623
  0
LINE
  5
238
100
AcDbEntity
  8
0
100
AcDbLine
 62
7
  6
CONTINUOUS
 10
627.3284767561
 20
179.4992753623
 11
627.3284767561
 21
173.4992753623
  0
LINE
  5
239
100
AcDbEntity
  8
0
100
AcDbLine
 62
7
  6
CONTINUOUS
 10
636.3284767561
 20
1572.9992753623
 11
636.3284767561
 21
1545.9992753623
  0
LINE
  5
23A
100
AcDbEntity
  8
0
100
AcDbLine
 62
7
  6
CONTINUOUS
 10
636.3284767561
 20
189.9992753623
 11
636.3284767561
 21
162.9992753623
  0
LINE
  5
23B
100
AcDbEntity
  8
0
100
AcDbLine
 62
7
  6
CONTINUOUS
 10
636.8284767561
 20
142.4992753623
 11
636.8284767561
 21
145.4992753623
  0
LINE
  5
23C
100
AcDbEntity
  8
0
100
AcDbLine
 62
7
  6
CONTINUOUS
 10
636.8284767561
 20
1590.4992753623
 11
636.8284767561
 21
1593.4992753623
  0
LINE
  5
23D
100
AcDbEntity
  8
0
100
AcDbLine
 62
7
  6
CONTINUOUS
 10
638.3284767561
 20
145.4992753623
 11
638.3284767561
 21
1590.4992753623
  0
LINE
  5
23E
100
AcDbEntity
  8
0
100
AcDbLine
 62
7
  6
CONTINUOUS
 10
641.3284767561
 20
1590.4992753623
 11
641.3284767561
 21
145.4992753623
  0
LINE
  5
23F
100
AcDbEntity
  8
0
100
AcDbLine
 62
7
  6
CONTINUOUS
 10
614.1643661948
 20
179.2492753623
 11
614.2207603017
 21
179.4699996779
  0
LINE
  5
240
100
AcDbEntity
  8
0
100
AcDbLine
 62
7
  6
CONTINUOUS
 10
614.2282669214
 20
1556.4992753623
 11
614.1643661948
 21
1556.7492753623
  0
LINE
  5
241
100
AcDbEntity
  8
0
100
AcDbLine
 62
7
  6
CONTINUOUS
 10
636.3284767561
 20
162.9992753623
 11
634.8284767561
 21
161.4992753623
  0
LINE
  5
242
100
AcDbEntity
  8
0
100
AcDbLine
 62
7
  6
CONTINUOUS
 10
636.8284767561
 20
142.4992753623
 11
632.8284767561
 21
138.4992753623
  0
LINE
  5
243
100
AcDbEntity
  8
0
100
AcDbLine
 62
7
  6
CONTINUOUS
 10
634.8284767561
 20
1574.4992753623
 11
636.3284767561
 21
1572.9992753623
  0
LINE
  5
244
100
AcDbEntity
  8
0
100
AcDbLine
 62
7
  6
CONTINUOUS
 10
632.8284767561
 20
1597.4992753623
 11
636.8284767561
 21
1593.4992753623
  0
LINE
  5
245
100
AcDbEntity
  8
0
100
AcDbLine
 62
7
  6
CONTINUOUS
 10
618.3284767561
 20
1544.4992753623
 11
634.8284767561
 21
1544.4992753623
  0
LINE
  5
246
100
AcDbEntity
  8
0
100
AcDbLine
 62
7
  6
CONTINUOUS
 10
618.3284767561
 20
1553.4992753623
 11
615.728476756
 21
1553.4992753623
  0
LINE
  5
247
100
AcDbEntity
  8
0
100
AcDbLine
 62
7
  6
CONTINUOUS
 10
622.8284767561
 20
1556.4992753623
 11
627.3284767561
 21
1556.4992753623
  0
LINE
  5
248
100
AcDbEntity
  8
0
100
AcDbLine
 62
7
  6
CONTINUOUS
 10
614.1057352644
 20
1557.7492753623
 11
614.1643661948
 21
1557.7492753623
  0
LINE
  5
249
100
AcDbEntity
  8
0
100
AcDbLine
 62
7
  6
CONTINUOUS
 10
614.1643661948
 20
1561.2492753623
 11
614.0552774179
 21
1561.2492753623
  0
LINE
  5
24A
100
AcDbEntity
  8
0
100
AcDbLine
 62
7
  6
CONTINUOUS
 10
622.8284767561
 20
1562.4992753623
 11
627.3284767561
 21
1562.4992753623
  0
LINE
  5
24B
100
AcDbEntity
  8
0
100
AcDbLine
 62
7
  6
CONTINUOUS
 10
615.728476756
 20
1565.4992753623
 11
618.3284767561
 21
1565.4992753623
  0
LINE
  5
24C
100
AcDbEntity
  8
0
100
AcDbLine
 62
7
  6
CONTINUOUS
 10
618.3284767561
 20
1574.4992753623
 11
634.8284767561
 21
1574.4992753623
  0
LINE
  5
24D
100
AcDbEntity
  8
0
100
AcDbLine
 62
7
  6
CONTINUOUS
 10
641.3284767561
 20
1590.4992753623
 11
621.3284767561
 21
1590.4992753623
  0
LINE
  5
24E
100
AcDbEntity
  8
0
100
AcDbLine
 62
7
  6
CONTINUOUS
 10
632.8284767561
 20
1597.4992753623
 11
629.8284767561
 21
1597.4992753623
  0
ARC
  5
24F
100
AcDbEntity
  8
0
100
AcDbCircle
 62
7
  6
CONTINUOUS
 10
623.9771130074
 20
1559.4992753623
 40
10.2000000004
100
AcDbArc
 50
143.9681209292
 51
162.8953648241
  0
ARC
  5
250
100
AcDbEntity
  8
0
100
AcDbCircle
 62
7
  6
CONTINUOUS
 10
623.9771130074
 20
1559.4992753623
 40
10.2000000004
100
AcDbArc
 50
197.1046351759
 51
216.0318790707
  0
ARC
  5
251
100
AcDbEntity
  8
0
100
AcDbCircle
 62
7
  6
CONTINUOUS
 10
623.9771130074
 20
176.4992753623
 40
10.2000000004
100
AcDbArc
 50
197.1046351759
 51
216.0318790707
  0
ARC
  5
252
100
AcDbEntity
  8
0
100
AcDbCircle
 62
7
  6
CONTINUOUS
 10
623.9771130074
 20
176.4992753623
 40
10.2000000004
100
AcDbArc
 50
143.9681209292
 51
162.8953648241
  0
ARC
  5
253
100
AcDbEntity
  8
0
100
AcDbCircle
 62
7
  6
CONTINUOUS
 10
621.5875598561
 20
177.3581826422
 40
7.6602895382
100
AcDbArc
 50
165.7076509426
 51
169.4171320061
  0
ARC
  5
254
100
AcDbEntity
  8
0
100
AcDbCircle
 62
7
  6
CONTINUOUS
 10
621.5875598446
 20
1560.3581826448
 40
7.6602895264
100
AcDbArc
 50
165.7076509409
 51
169.4171320068
  0
ARC
  5
255
100
AcDbEntity
  8
0
100
AcDbCircle
 62
7
  6
CONTINUOUS
 10
621.5240077128
 20
1560.3678298574
 40
7.5960693363
100
AcDbArc
 50
169.4109310764
 51
171.4338338321
  0
ARC
  5
256
100
AcDbEntity
  8
0
100
AcDbCircle
 62
7
  6
CONTINUOUS
 10
621.5240077103
 20
177.3678298578
 40
7.5960693338
100
AcDbArc
 50
169.4109310761
 51
171.4338338325
  0
SPLINE
  5
257
100
AcDbEntity
  8
0
100
AcDbSpline
 62
7
  6
CONTINUOUS
 70
0
 71
3
 72
9
 73
5
 74
0
 42
0.0000001
 43
0.0000001
 44
0.0000000001
 40
0.0
 40
0.0
 40
0.0
 40
0.0
 40
0.5001022945
 40
1.0
 40
1.0
 40
1.0
 40
1.0
 10
614.1643661948
 20
173.7492753623
 30
0.0
 10
614.1542812125
 20
173.7888599136
 30
0.0
 10
614.1341163269
 20
173.8680128319
 30
0.0
 10
614.114854823
 20
173.9473959162
 30
0.0
 10
614.1056813769
 20
173.987184438
 30
0.0
  0
SPLINE
  5
258
100
AcDbEntity
  8
0
100
AcDbSpline
 62
7
  6
CONTINUOUS
 70
0
 71
3
 72
9
 73
5
 74
0
 42
0.0000001
 43
0.0000001
 44
0.0000000001
 40
0.0
 40
0.0
 40
0.0
 40
0.0
 40
0.5005512992
 40
1.0
 40
1.0
 40
1.0
 40
1.0
 10
614.1056813769
 20
173.987184438
 30
0.0
 10
614.0960202725
 20
174.0290881085
 30
0.0
 10
614.0777265971
 20
174.113041704
 30
0.0
 10
614.0625514316
 20
174.1976356118
 30
0.0
 10
614.0560357328
 20
174.2400462498
 30
0.0
  0
SPLINE
  5
259
100
AcDbEntity
  8
0
100
AcDbSpline
 62
7
  6
CONTINUOUS
 70
0
 71
3
 72
9
 73
5
 74
0
 42
0.0000001
 43
0.0000001
 44
0.0000000001
 40
0.0
 40
0.0
 40
0.0
 40
0.0
 40
0.4995618531
 40
1.0
 40
1.0
 40
1.0
 40
1.0
 10
614.0560357328
 20
174.2400462498
 30
0.0
 10
614.0494400119
 20
174.282977751
 30
0.0
 10
614.0384147484
 20
174.3692722869
 30
0.0
 10
614.0329415049
 20
174.4561319729
 30
0.0
 10
614.0318693772
 20
174.4996301614
 30
0.0
  0
SPLINE
  5
25A
100
AcDbEntity
  8
0
100
AcDbSpline
 62
7
  6
CONTINUOUS
 70
0
 71
3
 72
9
 73
5
 74
0
 42
0.0000001
 43
0.0000001
 44
0.0000000001
 40
0.0
 40
0.0
 40
0.0
 40
0.0
 40
0.5646445277
 40
1.0
 40
1.0
 40
1.0
 40
1.0
 10
614.0126762442
 20
174.4992753623
 30
0.0
 10
614.0071253493
 20
174.536149723
 30
0.0
 10
613.9983855425
 20
174.6014881043
 30
0.0
 10
613.9905616326
 20
174.6673957936
 30
0.0
 10
613.9912270908
 20
174.6961395055
 30
0.0
  0
SPLINE
  5
25B
100
AcDbEntity
  8
0
100
AcDbSpline
 62
7
  6
CONTINUOUS
 70
0
 71
3
 72
9
 73
5
 74
0
 42
0.0000001
 43
0.0000001
 44
0.0000000001
 40
0.0
 40
0.0
 40
0.0
 40
0.0
 40
0.3075447534
 40
1.0
 40
1.0
 40
1.0
 40
1.0
 10
613.9912270908
 20
174.6961395055
 30
0.0
 10
613.9913956763
 20
174.7034213664
 30
0.0
 10
614.0030152579
 20
174.7378653785
 30
0.0
 10
614.0158735275
 20
174.688578621
 30
0.0
 10
614.0219221566
 20
174.6733348697
 30
0.0
  0
SPLINE
  5
25C
100
AcDbEntity
  8
0
100
AcDbSpline
 62
7
  6
CONTINUOUS
 70
0
 71
3
 72
9
 73
5
 74
0
 42
0.0000001
 43
0.0000001
 44
0.0000000001
 40
0.0
 40
0.0
 40
0.0
 40
0.0
 40
0.3375504942
 40
1.0
 40
1.0
 40
1.0
 40
1.0
 10
614.1643661948
 20
174.7492753623
 30
0.0
 10
614.178865869
 20
174.7492753623
 30
0.0
 10
614.2103759122
 20
174.7921527773
 30
0.0
 10
614.2155094296
 20
174.8320716435
 30
0.0
 10
614.2196875066
 20
174.8602191431
 30
0.0
  0
SPLINE
  5
25D
100
AcDbEntity
  8
0
100
AcDbSpline
 62
7
  6
CONTINUOUS
 70
0
 71
3
 72
9
 73
5
 74
0
 42
0.0000001
 43
0.0000001
 44
0.0000000001
 40
0.0
 40
0.0
 40
0.0
 40
0.0
 40
0.4473439212
 40
1.0
 40
1.0
 40
1.0
 40
1.0
 10
614.2196875066
 20
174.8602191431
 30
0.0
 10
614.2258934266
 20
174.902028121
 30
0.0
 10
614.2303849901
 20
174.9967679126
 30
0.0
 10
614.2263797199
 20
175.0912219438
 30
0.0
 10
614.2221651471
 20
175.1432690035
 30
0.0
  0
SPLINE
  5
25E
100
AcDbEntity
  8
0
100
AcDbSpline
 62
7
  6
CONTINUOUS
 70
0
 71
3
 72
8
 73
4
 74
0
 42
0.0000001
 43
0.0000001
 44
0.0000000001
 40
0.0
 40
0.0
 40
0.0
 40
0.0
 40
1.0
 40
1.0
 40
1.0
 40
1.0
 10
614.2221651471
 20
175.1432690035
 30
0.0
 10
614.2124617404
 20
175.2630993658
 30
0.0
 10
614.1940472572
 20
175.3827742621
 30
0.0
 10
614.1643661948
 20
175.4992753623
 30
0.0
  0
SPLINE
  5
25F
100
AcDbEntity
  8
0
100
AcDbSpline
 62
7
  6
CONTINUOUS
 70
0
 71
3
 72
9
 73
5
 74
0
 42
0.0000001
 43
0.0000001
 44
0.0000000001
 40
0.0
 40
0.0
 40
0.0
 40
0.0
 40
0.5001212129
 40
1.0
 40
1.0
 40
1.0
 40
1.0
 10
614.1643661948
 20
175.4992753623
 30
0.0
 10
614.1538861308
 20
175.5404106481
 30
0.0
 10
614.1329291904
 20
175.6226605011
 30
0.0
 10
614.1129858435
 20
175.705168683
 30
0.0
 10
614.1035293529
 20
175.7465301597
 30
0.0
  0
SPLINE
  5
260
100
AcDbEntity
  8
0
100
AcDbSpline
 62
7
  6
CONTINUOUS
 70
0
 71
3
 72
9
 73
5
 74
0
 42
0.0000001
 43
0.0000001
 44
0.0000000001
 40
0.0
 40
0.0
 40
0.0
 40
0.0
 40
0.5005440442
 40
1.0
 40
1.0
 40
1.0
 40
1.0
 10
614.1035293529
 20
175.7465301597
 30
0.0
 10
614.0940419536
 20
175.7880268276
 30
0.0
 10
614.076117276
 20
175.8711718788
 30
0.0
 10
614.0613315727
 20
175.954952921
 30
0.0
 10
614.0550088406
 20
175.9969545636
 30
0.0
  0
SPLINE
  5
261
100
AcDbEntity
  8
0
100
AcDbSpline
 62
7
  6
CONTINUOUS
 70
0
 71
3
 72
9
 73
5
 74
0
 42
0.0000001
 43
0.0000001
 44
0.0000000001
 40
0.0
 40
0.0
 40
0.0
 40
0.0
 40
0.4995366167
 40
1.0
 40
1.0
 40
1.0
 40
1.0
 10
614.0550088406
 20
175.9969545636
 30
0.0
 10
614.0487171265
 20
176.0387501552
 30
0.0
 10
614.0382238082
 20
176.1227556779
 30
0.0
 10
614.0330417389
 20
176.2072880559
 30
0.0
 10
614.0320339787
 20
176.249620979
 30
0.0
  0
SPLINE
  5
262
100
AcDbEntity
  8
0
100
AcDbSpline
 62
7
  6
CONTINUOUS
 70
0
 71
3
 72
8
 73
4
 74
0
 42
0.0000001
 43
0.0000001
 44
0.0000000001
 40
0.0
 40
0.0
 40
0.0
 40
0.0
 40
1.0
 40
1.0
 40
1.0
 40
1.0
 10
614.0126762442
 20
176.2492753623
 30
0.0
 10
613.9960049481
 20
176.3600220794
 30
0.0
 10
613.9804761985
 20
176.4741530857
 30
0.0
 10
613.9971474945
 20
176.5848998028
 30
0.0
  0
SPLINE
  5
263
100
AcDbEntity
  8
0
100
AcDbSpline
 62
7
  6
CONTINUOUS
 70
0
 71
3
 72
9
 73
5
 74
0
 42
0.0000001
 43
0.0000001
 44
0.0000000001
 40
0.0
 40
0.0
 40
0.0
 40
0.0
 40
0.5404006445
 40
1.0
 40
1.0
 40
1.0
 40
1.0
 10
613.9971474945
 20
176.5848998028
 30
0.0
 10
613.9993541846
 20
176.5995587517
 30
0.0
 10
614.0048516387
 20
176.6264954335
 30
0.0
 10
614.0151780941
 20
176.6522706414
 30
0.0
 10
614.0217211611
 20
176.6630474544
 30
0.0
  0
SPLINE
  5
264
100
AcDbEntity
  8
0
100
AcDbSpline
 62
7
  6
CONTINUOUS
 70
0
 71
3
 72
8
 73
4
 74
0
 42
0.0000001
 43
0.0000001
 44
0.0000000001
 40
0.0
 40
0.0
 40
0.0
 40
0.0
 40
1.0
 40
1.0
 40
1.0
 40
1.0
 10
614.0126762441
 20
176.7492753623
 30
0.0
 10
614.0378517913
 20
176.9165154606
 30
0.0
 10
614.0631091666
 20
177.084314146
 30
0.0
 10
614.1048633112
 20
177.2482032855
 30
0.0
  0
SPLINE
  5
265
100
AcDbEntity
  8
0
100
AcDbSpline
 62
7
  6
CONTINUOUS
 70
0
 71
3
 72
9
 73
5
 74
0
 42
0.0000001
 43
0.0000001
 44
0.0000000001
 40
0.0
 40
0.0
 40
0.0
 40
0.0
 40
0.4980106419
 40
1.0
 40
1.0
 40
1.0
 40
1.0
 10
614.1048633112
 20
177.2482032855
 30
0.0
 10
614.1154307213
 20
177.2896814134
 30
0.0
 10
614.1387591737
 20
177.3724526128
 30
0.0
 10
614.1672285172
 20
177.4536319837
 30
0.0
 10
614.1829860578
 20
177.4937965986
 30
0.0
  0
SPLINE
  5
266
100
AcDbEntity
  8
0
100
AcDbSpline
 62
7
  6
CONTINUOUS
 70
0
 71
3
 72
8
 73
4
 74
0
 42
0.0000001
 43
0.0000001
 44
0.0000000001
 40
0.0
 40
0.0
 40
0.0
 40
0.0
 40
1.0
 40
1.0
 40
1.0
 40
1.0
 10
614.1643661948
 20
177.4992753623
 30
0.0
 10
614.2164793008
 20
177.7038244483
 30
0.0
 10
614.2489439139
 20
177.9207923288
 30
0.0
 10
614.2208641872
 20
178.1299994829
 30
0.0
  0
SPLINE
  5
267
100
AcDbEntity
  8
0
100
AcDbSpline
 62
7
  6
CONTINUOUS
 70
0
 71
3
 72
9
 73
5
 74
0
 42
0.0000001
 43
0.0000001
 44
0.0000000001
 40
0.0
 40
0.0
 40
0.0
 40
0.0
 40
0.665873782
 40
1.0
 40
1.0
 40
1.0
 40
1.0
 10
614.2208641872
 20
178.1299994829
 30
0.0
 10
614.2168175227
 20
178.1601490342
 30
0.0
 10
614.2119881535
 20
178.2022382249
 30
0.0
 10
614.1796304834
 20
178.2492753623
 30
0.0
 10
614.1643661948
 20
178.2492753623
 30
0.0
  0
SPLINE
  5
268
100
AcDbEntity
  8
0
100
AcDbSpline
 62
7
  6
CONTINUOUS
 70
0
 71
3
 72
9
 73
5
 74
0
 42
0.0000001
 43
0.0000001
 44
0.0000000001
 40
0.0
 40
0.0
 40
0.0
 40
0.0
 40
0.2291686051
 40
1.0
 40
1.0
 40
1.0
 40
1.0
 10
614.0126762442
 20
178.2492753623
 30
0.0
 10
614.0036490933
 20
178.2492753623
 30
0.0
 10
613.9778955616
 20
178.2926710407
 30
0.0
 10
613.992226603
 20
178.329862178
 30
0.0
 10
613.9967464908
 20
178.359887602
 30
0.0
  0
SPLINE
  5
269
100
AcDbEntity
  8
0
100
AcDbSpline
 62
7
  6
CONTINUOUS
 70
0
 71
3
 72
9
 73
5
 74
0
 42
0.0000001
 43
0.0000001
 44
0.0000000001
 40
0.0
 40
0.0
 40
0.0
 40
0.0
 40
0.437339413
 40
1.0
 40
1.0
 40
1.0
 40
1.0
 10
613.9967464908
 20
178.359887602
 30
0.0
 10
613.999478864
 20
178.3780386415
 30
0.0
 10
614.0071335441
 20
178.4193284593
 30
0.0
 10
614.0165098439
 20
178.4602469171
 30
0.0
 10
614.0221039582
 20
178.4831901675
 30
0.0
  0
SPLINE
  5
26A
100
AcDbEntity
  8
0
100
AcDbSpline
 62
7
  6
CONTINUOUS
 70
0
 71
3
 72
9
 73
5
 74
0
 42
0.0000001
 43
0.0000001
 44
0.0000000001
 40
0.0
 40
0.0
 40
0.0
 40
0.0
 40
0.2905567697
 40
1.0
 40
1.0
 40
1.0
 40
1.0
 10
614.0126762442
 20
1561.2492753623
 30
0.0
 10
614.0065981925
 20
1561.2492753623
 30
0.0
 10
613.9876504257
 20
1561.265585205
 30
0.0
 10
613.9908287968
 20
1561.2885577379
 30
0.0
 10
613.9911870174
 20
1561.3033939996
 30
0.0
  0
SPLINE
  5
26B
100
AcDbEntity
  8
0
100
AcDbSpline
 62
7
  6
CONTINUOUS
 70
0
 71
3
 72
9
 73
5
 74
0
 42
0.0000001
 43
0.0000001
 44
0.0000000001
 40
0.0
 40
0.0
 40
0.0
 40
0.0
 40
0.3818628998
 40
1.0
 40
1.0
 40
1.0
 40
1.0
 10
613.9911870174
 20
1561.3033939996
 30
0.0
 10
613.9917481888
 20
1561.3266357881
 30
0.0
 10
614.0000275935
 20
1561.3872005062
 30
0.0
 10
614.0131891997
 20
1561.4466278945
 30
0.0
 10
614.0221039582
 20
1561.4831901675
 30
0.0
  0
SPLINE
  5
26C
100
AcDbEntity
  8
0
100
AcDbSpline
 62
7
  6
CONTINUOUS
 70
0
 71
3
 72
8
 73
4
 74
0
 42
0.0000001
 43
0.0000001
 44
0.0000000001
 40
0.0
 40
0.0
 40
0.0
 40
0.0
 40
1.0
 40
1.0
 40
1.0
 40
1.0
 10
614.1643661948
 20
1560.4992753623
 30
0.0
 10
614.2164793008
 20
1560.7038244483
 30
0.0
 10
614.2489439139
 20
1560.9207923288
 30
0.0
 10
614.2208641872
 20
1561.1299994829
 30
0.0
  0
SPLINE
  5
26D
100
AcDbEntity
  8
0
100
AcDbSpline
 62
7
  6
CONTINUOUS
 70
0
 71
3
 72
9
 73
5
 74
0
 42
0.0000001
 43
0.0000001
 44
0.0000000001
 40
0.0
 40
0.0
 40
0.0
 40
0.0
 40
0.665873782
 40
1.0
 40
1.0
 40
1.0
 40
1.0
 10
614.2208641872
 20
1561.1299994829
 30
0.0
 10
614.2168175227
 20
1561.1601490342
 30
0.0
 10
614.2119881535
 20
1561.2022382249
 30
0.0
 10
614.1796304834
 20
1561.2492753623
 30
0.0
 10
614.1643661948
 20
1561.2492753623
 30
0.0
  0
SPLINE
  5
26E
100
AcDbEntity
  8
0
100
AcDbSpline
 62
7
  6
CONTINUOUS
 70
0
 71
3
 72
8
 73
4
 74
0
 42
0.0000001
 43
0.0000001
 44
0.0000000001
 40
0.0
 40
0.0
 40
0.0
 40
0.0
 40
1.0
 40
1.0
 40
1.0
 40
1.0
 10
614.0126762441
 20
1559.7492753623
 30
0.0
 10
614.0378517913
 20
1559.9165154606
 30
0.0
 10
614.0631091666
 20
1560.084314146
 30
0.0
 10
614.1048633112
 20
1560.2482032855
 30
0.0
  0
SPLINE
  5
26F
100
AcDbEntity
  8
0
100
AcDbSpline
 62
7
  6
CONTINUOUS
 70
0
 71
3
 72
9
 73
5
 74
0
 42
0.0000001
 43
0.0000001
 44
0.0000000001
 40
0.0
 40
0.0
 40
0.0
 40
0.0
 40
0.4980106419
 40
1.0
 40
1.0
 40
1.0
 40
1.0
 10
614.1048633112
 20
1560.2482032855
 30
0.0
 10
614.1154307213
 20
1560.2896814134
 30
0.0
 10
614.1387591737
 20
1560.3724526128
 30
0.0
 10
614.1672285172
 20
1560.4536319837
 30
0.0
 10
614.1829860578
 20
1560.4937965986
 30
0.0
  0
SPLINE
  5
270
100
AcDbEntity
  8
0
100
AcDbSpline
 62
7
  6
CONTINUOUS
 70
0
 71
3
 72
9
 73
5
 74
0
 42
0.0000001
 43
0.0000001
 44
0.0000000001
 40
0.0
 40
0.0
 40
0.0
 40
0.0
 40
0.4833772463
 40
1.0
 40
1.0
 40
1.0
 40
1.0
 10
614.0126762442
 20
1559.2492753623
 30
0.0
 10
614.0066367229
 20
1559.2893956473
 30
0.0
 10
613.9960294189
 20
1559.3726722021
 30
0.0
 10
613.9909165977
 20
1559.4566317708
 30
0.0
 10
613.9912501838
 20
1559.4999932719
 30
0.0
  0
SPLINE
  5
271
100
AcDbEntity
  8
0
100
AcDbSpline
 62
7
  6
CONTINUOUS
 70
0
 71
3
 72
9
 73
5
 74
0
 42
0.0000001
 43
0.0000001
 44
0.0000000001
 40
0.0
 40
0.0
 40
0.0
 40
0.0
 40
0.5589427479
 40
1.0
 40
1.0
 40
1.0
 40
1.0
 10
613.9912501838
 20
1559.4999932719
 30
0.0
 10
613.9914896834
 20
1559.5311248453
 30
0.0
 10
613.9945760648
 20
1559.5865587966
 30
0.0
 10
614.0089717326
 20
1559.6420484019
 30
0.0
 10
614.0217211611
 20
1559.6630474544
 30
0.0
  0
SPLINE
  5
272
100
AcDbEntity
  8
0
100
AcDbSpline
 62
7
  6
CONTINUOUS
 70
0
 71
3
 72
9
 73
5
 74
0
 42
0.0000001
 43
0.0000001
 44
0.0000000001
 40
0.0
 40
0.0
 40
0.0
 40
0.0
 40
0.5001212129
 40
1.0
 40
1.0
 40
1.0
 40
1.0
 10
614.1643661948
 20
1558.4992753623
 30
0.0
 10
614.1538861308
 20
1558.5404106481
 30
0.0
 10
614.1329291904
 20
1558.6226605011
 30
0.0
 10
614.1129858435
 20
1558.705168683
 30
0.0
 10
614.1035293529
 20
1558.7465301597
 30
0.0
  0
SPLINE
  5
273
100
AcDbEntity
  8
0
100
AcDbSpline
 62
7
  6
CONTINUOUS
 70
0
 71
3
 72
9
 73
5
 74
0
 42
0.0000001
 43
0.0000001
 44
0.0000000001
 40
0.0
 40
0.0
 40
0.0
 40
0.0
 40
0.5005440442
 40
1.0
 40
1.0
 40
1.0
 40
1.0
 10
614.1035293529
 20
1558.7465301597
 30
0.0
 10
614.0940419536
 20
1558.7880268276
 30
0.0
 10
614.076117276
 20
1558.8711718788
 30
0.0
 10
614.0613315727
 20
1558.954952921
 30
0.0
 10
614.0550088406
 20
1558.9969545636
 30
0.0
  0
SPLINE
  5
274
100
AcDbEntity
  8
0
100
AcDbSpline
 62
7
  6
CONTINUOUS
 70
0
 71
3
 72
9
 73
5
 74
0
 42
0.0000001
 43
0.0000001
 44
0.0000000001
 40
0.0
 40
0.0
 40
0.0
 40
0.0
 40
0.4995366167
 40
1.0
 40
1.0
 40
1.0
 40
1.0
 10
614.0550088406
 20
1558.9969545636
 30
0.0
 10
614.0487171265
 20
1559.0387501552
 30
0.0
 10
614.0382238082
 20
1559.1227556779
 30
0.0
 10
614.0330417389
 20
1559.2072880559
 30
0.0
 10
614.0320339787
 20
1559.249620979
 30
0.0
  0
SPLINE
  5
275
100
AcDbEntity
  8
0
100
AcDbSpline
 62
7
  6
CONTINUOUS
 70
0
 71
3
 72
9
 73
5
 74
0
 42
0.0000001
 43
0.0000001
 44
0.0000000001
 40
0.0
 40
0.0
 40
0.0
 40
0.0
 40
0.3375504942
 40
1.0
 40
1.0
 40
1.0
 40
1.0
 10
614.1643661948
 20
1557.7492753623
 30
0.0
 10
614.178865869
 20
1557.7492753623
 30
0.0
 10
614.2103759122
 20
1557.7921527773
 30
0.0
 10
614.2155094296
 20
1557.8320716435
 30
0.0
 10
614.2196875066
 20
1557.8602191431
 30
0.0
  0
SPLINE
  5
276
100
AcDbEntity
  8
0
100
AcDbSpline
 62
7
  6
CONTINUOUS
 70
0
 71
3
 72
9
 73
5
 74
0
 42
0.0000001
 43
0.0000001
 44
0.0000000001
 40
0.0
 40
0.0
 40
0.0
 40
0.0
 40
0.4473439212
 40
1.0
 40
1.0
 40
1.0
 40
1.0
 10
614.2196875066
 20
1557.8602191431
 30
0.0
 10
614.2258934266
 20
1557.902028121
 30
0.0
 10
614.2303849901
 20
1557.9967679126
 30
0.0
 10
614.2263797199
 20
1558.0912219438
 30
0.0
 10
614.2221651471
 20
1558.1432690035
 30
0.0
  0
SPLINE
  5
277
100
AcDbEntity
  8
0
100
AcDbSpline
 62
7
  6
CONTINUOUS
 70
0
 71
3
 72
8
 73
4
 74
0
 42
0.0000001
 43
0.0000001
 44
0.0000000001
 40
0.0
 40
0.0
 40
0.0
 40
0.0
 40
1.0
 40
1.0
 40
1.0
 40
1.0
 10
614.2221651471
 20
1558.1432690035
 30
0.0
 10
614.2124617404
 20
1558.2630993657
 30
0.0
 10
614.1940472572
 20
1558.3827742621
 30
0.0
 10
614.1643661948
 20
1558.4992753623
 30
0.0
  0
SPLINE
  5
278
100
AcDbEntity
  8
0
100
AcDbSpline
 62
7
  6
CONTINUOUS
 70
0
 71
3
 72
9
 73
5
 74
0
 42
0.0000001
 43
0.0000001
 44
0.0000000001
 40
0.0
 40
0.0
 40
0.0
 40
0.0
 40
0.5646445278
 40
1.0
 40
1.0
 40
1.0
 40
1.0
 10
614.0126762442
 20
1557.4992753623
 30
0.0
 10
614.0071253493
 20
1557.536149723
 30
0.0
 10
613.9983855425
 20
1557.6014881043
 30
0.0
 10
613.9905616326
 20
1557.6673957937
 30
0.0
 10
613.9912270908
 20
1557.6961395055
 30
0.0
  0
SPLINE
  5
279
100
AcDbEntity
  8
0
100
AcDbSpline
 62
7
  6
CONTINUOUS
 70
0
 71
3
 72
9
 73
5
 74
0
 42
0.0000001
 43
0.0000001
 44
0.0000000001
 40
0.0
 40
0.0
 40
0.0
 40
0.0
 40
0.3075447532
 40
1.0
 40
1.0
 40
1.0
 40
1.0
 10
613.9912270908
 20
1557.6961395055
 30
0.0
 10
613.9913956763
 20
1557.7034213665
 30
0.0
 10
614.0030152579
 20
1557.7378653785
 30
0.0
 10
614.0158735275
 20
1557.688578621
 30
0.0
 10
614.0219221566
 20
1557.6733348697
 30
0.0
  0
SPLINE
  5
27A
100
AcDbEntity
  8
0
100
AcDbSpline
 62
7
  6
CONTINUOUS
 70
0
 71
3
 72
9
 73
5
 74
0
 42
0.0000001
 43
0.0000001
 44
0.0000000001
 40
0.0
 40
0.0
 40
0.0
 40
0.0
 40
0.5001022945
 40
1.0
 40
1.0
 40
1.0
 40
1.0
 10
614.1643661948
 20
1556.7492753623
 30
0.0
 10
614.1542812125
 20
1556.7888599136
 30
0.0
 10
614.1341163269
 20
1556.8680128319
 30
0.0
 10
614.114854823
 20
1556.9473959162
 30
0.0
 10
614.1056813769
 20
1556.987184438
 30
0.0
  0
SPLINE
  5
27B
100
AcDbEntity
  8
0
100
AcDbSpline
 62
7
  6
CONTINUOUS
 70
0
 71
3
 72
9
 73
5
 74
0
 42
0.0000001
 43
0.0000001
 44
0.0000000001
 40
0.0
 40
0.0
 40
0.0
 40
0.0
 40
0.5005651635
 40
1.0
 40
1.0
 40
1.0
 40
1.0
 10
614.1056813769
 20
1556.987184438
 30
0.0
 10
614.0957307751
 20
1557.0303437621
 30
0.0
 10
614.0769203771
 20
1557.1168182742
 30
0.0
 10
614.0614536112
 20
1557.2039768108
 30
0.0
 10
614.0548753395
 20
1557.2476759921
 30
0.0
  0
SPLINE
  5
27C
100
AcDbEntity
  8
0
100
AcDbSpline
 62
7
  6
CONTINUOUS
 70
0
 71
3
 72
9
 73
5
 74
0
 42
0.0000001
 43
0.0000001
 44
0.0000000001
 40
0.0
 40
0.0
 40
0.0
 40
0.0
 40
0.499546512
 40
1.0
 40
1.0
 40
1.0
 40
1.0
 10
614.0548753395
 20
1557.2476759921
 30
0.0
 10
614.0486010628
 20
1557.2893557481
 30
0.0
 10
614.0381252358
 20
1557.3731247468
 30
0.0
 10
614.0329098297
 20
1557.4574170947
 30
0.0
 10
614.0318693772
 20
1557.4996301614
 30
0.0
  0
ENDSEC
  0
SECTION
  2
OBJECTS
  0
DICTIONARY
  5
C
100
AcDbDictionary
280
0
281
1
  3
ACAD_GROUP
350
D
  3
ACAD_MLINESTYLE
350
17
  3
ACAD_LAYOUT
350
1A
  3
ACAD_PLOTSETTINGS
350
19
  3
ACAD_PLOTSTYLENAME
350
E
  0
DICTIONARY
  5
D
102
{ACAD_REACTORS
330
C
102
}
100
AcDbDictionary
280
0
281
1
  0
ACDBDICTIONARYWDFLT
  5
E
102
{ACAD_REACTORS
330
C
102
}
100
AcDbDictionary
281
1
  3
Normal
350
F
100
AcDbDictionaryWithDefault
340
F
  0
DICTIONARY
  5
17
102
{ACAD_REACTORS
330
C
102
}
100
AcDbDictionary
280
0
281
1
  3
Standard
350
18
  0
DICTIONARY
  5
19
102
{ACAD_REACTORS
330
C
102
}
100
AcDbDictionary
281
1
  0
DICTIONARY
  5
1A
102
{ACAD_REACTORS
330
C
102
}
100
AcDbDictionary
281
1
  3
Model
350
27D
  3
Layout1
350
27E
  0
ACDBPLACEHOLDER
  5
F
102
{ACAD_REACTORS
330
E
102
}
  0
MLINESTYLE
  5
18
102
{ACAD_REACTORS
330
17
102
}
100
AcDbMlineStyle
  2
STANDARD
 70
0
  3

 62
256
 51
90.0
 52
90.0
 71
2
 49
0.5
 62
256
  6
BYLAYER
 49
-0.5
 62
256
  6
BYLAYER
  0
LAYOUT
  5
27D
102
{ACAD_REACTORS
330
1A
102
}
100
AcDbPlotSettings
  1

  2
none_device
  4

  6

 40
0.0
 41
0.0
 42
0.0
 43
0.0
 44
210.0
 45
297.0
 46
0.0
 47
0.0
 48
0.0
 49
0.0
140
0.0
141
0.0
142
1.0
143
1.0
 70
1024
 72
1
 73
0
 74
0
  7

 75
0
147
1.0
148
0.0
149
0.0
100
AcDbLayout
  1
Model
 70
0
 71
0
 10
0.0
 20
0.0
 11
210.0
 21
297.0
 12
0.0
 22
0.0
 32
0.0
 14
0.0
 24
0.0
 34
0.0
 15
0.0
 25
0.0
 35
0.0
146
0.0
 13
0.0
 23
0.0
 33
0.0
 16
1.0
 26
0.0
 36
0.0
 17
0.0
 27
1.0
 37
0.0
 76
0
330
210
345
0
346
0
  0
LAYOUT
  5
27E
102
{ACAD_REACTORS
330
1A
102
}
100
AcDbPlotSettings
  1

  2
none_device
  4

  6

 40
0.0
 41
0.0
 42
0.0
 43
0.0
 44
210.0
 45
297.0
 46
0.0
 47
0.0
 48
0.0
 49
0.0
140
0.0
141
0.0
142
1.0
143
1.0
 70
0
 72
1
 73
0
 74
0
  7

 75
0
147
1.0
148
0.0
149
0.0
100
AcDbLayout
  1
Layout1
 70
0
 71
1
 10
0.0
 20
0.0
 11
210.0
 21
297.0
 12
0.0
 22
0.0
 32
0.0
 14
0.0
 24
0.0
 34
0.0
 15
0.0
 25
0.0
 35
0.0
146
0.0
 13
0.0
 23
0.0
 33
0.0
 16
1.0
 26
0.0
 36
0.0
 17
0.0
 27
1.0
 37
0.0
 76
0
330
211
345
0
346
0
  0
ENDSEC
  0
EOF
