999
DXF file: C:\Users\sesa63760\Dev\_Creo\CAD\MCADID0003806_3D-CAD\drw0001_3.dxf
999
Pro/ENGINEER 2019471 by Parametric Technology Corporation
  0
SECTION
  2
HEADER
  9
$ACADVER
  1
AC1024
  9
$DWGCODEPAGE
  3
ANSI_1252
  9
$EXTMAX
 10
77.4840360123
 20
109.5845652174
 30
0.0
  9
$EXTMIN
 10
0.0
 20
0.0
 30
0.0
  9
$LIMMIN
 10
0.0
 20
0.0
  9
$LIMMAX
 10
77.4840360123
 20
109.5845652174
  9
$VIEWCTR
 10
38.7420180061
 20
54.7922826087
  9
$VIEWSIZE
 40
109.5845652174
  9
$CLAYER
  8
0
  9
$LTSCALE
 40
7.1432901771
  9
$CELTYPE
  6
BYLAYER
  9
$DIMSCALE
 40
1.0
  9
$DIMASZ
 40
0.9224290001
  9
$DIMEXO
 40
1.0
  9
$DIMDLI
 40
4.9353641224
  9
$DIMEXE
 40
1.0
  9
$DIMCEN
 40
1.168902029
  9
$DIMLFAC
 40
1.0
  9
$DIMBLK
  1
_FILLED
  9
$DIMALT
 70
0
  9
$DIMALTF
 40
0.0393700787
  9
$DIMTXT
 40
1.2914006002
  9
$DIMTOL
 70
1
  9
$DIMLIM
 70
0
  9
$DIMTFAC
 40
1.0
  9
$DIMTP
 40
0.01
  9
$DIMTM
 40
0.01
  9
$DIMGAP
 40
0.625
  9
$DIMDSEP
 70
46
  9
$AUNITS
 70
0
  9
$PDMODE
 70
3
  9
$PDSIZE
 40
0.3125
  9
$HANDSEED
  5
2A6
  9
$TILEMODE
 70
1
  9
$MEASUREMENT
 70
1
  9
$INSUNITS
 70
4
  0
ENDSEC
  0
SECTION
  2
CLASSES
  0
CLASS
  1
ACDBDICTIONARYWDFLT
  2
AcDbDictionaryWithDefault
  3
AutoCAD 2000
 90
0
 91
1
280
0
281
0
  0
CLASS
  1
ACDBPLACEHOLDER
  2
AcDbPlaceHolder
  3
AutoCAD 2000
 90
0
 91
1
280
0
281
0
  0
CLASS
  1
LAYOUT
  2
AcDbLayout
  3
AutoCAD 2000
 90
0
 91
0
280
0
281
0
  0
ENDSEC
  0
SECTION
  2
TABLES
  0
TABLE
  2
VPORT
  5
8
100
AcDbSymbolTable
 70
2
  0
VPORT
  5
1F4
100
AcDbSymbolTableRecord
100
AcDbViewportTableRecord
  2
*ACTIVE
 70
0
 10
0.0
 20
0.0
 11
1.0
 21
1.0
 12
38.7420180061
 22
54.7922826087
 13
0.0
 23
0.0
 14
1.0
 24
1.0
 15
0.0
 25
0.0
 16
0.0
 26
0.0
 36
1.0
 17
0.0
 27
0.0
 37
0.0
 40
109.5845652174
 41
0.7070707071
 42
50.0
 43
0.0
 44
0.0
 50
0.0
 51
0.0
 71
0
 72
100
 73
1
 74
1
 75
0
 76
0
 77
0
 78
0
  0
ENDTAB
  0
TABLE
  2
LTYPE
  5
5
100
AcDbSymbolTable
 70
6
  0
LTYPE
  5
14
100
AcDbSymbolTableRecord
100
AcDbLinetypeTableRecord
  2
BYBLOCK
 70
0
  3

 72
65
 73
0
 40
0.0
  0
LTYPE
  5
15
100
AcDbSymbolTableRecord
100
AcDbLinetypeTableRecord
  2
BYLAYER
 70
0
  3

 72
65
 73
0
 40
0.0
  0
LTYPE
  5
16
100
AcDbSymbolTableRecord
100
AcDbLinetypeTableRecord
  2
CONTINUOUS
 70
64
  3
Solid line
 72
65
 73
0
 40
0.0
  0
LTYPE
  5
1F5
100
AcDbSymbolTableRecord
100
AcDbLinetypeTableRecord
  2
CENTER
 70
64
  3
____ _ ____ _ ____ _ ____ _ ____ _ ____ _ ____
 72
65
 73
4
 40
0.6
 49
0.375
 74
0
 49
-0.075
 74
0
 49
0.075
 74
0
 49
-0.075
 74
0
  0
LTYPE
  5
1F6
100
AcDbSymbolTableRecord
100
AcDbLinetypeTableRecord
  2
HIDDEN
 70
64
  3
- - - - - - - - - - - - - - - - - - - -
 72
65
 73
2
 40
0.2
 49
0.1
 74
0
 49
-0.1
 74
0
  0
LTYPE
  5
1F7
100
AcDbSymbolTableRecord
100
AcDbLinetypeTableRecord
  2
PHANTOM
 70
64
  3
_____ _ _ _____ _ _ _____ _ _ _____
 72
65
 73
6
 40
0.8
 49
0.45
 74
0
 49
-0.05
 74
0
 49
0.1
 74
0
 49
-0.05
 74
0
 49
0.1
 74
0
 49
-0.05
 74
0
  0
LTYPE
  5
1F8
100
AcDbSymbolTableRecord
100
AcDbLinetypeTableRecord
  2
DOT
 70
64
  3
. . . . . . . . . . . . . . . . . . . .
 72
65
 73
2
 40
0.2
 49
0.1
 74
0
 49
-0.1
 74
0
  0
LTYPE
  5
1F9
100
AcDbSymbolTableRecord
100
AcDbLinetypeTableRecord
  2
DASHED
 70
64
  3
- - - - - - - - - - - - - - - - - - - -
 72
65
 73
2
 40
0.2
 49
0.1
 74
0
 49
-0.1
 74
0
  0
ENDTAB
  0
TABLE
  2
LAYER
  5
2
100
AcDbSymbolTable
 70
36
  0
LAYER
  5
10
100
AcDbSymbolTableRecord
100
AcDbLayerTableRecord
  2
0
 70
0
 62
7
  6
CONTINUOUS
370
-3
390
F
  0
LAYER
  5
1FA
100
AcDbSymbolTableRecord
100
AcDbLayerTableRecord
  2
DEFAULT_1
 70
0
 62
7
  6
CENTER
370
-3
390
F
  0
LAYER
  5
1FB
100
AcDbSymbolTableRecord
100
AcDbLayerTableRecord
  2
DEFAULT_2
 70
0
 62
7
  6
HIDDEN
370
-3
390
F
  0
LAYER
  5
1FC
100
AcDbSymbolTableRecord
100
AcDbLayerTableRecord
  2
DEFAULT_3
 70
0
 62
7
  6
PHANTOM
370
-3
390
F
  0
LAYER
  5
1FD
100
AcDbSymbolTableRecord
100
AcDbLayerTableRecord
  2
00_COMPONENTS
 70
0
 62
7
  6
CONTINUOUS
370
-3
390
F
  0
LAYER
  5
1FE
100
AcDbSymbolTableRecord
100
AcDbLayerTableRecord
  2
01_1_DEFAULT_DATUMS
 70
0
 62
7
  6
CONTINUOUS
370
-3
390
F
  0
LAYER
  5
1FF
100
AcDbSymbolTableRecord
100
AcDbLayerTableRecord
  2
01_PLANES
 70
0
 62
7
  6
CONTINUOUS
370
-3
390
F
  0
LAYER
  5
200
100
AcDbSymbolTableRecord
100
AcDbLayerTableRecord
  2
02_COORD_SYS
 70
0
 62
7
  6
CONTINUOUS
370
-3
390
F
  0
LAYER
  5
201
100
AcDbSymbolTableRecord
100
AcDbLayerTableRecord
  2
03_AXES
 70
0
 62
7
  6
CONTINUOUS
370
-3
390
F
  0
LAYER
  5
202
100
AcDbSymbolTableRecord
100
AcDbLayerTableRecord
  2
04_POINTS
 70
0
 62
7
  6
CONTINUOUS
370
-3
390
F
  0
LAYER
  5
203
100
AcDbSymbolTableRecord
100
AcDbLayerTableRecord
  2
05_CURVES
 70
0
 62
7
  6
CONTINUOUS
370
-3
390
F
  0
LAYER
  5
204
100
AcDbSymbolTableRecord
100
AcDbLayerTableRecord
  2
06_SURFS
 70
0
 62
7
  6
CONTINUOUS
370
-3
390
F
  0
LAYER
  5
205
100
AcDbSymbolTableRecord
100
AcDbLayerTableRecord
  2
07_COSMETICS
 70
0
 62
7
  6
CONTINUOUS
370
-3
390
F
  0
LAYER
  5
206
100
AcDbSymbolTableRecord
100
AcDbLayerTableRecord
  2
10_NOTES
 70
0
 62
7
  6
CONTINUOUS
370
-3
390
F
  0
LAYER
  5
207
100
AcDbSymbolTableRecord
100
AcDbLayerTableRecord
  2
11_NOTES_PUB
 70
0
 62
7
  6
CONTINUOUS
370
-3
390
F
  0
LAYER
  5
208
100
AcDbSymbolTableRecord
100
AcDbLayerTableRecord
  2
13_REF_GTOL
 70
0
 62
7
  6
CONTINUOUS
370
-3
390
F
  0
LAYER
  5
209
100
AcDbSymbolTableRecord
100
AcDbLayerTableRecord
  2
16_MISC
 70
0
 62
7
  6
CONTINUOUS
370
-3
390
F
  0
LAYER
  5
20A
100
AcDbSymbolTableRecord
100
AcDbLayerTableRecord
  2
17_NO_PRINT
 70
0
 62
7
  6
CONTINUOUS
370
-3
390
F
  0
LAYER
  5
20B
100
AcDbSymbolTableRecord
100
AcDbLayerTableRecord
  2
18_DATUM_CAMS_JOINTS
 70
0
 62
7
  6
CONTINUOUS
370
-3
390
F
  0
LAYER
  5
20C
100
AcDbSymbolTableRecord
100
AcDbLayerTableRecord
  2
19_DATUM_FUNCTIONAL
 70
0
 62
7
  6
CONTINUOUS
370
-3
390
F
  0
LAYER
  5
20D
100
AcDbSymbolTableRecord
100
AcDbLayerTableRecord
  2
20_DATUM_KINEMATIC_SCHEME
 70
0
 62
7
  6
CONTINUOUS
370
-3
390
F
  0
ENDTAB
  0
TABLE
  2
STYLE
  5
3
100
AcDbSymbolTable
 70
1
  0
STYLE
  5
11
100
AcDbSymbolTableRecord
100
AcDbTextStyleTableRecord
  2
STANDARD
 70
0
 40
0.0
 41
1.0
 50
0.0
 71
0
 42
0.2
  3
ARIAL.TTF
  4

  0
STYLE
  5
20E
100
AcDbSymbolTableRecord
100
AcDbTextStyleTableRecord
  2
TEXTSTYLE_1
 70
0
 40
0.0
 41
0.8
 50
0.0
 71
0
 42
0.2
  3
gdt
  4

  0
ENDTAB
  0
TABLE
  2
VIEW
  5
6
100
AcDbSymbolTable
 70
0
  0
ENDTAB
  0
TABLE
  2
UCS
  5
7
100
AcDbSymbolTable
 70
0
  0
ENDTAB
  0
TABLE
  2
APPID
  5
9
100
AcDbSymbolTable
 70
1
  0
APPID
  5
20F
100
AcDbSymbolTableRecord
100
AcDbRegAppTableRecord
  2
ACAD
 70
0
  0
ENDTAB
  0
TABLE
  2
BLOCK_RECORD
  5
1
100
AcDbSymbolTable
 70
0
  0
BLOCK_RECORD
  5
210
100
AcDbSymbolTableRecord
100
AcDbBlockTableRecord
  2
*Model_Space
  0
BLOCK_RECORD
  5
211
100
AcDbSymbolTableRecord
100
AcDbBlockTableRecord
  2
*Paper_Space
  0
BLOCK_RECORD
  5
212
100
AcDbSymbolTableRecord
100
AcDbBlockTableRecord
  2
_FILLED
  0
ENDTAB
  0
TABLE
  2
DIMSTYLE
  5
A
100
AcDbSymbolTable
 70
1
100
AcDbDimStyleTable
 71
0
  0
DIMSTYLE
105
213
100
AcDbSymbolTableRecord
100
AcDbDimStyleTableRecord
  2
STANDARD
 70
0
  3

  4

 40
1.0
 41
0.9224290001
 42
1.0
 43
0.38
 44
1.0
 45
0.0
 46
0.0
 47
0.01
 48
0.01
140
1.2914006002
141
0.09
142
0.0
143
25.4
144
1.0
145
0.0
146
1.0
147
0.625
 71
1
 72
0
 73
0
 74
0
 75
0
 76
0
 77
1
 78
8
 79
2
170
0
171
1
172
0
173
0
174
0
175
0
176
0
177
0
178
0
270
2
179
2
271
2
272
2
273
2
274
2
275
0
280
0
281
0
282
0
283
1
284
8
285
0
286
0
287
3
288
0
340
11
278
46
341
212
342
212
343
212
344
212
  0
ENDTAB
  0
ENDSEC
  0
SECTION
  2
BLOCKS
  0
BLOCK
  5
20
100
AcDbEntity
  8
0
100
AcDbBlockBegin
  2
*Model_Space
 70
0
 10
0.0
 20
0.0
 30
0.0
  3
*Model_Space
  1

  0
ENDBLK
  5
21
100
AcDbEntity
  8
0
100
AcDbBlockEnd
  0
BLOCK
  5
1C
100
AcDbEntity
  8
0
100
AcDbBlockBegin
  2
*Paper_Space
 70
0
 10
0.0
 20
0.0
 30
0.0
  3
*Paper_Space
  1

  0
ENDBLK
  5
1D
100
AcDbEntity
  8
0
100
AcDbBlockEnd
  0
BLOCK
  5
214
100
AcDbEntity
  8
0
100
AcDbBlockBegin
  2
_FILLED
 70
64
 10
0.0
 20
0.0
  3
_FILLED
  1

  0
SOLID
  5
215
100
AcDbEntity
  8
0
  6
BYBLOCK
 62
0
100
AcDbTrace
 10
0.0
 20
0.0
 11
-1.0
 21
0.25
 12
-1.0
 22
-0.25
 13
-1.0
 23
-0.25
  0
ENDBLK
  5
216
100
AcDbEntity
  8
0
  6
BYBLOCK
 62
0
100
AcDbBlockEnd
  0
ENDSEC
  0
SECTION
  2
ENTITIES
  0
LINE
  5
217
100
AcDbEntity
  8
0
100
AcDbLine
 62
7
  6
BYLAYER
 10
50.8147748273
 20
8.7855434783
 11
28.8153481415
 21
8.7855434783
  0
LINE
  5
218
100
AcDbEntity
  8
0
100
AcDbLine
 62
7
  6
BYLAYER
 10
51.3150614844
 20
9.2855434783
 11
28.3150614844
 21
9.2855434783
  0
LINE
  5
219
100
AcDbEntity
  8
0
100
AcDbLine
 62
7
  6
BYLAYER
 10
28.8150614844
 20
8.7855434783
 11
28.3150614844
 21
9.2855434783
  0
LINE
  5
21A
100
AcDbEntity
  8
0
100
AcDbLine
 62
7
  6
BYLAYER
 10
33.8150614844
 20
97.1355434783
 11
34.8150614844
 21
98.1355434783
  0
LINE
  5
21B
100
AcDbEntity
  8
0
100
AcDbLine
 62
7
  6
BYLAYER
 10
28.3150614844
 20
22.2855434783
 11
26.8150614844
 21
23.151568882
  0
LINE
  5
21C
100
AcDbEntity
  8
0
100
AcDbLine
 62
7
  6
BYLAYER
 10
28.3150614844
 20
22.2855434783
 11
51.3150614844
 21
22.2855434783
  0
LINE
  5
21D
100
AcDbEntity
  8
0
100
AcDbLine
 62
7
  6
BYLAYER
 10
52.8150614844
 20
23.151568882
 11
52.7073663298
 21
23.151568882
  0
LINE
  5
21E
100
AcDbEntity
  8
0
100
AcDbLine
 62
7
  6
BYLAYER
 10
47.7073663298
 20
23.151568882
 11
44.8150614844
 21
23.151568882
  0
LINE
  5
21F
100
AcDbEntity
  8
0
100
AcDbLine
 62
7
  6
BYLAYER
 10
34.8150614844
 20
23.151568882
 11
31.922756639
 21
23.151568882
  0
LINE
  5
220
100
AcDbEntity
  8
0
100
AcDbLine
 62
7
  6
BYLAYER
 10
26.922756639
 20
23.151568882
 11
26.8150614844
 21
23.151568882
  0
LINE
  5
221
100
AcDbEntity
  8
0
100
AcDbLine
 62
7
  6
BYLAYER
 10
26.8150614844
 20
27.7081932091
 11
26.922756639
 21
27.7081932091
  0
LINE
  5
222
100
AcDbEntity
  8
0
100
AcDbLine
 62
7
  6
BYLAYER
 10
31.922756639
 20
27.7081932091
 11
34.8150614844
 21
27.7081932091
  0
LINE
  5
223
100
AcDbEntity
  8
0
100
AcDbLine
 62
7
  6
BYLAYER
 10
44.8150614844
 20
27.7081932091
 11
47.7073663298
 21
27.7081932091
  0
LINE
  5
224
100
AcDbEntity
  8
0
100
AcDbLine
 62
7
  6
BYLAYER
 10
52.7073663298
 20
27.7081932091
 11
52.8150614844
 21
27.7081932091
  0
LINE
  5
225
100
AcDbEntity
  8
0
100
AcDbLine
 62
7
  6
BYLAYER
 10
51.8150614844
 20
28.2855434783
 11
27.8150614844
 21
28.2855434783
  0
LINE
  5
226
100
AcDbEntity
  8
0
100
AcDbLine
 62
7
  6
BYLAYER
 10
24.8150614844
 20
29.2796210267
 11
24.3841213767
 21
29.6355434783
  0
LWPOLYLINE
  5
227
100
AcDbEntity
  8
0
100
AcDbPolyline
 62
7
  6
BYLAYER
 90
4
 70
0
 10
59.406311575
 20
35.1831949587
 10
59.8384356255
 20
35.2925313204
 10
60.2942089691
 20
35.7656559331
 10
60.3874601827
 20
36.1842800626
  0
LINE
  5
228
100
AcDbEntity
  8
0
100
AcDbLine
 62
7
  6
BYLAYER
 10
54.8150614844
 20
29.2355434783
 11
24.8150614844
 21
29.2355434783
  0
LINE
  5
229
100
AcDbEntity
  8
0
100
AcDbLine
 62
7
  6
BYLAYER
 10
24.8150614844
 20
29.2796210267
 11
54.8150614844
 21
29.2796210267
  0
LINE
  5
22A
100
AcDbEntity
  8
0
100
AcDbLine
 62
7
  6
BYLAYER
 10
55.2460015921
 20
29.6355434783
 11
24.3841213767
 21
29.6355434783
  0
LINE
  5
22B
100
AcDbEntity
  8
0
100
AcDbLine
 62
7
  6
BYLAYER
 10
23.6892284595
 20
30.8391333167
 11
55.9408945093
 21
30.8391333167
  0
LINE
  5
22C
100
AcDbEntity
  8
0
100
AcDbLine
 62
7
  6
BYLAYER
 10
56.1150614844
 20
31.4891333167
 11
23.5150614844
 21
31.4891333167
  0
LINE
  5
22D
100
AcDbEntity
  8
0
100
AcDbLine
 62
7
  6
BYLAYER
 10
24.3841213767
 20
29.6355434783
 11
23.6892284595
 21
30.8391333167
  0
LINE
  5
22E
100
AcDbEntity
  8
0
100
AcDbLine
 62
7
  6
BYLAYER
 10
23.6892284595
 20
30.8391333167
 11
23.5593579102
 21
31.1526685581
  0
LWPOLYLINE
  5
22F
100
AcDbEntity
  8
0
100
AcDbPolyline
 62
7
  6
BYLAYER
 90
4
 70
0
 10
19.242662799
 20
36.18428154
 10
19.3434402199
 20
35.7499563784
 10
19.8072443505
 20
35.2846844661
 10
20.223810747
 20
35.1831949621
  0
LINE
  5
230
100
AcDbEntity
  8
0
100
AcDbLine
 62
7
  6
BYLAYER
 10
19.242764993
 20
36.1836986352
 11
19.3423819145
 21
88.4916789687
  0
LINE
  5
231
100
AcDbEntity
  8
0
100
AcDbLine
 62
7
  6
BYLAYER
 10
19.642279112
 20
88.5134396774
 11
19.5426621905
 21
36.2054593439
  0
LINE
  5
232
100
AcDbEntity
  8
0
100
AcDbLine
 62
7
  6
BYLAYER
 10
59.4063024765
 20
35.1832404688
 11
39.8150614834
 21
34.841274085
  0
LINE
  5
233
100
AcDbEntity
  8
0
100
AcDbLine
 62
7
  6
BYLAYER
 10
39.8150614844
 20
35.1630347939
 11
59.4010741965
 21
35.5049099175
  0
LINE
  5
234
100
AcDbEntity
  8
0
100
AcDbLine
 62
7
  6
BYLAYER
 10
39.8150614894
 20
34.8412740849
 11
20.2238204923
 21
35.1832404688
  0
LINE
  5
235
100
AcDbEntity
  8
0
100
AcDbLine
 62
7
  6
BYLAYER
 10
20.2290487723
 20
35.5049099175
 11
39.8150614844
 21
35.1630347939
  0
LINE
  5
236
100
AcDbEntity
  8
0
100
AcDbLine
 62
7
  6
BYLAYER
 10
20.3312996856
 20
89.2122583759
 11
20.3260639637
 21
89.4904519757
  0
LINE
  5
237
100
AcDbEntity
  8
0
100
AcDbLine
 62
7
  6
BYLAYER
 10
20.0150614844
 20
88.1681980425
 11
20.0150614844
 21
36.504648724
  0
LINE
  5
238
100
AcDbEntity
  8
0
100
AcDbLine
 62
7
  6
BYLAYER
 10
20.2238130504
 20
35.1831949002
 11
20.2290487723
 21
35.5049099175
  0
LINE
  5
239
100
AcDbEntity
  8
0
100
AcDbLine
 62
7
  6
BYLAYER
 10
45.0150614844
 20
99.6355434783
 11
44.8150614844
 21
99.2891333167
  0
LINE
  5
23A
100
AcDbEntity
  8
0
100
AcDbLine
 62
7
  6
BYLAYER
 10
59.1150656082
 20
36.0059658155
 11
20.5150573606
 21
36.0059658155
  0
LINE
  5
23B
100
AcDbEntity
  8
0
100
AcDbLine
 62
7
  6
BYLAYER
 10
20.2971165372
 20
36.0558341064
 11
59.3330064316
 21
36.0558341064
  0
LINE
  5
23C
100
AcDbEntity
  8
0
100
AcDbLine
 62
7
  6
BYLAYER
 10
20.2568748647
 20
36.0775948151
 11
59.3732481041
 21
36.0775948151
  0
LINE
  5
23D
100
AcDbEntity
  8
0
100
AcDbLine
 62
7
  6
BYLAYER
 10
51.8150614844
 20
28.2855434783
 11
52.8150614844
 21
27.7081932091
  0
LINE
  5
23E
100
AcDbEntity
  8
0
100
AcDbLine
 62
7
  6
BYLAYER
 10
23.5593579102
 20
31.1526685581
 11
23.5150614844
 21
31.4891333167
  0
LINE
  5
23F
100
AcDbEntity
  8
0
100
AcDbLine
 62
7
  6
BYLAYER
 10
23.5150614844
 20
31.4891333167
 11
23.5150614844
 21
35.1257916436
  0
LINE
  5
240
100
AcDbEntity
  8
0
100
AcDbLine
 62
7
  6
BYLAYER
 10
24.8150614844
 20
29.2796210267
 11
24.8150614844
 21
29.2355434783
  0
LINE
  5
241
100
AcDbEntity
  8
0
100
AcDbLine
 62
7
  6
BYLAYER
 10
34.6150614844
 20
100.3355434783
 11
34.8148812021
 21
101.3355434783
  0
LINE
  5
242
100
AcDbEntity
  8
0
100
AcDbLine
 62
7
  6
BYLAYER
 10
26.8150614844
 20
23.151568882
 11
26.8150614844
 21
27.7081932091
  0
LINE
  5
243
100
AcDbEntity
  8
0
100
AcDbLine
 62
7
  6
BYLAYER
 10
26.922756639
 20
23.151568882
 11
26.922756639
 21
27.7081932091
  0
LINE
  5
244
100
AcDbEntity
  8
0
100
AcDbLine
 62
7
  6
BYLAYER
 10
27.8150614844
 20
28.2855434783
 11
27.8150614844
 21
29.2355434783
  0
LINE
  5
245
100
AcDbEntity
  8
0
100
AcDbLine
 62
7
  6
BYLAYER
 10
28.3150614844
 20
9.2855434783
 11
28.3150614844
 21
22.2855434783
  0
LINE
  5
246
100
AcDbEntity
  8
0
100
AcDbLine
 62
7
  6
BYLAYER
 10
31.8209670155
 20
89.6910505633
 11
31.8209670155
 21
90.0355434783
  0
LINE
  5
247
100
AcDbEntity
  8
0
100
AcDbLine
 62
7
  6
BYLAYER
 10
31.922756639
 20
27.7081932091
 11
31.922756639
 21
23.151568882
  0
LINE
  5
248
100
AcDbEntity
  8
0
100
AcDbLine
 62
7
  6
BYLAYER
 10
33.8150614844
 20
91.3355434783
 11
33.8150614844
 21
97.1355434783
  0
LINE
  5
249
100
AcDbEntity
  8
0
100
AcDbLine
 62
7
  6
BYLAYER
 10
34.6150614844
 20
99.6355434783
 11
34.6150614844
 21
100.3355434783
  0
LINE
  5
24A
100
AcDbEntity
  8
0
100
AcDbLine
 62
7
  6
BYLAYER
 10
34.8150614844
 20
23.151568882
 11
34.8150614844
 21
27.7081932091
  0
LINE
  5
24B
100
AcDbEntity
  8
0
100
AcDbLine
 62
7
  6
BYLAYER
 10
34.8150614844
 20
98.1355434783
 11
34.8150614844
 21
99.2891333168
  0
LINE
  5
24C
100
AcDbEntity
  8
0
100
AcDbLine
 62
7
  6
BYLAYER
 10
39.8150614263
 20
34.8412283878
 11
39.8150614844
 21
35.1630347939
  0
LINE
  5
24D
100
AcDbEntity
  8
0
100
AcDbLine
 62
7
  6
BYLAYER
 10
39.8150616033
 20
89.5523487052
 11
39.8150613356
 21
89.8306336902
  0
LINE
  5
24E
100
AcDbEntity
  8
0
100
AcDbLine
 62
7
  6
BYLAYER
 10
39.8150686741
 20
89.8351799717
 11
39.8150620307
 21
89.9661458297
  0
LINE
  5
24F
100
AcDbEntity
  8
0
100
AcDbLine
 62
7
  6
BYLAYER
 10
44.8150614844
 20
27.7081932091
 11
44.8150614844
 21
23.151568882
  0
LINE
  5
250
100
AcDbEntity
  8
0
100
AcDbLine
 62
7
  6
BYLAYER
 10
44.8150614844
 20
98.1355434783
 11
44.8150614844
 21
99.2891333168
  0
LINE
  5
251
100
AcDbEntity
  8
0
100
AcDbLine
 62
7
  6
BYLAYER
 10
45.0150614844
 20
99.6355434783
 11
45.0150614844
 21
100.3355434783
  0
LINE
  5
252
100
AcDbEntity
  8
0
100
AcDbLine
 62
7
  6
BYLAYER
 10
45.8150614844
 20
91.3355434783
 11
45.8150614844
 21
97.1355434783
  0
LINE
  5
253
100
AcDbEntity
  8
0
100
AcDbLine
 62
7
  6
BYLAYER
 10
47.7073663298
 20
23.151568882
 11
47.7073663298
 21
27.7081932091
  0
LINE
  5
254
100
AcDbEntity
  8
0
100
AcDbLine
 62
7
  6
BYLAYER
 10
47.8091559533
 20
89.6928173753
 11
47.8091559533
 21
90.0355434783
  0
LINE
  5
255
100
AcDbEntity
  8
0
100
AcDbLine
 62
7
  6
BYLAYER
 10
51.3150614844
 20
9.2855434783
 11
51.3150614844
 21
22.2855434783
  0
LINE
  5
256
100
AcDbEntity
  8
0
100
AcDbLine
 62
7
  6
BYLAYER
 10
51.8150614844
 20
28.2855434783
 11
51.8150614844
 21
29.2355434783
  0
LINE
  5
257
100
AcDbEntity
  8
0
100
AcDbLine
 62
7
  6
BYLAYER
 10
52.7073663298
 20
27.7081932091
 11
52.7073663298
 21
23.151568882
  0
LINE
  5
258
100
AcDbEntity
  8
0
100
AcDbLine
 62
7
  6
BYLAYER
 10
52.8150614844
 20
23.151568882
 11
52.8150614844
 21
27.7081932091
  0
LINE
  5
259
100
AcDbEntity
  8
0
100
AcDbLine
 62
7
  6
BYLAYER
 10
54.8150614844
 20
29.2796210267
 11
54.8150614844
 21
29.2355434783
  0
LINE
  5
25A
100
AcDbEntity
  8
0
100
AcDbLine
 62
7
  6
BYLAYER
 10
56.1150614844
 20
31.4891333167
 11
56.1150614844
 21
35.1257916436
  0
LINE
  5
25B
100
AcDbEntity
  8
0
100
AcDbLine
 62
7
  6
BYLAYER
 10
27.8150614844
 20
28.2855434783
 11
26.8150614844
 21
27.7081932091
  0
LINE
  5
25C
100
AcDbEntity
  8
0
100
AcDbLine
 62
7
  6
BYLAYER
 10
45.0150614844
 20
100.3355434783
 11
44.8152417667
 21
101.3355434783
  0
LINE
  5
25D
100
AcDbEntity
  8
0
100
AcDbLine
 62
7
  6
BYLAYER
 10
59.4010741965
 20
35.5049099175
 11
59.4063099184
 21
35.1831949002
  0
LINE
  5
25E
100
AcDbEntity
  8
0
100
AcDbLine
 62
7
  6
BYLAYER
 10
60.0874607783
 20
36.2054593439
 11
59.9878438568
 21
88.5134396774
  0
LINE
  5
25F
100
AcDbEntity
  8
0
100
AcDbLine
 62
7
  6
BYLAYER
 10
60.2877410543
 20
88.4916789687
 11
60.3873579758
 21
36.1836986352
  0
LINE
  5
260
100
AcDbEntity
  8
0
100
AcDbLine
 62
7
  6
BYLAYER
 10
59.6150614844
 20
36.504648724
 11
59.6150614844
 21
88.1681980425
  0
LINE
  5
261
100
AcDbEntity
  8
0
100
AcDbLine
 62
7
  6
BYLAYER
 10
59.3040590051
 20
89.4904519757
 11
59.2988232832
 21
89.2122583759
  0
LINE
  5
262
100
AcDbEntity
  8
0
100
AcDbLine
 62
7
  6
BYLAYER
 10
56.0707650586
 20
31.1526685581
 11
56.1150614844
 21
31.4891333167
  0
LINE
  5
263
100
AcDbEntity
  8
0
100
AcDbLine
 62
7
  6
BYLAYER
 10
34.6150614844
 20
99.6355434783
 11
34.8150614844
 21
99.2891333167
  0
LINE
  5
264
100
AcDbEntity
  8
0
100
AcDbLine
 62
7
  6
BYLAYER
 10
55.9408945093
 20
30.8391333167
 11
56.0707650586
 21
31.1526685581
  0
LINE
  5
265
100
AcDbEntity
  8
0
100
AcDbLine
 62
7
  6
BYLAYER
 10
55.2460015921
 20
29.6355434783
 11
55.9408945093
 21
30.8391333167
  0
LINE
  5
266
100
AcDbEntity
  8
0
100
AcDbLine
 62
7
  6
BYLAYER
 10
54.8150614844
 20
29.2796210267
 11
55.2460015921
 21
29.6355434783
  0
LINE
  5
267
100
AcDbEntity
  8
0
100
AcDbLine
 62
7
  6
BYLAYER
 10
51.3150614844
 20
22.2855434783
 11
52.8150614844
 21
23.151568882
  0
LINE
  5
268
100
AcDbEntity
  8
0
100
AcDbLine
 62
7
  6
BYLAYER
 10
59.2805534882
 20
88.6387733689
 11
20.3495694807
 21
88.6387733689
  0
LINE
  5
269
100
AcDbEntity
  8
0
100
AcDbLine
 62
7
  6
BYLAYER
 10
20.5150571223
 20
88.666880951
 11
59.1150658466
 21
88.666880951
  0
LINE
  5
26A
100
AcDbEntity
  8
0
100
AcDbLine
 62
7
  6
BYLAYER
 10
45.8150614844
 20
97.1355434783
 11
44.8150614844
 21
98.1355434783
  0
LINE
  5
26B
100
AcDbEntity
  8
0
100
AcDbLine
 62
7
  6
BYLAYER
 10
39.8150614845
 20
89.5523487031
 11
20.3312996856
 21
89.2122583759
  0
LINE
  5
26C
100
AcDbEntity
  8
0
100
AcDbLine
 62
7
  6
BYLAYER
 10
20.3260581166
 20
89.4904061751
 11
39.8150612706
 21
89.8305880025
  0
LINE
  5
26D
100
AcDbEntity
  8
0
100
AcDbLine
 62
7
  6
BYLAYER
 10
31.8209670155
 20
90.0355434783
 11
47.8091559533
 21
90.0355434783
  0
LINE
  5
26E
100
AcDbEntity
  8
0
100
AcDbLine
 62
7
  6
BYLAYER
 10
32.1209670155
 20
90.3355434783
 11
47.5091559533
 21
90.3355434783
  0
LINE
  5
26F
100
AcDbEntity
  8
0
100
AcDbLine
 62
7
  6
BYLAYER
 10
45.8150614844
 20
91.3355434783
 11
33.8150614844
 21
91.3355434783
  0
LINE
  5
270
100
AcDbEntity
  8
0
100
AcDbLine
 62
7
  6
BYLAYER
 10
59.2988232832
 20
89.2122583759
 11
39.8150614845
 21
89.5523487031
  0
LINE
  5
271
100
AcDbEntity
  8
0
100
AcDbLine
 62
7
  6
BYLAYER
 10
39.8150617036
 20
89.8305880024
 11
59.3040648522
 21
89.4904061751
  0
LINE
  5
272
100
AcDbEntity
  8
0
100
AcDbLine
 62
7
  6
BYLAYER
 10
50.8150614844
 20
8.7855434783
 11
51.3150614844
 21
9.2855434783
  0
LINE
  5
273
100
AcDbEntity
  8
0
100
AcDbLine
 62
7
  6
BYLAYER
 10
33.8150614844
 20
97.1355434783
 11
45.8150614844
 21
97.1355434783
  0
LINE
  5
274
100
AcDbEntity
  8
0
100
AcDbLine
 62
7
  6
BYLAYER
 10
44.8150614844
 20
98.1355434783
 11
34.8150614844
 21
98.1355434783
  0
LINE
  5
275
100
AcDbEntity
  8
0
100
AcDbLine
 62
7
  6
BYLAYER
 10
34.8150614844
 20
99.2891333168
 11
44.8150614844
 21
99.2891333168
  0
LINE
  5
276
100
AcDbEntity
  8
0
100
AcDbLine
 62
7
  6
BYLAYER
 10
45.0150614844
 20
99.6355434783
 11
34.6150614844
 21
99.6355434783
  0
LINE
  5
277
100
AcDbEntity
  8
0
100
AcDbLine
 62
7
  6
BYLAYER
 10
34.6150614844
 20
100.3355434783
 11
45.0150614844
 21
100.3355434783
  0
LINE
  5
278
100
AcDbEntity
  8
0
100
AcDbLine
 62
7
  6
BYLAYER
 10
34.8148812021
 20
101.3355434783
 11
44.8152417667
 21
101.3355434783
  0
ARC
  5
279
100
AcDbEntity
  8
0
100
AcDbCircle
 62
7
  6
BYLAYER
 10
57.2630767411
 20
-720.8928031791
 40
811.0466090053
100
AcDbArc
 50
91.2500564292
 51
91.6033982146
  0
ARC
  5
27A
100
AcDbEntity
  8
0
100
AcDbCircle
 62
7
  6
BYLAYER
 10
23.4499239205
 20
-672.6599315979
 40
762.8013091428
100
AcDbArc
 50
88.3765350688
 51
88.7713216267
  0
ARC
  5
27B
100
AcDbEntity
  8
0
100
AcDbCircle
 62
7
  6
BYLAYER
 10
20.3431253429
 20
88.4897657246
 40
1.0007707763
100
AcDbArc
 50
90.9771682699
 51
179.8904607576
  0
ARC
  5
27C
100
AcDbEntity
  8
0
100
AcDbCircle
 62
7
  6
BYLAYER
 10
59.2869979497
 20
88.4897654082
 40
1.0007707711
100
AcDbArc
 50
0.1095573938
 51
89.0228504179
  0
ARC
  5
27D
100
AcDbEntity
  8
0
100
AcDbCircle
 62
7
  6
BYLAYER
 10
32.8150614844
 20
91.3355434783
 40
1.0
100
AcDbArc
 50
270.0
 51
360.0
  0
ARC
  5
27E
100
AcDbEntity
  8
0
100
AcDbCircle
 62
7
  6
BYLAYER
 10
46.8150614844
 20
91.3355434783
 40
1.0
100
AcDbArc
 50
180.0
 51
270.0
  0
ARC
  5
27F
100
AcDbEntity
  8
0
100
AcDbCircle
 62
7
  6
BYLAYER
 10
59.1146894419
 20
88.1807466342
 40
0.4861344625
100
AcDbArc
 50
81.5079649888
 51
89.9556369598
  0
ARC
  5
280
100
AcDbEntity
  8
0
100
AcDbCircle
 62
7
  6
BYLAYER
 10
20.515433527
 20
88.1807466342
 40
0.4861344625
100
AcDbArc
 50
90.0443630406
 51
98.4920350115
  0
ARC
  5
281
100
AcDbEntity
  8
0
100
AcDbCircle
 62
7
  6
BYLAYER
 10
47.5091559533
 20
90.0355434783
 40
0.3
100
AcDbArc
 50
0.0
 51
90.0
  0
ARC
  5
282
100
AcDbEntity
  8
0
100
AcDbCircle
 62
7
  6
BYLAYER
 10
32.1209670155
 20
90.0355434783
 40
0.3
100
AcDbArc
 50
90.0
 51
180.0
  0
SPLINE
  5
283
100
AcDbEntity
  8
0
100
AcDbSpline
 62
7
  6
BYLAYER
 70
0
 71
3
 72
11
 73
7
 74
0
 42
0.0000001
 43
0.0000001
 44
0.0000000001
 40
0.0
 40
0.0
 40
0.0
 40
0.0
 40
0.2498688834
 40
0.4995682373
 40
0.7495229494
 40
1.0
 40
1.0
 40
1.0
 40
1.0
 10
59.6150614844
 20
36.5046446111
 30
0.0
 10
59.615060913
 20
36.4397701878
 30
0.0
 10
59.5880289309
 20
36.3089768741
 30
0.0
 10
59.4780325035
 20
36.1424835713
 30
0.0
 10
59.3111089192
 20
36.0328809921
 30
0.0
 10
59.1800979321
 20
36.005966385
 30
0.0
 10
59.1150656082
 20
36.0059658156
 30
0.0
  0
SPLINE
  5
284
100
AcDbEntity
  8
0
100
AcDbSpline
 62
7
  6
BYLAYER
 70
0
 71
3
 72
11
 73
7
 74
0
 42
0.0000001
 43
0.0000001
 44
0.0000000001
 40
0.0
 40
0.0
 40
0.0
 40
0.0
 40
0.1747630802
 40
0.449967383
 40
0.7248905321
 40
1.0
 40
1.0
 40
1.0
 40
1.0
 10
59.186477852
 20
88.6615513136
 30
0.0
 10
59.2274759932
 20
88.6554583815
 30
0.0
 10
59.3315252737
 20
88.6265603284
 30
0.0
 10
59.4780325035
 20
88.5303631953
 30
0.0
 10
59.5880288861
 20
88.3638699602
 30
0.0
 10
59.6150608799
 20
88.2330767385
 30
0.0
 10
59.6150614844
 20
88.1682023931
 30
0.0
  0
SPLINE
  5
285
100
AcDbEntity
  8
0
100
AcDbSpline
 62
7
  6
BYLAYER
 70
0
 71
3
 72
11
 73
7
 74
0
 42
0.0000001
 43
0.0000001
 44
0.0000000001
 40
0.0
 40
0.0
 40
0.0
 40
0.0
 40
0.2751094679
 40
0.550032617
 40
0.8252369198
 40
1.0
 40
1.0
 40
1.0
 40
1.0
 10
20.0150614844
 20
88.1682023932
 30
0.0
 10
20.0150620889
 20
88.2330767385
 30
0.0
 10
20.0420940827
 20
88.3638699602
 30
0.0
 10
20.1520904654
 20
88.5303631953
 30
0.0
 10
20.2985976951
 20
88.6265603284
 30
0.0
 10
20.4026469756
 20
88.6554583815
 30
0.0
 10
20.4436451168
 20
88.6615513136
 30
0.0
  0
SPLINE
  5
286
100
AcDbEntity
  8
0
100
AcDbSpline
 62
7
  6
BYLAYER
 70
0
 71
3
 72
11
 73
7
 74
0
 42
0.0000001
 43
0.0000001
 44
0.0000000001
 40
0.0
 40
0.0
 40
0.0
 40
0.0
 40
0.2504770506
 40
0.5004317627
 40
0.7501311166
 40
1.0
 40
1.0
 40
1.0
 40
1.0
 10
20.5150573606
 20
36.0059658156
 30
0.0
 10
20.4500250367
 20
36.005966385
 30
0.0
 10
20.3190140496
 20
36.0328809921
 30
0.0
 10
20.1520904654
 20
36.1424835713
 30
0.0
 10
20.0420940379
 20
36.3089768741
 30
0.0
 10
20.0150620559
 20
36.4397701878
 30
0.0
 10
20.0150614844
 20
36.5046446111
 30
0.0
  0
SPLINE
  5
287
100
AcDbEntity
  8
0
100
AcDbSpline
 62
7
  6
BYLAYER
 70
0
 71
3
 72
10
 73
6
 74
0
 42
0.0000001
 43
0.0000001
 44
0.0000000001
 40
0.0
 40
0.0
 40
0.0
 40
0.0
 40
0.5085633139
 40
0.7555702933
 40
1.0
 40
1.0
 40
1.0
 40
1.0
 10
26.922756639
 20
27.7081932091
 30
0.0
 10
27.3228387977
 20
27.8858759337
 30
0.0
 10
27.9404626334
 20
28.1054391738
 30
0.0
 10
28.7888754902
 20
28.2593761027
 30
0.0
 10
29.2123552953
 20
28.2855434783
 30
0.0
 10
29.422756639
 20
28.2855434783
 30
0.0
  0
SPLINE
  5
288
100
AcDbEntity
  8
0
100
AcDbSpline
 62
7
  6
BYLAYER
 70
0
 71
3
 72
11
 73
7
 74
0
 42
0.0000001
 43
0.0000001
 44
0.0000000001
 40
0.0
 40
0.0
 40
0.0
 40
0.0
 40
0.2495829276
 40
0.4995346765
 40
0.7497738406
 40
1.0
 40
1.0
 40
1.0
 40
1.0
 10
59.9878438568
 20
88.5134396774
 30
0.0
 10
59.9883357585
 20
88.6028098781
 30
0.0
 10
59.9472684847
 20
88.7832721071
 30
0.0
 10
59.7921868778
 20
89.0089426974
 30
0.0
 10
59.5685877063
 20
89.1679257575
 30
0.0
 10
59.3884134615
 20
89.2108100073
 30
0.0
 10
59.2988232832
 20
89.2122583759
 30
0.0
  0
SPLINE
  5
289
100
AcDbEntity
  8
0
100
AcDbSpline
 62
7
  6
BYLAYER
 70
0
 71
3
 72
10
 73
6
 74
0
 42
0.0000001
 43
0.0000001
 44
0.0000000001
 40
0.0
 40
0.0
 40
0.0
 40
0.0
 40
0.244434715
 40
0.4914491423
 40
1.0
 40
1.0
 40
1.0
 40
1.0
 10
50.2073663298
 20
28.2855434783
 30
0.0
 10
50.417768358
 20
28.2855434783
 30
0.0
 10
50.8412482455
 20
28.2592314493
 30
0.0
 10
51.6896054716
 20
28.105172987
 30
0.0
 10
52.307300866
 20
27.8858685192
 30
0.0
 10
52.7073663298
 20
27.7081932091
 30
0.0
  0
SPLINE
  5
28A
100
AcDbEntity
  8
0
100
AcDbSpline
 62
7
  6
BYLAYER
 70
0
 71
3
 72
11
 73
7
 74
0
 42
0.0000001
 43
0.0000001
 44
0.0000000001
 40
0.0
 40
0.0
 40
0.0
 40
0.0
 40
0.2501619196
 40
0.5003290498
 40
0.7503470461
 40
1.0
 40
1.0
 40
1.0
 40
1.0
 10
59.4010741965
 20
35.5049099175
 30
0.0
 10
59.490648019
 20
35.505812473
 30
0.0
 10
59.670773482
 20
35.5497861215
 30
0.0
 10
59.8938730441
 20
35.7089351003
 30
0.0
 10
60.0486820735
 20
35.9353531541
 30
0.0
 10
60.0874978096
 20
36.1160632333
 30
0.0
 10
60.0874607783
 20
36.2054593439
 30
0.0
  0
SPLINE
  5
28B
100
AcDbEntity
  8
0
100
AcDbSpline
 62
7
  6
BYLAYER
 70
0
 71
3
 72
11
 73
7
 74
0
 42
0.0000001
 43
0.0000001
 44
0.0000000001
 40
0.0
 40
0.0
 40
0.0
 40
0.0
 40
0.249597067
 40
0.4995558593
 40
0.7497834467
 40
1.0
 40
1.0
 40
1.0
 40
1.0
 10
19.5426621905
 20
36.2054593439
 30
0.0
 10
19.5420130283
 20
36.1160856331
 30
0.0
 10
19.5818972873
 20
35.9354383966
 30
0.0
 10
19.7361218431
 20
35.7090533278
 30
0.0
 10
19.959261568
 20
35.5493616709
 30
0.0
 10
20.1394628381
 20
35.5063738655
 30
0.0
 10
20.2290487723
 20
35.5049099175
 30
0.0
  0
SPLINE
  5
28C
100
AcDbEntity
  8
0
100
AcDbSpline
 62
7
  6
BYLAYER
 70
0
 71
3
 72
9
 73
5
 74
0
 42
0.0000001
 43
0.0000001
 44
0.0000000001
 40
0.0
 40
0.0
 40
0.0
 40
0.0
 40
0.4999719375
 40
1.0
 40
1.0
 40
1.0
 40
1.0
 10
39.8150614844
 20
28.2855434783
 30
0.0
 10
40.6551579152
 20
28.2855434783
 30
0.0
 10
42.3368452553
 20
28.1813814718
 30
0.0
 10
43.9948496096
 20
27.8903276501
 30
0.0
 10
44.8150614844
 20
27.7081932091
 30
0.0
  0
SPLINE
  5
28D
100
AcDbEntity
  8
0
100
AcDbSpline
 62
7
  6
BYLAYER
 70
0
 71
3
 72
15
 73
11
 74
0
 42
0.0000001
 43
0.0000001
 44
0.0000000001
 40
0.0
 40
0.0
 40
0.0
 40
0.0
 40
0.3631462652
 40
0.5403875026
 40
0.6993401181
 40
0.8287273563
 40
0.9225647616
 40
0.9778374746
 40
0.9922429862
 40
1.0
 40
1.0
 40
1.0
 40
1.0
 10
19.5426621905
 20
36.2054593439
 30
0.0
 10
19.5060368744
 20
36.2055287273
 30
0.0
 10
19.451531632
 20
36.2049532525
 30
0.0
 10
19.3810315408
 20
36.202490809
 30
0.0
 10
19.3341589209
 20
36.1999559057
 30
0.0
 10
19.2956862016
 20
36.1967344908
 30
0.0
 10
19.2679288585
 20
36.1932809404
 30
0.0
 10
19.2515387134
 20
36.189843089
 30
0.0
 10
19.2444426199
 20
36.1869533027
 30
0.0
 10
19.2426867698
 20
36.1850811945
 30
0.0
 10
19.2426653997
 20
36.1842991471
 30
0.0
  0
SPLINE
  5
28E
100
AcDbEntity
  8
0
100
AcDbSpline
 62
7
  6
BYLAYER
 70
0
 71
3
 72
10
 73
6
 74
0
 42
0.0000001
 43
0.0000001
 44
0.0000000001
 40
0.0
 40
0.0
 40
0.0
 40
0.0
 40
0.5085633139
 40
0.7555702933
 40
1.0
 40
1.0
 40
1.0
 40
1.0
 10
47.7073663298
 20
27.7081932091
 30
0.0
 10
48.1074484885
 20
27.8858759337
 30
0.0
 10
48.7250723242
 20
28.1054391738
 30
0.0
 10
49.573485181
 20
28.2593761027
 30
0.0
 10
49.9969649862
 20
28.2855434783
 30
0.0
 10
50.2073663298
 20
28.2855434783
 30
0.0
  0
SPLINE
  5
28F
100
AcDbEntity
  8
0
100
AcDbSpline
 62
7
  6
BYLAYER
 70
0
 71
3
 72
23
 73
19
 74
0
 42
0.0000001
 43
0.0000001
 44
0.0000000001
 40
0.0
 40
0.0
 40
0.0
 40
0.0
 40
0.2227841176
 40
0.421447947
 40
0.5935012327
 40
0.6689530807
 40
0.7370708749
 40
0.7976665957
 40
0.8505540087
 40
0.8955794291
 40
0.9326319422
 40
0.9616066863
 40
0.9730385283
 40
0.982429298
 40
0.9897812754
 40
0.9951049654
 40
0.9984391259
 40
1.0
 40
1.0
 40
1.0
 40
1.0
 10
45.0608607816
 20
89.8351861819
 30
0.0
 10
45.2653093968
 20
89.8284285279
 30
0.0
 10
45.6520600778
 20
89.8152911064
 30
0.0
 10
46.196642909
 20
89.7951961089
 30
0.0
 10
46.6059720648
 20
89.7783876943
 30
0.0
 10
46.8954758468
 20
89.7651701337
 30
0.0
 10
47.0827133506
 20
89.7559388456
 30
0.0
 10
47.2492196145
 20
89.7469835881
 30
0.0
 10
47.3945047468
 20
89.7383322617
 30
0.0
 10
47.5181555546
 20
89.7300226156
 30
0.0
 10
47.6198102006
 20
89.7221000099
 30
0.0
 10
47.6906456331
 20
89.7154556479
 30
0.0
 10
47.7360408379
 20
89.7101824766
 30
0.0
 10
47.7617215225
 20
89.7066142292
 30
0.0
 10
47.7815718802
 20
89.703325487
 30
0.0
 10
47.7962278617
 20
89.6998689839
 30
0.0
 10
47.804581422
 20
89.6973373978
 30
0.0
 10
47.8091559455
 20
89.694250569
 30
0.0
 10
47.8091559533
 20
89.6928173753
 30
0.0
  0
SPLINE
  5
290
100
AcDbEntity
  8
0
100
AcDbSpline
 62
7
  6
BYLAYER
 70
0
 71
3
 72
13
 73
9
 74
0
 42
0.0000001
 43
0.0000001
 44
0.0000000001
 40
0.0
 40
0.0
 40
0.0
 40
0.0
 40
0.2542846119
 40
0.3777826447
 40
0.4999998149
 40
0.6222164404
 40
0.7457156587
 40
1.0
 40
1.0
 40
1.0
 40
1.0
 10
52.7073663298
 20
23.151568882
 30
0.0
 10
52.3072724173
 20
22.9738809374
 30
0.0
 10
51.6897708583
 20
22.7540804732
 30
0.0
 10
50.8412063977
 20
22.6001698751
 30
0.0
 10
50.2073678998
 20
22.5614540928
 30
0.0
 10
49.5735184028
 20
22.6001098662
 30
0.0
 10
48.7249716831
 20
22.7541255999
 30
0.0
 10
48.1074598166
 20
22.9738811264
 30
0.0
 10
47.7073663298
 20
23.151568882
 30
0.0
  0
LINE
  5
291
100
AcDbEntity
  8
0
100
AcDbLine
 62
7
  6
BYLAYER
 10
39.569389773
 20
89.9607741967
 11
39.806549965
 21
89.9659911286
  0
SPLINE
  5
292
100
AcDbEntity
  8
0
100
AcDbSpline
 62
7
  6
BYLAYER
 70
0
 71
3
 72
10
 73
6
 74
0
 42
0.0000001
 43
0.0000001
 44
0.0000000001
 40
0.0
 40
0.0
 40
0.0
 40
0.0
 40
0.4999192202
 40
0.749964885
 40
1.0
 40
1.0
 40
1.0
 40
1.0
 10
44.8150614844
 20
23.151568882
 30
0.0
 10
43.9948448078
 20
22.9694333747
 30
0.0
 10
42.7505798316
 20
22.7508916892
 30
0.0
 10
41.0759982091
 20
22.5998818127
 30
0.0
 10
40.2352862104
 20
22.5742186384
 30
0.0
 10
39.8150614844
 20
22.5742186384
 30
0.0
  0
SPLINE
  5
293
100
AcDbEntity
  8
0
100
AcDbSpline
 62
7
  6
BYLAYER
 70
0
 71
3
 72
10
 73
6
 74
0
 42
0.0000001
 43
0.0000001
 44
0.0000000001
 40
0.0
 40
0.0
 40
0.0
 40
0.0
 40
0.2500349921
 40
0.5000809476
 40
1.0
 40
1.0
 40
1.0
 40
1.0
 10
39.8150614844
 20
22.5742186384
 30
0.0
 10
39.3948370475
 20
22.5742186384
 30
0.0
 10
38.554124972
 20
22.5998874402
 30
0.0
 10
36.8795446569
 20
22.7509036946
 30
0.0
 10
35.6352777246
 20
22.9694334716
 30
0.0
 10
34.8150614844
 20
23.151568882
 30
0.0
  0
SPLINE
  5
294
100
AcDbEntity
  8
0
100
AcDbSpline
 62
7
  6
BYLAYER
 70
0
 71
3
 72
13
 73
9
 74
0
 42
0.0000001
 43
0.0000001
 44
0.0000000001
 40
0.0
 40
0.0
 40
0.0
 40
0.0
 40
0.2542846119
 40
0.3777826447
 40
0.4999998149
 40
0.6222164404
 40
0.7457156587
 40
1.0
 40
1.0
 40
1.0
 40
1.0
 10
31.922756639
 20
23.151568882
 30
0.0
 10
31.5226627265
 20
22.9738809374
 30
0.0
 10
30.9051611674
 20
22.7540804732
 30
0.0
 10
30.0565967069
 20
22.6001698751
 30
0.0
 10
29.422758209
 20
22.5614540928
 30
0.0
 10
28.7889087119
 20
22.6001098662
 30
0.0
 10
27.9403619923
 20
22.7541255999
 30
0.0
 10
27.3228501258
 20
22.9738811264
 30
0.0
 10
26.922756639
 20
23.151568882
 30
0.0
  0
SPLINE
  5
295
100
AcDbEntity
  8
0
100
AcDbSpline
 62
7
  6
BYLAYER
 70
0
 71
3
 72
10
 73
6
 74
0
 42
0.0000001
 43
0.0000001
 44
0.0000000001
 40
0.0
 40
0.0
 40
0.0
 40
0.0
 40
0.244434715
 40
0.4914491423
 40
1.0
 40
1.0
 40
1.0
 40
1.0
 10
29.422756639
 20
28.2855434783
 30
0.0
 10
29.6331586672
 20
28.2855434783
 30
0.0
 10
30.0566385546
 20
28.2592314493
 30
0.0
 10
30.9049957808
 20
28.105172987
 30
0.0
 10
31.5226911752
 20
27.8858685192
 30
0.0
 10
31.922756639
 20
27.7081932091
 30
0.0
  0
SPLINE
  5
296
100
AcDbEntity
  8
0
100
AcDbSpline
 62
7
  6
BYLAYER
 70
0
 71
3
 72
9
 73
5
 74
0
 42
0.0000001
 43
0.0000001
 44
0.0000000001
 40
0.0
 40
0.0
 40
0.0
 40
0.0
 40
0.5000279715
 40
1.0
 40
1.0
 40
1.0
 40
1.0
 10
34.8150614844
 20
27.7081932091
 30
0.0
 10
35.6352684121
 20
27.8903265516
 30
0.0
 10
37.293339021
 20
28.1808491799
 30
0.0
 10
38.9749698149
 20
28.2855434783
 30
0.0
 10
39.8150614844
 20
28.2855434783
 30
0.0
  0
SPLINE
  5
297
100
AcDbEntity
  8
0
100
AcDbSpline
 62
7
  6
BYLAYER
 70
0
 71
3
 72
16
 73
12
 74
0
 42
0.0000001
 43
0.0000001
 44
0.0000000001
 40
0.0
 40
0.0
 40
0.0
 40
0.0
 40
0.3699735071
 40
0.5498982784
 40
0.7100783025
 40
0.8388786652
 40
0.8895563305
 40
0.930339418
 40
0.9609176511
 40
0.9818884743
 40
1.0
 40
1.0
 40
1.0
 40
1.0
 10
59.9878438568
 20
88.5134396774
 30
0.0
 10
60.0251860674
 20
88.5135104189
 30
0.0
 10
60.0806987192
 20
88.5129074422
 30
0.0
 10
60.1523192765
 20
88.5103571367
 30
0.0
 10
60.1995946222
 20
88.5077033284
 30
0.0
 10
60.2337186438
 20
88.5048065053
 30
0.0
 10
60.2558504614
 20
88.5020162278
 30
0.0
 10
60.267878345
 20
88.500157624
 30
0.0
 10
60.277337252
 20
88.4979785211
 30
0.0
 10
60.283253887
 20
88.4963546266
 30
0.0
 10
60.2883599566
 20
88.4933990509
 30
0.0
 10
60.2877410543
 20
88.4916789687
 30
0.0
  0
SPLINE
  5
298
100
AcDbEntity
  8
0
100
AcDbSpline
 62
7
  6
BYLAYER
 70
0
 71
3
 72
15
 73
11
 74
0
 42
0.0000001
 43
0.0000001
 44
0.0000000001
 40
0.0
 40
0.0
 40
0.0
 40
0.0
 40
0.0077499513
 40
0.0221444644
 40
0.0773960057
 40
0.1712201256
 40
0.3006037569
 40
0.459562608
 40
0.6368178763
 40
1.0
 40
1.0
 40
1.0
 40
1.0
 10
60.3874576572
 20
36.1842957904
 30
0.0
 10
60.3874379867
 20
36.1850771778
 30
0.0
 10
60.3856856529
 20
36.1869509097
 30
0.0
 10
60.3785929717
 20
36.189839968
 30
0.0
 10
60.3622080973
 20
36.193279287
 30
0.0
 10
60.3344539811
 20
36.1967325382
 30
0.0
 10
60.2959821561
 20
36.1999548234
 30
0.0
 10
60.2491073454
 20
36.2024901136
 30
0.0
 10
60.1786009175
 20
36.2049531514
 30
0.0
 10
60.1240900812
 20
36.2055287349
 30
0.0
 10
60.0874607783
 20
36.2054593439
 30
0.0
  0
SPLINE
  5
299
100
AcDbEntity
  8
0
100
AcDbSpline
 62
7
  6
BYLAYER
 70
0
 71
3
 72
15
 73
11
 74
0
 42
0.0000001
 43
0.0000001
 44
0.0000000001
 40
0.0
 40
0.0
 40
0.0
 40
0.0
 40
0.0166837869
 40
0.0399020964
 40
0.1057978602
 40
0.1971601248
 40
0.3131891717
 40
0.4528262439
 40
0.6148521517
 40
1.0
 40
1.0
 40
1.0
 40
1.0
 10
31.8563541454
 20
89.6917902867
 30
0.0
 10
31.8711492139
 20
89.6948733553
 30
0.0
 10
31.9068789413
 20
89.7005247146
 30
0.0
 10
32.0020121293
 20
89.7121020386
 30
0.0
 10
32.1649262672
 20
89.7262251929
 30
0.0
 10
32.4118923504
 20
89.7432135065
 30
0.0
 10
32.7257520444
 20
89.760998584
 30
0.0
 10
33.1036608765
 20
89.7795489586
 30
0.0
 10
33.7252254453
 20
89.8064447112
 30
0.0
 10
34.2205629937
 20
89.8242915202
 30
0.0
 10
34.5692438932
 20
89.836176259
 30
0.0
  0
SPLINE
  5
29A
100
AcDbEntity
  8
0
100
AcDbSpline
 62
7
  6
BYLAYER
 70
0
 71
3
 72
16
 73
12
 74
0
 42
0.0000001
 43
0.0000001
 44
0.0000000001
 40
0.0
 40
0.0
 40
0.0
 40
0.0
 40
0.0181115257
 40
0.0390823489
 40
0.069660582
 40
0.1104436695
 40
0.1611213348
 40
0.2899216975
 40
0.4501017216
 40
0.6300264929
 40
1.0
 40
1.0
 40
1.0
 40
1.0
 10
19.3423819145
 20
88.4916789687
 30
0.0
 10
19.3417630122
 20
88.4933990509
 30
0.0
 10
19.3468690818
 20
88.4963546266
 30
0.0
 10
19.3527857168
 20
88.4979785211
 30
0.0
 10
19.3622446238
 20
88.500157624
 30
0.0
 10
19.3742725074
 20
88.5020162278
 30
0.0
 10
19.396404325
 20
88.5048065053
 30
0.0
 10
19.4305283467
 20
88.5077033284
 30
0.0
 10
19.4778036923
 20
88.5103571367
 30
0.0
 10
19.5494242496
 20
88.5129074422
 30
0.0
 10
19.6049369015
 20
88.5135104189
 30
0.0
 10
19.642279112
 20
88.5134396774
 30
0.0
  0
SPLINE
  5
29B
100
AcDbEntity
  8
0
100
AcDbSpline
 62
7
  6
BYLAYER
 70
0
 71
3
 72
27
 73
23
 74
0
 42
0.0000001
 43
0.0000001
 44
0.0000000001
 40
0.0
 40
0.0
 40
0.0
 40
0.0
 40
0.0623984152
 40
0.0936477663
 40
0.1248903453
 40
0.1873242581
 40
0.2497883871
 40
0.2810696967
 40
0.3123600622
 40
0.374887287
 40
0.4374369728
 40
0.4999984923
 40
0.5625597506
 40
0.6251087587
 40
0.687635352
 40
0.7189256142
 40
0.7502070374
 40
0.8126720683
 40
0.8751070891
 40
0.9063504294
 40
0.9376007204
 40
1.0
 40
1.0
 40
1.0
 40
1.0
 10
43.8150614844
 20
49.4141891803
 30
0.0
 10
43.8150614844
 20
49.0231568191
 30
0.0
 10
43.8732606076
 20
48.434172204
 30
0.0
 10
44.0642236701
 20
47.6742447379
 30
0.0
 10
44.3289044795
 20
46.9362444379
 30
0.0
 10
44.794202584
 20
46.0678592086
 30
0.0
 10
45.4204959082
 20
45.3070363001
 30
0.0
 10
46.0026459488
 20
44.7809160638
 30
0.0
 10
46.6337485887
 20
44.3140118245
 30
0.0
 10
47.5044542251
 20
43.8497528186
 30
0.0
 10
48.6370441314
 20
43.5072021119
 30
0.0
 10
49.8150301441
 20
43.3914566073
 30
0.0
 10
50.9930126481
 20
43.5071903146
 30
0.0
 10
52.1255977742
 20
43.8497242557
 30
0.0
 10
52.9962981114
 20
44.3139723354
 30
0.0
 10
53.6274100134
 20
44.7808577192
 30
0.0
 10
54.2095660246
 20
45.3069802451
 30
0.0
 10
54.8358796886
 20
46.0678027749
 30
0.0
 10
55.3011973841
 20
46.9361980086
 30
0.0
 10
55.5658899667
 20
47.6742129385
 30
0.0
 10
55.7568584169
 20
48.4341556732
 30
0.0
 10
55.8150614844
 20
49.0231514021
 30
0.0
 10
55.8150614844
 20
49.4141891803
 30
0.0
  0
SPLINE
  5
29C
100
AcDbEntity
  8
0
100
AcDbSpline
 62
7
  6
BYLAYER
 70
0
 71
3
 72
27
 73
23
 74
0
 42
0.0000001
 43
0.0000001
 44
0.0000000001
 40
0.0
 40
0.0
 40
0.0
 40
0.0
 40
0.0623984152
 40
0.0936477663
 40
0.1248903453
 40
0.1873242581
 40
0.2497883871
 40
0.2810696967
 40
0.3123600622
 40
0.374887287
 40
0.4374369728
 40
0.4999984923
 40
0.5625597506
 40
0.6251087587
 40
0.687635352
 40
0.7189256142
 40
0.7502070374
 40
0.8126720683
 40
0.8751070891
 40
0.9063504294
 40
0.9376007204
 40
1.0
 40
1.0
 40
1.0
 40
1.0
 10
55.8150614844
 20
49.4141891803
 30
0.0
 10
55.8150614844
 20
49.8052215414
 30
0.0
 10
55.7568623612
 20
50.3942061565
 30
0.0
 10
55.5658992987
 20
51.1541336226
 30
0.0
 10
55.3012184894
 20
51.8921339226
 30
0.0
 10
54.8359203848
 20
52.7605191519
 30
0.0
 10
54.2096270606
 20
53.5213420605
 30
0.0
 10
53.62747702
 20
54.0474622967
 30
0.0
 10
52.9963743801
 20
54.5143665361
 30
0.0
 10
52.1256687437
 20
54.9786255419
 30
0.0
 10
50.9930788374
 20
55.3211762486
 30
0.0
 10
49.8150928248
 20
55.4369217532
 30
0.0
 10
48.6371103207
 20
55.3211880459
 30
0.0
 10
47.5045251946
 20
54.9786541048
 30
0.0
 10
46.6338248574
 20
54.5144060251
 30
0.0
 10
46.0027129554
 20
54.0475206414
 30
0.0
 10
45.4205569443
 20
53.5213981154
 30
0.0
 10
44.7942432802
 20
52.7605755857
 30
0.0
 10
44.3289255848
 20
51.8921803519
 30
0.0
 10
44.0642330021
 20
51.154165422
 30
0.0
 10
43.8732645519
 20
50.3942226873
 30
0.0
 10
43.8150614844
 20
49.8052269584
 30
0.0
 10
43.8150614844
 20
49.4141891803
 30
0.0
  0
SPLINE
  5
29D
100
AcDbEntity
  8
0
100
AcDbSpline
 62
7
  6
BYLAYER
 70
0
 71
3
 72
27
 73
23
 74
0
 42
0.0000001
 43
0.0000001
 44
0.0000000001
 40
0.0
 40
0.0
 40
0.0
 40
0.0
 40
0.0623984152
 40
0.0936477663
 40
0.1248903453
 40
0.1873242581
 40
0.2497883871
 40
0.2810696967
 40
0.3123600622
 40
0.374887287
 40
0.4374369728
 40
0.4999984923
 40
0.5625597506
 40
0.6251087587
 40
0.687635352
 40
0.7189256142
 40
0.7502070374
 40
0.8126720683
 40
0.8751070891
 40
0.9063504294
 40
0.9376007204
 40
1.0
 40
1.0
 40
1.0
 40
1.0
 10
23.8150614844
 20
49.4141891803
 30
0.0
 10
23.8150614844
 20
49.0231568191
 30
0.0
 10
23.8732606076
 20
48.434172204
 30
0.0
 10
24.0642236701
 20
47.6742447379
 30
0.0
 10
24.3289044795
 20
46.9362444379
 30
0.0
 10
24.794202584
 20
46.0678592086
 30
0.0
 10
25.4204959082
 20
45.3070363001
 30
0.0
 10
26.0026459488
 20
44.7809160638
 30
0.0
 10
26.6337485887
 20
44.3140118245
 30
0.0
 10
27.5044542251
 20
43.8497528186
 30
0.0
 10
28.6370441314
 20
43.5072021119
 30
0.0
 10
29.8150301441
 20
43.3914566073
 30
0.0
 10
30.9930126481
 20
43.5071903146
 30
0.0
 10
32.1255977742
 20
43.8497242557
 30
0.0
 10
32.9962981114
 20
44.3139723354
 30
0.0
 10
33.6274100134
 20
44.7808577192
 30
0.0
 10
34.2095660246
 20
45.3069802451
 30
0.0
 10
34.8358796886
 20
46.0678027749
 30
0.0
 10
35.3011973841
 20
46.9361980086
 30
0.0
 10
35.5658899667
 20
47.6742129385
 30
0.0
 10
35.7568584169
 20
48.4341556732
 30
0.0
 10
35.8150614844
 20
49.0231514021
 30
0.0
 10
35.8150614844
 20
49.4141891803
 30
0.0
  0
SPLINE
  5
29E
100
AcDbEntity
  8
0
100
AcDbSpline
 62
7
  6
BYLAYER
 70
0
 71
3
 72
27
 73
23
 74
0
 42
0.0000001
 43
0.0000001
 44
0.0000000001
 40
0.0
 40
0.0
 40
0.0
 40
0.0
 40
0.0623984152
 40
0.0936477663
 40
0.1248903453
 40
0.1873242581
 40
0.2497883871
 40
0.2810696967
 40
0.3123600622
 40
0.374887287
 40
0.4374369728
 40
0.4999984923
 40
0.5625597506
 40
0.6251087587
 40
0.687635352
 40
0.7189256142
 40
0.7502070374
 40
0.8126720683
 40
0.8751070891
 40
0.9063504294
 40
0.9376007204
 40
1.0
 40
1.0
 40
1.0
 40
1.0
 10
35.8150614844
 20
49.4141891803
 30
0.0
 10
35.8150614844
 20
49.8052215414
 30
0.0
 10
35.7568623612
 20
50.3942061565
 30
0.0
 10
35.5658992987
 20
51.1541336226
 30
0.0
 10
35.3012184894
 20
51.8921339226
 30
0.0
 10
34.8359203848
 20
52.7605191519
 30
0.0
 10
34.2096270606
 20
53.5213420605
 30
0.0
 10
33.62747702
 20
54.0474622967
 30
0.0
 10
32.9963743801
 20
54.5143665361
 30
0.0
 10
32.1256687437
 20
54.9786255419
 30
0.0
 10
30.9930788374
 20
55.3211762486
 30
0.0
 10
29.8150928248
 20
55.4369217532
 30
0.0
 10
28.6371103207
 20
55.3211880459
 30
0.0
 10
27.5045251946
 20
54.9786541048
 30
0.0
 10
26.6338248574
 20
54.5144060251
 30
0.0
 10
26.0027129554
 20
54.0475206414
 30
0.0
 10
25.4205569443
 20
53.5213981154
 30
0.0
 10
24.7942432802
 20
52.7605755857
 30
0.0
 10
24.3289255848
 20
51.8921803519
 30
0.0
 10
24.0642330021
 20
51.154165422
 30
0.0
 10
23.8732645519
 20
50.3942226873
 30
0.0
 10
23.8150614844
 20
49.8052269584
 30
0.0
 10
23.8150614844
 20
49.4141891803
 30
0.0
  0
SPLINE
  5
29F
100
AcDbEntity
  8
0
100
AcDbSpline
 62
7
  6
BYLAYER
 70
0
 71
3
 72
27
 73
23
 74
0
 42
0.0000001
 43
0.0000001
 44
0.0000000001
 40
0.0
 40
0.0
 40
0.0
 40
0.0
 40
0.0623983007
 40
0.0936476656
 40
0.1248903332
 40
0.1873243754
 40
0.2497887666
 40
0.281070248
 40
0.3123607714
 40
0.3748880658
 40
0.4374375695
 40
0.4999988039
 40
0.5625597702
 40
0.6251085638
 40
0.6876351382
 40
0.7189254845
 40
0.7502069966
 40
0.8126721158
 40
0.875107141
 40
0.9063505242
 40
0.9376008113
 40
1.0
 40
1.0
 40
1.0
 40
1.0
 10
56.3150614844
 20
49.3924284715
 30
0.0
 10
56.3150614844
 20
48.968810862
 30
0.0
 10
56.2520132499
 20
48.3307447756
 30
0.0
 10
56.0451358286
 20
47.5074903013
 30
0.0
 10
55.7583984649
 20
46.7079882825
 30
0.0
 10
55.2543237292
 20
45.7672346793
 30
0.0
 10
54.5758355706
 20
44.9430080205
 30
0.0
 10
53.9451698323
 20
44.3730419075
 30
0.0
 10
53.2614711759
 20
43.8672299815
 30
0.0
 10
52.3182060048
 20
43.3642836776
 30
0.0
 10
51.0912353286
 20
42.9931906526
 30
0.0
 10
49.8150889499
 20
42.8678015835
 30
0.0
 10
48.5389467897
 20
42.9931801651
 30
0.0
 10
47.3119828973
 20
43.3642570928
 30
0.0
 10
46.3687251687
 20
43.8671920584
 30
0.0
 10
45.685019172
 20
44.3729843658
 30
0.0
 10
45.0543488321
 20
44.942951629
 30
0.0
 10
44.3758412601
 20
45.7671767145
 30
0.0
 10
43.8717469434
 20
46.7079392614
 30
0.0
 10
43.5849971478
 20
47.5074558896
 30
0.0
 10
43.3781141427
 20
48.3307266888
 30
0.0
 10
43.3150614844
 20
48.9688048329
 30
0.0
 10
43.3150614844
 20
49.3924284715
 30
0.0
  0
SPLINE
  5
2A0
100
AcDbEntity
  8
0
100
AcDbSpline
 62
7
  6
BYLAYER
 70
0
 71
3
 72
27
 73
23
 74
0
 42
0.0000001
 43
0.0000001
 44
0.0000000001
 40
0.0
 40
0.0
 40
0.0
 40
0.0
 40
0.0623983007
 40
0.0936476656
 40
0.1248903332
 40
0.1873243754
 40
0.2497887666
 40
0.281070248
 40
0.3123607714
 40
0.3748880658
 40
0.4374375695
 40
0.4999988039
 40
0.5625597702
 40
0.6251085638
 40
0.6876351382
 40
0.7189254845
 40
0.7502069966
 40
0.8126721158
 40
0.875107141
 40
0.9063505242
 40
0.9376008113
 40
1.0
 40
1.0
 40
1.0
 40
1.0
 10
43.3150614844
 20
49.3924284715
 30
0.0
 10
43.3150614844
 20
49.8160460811
 30
0.0
 10
43.378109719
 20
50.4541121675
 30
0.0
 10
43.5849871402
 20
51.2773666417
 30
0.0
 10
43.871724504
 20
52.0768686605
 30
0.0
 10
44.3757992396
 20
53.0176222638
 30
0.0
 10
45.0542873983
 20
53.8418489226
 30
0.0
 10
45.6849531365
 20
54.4118150356
 30
0.0
 10
46.3686517929
 20
54.9176269615
 30
0.0
 10
47.311916964
 20
55.4205732654
 30
0.0
 10
48.5388876402
 20
55.7916662905
 30
0.0
 10
49.8150340189
 20
55.9170553595
 30
0.0
 10
51.0911761791
 20
55.7916767779
 30
0.0
 10
52.3181400715
 20
55.4205998502
 30
0.0
 10
53.2613978001
 20
54.9176648847
 30
0.0
 10
53.9451037968
 20
54.4118725773
 30
0.0
 10
54.5757741367
 20
53.8419053141
 30
0.0
 10
55.2542817087
 20
53.0176802285
 30
0.0
 10
55.7583760255
 20
52.0769176816
 30
0.0
 10
56.0451258211
 20
51.2774010534
 30
0.0
 10
56.2520088261
 20
50.4541302543
 30
0.0
 10
56.3150614844
 20
49.8160521102
 30
0.0
 10
56.3150614844
 20
49.3924284715
 30
0.0
  0
SPLINE
  5
2A1
100
AcDbEntity
  8
0
100
AcDbSpline
 62
7
  6
BYLAYER
 70
0
 71
3
 72
27
 73
23
 74
0
 42
0.0000001
 43
0.0000001
 44
0.0000000001
 40
0.0
 40
0.0
 40
0.0
 40
0.0
 40
0.0623983007
 40
0.0936476656
 40
0.1248903332
 40
0.1873243754
 40
0.2497887666
 40
0.281070248
 40
0.3123607714
 40
0.3748880658
 40
0.4374375695
 40
0.4999988039
 40
0.5625597702
 40
0.6251085638
 40
0.6876351382
 40
0.7189254845
 40
0.7502069966
 40
0.8126721158
 40
0.875107141
 40
0.9063505242
 40
0.9376008113
 40
1.0
 40
1.0
 40
1.0
 40
1.0
 10
36.3150614844
 20
49.3924284715
 30
0.0
 10
36.3150614844
 20
48.968810862
 30
0.0
 10
36.2520132499
 20
48.3307447756
 30
0.0
 10
36.0451358286
 20
47.5074903013
 30
0.0
 10
35.7583984649
 20
46.7079882825
 30
0.0
 10
35.2543237292
 20
45.7672346793
 30
0.0
 10
34.5758355706
 20
44.9430080205
 30
0.0
 10
33.9451698323
 20
44.3730419075
 30
0.0
 10
33.2614711759
 20
43.8672299815
 30
0.0
 10
32.3182060048
 20
43.3642836776
 30
0.0
 10
31.0912353286
 20
42.9931906526
 30
0.0
 10
29.8150889499
 20
42.8678015835
 30
0.0
 10
28.5389467897
 20
42.9931801651
 30
0.0
 10
27.3119828973
 20
43.3642570928
 30
0.0
 10
26.3687251687
 20
43.8671920584
 30
0.0
 10
25.685019172
 20
44.3729843658
 30
0.0
 10
25.0543488321
 20
44.942951629
 30
0.0
 10
24.3758412601
 20
45.7671767145
 30
0.0
 10
23.8717469434
 20
46.7079392614
 30
0.0
 10
23.5849971478
 20
47.5074558896
 30
0.0
 10
23.3781141427
 20
48.3307266888
 30
0.0
 10
23.3150614844
 20
48.9688048329
 30
0.0
 10
23.3150614844
 20
49.3924284715
 30
0.0
  0
SPLINE
  5
2A2
100
AcDbEntity
  8
0
100
AcDbSpline
 62
7
  6
BYLAYER
 70
0
 71
3
 72
27
 73
23
 74
0
 42
0.0000001
 43
0.0000001
 44
0.0000000001
 40
0.0
 40
0.0
 40
0.0
 40
0.0
 40
0.0623983007
 40
0.0936476656
 40
0.1248903332
 40
0.1873243754
 40
0.2497887666
 40
0.281070248
 40
0.3123607714
 40
0.3748880658
 40
0.4374375695
 40
0.4999988039
 40
0.5625597702
 40
0.6251085638
 40
0.6876351382
 40
0.7189254845
 40
0.7502069966
 40
0.8126721158
 40
0.875107141
 40
0.9063505242
 40
0.9376008113
 40
1.0
 40
1.0
 40
1.0
 40
1.0
 10
23.3150614844
 20
49.3924284715
 30
0.0
 10
23.3150614844
 20
49.8160460811
 30
0.0
 10
23.378109719
 20
50.4541121675
 30
0.0
 10
23.5849871402
 20
51.2773666417
 30
0.0
 10
23.871724504
 20
52.0768686605
 30
0.0
 10
24.3757992396
 20
53.0176222638
 30
0.0
 10
25.0542873983
 20
53.8418489226
 30
0.0
 10
25.6849531365
 20
54.4118150356
 30
0.0
 10
26.3686517929
 20
54.9176269615
 30
0.0
 10
27.311916964
 20
55.4205732654
 30
0.0
 10
28.5388876402
 20
55.7916662905
 30
0.0
 10
29.8150340189
 20
55.9170553595
 30
0.0
 10
31.0911761791
 20
55.7916767779
 30
0.0
 10
32.3181400715
 20
55.4205998502
 30
0.0
 10
33.2613978001
 20
54.9176648847
 30
0.0
 10
33.9451037968
 20
54.4118725773
 30
0.0
 10
34.5757741367
 20
53.8419053141
 30
0.0
 10
35.2542817087
 20
53.0176802285
 30
0.0
 10
35.7583760255
 20
52.0769176816
 30
0.0
 10
36.0451258211
 20
51.2774010534
 30
0.0
 10
36.2520088261
 20
50.4541302543
 30
0.0
 10
36.3150614844
 20
49.8160521102
 30
0.0
 10
36.3150614844
 20
49.3924284715
 30
0.0
  0
SPLINE
  5
2A3
100
AcDbEntity
  8
0
100
AcDbSpline
 62
7
  6
BYLAYER
 70
0
 71
3
 72
13
 73
9
 74
0
 42
0.0000001
 43
0.0000001
 44
0.0000000001
 40
0.0
 40
0.0
 40
0.0
 40
0.0
 40
0.2495822638
 40
0.4991726089
 40
0.6244354526
 40
0.7496449167
 40
0.8749653253
 40
1.0
 40
1.0
 40
1.0
 40
1.0
 10
20.3312996856
 20
89.2122583759
 30
0.0
 10
20.2417219324
 20
89.2114098639
 30
0.0
 10
20.0617170792
 20
89.1675456168
 30
0.0
 10
19.8748936239
 20
89.0351579553
 30
0.0
 10
19.7602521578
 20
88.8959935317
 30
0.0
 10
19.69424279
 20
88.7774180554
 30
0.0
 10
19.6523677847
 20
88.6484122184
 30
0.0
 10
19.6423395272
 20
88.5583179367
 30
0.0
 10
19.642279112
 20
88.5134396774
 30
0.0
  0
ENDSEC
  0
SECTION
  2
OBJECTS
  0
DICTIONARY
  5
C
100
AcDbDictionary
280
0
281
1
  3
ACAD_GROUP
350
D
  3
ACAD_MLINESTYLE
350
17
  3
ACAD_LAYOUT
350
1A
  3
ACAD_PLOTSETTINGS
350
19
  3
ACAD_PLOTSTYLENAME
350
E
  0
DICTIONARY
  5
D
102
{ACAD_REACTORS
330
C
102
}
100
AcDbDictionary
280
0
281
1
  0
ACDBDICTIONARYWDFLT
  5
E
102
{ACAD_REACTORS
330
C
102
}
100
AcDbDictionary
281
1
  3
Normal
350
F
100
AcDbDictionaryWithDefault
340
F
  0
DICTIONARY
  5
17
102
{ACAD_REACTORS
330
C
102
}
100
AcDbDictionary
280
0
281
1
  3
Standard
350
18
  0
DICTIONARY
  5
19
102
{ACAD_REACTORS
330
C
102
}
100
AcDbDictionary
281
1
  0
DICTIONARY
  5
1A
102
{ACAD_REACTORS
330
C
102
}
100
AcDbDictionary
281
1
  3
Model
350
2A4
  3
Layout1
350
2A5
  0
ACDBPLACEHOLDER
  5
F
102
{ACAD_REACTORS
330
E
102
}
  0
MLINESTYLE
  5
18
102
{ACAD_REACTORS
330
17
102
}
100
AcDbMlineStyle
  2
STANDARD
 70
0
  3

 62
256
 51
90.0
 52
90.0
 71
2
 49
0.5
 62
256
  6
BYLAYER
 49
-0.5
 62
256
  6
BYLAYER
  0
LAYOUT
  5
2A4
102
{ACAD_REACTORS
330
1A
102
}
100
AcDbPlotSettings
  1

  2
none_device
  4

  6

 40
0.0
 41
0.0
 42
0.0
 43
0.0
 44
210.0
 45
297.0
 46
0.0
 47
0.0
 48
0.0
 49
0.0
140
0.0
141
0.0
142
1.0
143
1.0
 70
1024
 72
1
 73
0
 74
0
  7

 75
0
147
1.0
148
0.0
149
0.0
100
AcDbLayout
  1
Model
 70
0
 71
0
 10
0.0
 20
0.0
 11
210.0
 21
297.0
 12
0.0
 22
0.0
 32
0.0
 14
0.0
 24
0.0
 34
0.0
 15
0.0
 25
0.0
 35
0.0
146
0.0
 13
0.0
 23
0.0
 33
0.0
 16
1.0
 26
0.0
 36
0.0
 17
0.0
 27
1.0
 37
0.0
 76
0
330
210
345
0
346
0
  0
LAYOUT
  5
2A5
102
{ACAD_REACTORS
330
1A
102
}
100
AcDbPlotSettings
  1

  2
none_device
  4

  6

 40
0.0
 41
0.0
 42
0.0
 43
0.0
 44
210.0
 45
297.0
 46
0.0
 47
0.0
 48
0.0
 49
0.0
140
0.0
141
0.0
142
1.0
143
1.0
 70
0
 72
1
 73
0
 74
0
  7

 75
0
147
1.0
148
0.0
149
0.0
100
AcDbLayout
  1
Layout1
 70
0
 71
1
 10
0.0
 20
0.0
 11
210.0
 21
297.0
 12
0.0
 22
0.0
 32
0.0
 14
0.0
 24
0.0
 34
0.0
 15
0.0
 25
0.0
 35
0.0
146
0.0
 13
0.0
 23
0.0
 33
0.0
 16
1.0
 26
0.0
 36
0.0
 17
0.0
 27
1.0
 37
0.0
 76
0
330
211
345
0
346
0
  0
ENDSEC
  0
EOF
